  0
SECTION
  2
HEADER
  9
$ACADVER
  1
AC1015
  9
$ACADMAINTVER
 70
     6
  9
$DWGCODEPAGE
  3
ANSI_1252
  9
$INSBASE
 10
0.0
 20
0.0
 30
0.0
  9
$EXTMIN
 10
0.0
 20
0.24735
 30
0.0
  9
$EXTMAX
 10
700.0
 20
299.75265
 30
0.0
  9
$LIMMIN
 10
0.0
 20
0.0
  9
$LIMMAX
 10
12.0
 20
9.0
  9
$ORTHOMODE
 70
     0
  9
$REGENMODE
 70
     1
  9
$FILLMODE
 70
     1
  9
$QTEXTMODE
 70
     0
  9
$MIRRTEXT
 70
     1
  9
$LTSCALE
 40
1.0
  9
$ATTMODE
 70
     1
  9
$TEXTSIZE
 40
0.2
  9
$TRACEWID
 40
0.05
  9
$TEXTSTYLE
  7
Standard
  9
$CLAYER
  8
0
  9
$CELTYPE
  6
ByBlock
  9
$CECOLOR
 62
   256
  9
$CELTSCALE
 40
1.0
  9
$DISPSILH
 70
     0
  9
$DIMSCALE
 40
1.0
  9
$DIMASZ
 40
0.18
  9
$DIMEXO
 40
0.0625
  9
$DIMDLI
 40
0.38
  9
$DIMRND
 40
0.0
  9
$DIMDLE
 40
0.0
  9
$DIMEXE
 40
0.18
  9
$DIMTP
 40
0.0
  9
$DIMTM
 40
0.0
  9
$DIMTXT
 40
0.18
  9
$DIMCEN
 40
0.09
  9
$DIMTSZ
 40
0.0
  9
$DIMTOL
 70
     0
  9
$DIMLIM
 70
     0
  9
$DIMTIH
 70
     1
  9
$DIMTOH
 70
     1
  9
$DIMSE1
 70
     0
  9
$DIMSE2
 70
     0
  9
$DIMTAD
 70
     0
  9
$DIMZIN
 70
     0
  9
$DIMBLK
  1

  9
$DIMASO
 70
     1
  9
$DIMSHO
 70
     1
  9
$DIMPOST
  1

  9
$DIMAPOST
  1

  9
$DIMALT
 70
     0
  9
$DIMALTD
 70
     2
  9
$DIMALTF
 40
25.4
  9
$DIMLFAC
 40
1.0
  9
$DIMTOFL
 70
     0
  9
$DIMTVP
 40
0.0
  9
$DIMTIX
 70
     0
  9
$DIMSOXD
 70
     0
  9
$DIMSAH
 70
     0
  9
$DIMBLK1
  1

  9
$DIMBLK2
  1

  9
$DIMSTYLE
  2
Standard
  9
$DIMCLRD
 70
     0
  9
$DIMCLRE
 70
     0
  9
$DIMCLRT
 70
     0
  9
$DIMTFAC
 40
1.0
  9
$DIMGAP
 40
0.09
  9
$DIMJUST
 70
     0
  9
$DIMSD1
 70
     0
  9
$DIMSD2
 70
     0
  9
$DIMTOLJ
 70
     1
  9
$DIMTZIN
 70
     0
  9
$DIMALTZ
 70
     0
  9
$DIMALTTZ
 70
     0
  9
$DIMUPT
 70
     0
  9
$DIMDEC
 70
     4
  9
$DIMTDEC
 70
     4
  9
$DIMALTU
 70
     2
  9
$DIMALTTD
 70
     2
  9
$DIMTXSTY
  7
Standard
  9
$DIMAUNIT
 70
     0
  9
$DIMADEC
 70
     0
  9
$DIMALTRND
 40
0.0
  9
$DIMAZIN
 70
     0
  9
$DIMDSEP
 70
    46
  9
$DIMATFIT
 70
     3
  9
$DIMFRAC
 70
     0
  9
$DIMLDRBLK
  1

  9
$DIMLUNIT
 70
     2
  9
$DIMLWD
 70
    -2
  9
$DIMLWE
 70
    -2
  9
$DIMTMOVE
 70
     2
  9
$LUNITS
 70
     2
  9
$LUPREC
 70
     4
  9
$SKETCHINC
 40
0.1
  9
$FILLETRAD
 40
0.5
  9
$AUNITS
 70
     0
  9
$AUPREC
 70
     0
  9
$MENU
  1
.
  9
$ELEVATION
 40
0.0
  9
$PELEVATION
 40
0.0
  9
$THICKNESS
 40
0.0
  9
$LIMCHECK
 70
     0
  9
$CHAMFERA
 40
0.5
  9
$CHAMFERB
 40
0.5
  9
$CHAMFERC
 40
1.0
  9
$CHAMFERD
 40
0.0
  9
$SKPOLY
 70
     0
  9
$TDCREATE
 40
2456184.914835139
  9
$TDUCREATE
 40
2456184.831501806
  9
$TDUPDATE
 40
2456184.915857454
  9
$TDUUPDATE
 40
2456184.83252412
  9
$TDINDWG
 40
0.0010217824
  9
$TDUSRTIMER
 40
0.0010217824
  9
$USRTIMER
 70
     1
  9
$ANGBASE
 50
0.0
  9
$ANGDIR
 70
     0
  9
$PDMODE
 70
     0
  9
$PDSIZE
 40
0.0
  9
$PLINEWID
 40
0.0
  9
$SPLFRAME
 70
     0
  9
$SPLINETYPE
 70
     6
  9
$SPLINESEGS
 70
     8
  9
$HANDSEED
  5
1AFA
  9
$SURFTAB1
 70
     6
  9
$SURFTAB2
 70
     6
  9
$SURFTYPE
 70
     6
  9
$SURFU
 70
     6
  9
$SURFV
 70
     6
  9
$UCSBASE
  2

  9
$UCSNAME
  2

  9
$UCSORG
 10
0.0
 20
0.0
 30
0.0
  9
$UCSXDIR
 10
1.0
 20
0.0
 30
0.0
  9
$UCSYDIR
 10
0.0
 20
1.0
 30
0.0
  9
$UCSORTHOREF
  2

  9
$UCSORTHOVIEW
 70
     0
  9
$UCSORGTOP
 10
0.0
 20
0.0
 30
0.0
  9
$UCSORGBOTTOM
 10
0.0
 20
0.0
 30
0.0
  9
$UCSORGLEFT
 10
0.0
 20
0.0
 30
0.0
  9
$UCSORGRIGHT
 10
0.0
 20
0.0
 30
0.0
  9
$UCSORGFRONT
 10
0.0
 20
0.0
 30
0.0
  9
$UCSORGBACK
 10
0.0
 20
0.0
 30
0.0
  9
$PUCSBASE
  2

  9
$PUCSNAME
  2

  9
$PUCSORG
 10
0.0
 20
0.0
 30
0.0
  9
$PUCSXDIR
 10
1.0
 20
0.0
 30
0.0
  9
$PUCSYDIR
 10
0.0
 20
1.0
 30
0.0
  9
$PUCSORTHOREF
  2

  9
$PUCSORTHOVIEW
 70
     0
  9
$PUCSORGTOP
 10
0.0
 20
0.0
 30
0.0
  9
$PUCSORGBOTTOM
 10
0.0
 20
0.0
 30
0.0
  9
$PUCSORGLEFT
 10
0.0
 20
0.0
 30
0.0
  9
$PUCSORGRIGHT
 10
0.0
 20
0.0
 30
0.0
  9
$PUCSORGFRONT
 10
0.0
 20
0.0
 30
0.0
  9
$PUCSORGBACK
 10
0.0
 20
0.0
 30
0.0
  9
$USERI1
 70
     0
  9
$USERI2
 70
     0
  9
$USERI3
 70
     0
  9
$USERI4
 70
     0
  9
$USERI5
 70
     0
  9
$USERR1
 40
0.0
  9
$USERR2
 40
0.0
  9
$USERR3
 40
0.0
  9
$USERR4
 40
0.0
  9
$USERR5
 40
0.0
  9
$WORLDVIEW
 70
     1
  9
$SHADEDGE
 70
     3
  9
$SHADEDIF
 70
    70
  9
$TILEMODE
 70
     1
  9
$MAXACTVP
 70
    64
  9
$PINSBASE
 10
0.0
 20
0.0
 30
0.0
  9
$PLIMCHECK
 70
     0
  9
$PEXTMIN
 10
1.000000000000E+20
 20
1.000000000000E+20
 30
1.000000000000E+20
  9
$PEXTMAX
 10
-1.000000000000E+20
 20
-1.000000000000E+20
 30
-1.000000000000E+20
  9
$PLIMMIN
 10
0.0
 20
0.0
  9
$PLIMMAX
 10
12.0
 20
9.0
  9
$UNITMODE
 70
     0
  9
$VISRETAIN
 70
     1
  9
$PLINEGEN
 70
     0
  9
$PSLTSCALE
 70
     1
  9
$TREEDEPTH
 70
  3020
  9
$CMLSTYLE
  2
Standard
  9
$CMLJUST
 70
     0
  9
$CMLSCALE
 40
1.0
  9
$PROXYGRAPHICS
 70
     1
  9
$MEASUREMENT
 70
     0
  9
$CELWEIGHT
370
    -1
  9
$ENDCAPS
280
     0
  9
$JOINSTYLE
280
     0
  9
$LWDISPLAY
290
     0
  9
$INSUNITS
 70
     0
  9
$HYPERLINKBASE
  1

  9
$STYLESHEET
  1

  9
$XEDIT
290
     1
  9
$CEPSNTYPE
380
     0
  9
$PSTYLEMODE
290
     1
  9
$FINGERPRINTGUID
  2
{E5F793F9-0956-4A62-A827-D81B5E1EBB84}
  9
$VERSIONGUID
  2
{FAEB1C32-E019-11D5-929B-00C0DF256EC4}
  9
$EXTNAMES
290
     1
  9
$PSVPSCALE
 40
0.0
  9
$OLESTARTUP
290
     0
  0
ENDSEC
  0
SECTION
  2
CLASSES
  0
CLASS
  1
ACDBDICTIONARYWDFLT
  2
AcDbDictionaryWithDefault
  3
ObjectDBX Classes
 90
        0
280
     0
281
     0
  0
CLASS
  1
SCALE
  2
AcDbScale
  3
ObjectDBX Classes
 90
     1153
280
     0
281
     0
  0
CLASS
  1
DICTIONARYVAR
  2
AcDbDictionaryVar
  3
ObjectDBX Classes
 90
        0
280
     0
281
     0
  0
CLASS
  1
ACDBPLACEHOLDER
  2
AcDbPlaceHolder
  3
ObjectDBX Classes
 90
        0
280
     0
281
     0
  0
CLASS
  1
LAYOUT
  2
AcDbLayout
  3
ObjectDBX Classes
 90
        0
280
     0
281
     0
  0
ENDSEC
  0
SECTION
  2
TABLES
  0
TABLE
  2
VPORT
  5
8
330
0
100
AcDbSymbolTable
 70
     1
  0
VPORT
  5
CBC
330
8
100
AcDbSymbolTableRecord
100
AcDbViewportTableRecord
  2
*Active
 70
     0
 10
0.0
 20
0.0
 11
1.0
 21
1.0
 12
350.0
 22
149.876325
 13
0.0
 23
0.0
 14
0.5
 24
0.5
 15
0.5
 25
0.5
 16
0.0
 26
0.0
 36
1.0
 17
0.0
 27
0.0
 37
0.0
 40
383.728687916976
 41
1.860689655172
 42
50.0
 43
0.0
 44
0.0
 50
0.0
 51
0.0
 71
    16
 72
   100
 73
     1
 74
     3
 75
     0
 76
     0
 77
     0
 78
     0
281
     0
 65
     1
110
0.0
120
0.0
130
0.0
111
1.0
121
0.0
131
0.0
112
0.0
122
1.0
132
0.0
 79
     0
146
0.0
  0
ENDTAB
  0
TABLE
  2
LTYPE
  5
5
330
0
100
AcDbSymbolTable
 70
     1
  0
LTYPE
  5
14
330
5
100
AcDbSymbolTableRecord
100
AcDbLinetypeTableRecord
  2
ByBlock
 70
     0
  3

 72
    65
 73
     0
 40
0.0
  0
LTYPE
  5
15
330
5
100
AcDbSymbolTableRecord
100
AcDbLinetypeTableRecord
  2
ByLayer
 70
     0
  3

 72
    65
 73
     0
 40
0.0
  0
LTYPE
  5
16
330
5
100
AcDbSymbolTableRecord
100
AcDbLinetypeTableRecord
  2
Continuous
 70
     0
  3
Solid line
 72
    65
 73
     0
 40
0.0
  0
ENDTAB
  0
TABLE
  2
LAYER
  5
2
330
0
100
AcDbSymbolTable
 70
     1
  0
LAYER
  5
10
330
2
100
AcDbSymbolTableRecord
100
AcDbLayerTableRecord
  2
0
 70
     0
 62
     7
  6
Continuous
370
    -3
390
F
  0
ENDTAB
  0
TABLE
  2
STYLE
  5
3
330
0
100
AcDbSymbolTable
 70
     1
  0
STYLE
  5
11
330
3
100
AcDbSymbolTableRecord
100
AcDbTextStyleTableRecord
  2
Standard
 70
     0
 40
0.0
 41
1.0
 50
0.0
 71
     0
 42
0.2
  3
txt
  4

  0
ENDTAB
  0
TABLE
  2
VIEW
  5
6
330
0
100
AcDbSymbolTable
 70
     0
  0
ENDTAB
  0
TABLE
  2
UCS
  5
7
330
0
100
AcDbSymbolTable
 70
     0
  0
ENDTAB
  0
TABLE
  2
APPID
  5
9
330
0
100
AcDbSymbolTable
 70
     1
  0
APPID
  5
12
330
9
100
AcDbSymbolTableRecord
100
AcDbRegAppTableRecord
  2
ACAD
 70
     0
  0
ENDTAB
  0
TABLE
  2
DIMSTYLE
  5
A
330
0
100
AcDbSymbolTable
 70
     1
100
AcDbDimStyleTable
  0
DIMSTYLE
105
20
330
A
100
AcDbSymbolTableRecord
100
AcDbDimStyleTableRecord
  2
Standard
 70
     0
340
11
  0
ENDTAB
  0
TABLE
  2
BLOCK_RECORD
  5
1
330
0
100
AcDbSymbolTable
 70
     1
  0
BLOCK_RECORD
  5
1D
330
1
100
AcDbSymbolTableRecord
100
AcDbBlockTableRecord
  2
*Model_Space
340
1E
  0
BLOCK_RECORD
  5
1B
330
1
100
AcDbSymbolTableRecord
100
AcDbBlockTableRecord
  2
*Paper_Space
340
1C
  0
ENDTAB
  0
ENDSEC
  0
SECTION
  2
BLOCKS
  0
BLOCK
  5
CBF
330
1D
100
AcDbEntity
  8
0
100
AcDbBlockBegin
  2
*Model_Space
 70
     0
 10
0.0
 20
0.0
 30
0.0
  3
*Model_Space
  1
*Model_Space
  0
ENDBLK
  5
CC0
330
1D
100
AcDbEntity
  8
0
100
AcDbBlockEnd
  0
BLOCK
  5
CBD
330
1B
100
AcDbEntity
 67
     1
  8
0
100
AcDbBlockBegin
  2
*Paper_Space
 70
     0
 10
0.0
 20
0.0
 30
0.0
  3
*Paper_Space
  1
*Paper_Space
  0
ENDBLK
  5
CBE
330
1B
100
AcDbEntity
 67
     1
  8
0
100
AcDbBlockEnd
  0
ENDSEC
  0
SECTION
  2
ENTITIES
  0
LINE
  5
4E
330
1D
100
AcDbEntity
  8
0
100
AcDbLine
 10
70.0
 20
142.25265
 30
0.0
 11
173.0
 21
142.25265
 31
0.0
  0
LINE
  5
4F
330
1D
100
AcDbEntity
  8
0
100
AcDbLine
 10
70.0
 20
142.25265
 30
0.0
 11
173.0
 21
142.25265
 31
0.0
  0
LINE
  5
50
330
1D
100
AcDbEntity
  8
0
100
AcDbLine
 10
70.0
 20
142.25265
 30
0.0
 11
70.0
 21
287.25265
 31
0.0
  0
LINE
  5
51
330
1D
100
AcDbEntity
  8
0
100
AcDbLine
 10
0.0
 20
99.75265
 30
0.0
 11
0.0
 21
299.75265
 31
0.0
  0
LINE
  5
52
330
1D
100
AcDbEntity
  8
0
100
AcDbLine
 10
0.0
 20
99.75265
 30
0.0
 11
176.36
 21
99.75265
 31
0.0
  0
LINE
  5
53
330
1D
100
AcDbEntity
  8
0
100
AcDbLine
 10
0.0
 20
99.75265
 30
0.0
 11
126.65
 21
142.25265
 31
0.0
  0
LINE
  5
54
330
1D
100
AcDbEntity
  8
0
100
AcDbLine
 10
0.0
 20
99.75265
 30
0.0
 11
126.65
 21
142.25265
 31
0.0
  0
LINE
  5
B7
330
1D
100
AcDbEntity
  8
0
100
AcDbLine
 10
70.0
 20
287.25265
 30
0.0
 11
630.0
 21
287.25265
 31
0.0
  0
LINE
  5
B8
330
1D
100
AcDbEntity
  8
0
100
AcDbLine
 10
92.0
 20
289.25265
 30
0.0
 11
92.0
 21
287.25265
 31
0.0
  0
LINE
  5
B9
330
1D
100
AcDbEntity
  8
0
100
AcDbLine
 10
92.0
 20
289.25265
 30
0.0
 11
118.0
 21
289.25265
 31
0.0
  0
LINE
  5
BA
330
1D
100
AcDbEntity
  8
0
100
AcDbLine
 10
92.0
 20
295.25265
 30
0.0
 11
92.0
 21
287.25265
 31
0.0
  0
LINE
  5
BB
330
1D
100
AcDbEntity
  8
0
100
AcDbLine
 10
92.0
 20
295.25265
 30
0.0
 11
118.0
 21
295.25265
 31
0.0
  0
LINE
  5
BC
330
1D
100
AcDbEntity
  8
0
100
AcDbLine
 10
90.0
 20
287.25265
 30
0.0
 11
90.0
 21
297.25265
 31
0.0
  0
LINE
  5
BD
330
1D
100
AcDbEntity
  8
0
100
AcDbLine
 10
92.0
 20
295.25265
 30
0.0
 11
118.0
 21
295.25265
 31
0.0
  0
LINE
  5
BE
330
1D
100
AcDbEntity
  8
0
100
AcDbLine
 10
120.0
 20
295.25265
 30
0.0
 11
580.0
 21
295.25265
 31
0.0
  0
LINE
  5
BF
330
1D
100
AcDbEntity
  8
0
100
AcDbLine
 10
118.0
 20
289.25265
 30
0.0
 11
118.0
 21
287.25265
 31
0.0
  0
LINE
  5
C0
330
1D
100
AcDbEntity
  8
0
100
AcDbLine
 10
118.0
 20
287.25265
 30
0.0
 11
118.0
 21
295.25265
 31
0.0
  0
LINE
  5
C1
330
1D
100
AcDbEntity
  8
0
100
AcDbLine
 10
118.0
 20
287.25265
 30
0.0
 11
118.0
 21
289.25265
 31
0.0
  0
LINE
  5
C2
330
1D
100
AcDbEntity
  8
0
100
AcDbLine
 10
120.0
 20
295.25265
 30
0.0
 11
580.0
 21
295.25265
 31
0.0
  0
LINE
  5
C3
330
1D
100
AcDbEntity
  8
0
100
AcDbLine
 10
120.0
 20
287.25265
 30
0.0
 11
120.0
 21
297.25265
 31
0.0
  0
LINE
  5
C4
330
1D
100
AcDbEntity
  8
0
100
AcDbLine
 10
120.0
 20
297.25265
 30
0.0
 11
120.0
 21
287.25265
 31
0.0
  0
LINE
  5
C5
330
1D
100
AcDbEntity
  8
0
100
AcDbLine
 10
118.0
 20
295.25265
 30
0.0
 11
120.0
 21
297.25265
 31
0.0
  0
LINE
  5
C6
330
1D
100
AcDbEntity
  8
0
100
AcDbLine
 10
118.0
 20
295.25265
 30
0.0
 11
118.0
 21
287.25265
 31
0.0
  0
LINE
  5
C7
330
1D
100
AcDbEntity
  8
0
100
AcDbLine
 10
92.0
 20
287.25265
 30
0.0
 11
92.0
 21
295.25265
 31
0.0
  0
LINE
  5
C8
330
1D
100
AcDbEntity
  8
0
100
AcDbLine
 10
92.0
 20
287.25265
 30
0.0
 11
92.0
 21
289.25265
 31
0.0
  0
LINE
  5
C9
330
1D
100
AcDbEntity
  8
0
100
AcDbLine
 10
90.0
 20
297.25265
 30
0.0
 11
90.0
 21
287.25265
 31
0.0
  0
LINE
  5
CA
330
1D
100
AcDbEntity
  8
0
100
AcDbLine
 10
90.0
 20
297.25265
 30
0.0
 11
92.0
 21
295.25265
 31
0.0
  0
LINE
  5
CB
330
1D
100
AcDbEntity
  8
0
100
AcDbLine
 10
90.0
 20
297.25265
 30
0.0
 11
120.0
 21
297.25265
 31
0.0
  0
LINE
  5
CC
330
1D
100
AcDbEntity
  8
0
100
AcDbLine
 10
70.0
 20
287.25265
 30
0.0
 11
70.0
 21
142.25265
 31
0.0
  0
LINE
  5
CD
330
1D
100
AcDbEntity
  8
0
100
AcDbLine
 10
70.0
 20
287.25265
 30
0.0
 11
630.0
 21
287.25265
 31
0.0
  0
LINE
  5
CE
330
1D
100
AcDbEntity
  8
0
100
AcDbLine
 10
0.0
 20
299.75265
 30
0.0
 11
700.0
 21
299.75265
 31
0.0
  0
LINE
  5
CF
330
1D
100
AcDbEntity
  8
0
100
AcDbLine
 10
0.0
 20
299.75265
 30
0.0
 11
0.0
 21
99.75265
 31
0.0
  0
LINE
  5
D0
330
1D
100
AcDbEntity
  8
0
100
AcDbLine
 10
0.0
 20
299.75265
 30
0.0
 11
70.0
 21
276.262717114094
 31
0.0
  0
LINE
  5
183
330
1D
100
AcDbEntity
  8
0
100
AcDbLine
 10
178.5766
 20
0.71005
 30
0.0
 11
185.0
 21
0.24735
 31
0.0
  0
LINE
  5
1AC
330
1D
100
AcDbEntity
  8
0
100
AcDbLine
 10
193.64
 20
99.75265
 30
0.0
 11
484.545074026402
 21
99.75265
 31
0.0
  0
LINE
  5
1AD
330
1D
100
AcDbEntity
  8
0
100
AcDbLine
 10
193.64
 20
99.75265
 30
0.0
 11
484.545074026402
 21
99.75265
 31
0.0
  0
LINE
  5
1C9
330
1D
100
AcDbEntity
  8
0
100
AcDbLine
 10
197.0
 20
142.25265
 30
0.0
 11
479.774040855718
 21
142.25265
 31
0.0
  0
LINE
  5
1CE
330
1D
100
AcDbEntity
  8
0
100
AcDbLine
 10
197.0
 20
142.25265
 30
0.0
 11
479.774040855718
 21
142.25265
 31
0.0
  0
LINE
  5
678
330
1D
100
AcDbEntity
  8
0
100
AcDbLine
 10
529.306339731074
 20
142.25265
 30
0.0
 11
630.0
 21
142.25265
 31
0.0
  0
LINE
  5
679
330
1D
100
AcDbEntity
  8
0
100
AcDbLine
 10
529.255171181873
 20
99.75265
 30
0.0
 11
700.0
 21
99.75265
 31
0.0
  0
LINE
  5
67F
330
1D
100
AcDbEntity
  8
0
100
AcDbLine
 10
630.0
 20
142.25265
 30
0.0
 11
630.0
 21
287.25265
 31
0.0
  0
LINE
  5
680
330
1D
100
AcDbEntity
  8
0
100
AcDbLine
 10
573.35
 20
142.25265
 30
0.0
 11
700.0
 21
99.75265
 31
0.0
  0
LINE
  5
681
330
1D
100
AcDbEntity
  8
0
100
AcDbLine
 10
573.35
 20
142.25265
 30
0.0
 11
700.0
 21
99.75265
 31
0.0
  0
LINE
  5
682
330
1D
100
AcDbEntity
  8
0
100
AcDbLine
 10
700.0
 20
99.75265
 30
0.0
 11
700.0
 21
299.75265
 31
0.0
  0
LINE
  5
C98
330
1D
100
AcDbEntity
  8
0
100
AcDbLine
 10
582.0
 20
287.25265
 30
0.0
 11
582.0
 21
295.25265
 31
0.0
  0
LINE
  5
C99
330
1D
100
AcDbEntity
  8
0
100
AcDbLine
 10
582.0
 20
287.25265
 30
0.0
 11
582.0
 21
289.25265
 31
0.0
  0
LINE
  5
C9A
330
1D
100
AcDbEntity
  8
0
100
AcDbLine
 10
608.0
 20
287.25265
 30
0.0
 11
608.0
 21
295.25265
 31
0.0
  0
LINE
  5
C9B
330
1D
100
AcDbEntity
  8
0
100
AcDbLine
 10
608.0
 20
287.25265
 30
0.0
 11
608.0
 21
289.25265
 31
0.0
  0
LINE
  5
C9C
330
1D
100
AcDbEntity
  8
0
100
AcDbLine
 10
610.0
 20
287.25265
 30
0.0
 11
610.0
 21
297.25265
 31
0.0
  0
LINE
  5
C9D
330
1D
100
AcDbEntity
  8
0
100
AcDbLine
 10
582.0
 20
289.25265
 30
0.0
 11
608.0
 21
289.25265
 31
0.0
  0
LINE
  5
C9E
330
1D
100
AcDbEntity
  8
0
100
AcDbLine
 10
582.0
 20
289.25265
 30
0.0
 11
582.0
 21
287.25265
 31
0.0
  0
LINE
  5
C9F
330
1D
100
AcDbEntity
  8
0
100
AcDbLine
 10
580.0
 20
297.25265
 30
0.0
 11
610.0
 21
297.25265
 31
0.0
  0
LINE
  5
CA0
330
1D
100
AcDbEntity
  8
0
100
AcDbLine
 10
580.0
 20
297.25265
 30
0.0
 11
582.0
 21
295.25265
 31
0.0
  0
LINE
  5
CA1
330
1D
100
AcDbEntity
  8
0
100
AcDbLine
 10
580.0
 20
297.25265
 30
0.0
 11
580.0
 21
287.25265
 31
0.0
  0
LINE
  5
CA2
330
1D
100
AcDbEntity
  8
0
100
AcDbLine
 10
608.0
 20
289.25265
 30
0.0
 11
608.0
 21
287.25265
 31
0.0
  0
LINE
  5
CA3
330
1D
100
AcDbEntity
  8
0
100
AcDbLine
 10
608.0
 20
289.25265
 30
0.0
 11
608.0
 21
295.25265
 31
0.0
  0
LINE
  5
CA4
330
1D
100
AcDbEntity
  8
0
100
AcDbLine
 10
608.0
 20
295.25265
 30
0.0
 11
610.0
 21
297.25265
 31
0.0
  0
LINE
  5
CA5
330
1D
100
AcDbEntity
  8
0
100
AcDbLine
 10
608.0
 20
295.25265
 30
0.0
 11
608.0
 21
287.25265
 31
0.0
  0
LINE
  5
CA6
330
1D
100
AcDbEntity
  8
0
100
AcDbLine
 10
608.0
 20
295.25265
 30
0.0
 11
608.0
 21
289.25265
 31
0.0
  0
LINE
  5
CA7
330
1D
100
AcDbEntity
  8
0
100
AcDbLine
 10
582.0
 20
295.25265
 30
0.0
 11
608.0
 21
295.25265
 31
0.0
  0
LINE
  5
CA8
330
1D
100
AcDbEntity
  8
0
100
AcDbLine
 10
582.0
 20
295.25265
 30
0.0
 11
582.0
 21
287.25265
 31
0.0
  0
LINE
  5
CA9
330
1D
100
AcDbEntity
  8
0
100
AcDbLine
 10
630.0
 20
287.25265
 30
0.0
 11
630.0
 21
142.25265
 31
0.0
  0
LINE
  5
CAA
330
1D
100
AcDbEntity
  8
0
100
AcDbLine
 10
630.0
 20
276.262717114094
 30
0.0
 11
700.0
 21
299.75265
 31
0.0
  0
LINE
  5
CAB
330
1D
100
AcDbEntity
  8
0
100
AcDbLine
 10
700.0
 20
299.75265
 30
0.0
 11
700.0
 21
99.75265
 31
0.0
  0
LINE
  5
13ED
330
1D
100
AcDbEntity
  8
0
100
AcDbLine
 10
135.5109
 20
39.74085
 30
0.0
 11
136.8248
 21
33.85315
 31
0.0
  0
LINE
  5
13EE
330
1D
100
AcDbEntity
  8
0
100
AcDbLine
 10
135.5109
 20
48.61575
 30
0.0
 11
136.8248
 21
42.72805
 31
0.0
  0
LINE
  5
13EF
330
1D
100
AcDbEntity
  8
0
100
AcDbLine
 10
135.0
 20
45.56255
 30
0.0
 11
135.0
 21
54.43755
 31
0.0
  0
LINE
  5
13F0
330
1D
100
AcDbEntity
  8
0
100
AcDbLine
 10
135.0
 20
45.56255
 30
0.0
 11
135.5109
 21
39.74085
 31
0.0
  0
LINE
  5
13F1
330
1D
100
AcDbEntity
  8
0
100
AcDbLine
 10
135.5109
 20
60.25905
 30
0.0
 11
136.8248
 21
66.14665
 31
0.0
  0
LINE
  5
13F2
330
1D
100
AcDbEntity
  8
0
100
AcDbLine
 10
135.0
 20
54.43755
 30
0.0
 11
135.5109
 21
60.25905
 31
0.0
  0
LINE
  5
13F3
330
1D
100
AcDbEntity
  8
0
100
AcDbLine
 10
135.0
 20
54.43755
 30
0.0
 11
135.5109
 21
48.61575
 31
0.0
  0
LINE
  5
13F4
330
1D
100
AcDbEntity
  8
0
100
AcDbLine
 10
135.0
 20
54.43755
 30
0.0
 11
135.0
 21
45.56255
 31
0.0
  0
LINE
  5
13F5
330
1D
100
AcDbEntity
  8
0
100
AcDbLine
 10
138.8686
 20
28.23015
 30
0.0
 11
141.7153
 21
23.00389
 31
0.0
  0
LINE
  5
13F6
330
1D
100
AcDbEntity
  8
0
100
AcDbLine
 10
136.8248
 20
33.85315
 30
0.0
 11
138.8686
 21
28.23015
 31
0.0
  0
LINE
  5
13F7
330
1D
100
AcDbEntity
  8
0
100
AcDbLine
 10
138.8686
 20
37.10515
 30
0.0
 11
141.7153
 21
31.87895
 31
0.0
  0
LINE
  5
13F8
330
1D
100
AcDbEntity
  8
0
100
AcDbLine
 10
136.8248
 20
42.72805
 30
0.0
 11
138.8686
 21
37.10515
 31
0.0
  0
LINE
  5
13F9
330
1D
100
AcDbEntity
  8
0
100
AcDbLine
 10
145.365
 20
18.04238
 30
0.0
 11
149.6715
 21
13.54442
 31
0.0
  0
LINE
  5
13FA
330
1D
100
AcDbEntity
  8
0
100
AcDbLine
 10
141.7153
 20
23.00389
 30
0.0
 11
145.365
 21
18.04238
 31
0.0
  0
LINE
  5
13FB
330
1D
100
AcDbEntity
  8
0
100
AcDbLine
 10
145.365
 20
26.91735
 30
0.0
 11
149.6715
 21
22.41945
 31
0.0
  0
LINE
  5
13FC
330
1D
100
AcDbEntity
  8
0
100
AcDbLine
 10
141.7153
 20
31.87895
 30
0.0
 11
145.365
 21
26.91735
 31
0.0
  0
LINE
  5
13FD
330
1D
100
AcDbEntity
  8
0
100
AcDbLine
 10
149.6715
 20
13.54442
 30
0.0
 11
154.635
 21
9.64097
 31
0.0
  0
LINE
  5
13FE
330
1D
100
AcDbEntity
  8
0
100
AcDbLine
 10
154.635
 20
9.64097
 30
0.0
 11
160.1095
 21
6.33293
 31
0.0
  0
LINE
  5
13FF
330
1D
100
AcDbEntity
  8
0
100
AcDbLine
 10
154.635
 20
18.51591
 30
0.0
 11
160.1095
 21
15.207877
 31
0.0
  0
LINE
  5
1400
330
1D
100
AcDbEntity
  8
0
100
AcDbLine
 10
149.6715
 20
22.41945
 30
0.0
 11
154.635
 21
18.51591
 31
0.0
  0
LINE
  5
1401
330
1D
100
AcDbEntity
  8
0
100
AcDbLine
 10
150.1825
 20
23.30461
 30
0.0
 11
155.073
 21
19.46805
 31
0.0
  0
LINE
  5
1402
330
1D
100
AcDbEntity
  8
0
100
AcDbLine
 10
155.073
 20
19.46805
 30
0.0
 11
160.4745
 21
16.16002
 31
0.0
  0
LINE
  5
1403
330
1D
100
AcDbEntity
  8
0
100
AcDbLine
 10
145.9489
 20
27.73655
 30
0.0
 11
150.1825
 21
23.30461
 31
0.0
  0
LINE
  5
1404
330
1D
100
AcDbEntity
  8
0
100
AcDbLine
 10
142.2993
 20
32.63215
 30
0.0
 11
145.9489
 21
27.73655
 31
0.0
  0
LINE
  5
1405
330
1D
100
AcDbEntity
  8
0
100
AcDbLine
 10
139.5985
 20
37.79255
 30
0.0
 11
142.2993
 21
32.63215
 31
0.0
  0
LINE
  5
1406
330
1D
100
AcDbEntity
  8
0
100
AcDbLine
 10
137.4818
 20
43.61425
 30
0.0
 11
139.5985
 21
37.79255
 31
0.0
  0
LINE
  5
1407
330
1D
100
AcDbEntity
  8
0
100
AcDbLine
 10
136.2409
 20
49.10435
 30
0.0
 11
137.4818
 21
43.61425
 31
0.0
  0
LINE
  5
1408
330
1D
100
AcDbEntity
  8
0
100
AcDbLine
 10
136.8248
 20
66.14665
 30
0.0
 11
138.8686
 21
71.76985
 31
0.0
  0
LINE
  5
1409
330
1D
100
AcDbEntity
  8
0
100
AcDbLine
 10
138.8686
 20
71.76985
 30
0.0
 11
141.7153
 21
76.99585
 31
0.0
  0
LINE
  5
140A
330
1D
100
AcDbEntity
  8
0
100
AcDbLine
 10
141.7153
 20
76.99585
 30
0.0
 11
145.365
 21
81.95745
 31
0.0
  0
LINE
  5
140B
330
1D
100
AcDbEntity
  8
0
100
AcDbLine
 10
145.365
 20
81.95745
 30
0.0
 11
149.6715
 21
86.45595
 31
0.0
  0
LINE
  5
140C
330
1D
100
AcDbEntity
  8
0
100
AcDbLine
 10
145.9489
 20
81.98305
 30
0.0
 11
150.1825
 21
86.41545
 31
0.0
  0
LINE
  5
140D
330
1D
100
AcDbEntity
  8
0
100
AcDbLine
 10
142.2993
 20
77.08775
 30
0.0
 11
145.9489
 21
81.98305
 31
0.0
  0
LINE
  5
140E
330
1D
100
AcDbEntity
  8
0
100
AcDbLine
 10
139.5985
 20
71.92775
 30
0.0
 11
142.2993
 21
77.08775
 31
0.0
  0
LINE
  5
140F
330
1D
100
AcDbEntity
  8
0
100
AcDbLine
 10
137.4818
 20
66.10615
 30
0.0
 11
139.5985
 21
71.92775
 31
0.0
  0
LINE
  5
1410
330
1D
100
AcDbEntity
  8
0
100
AcDbLine
 10
136.2409
 20
60.61545
 30
0.0
 11
137.4818
 21
66.10615
 31
0.0
  0
LINE
  5
1411
330
1D
100
AcDbEntity
  8
0
100
AcDbLine
 10
135.7299
 20
54.86015
 30
0.0
 11
136.2409
 21
60.61545
 31
0.0
  0
LINE
  5
1412
330
1D
100
AcDbEntity
  8
0
100
AcDbLine
 10
135.7299
 20
54.86015
 30
0.0
 11
136.2409
 21
49.10435
 31
0.0
  0
LINE
  5
1413
330
1D
100
AcDbEntity
  8
0
100
AcDbLine
 10
149.6715
 20
86.45595
 30
0.0
 11
154.635
 21
90.35885
 31
0.0
  0
LINE
  5
1414
330
1D
100
AcDbEntity
  8
0
100
AcDbLine
 10
154.635
 20
90.35885
 30
0.0
 11
160.1095
 21
93.66665
 31
0.0
  0
LINE
  5
1415
330
1D
100
AcDbEntity
  8
0
100
AcDbLine
 10
150.1825
 20
86.41545
 30
0.0
 11
155.073
 21
90.25225
 31
0.0
  0
LINE
  5
1416
330
1D
100
AcDbEntity
  8
0
100
AcDbLine
 10
160.1095
 20
6.33293
 30
0.0
 11
165.8759
 21
3.75325
 31
0.0
  0
LINE
  5
1417
330
1D
100
AcDbEntity
  8
0
100
AcDbLine
 10
160.1095
 20
15.207877
 30
0.0
 11
165.8759
 21
12.62824
 31
0.0
  0
LINE
  5
1418
330
1D
100
AcDbEntity
  8
0
100
AcDbLine
 10
160.4745
 20
16.16002
 30
0.0
 11
166.1679
 21
13.71226
 31
0.0
  0
LINE
  5
1419
330
1D
100
AcDbEntity
  8
0
100
AcDbLine
 10
155.073
 20
90.25225
 30
0.0
 11
160.4745
 21
93.56005
 31
0.0
  0
LINE
  5
141A
330
1D
100
AcDbEntity
  8
0
100
AcDbLine
 10
160.1095
 20
93.66665
 30
0.0
 11
165.8759
 21
96.24665
 31
0.0
  0
LINE
  5
141B
330
1D
100
AcDbEntity
  8
0
100
AcDbLine
 10
160.4745
 20
93.56005
 30
0.0
 11
166.1679
 21
96.00775
 31
0.0
  0
LINE
  5
141C
330
1D
100
AcDbEntity
  8
0
100
AcDbLine
 10
165.8759
 20
3.75325
 30
0.0
 11
172.0803
 21
1.90095
 31
0.0
  0
LINE
  5
141D
330
1D
100
AcDbEntity
  8
0
100
AcDbLine
 10
165.8759
 20
12.62824
 30
0.0
 11
172.0803
 21
10.7759
 31
0.0
  0
LINE
  5
141E
330
1D
100
AcDbEntity
  8
0
100
AcDbLine
 10
166.1679
 20
13.71226
 30
0.0
 11
172.5912
 21
11.79403
 31
0.0
  0
LINE
  5
141F
330
1D
100
AcDbEntity
  8
0
100
AcDbLine
 10
165.8759
 20
96.24665
 30
0.0
 11
172.0803
 21
98.09895
 31
0.0
  0
LINE
  5
1420
330
1D
100
AcDbEntity
  8
0
100
AcDbLine
 10
166.1679
 20
96.00775
 30
0.0
 11
172.5912
 21
97.92625
 31
0.0
  0
LINE
  5
1421
330
1D
100
AcDbEntity
  8
0
100
AcDbLine
 10
165.3735
 20
185.85865
 30
0.0
 11
168.2211
 21
184.18865
 31
0.0
  0
LINE
  5
1422
330
1D
100
AcDbEntity
  8
0
100
AcDbLine
 10
166.5388
 20
187.80565
 30
0.0
 11
168.9737
 21
186.315493332603
 31
0.0
  0
LINE
  5
1423
330
1D
100
AcDbEntity
  8
0
100
AcDbLine
 10
151.6615
 20
204.21665
 30
0.0
 11
152.8435
 21
201.10565
 31
0.0
  0
LINE
  5
1424
330
1D
100
AcDbEntity
  8
0
100
AcDbLine
 10
150.8214
 20
207.43365
 30
0.0
 11
151.6615
 21
204.21665
 31
0.0
  0
LINE
  5
1425
330
1D
100
AcDbEntity
  8
0
100
AcDbLine
 10
152.8091
 20
208.76365
 30
0.0
 11
153.5614
 21
205.64065
 31
0.0
  0
LINE
  5
1426
330
1D
100
AcDbEntity
  8
0
100
AcDbLine
 10
152.8095
 20
208.76365
 30
0.0
 11
153.5614
 21
205.64165
 31
0.0
  0
LINE
  5
1427
330
1D
100
AcDbEntity
  8
0
100
AcDbLine
 10
152.3671
 20
211.94565
 30
0.0
 11
152.8095
 21
208.76365
 31
0.0
  0
LINE
  5
1428
330
1D
100
AcDbEntity
  8
0
100
AcDbLine
 10
152.3671
 20
211.94565
 30
0.0
 11
152.8091
 21
208.76365
 31
0.0
  0
LINE
  5
1429
330
1D
100
AcDbEntity
  8
0
100
AcDbLine
 10
152.8435
 20
201.10565
 30
0.0
 11
154.2964
 21
198.11365
 31
0.0
  0
LINE
  5
142A
330
1D
100
AcDbEntity
  8
0
100
AcDbLine
 10
150.2118
 20
219.01765
 30
0.0
 11
151.5616
 21
225.20865
 31
0.0
  0
LINE
  5
142B
330
1D
100
AcDbEntity
  8
0
100
AcDbLine
 10
152.2386
 20
215.15565
 30
0.0
 11
152.3671
 21
211.94565
 31
0.0
  0
LINE
  5
142C
330
1D
100
AcDbEntity
  8
0
100
AcDbLine
 10
152.2386
 20
215.15565
 30
0.0
 11
152.4255
 21
218.36365
 31
0.0
  0
LINE
  5
142D
330
1D
100
AcDbEntity
  8
0
100
AcDbLine
 10
152.4255
 20
218.36365
 30
0.0
 11
152.9258
 21
221.53565
 31
0.0
  0
LINE
  5
142E
330
1D
100
AcDbEntity
  8
0
100
AcDbLine
 10
152.239
 20
215.15665
 30
0.0
 11
152.4258
 21
218.36365
 31
0.0
  0
LINE
  5
142F
330
1D
100
AcDbEntity
  8
0
100
AcDbLine
 10
152.239
 20
215.15665
 30
0.0
 11
152.3671
 21
211.94565
 31
0.0
  0
LINE
  5
1430
330
1D
100
AcDbEntity
  8
0
100
AcDbLine
 10
152.9258
 20
221.53565
 30
0.0
 11
153.735
 21
224.64465
 31
0.0
  0
LINE
  5
1431
330
1D
100
AcDbEntity
  8
0
100
AcDbLine
 10
152.4258
 20
218.36365
 30
0.0
 11
152.926
 21
221.53665
 31
0.0
  0
LINE
  5
1432
330
1D
100
AcDbEntity
  8
0
100
AcDbLine
 10
152.926
 20
221.53665
 30
0.0
 11
153.7349
 21
224.64565
 31
0.0
  0
LINE
  5
1433
330
1D
100
AcDbEntity
  8
0
100
AcDbLine
 10
151.5616
 20
225.20865
 30
0.0
 11
152.8129
 21
228.66565
 31
0.0
  0
LINE
  5
1434
330
1D
100
AcDbEntity
  8
0
100
AcDbLine
 10
150.0524
 20
212.36765
 30
0.0
 11
150.2118
 21
219.01765
 31
0.0
  0
LINE
  5
1435
330
1D
100
AcDbEntity
  8
0
100
AcDbLine
 10
150.0524
 20
212.36765
 30
0.0
 11
150.8214
 21
207.43365
 31
0.0
  0
LINE
  5
1436
330
1D
100
AcDbEntity
  8
0
100
AcDbLine
 10
152.8129
 20
228.66565
 30
0.0
 11
153.5097
 21
230.14965
 31
0.0
  0
LINE
  5
1437
330
1D
100
AcDbEntity
  8
0
100
AcDbLine
 10
154.2964
 20
198.11365
 30
0.0
 11
155.9769
 21
195.20465
 31
0.0
  0
LINE
  5
1438
330
1D
100
AcDbEntity
  8
0
100
AcDbLine
 10
153.5614
 20
205.64065
 30
0.0
 11
154.6159
 21
202.60565
 31
0.0
  0
LINE
  5
1439
330
1D
100
AcDbEntity
  8
0
100
AcDbLine
 10
153.5614
 20
205.64165
 30
0.0
 11
154.6165
 21
202.60565
 31
0.0
  0
LINE
  5
143A
330
1D
100
AcDbEntity
  8
0
100
AcDbLine
 10
154.6159
 20
202.60565
 30
0.0
 11
155.9631
 21
199.68865
 31
0.0
  0
LINE
  5
143B
330
1D
100
AcDbEntity
  8
0
100
AcDbLine
 10
153.735
 20
224.64465
 30
0.0
 11
154.845
 21
227.66065
 31
0.0
  0
LINE
  5
143C
330
1D
100
AcDbEntity
  8
0
100
AcDbLine
 10
154.6165
 20
202.60565
 30
0.0
 11
155.9632
 21
199.68965
 31
0.0
  0
LINE
  5
143D
330
1D
100
AcDbEntity
  8
0
100
AcDbLine
 10
153.7349
 20
224.64565
 30
0.0
 11
154.8448
 21
227.66065
 31
0.0
  0
LINE
  5
143E
330
1D
100
AcDbEntity
  8
0
100
AcDbLine
 10
154.845
 20
227.66065
 30
0.0
 11
156.2446
 21
230.55165
 31
0.0
  0
LINE
  5
143F
330
1D
100
AcDbEntity
  8
0
100
AcDbLine
 10
154.8448
 20
227.66065
 30
0.0
 11
156.2453
 21
230.55165
 31
0.0
  0
LINE
  5
1440
330
1D
100
AcDbEntity
  8
0
100
AcDbLine
 10
153.5097
 20
230.14965
 30
0.0
 11
155.1055
 21
233.07065
 31
0.0
  0
LINE
  5
1441
330
1D
100
AcDbEntity
  8
0
100
AcDbLine
 10
155.9631
 20
199.68865
 30
0.0
 11
157.5896
 21
196.91865
 31
0.0
  0
LINE
  5
1442
330
1D
100
AcDbEntity
  8
0
100
AcDbLine
 10
155.9632
 20
199.68965
 30
0.0
 11
157.5897
 21
196.91865
 31
0.0
  0
LINE
  5
1443
330
1D
100
AcDbEntity
  8
0
100
AcDbLine
 10
157.5896
 20
196.91865
 30
0.0
 11
159.4792
 21
194.32165
 31
0.0
  0
LINE
  5
1444
330
1D
100
AcDbEntity
  8
0
100
AcDbLine
 10
157.3866
 20
208.54365
 30
0.0
 11
158.3494
 21
205.26465
 31
0.0
  0
LINE
  5
1445
330
1D
100
AcDbEntity
  8
0
100
AcDbLine
 10
156.827
 20
211.91465
 30
0.0
 11
157.3866
 21
208.54365
 31
0.0
  0
LINE
  5
1446
330
1D
100
AcDbEntity
  8
0
100
AcDbLine
 10
156.941
 20
218.73665
 30
0.0
 11
157.6129
 21
222.08765
 31
0.0
  0
LINE
  5
1447
330
1D
100
AcDbEntity
  8
0
100
AcDbLine
 10
156.6777
 20
215.32965
 30
0.0
 11
156.941
 21
218.73665
 31
0.0
  0
LINE
  5
1448
330
1D
100
AcDbEntity
  8
0
100
AcDbLine
 10
156.6777
 20
215.32965
 30
0.0
 11
156.827
 21
211.91465
 31
0.0
  0
LINE
  5
1449
330
1D
100
AcDbEntity
  8
0
100
AcDbLine
 10
157.5897
 20
196.91865
 30
0.0
 11
159.4795
 21
194.32165
 31
0.0
  0
LINE
  5
144A
330
1D
100
AcDbEntity
  8
0
100
AcDbLine
 10
155.9769
 20
195.20465
 30
0.0
 11
157.9438
 21
192.54965
 31
0.0
  0
LINE
  5
144B
330
1D
100
AcDbEntity
  8
0
100
AcDbLine
 10
156.2446
 20
230.55165
 30
0.0
 11
157.9214
 21
233.29265
 31
0.0
  0
LINE
  5
144C
330
1D
100
AcDbEntity
  8
0
100
AcDbLine
 10
156.2453
 20
230.55165
 30
0.0
 11
157.9218
 21
233.29265
 31
0.0
  0
LINE
  5
144D
330
1D
100
AcDbEntity
  8
0
100
AcDbLine
 10
156.9521
 20
235.84265
 30
0.0
 11
159.0457
 21
238.43765
 31
0.0
  0
LINE
  5
144E
330
1D
100
AcDbEntity
  8
0
100
AcDbLine
 10
155.1055
 20
233.07065
 30
0.0
 11
156.9521
 21
235.84265
 31
0.0
  0
LINE
  5
144F
330
1D
100
AcDbEntity
  8
0
100
AcDbLine
 10
158.3494
 20
205.26465
 30
0.0
 11
159.6992
 21
202.12565
 31
0.0
  0
LINE
  5
1450
330
1D
100
AcDbEntity
  8
0
100
AcDbLine
 10
157.9438
 20
192.54965
 30
0.0
 11
160.2139
 21
190.10765
 31
0.0
  0
LINE
  5
1451
330
1D
100
AcDbEntity
  8
0
100
AcDbLine
 10
160.2139
 20
190.10765
 30
0.0
 11
161.584428227686
 21
188.832217816293
 31
0.0
  0
LINE
  5
1452
330
1D
100
AcDbEntity
  8
0
100
AcDbLine
 10
162.6553
 20
187.83565
 30
0.0
 11
165.3735
 21
185.85865
 31
0.0
  0
LINE
  5
1453
330
1D
100
AcDbEntity
  8
0
100
AcDbLine
 10
163.9759
 20
189.74165
 30
0.0
 11
166.5387
 21
187.80565
 31
0.0
  0
LINE
  5
1454
330
1D
100
AcDbEntity
  8
0
100
AcDbLine
 10
163.9759
 20
189.74165
 30
0.0
 11
166.5388
 21
187.80565
 31
0.0
  0
LINE
  5
1455
330
1D
100
AcDbEntity
  8
0
100
AcDbLine
 10
161.584428227686
 20
188.832217816293
 30
0.0
 11
162.6553
 21
187.83565
 31
0.0
  0
LINE
  5
1456
330
1D
100
AcDbEntity
  8
0
100
AcDbLine
 10
161.6148
 20
191.92165
 30
0.0
 11
163.9759
 21
189.74165
 31
0.0
  0
LINE
  5
1457
330
1D
100
AcDbEntity
  8
0
100
AcDbLine
 10
159.4792
 20
194.32165
 30
0.0
 11
161.6148
 21
191.92165
 31
0.0
  0
LINE
  5
1458
330
1D
100
AcDbEntity
  8
0
100
AcDbLine
 10
161.4185
 20
199.17165
 30
0.0
 11
163.4806
 21
196.44665
 31
0.0
  0
LINE
  5
1459
330
1D
100
AcDbEntity
  8
0
100
AcDbLine
 10
159.6992
 20
202.12565
 30
0.0
 11
161.4185
 21
199.17165
 31
0.0
  0
LINE
  5
145A
330
1D
100
AcDbEntity
  8
0
100
AcDbLine
 10
163.4806
 20
196.44665
 30
0.0
 11
165.8571
 21
193.99065
 31
0.0
  0
LINE
  5
145B
330
1D
100
AcDbEntity
  8
0
100
AcDbLine
 10
159.4795
 20
194.32165
 30
0.0
 11
161.6156
 21
191.92165
 31
0.0
  0
LINE
  5
145C
330
1D
100
AcDbEntity
  8
0
100
AcDbLine
 10
161.6156
 20
191.92165
 30
0.0
 11
163.9759
 21
189.74165
 31
0.0
  0
LINE
  5
145D
330
1D
100
AcDbEntity
  8
0
100
AcDbLine
 10
165.8571
 20
193.99065
 30
0.0
 11
168.5116
 21
191.83865
 31
0.0
  0
LINE
  5
145E
330
1D
100
AcDbEntity
  8
0
100
AcDbLine
 10
157.9214
 20
233.29265
 30
0.0
 11
159.8582
 21
235.85465
 31
0.0
  0
LINE
  5
145F
330
1D
100
AcDbEntity
  8
0
100
AcDbLine
 10
157.9218
 20
233.29265
 30
0.0
 11
159.8586
 21
235.85565
 31
0.0
  0
LINE
  5
1460
330
1D
100
AcDbEntity
  8
0
100
AcDbLine
 10
159.8582
 20
235.85465
 30
0.0
 11
162.0375
 21
238.21465
 31
0.0
  0
LINE
  5
1461
330
1D
100
AcDbEntity
  8
0
100
AcDbLine
 10
159.8586
 20
235.85565
 30
0.0
 11
162.0377
 21
238.21565
 31
0.0
  0
LINE
  5
1462
330
1D
100
AcDbEntity
  8
0
100
AcDbLine
 10
159.0457
 20
238.43765
 30
0.0
 11
162.3515
 21
241.58965
 31
0.0
  0
LINE
  5
1463
330
1D
100
AcDbEntity
  8
0
100
AcDbLine
 10
161.9548
 20
231.31965
 30
0.0
 11
164.1067
 21
233.97365
 31
0.0
  0
LINE
  5
1464
330
1D
100
AcDbEntity
  8
0
100
AcDbLine
 10
162.0375
 20
238.21465
 30
0.0
 11
164.4378
 21
240.35065
 31
0.0
  0
LINE
  5
1465
330
1D
100
AcDbEntity
  8
0
100
AcDbLine
 10
164.1067
 20
233.97365
 30
0.0
 11
166.5634
 21
236.35065
 31
0.0
  0
LINE
  5
1466
330
1D
100
AcDbEntity
  8
0
100
AcDbLine
 10
166.5634
 20
236.35065
 30
0.0
 11
169.2879
 21
238.41265
 31
0.0
  0
LINE
  5
1467
330
1D
100
AcDbEntity
  8
0
100
AcDbLine
 10
162.0377
 20
238.21565
 30
0.0
 11
164.4379
 21
240.35065
 31
0.0
  0
LINE
  5
1468
330
1D
100
AcDbEntity
  8
0
100
AcDbLine
 10
164.4378
 20
240.35065
 30
0.0
 11
167.0353
 21
242.24165
 31
0.0
  0
LINE
  5
1469
330
1D
100
AcDbEntity
  8
0
100
AcDbLine
 10
164.4379
 20
240.35065
 30
0.0
 11
167.0359
 21
242.24165
 31
0.0
  0
LINE
  5
146A
330
1D
100
AcDbEntity
  8
0
100
AcDbLine
 10
162.3515
 20
241.58965
 30
0.0
 11
163.977
 21
242.91865
 31
0.0
  0
LINE
  5
146B
330
1D
100
AcDbEntity
  8
0
100
AcDbLine
 10
167.0353
 20
242.24165
 30
0.0
 11
169.8058
 21
243.86765
 31
0.0
  0
LINE
  5
146C
330
1D
100
AcDbEntity
  8
0
100
AcDbLine
 10
167.0359
 20
242.24165
 30
0.0
 11
169.8058
 21
243.86765
 31
0.0
  0
LINE
  5
146D
330
1D
100
AcDbEntity
  8
0
100
AcDbLine
 10
166.7227
 20
244.75665
 30
0.0
 11
169.7092
 21
246.29665
 31
0.0
  0
LINE
  5
146E
330
1D
100
AcDbEntity
  8
0
100
AcDbLine
 10
163.977
 20
242.91865
 30
0.0
 11
166.7227
 21
244.75665
 31
0.0
  0
LINE
  5
146F
330
1D
100
AcDbEntity
  8
0
100
AcDbLine
 10
160.1379
 20
228.42465
 30
0.0
 11
161.9548
 21
231.31965
 31
0.0
  0
LINE
  5
1470
330
1D
100
AcDbEntity
  8
0
100
AcDbLine
 10
158.6836
 20
225.33265
 30
0.0
 11
160.1379
 21
228.42465
 31
0.0
  0
LINE
  5
1471
330
1D
100
AcDbEntity
  8
0
100
AcDbLine
 10
157.6129
 20
222.08765
 30
0.0
 11
158.6836
 21
225.33265
 31
0.0
  0
LINE
  5
1472
330
1D
100
AcDbEntity
  8
0
100
AcDbLine
 10
166.5387
 20
187.80565
 30
0.0
 11
168.9737
 21
186.315432132691
 31
0.0
  0
LINE
  5
1473
330
1D
100
AcDbEntity
  8
0
100
AcDbLine
 10
168.5116
 20
191.83865
 30
0.0
 11
168.9737
 21
191.548580318524
 31
0.0
  0
LINE
  5
1474
330
1D
100
AcDbEntity
  8
0
100
AcDbLine
 10
169.1503
 20
169.55765
 30
0.0
 11
169.6032
 21
167.90865
 31
0.0
  0
LINE
  5
1475
330
1D
100
AcDbEntity
  8
0
100
AcDbLine
 10
168.9674
 20
171.95965
 30
0.0
 11
169.4895
 21
174.63165
 31
0.0
  0
LINE
  5
1476
330
1D
100
AcDbEntity
  8
0
100
AcDbLine
 10
168.9674
 20
171.95965
 30
0.0
 11
169.1503
 21
169.55765
 31
0.0
  0
LINE
  5
1477
330
1D
100
AcDbEntity
  8
0
100
AcDbLine
 10
169.4895
 20
174.63165
 30
0.0
 11
170.7947
 21
177.14765
 31
0.0
  0
LINE
  5
1478
330
1D
100
AcDbEntity
  8
0
100
AcDbLine
 10
169.6032
 20
167.90865
 30
0.0
 11
171.0654
 21
165.05365
 31
0.0
  0
LINE
  5
1479
330
1D
100
AcDbEntity
  8
0
100
AcDbLine
 10
169.92344528996
 20
167.283359134978
 30
0.0
 11
169.9395
 21
167.23265
 31
0.0
  0
LINE
  5
147A
330
1D
100
AcDbEntity
  8
0
100
AcDbLine
 10
171.174284297427
 20
165.004764145921
 30
0.0
 11
172.6488
 21
163.27965
 31
0.0
  0
LINE
  5
147B
330
1D
100
AcDbEntity
  8
0
100
AcDbLine
 10
169.9395
 20
167.23265
 30
0.0
 11
170.003972258199
 21
167.126127228041
 31
0.0
  0
LINE
  5
147C
330
1D
100
AcDbEntity
  8
0
100
AcDbLine
 10
170.7947
 20
177.14765
 30
0.0
 11
172.7291
 21
179.41365
 31
0.0
  0
LINE
  5
147D
330
1D
100
AcDbEntity
  8
0
100
AcDbLine
 10
172.0803
 20
1.90095
 30
0.0
 11
178.5766
 21
0.71005
 31
0.0
  0
LINE
  5
147F
330
1D
100
AcDbEntity
  8
0
100
AcDbLine
 10
185.0
 20
0.24735
 30
0.0
 11
191.4234
 21
0.71005
 31
0.0
  0
LINE
  5
1480
330
1D
100
AcDbEntity
  8
0
100
AcDbLine
 10
172.0803
 20
10.7759
 30
0.0
 11
178.5766
 21
9.58497
 31
0.0
  0
LINE
  5
1481
330
1D
100
AcDbEntity
  8
0
100
AcDbLine
 10
178.5766
 20
9.58497
 30
0.0
 11
185.0
 21
9.12242
 31
0.0
  0
LINE
  5
1482
330
1D
100
AcDbEntity
  8
0
100
AcDbLine
 10
172.5912
 20
11.79403
 30
0.0
 11
178.6496
 21
10.66899
 31
0.0
  0
LINE
  5
1483
330
1D
100
AcDbEntity
  8
0
100
AcDbLine
 10
178.6496
 20
10.66899
 30
0.0
 11
185.0
 21
10.20645
 31
0.0
  0
LINE
  5
1484
330
1D
100
AcDbEntity
  8
0
100
AcDbLine
 10
176.36
 20
98.883437594477
 30
0.0
 11
176.36
 21
108.39275
 31
0.0
  0
LINE
  5
1485
330
1D
100
AcDbEntity
  8
0
100
AcDbLine
 10
172.0803
 20
98.09895
 30
0.0
 11
178.5766
 21
99.28975
 31
0.0
  0
LINE
  5
1486
330
1D
100
AcDbEntity
  8
0
100
AcDbLine
 10
178.5766
 20
99.28975
 30
0.0
 11
185.0
 21
99.75285
 31
0.0
  0
LINE
  5
1487
330
1D
100
AcDbEntity
  8
0
100
AcDbLine
 10
172.5912
 20
97.92625
 30
0.0
 11
178.6496
 21
99.05075
 31
0.0
  0
LINE
  5
1488
330
1D
100
AcDbEntity
  8
0
100
AcDbLine
 10
178.6496
 20
99.05075
 30
0.0
 11
185.0
 21
99.51385
 31
0.0
  0
LINE
  5
1489
330
1D
100
AcDbEntity
  8
0
100
AcDbLine
 10
173.384
 20
107.01275
 30
0.0
 11
174.632
 21
105.71065
 31
0.0
  0
LINE
  5
148A
330
1D
100
AcDbEntity
  8
0
100
AcDbLine
 10
173.0
 20
108.39275
 30
0.0
 11
173.384
 21
109.81225
 31
0.0
  0
LINE
  5
148B
330
1D
100
AcDbEntity
  8
0
100
AcDbLine
 10
173.0
 20
108.39275
 30
0.0
 11
173.384
 21
107.01275
 31
0.0
  0
LINE
  5
148C
330
1D
100
AcDbEntity
  8
0
100
AcDbLine
 10
173.0
 20
108.39275
 30
0.0
 11
173.0
 21
168.87365
 31
0.0
  0
LINE
  5
148D
330
1D
100
AcDbEntity
  8
0
100
AcDbLine
 10
174.632
 20
105.71065
 30
0.0
 11
176.36
 21
104.68141
 31
0.0
  0
LINE
  5
148E
330
1D
100
AcDbEntity
  8
0
100
AcDbLine
 10
173.384
 20
109.81225
 30
0.0
 11
174.632
 21
111.11435
 31
0.0
  0
LINE
  5
148F
330
1D
100
AcDbEntity
  8
0
100
AcDbLine
 10
174.632
 20
111.11435
 30
0.0
 11
176.552
 21
112.25765
 31
0.0
  0
LINE
  5
1490
330
1D
100
AcDbEntity
  8
0
100
AcDbLine
 10
176.552
 20
112.25765
 30
0.0
 11
179.048
 21
113.12575
 31
0.0
  0
LINE
  5
1491
330
1D
100
AcDbEntity
  8
0
100
AcDbLine
 10
179.048
 20
113.12575
 30
0.0
 11
181.928
 21
113.63765
 31
0.0
  0
LINE
  5
1492
330
1D
100
AcDbEntity
  8
0
100
AcDbLine
 10
181.928
 20
113.63765
 30
0.0
 11
185.0
 21
113.83495
 31
0.0
  0
LINE
  5
1493
330
1D
100
AcDbEntity
  8
0
100
AcDbLine
 10
182.792
 20
112.17865
 30
0.0
 11
185.0
 21
112.33655
 31
0.0
  0
LINE
  5
1494
330
1D
100
AcDbEntity
  8
0
100
AcDbLine
 10
180.68
 20
111.78415
 30
0.0
 11
182.792
 21
112.17865
 31
0.0
  0
LINE
  5
1495
330
1D
100
AcDbEntity
  8
0
100
AcDbLine
 10
178.856
 20
111.15375
 30
0.0
 11
180.68
 21
111.78415
 31
0.0
  0
LINE
  5
1496
330
1D
100
AcDbEntity
  8
0
100
AcDbLine
 10
177.512
 20
110.36465
 30
0.0
 11
178.856
 21
111.15375
 31
0.0
  0
LINE
  5
1497
330
1D
100
AcDbEntity
  8
0
100
AcDbLine
 10
176.648
 20
109.41765
 30
0.0
 11
177.512
 21
110.36465
 31
0.0
  0
LINE
  5
1498
330
1D
100
AcDbEntity
  8
0
100
AcDbLine
 10
176.36
 20
108.39275
 30
0.0
 11
176.36
 21
98.883437594477
 31
0.0
  0
LINE
  5
1499
330
1D
100
AcDbEntity
  8
0
100
AcDbLine
 10
176.36
 20
108.39275
 30
0.0
 11
176.648
 21
109.41765
 31
0.0
  0
LINE
  5
149A
330
1D
100
AcDbEntity
  8
0
100
AcDbLine
 10
185.0
 20
113.83495
 30
0.0
 11
188.072
 21
113.63765
 31
0.0
  0
LINE
  5
149B
330
1D
100
AcDbEntity
  8
0
100
AcDbLine
 10
185.0
 20
112.33655
 30
0.0
 11
187.208
 21
112.17865
 31
0.0
  0
LINE
  5
149C
330
1D
100
AcDbEntity
  8
0
100
AcDbLine
 10
185.0
 20
99.75285
 30
0.0
 11
191.4234
 21
99.28975
 31
0.0
  0
LINE
  5
149D
330
1D
100
AcDbEntity
  8
0
100
AcDbLine
 10
185.0
 20
99.51385
 30
0.0
 11
191.3504
 21
99.05075
 31
0.0
  0
LINE
  5
149E
330
1D
100
AcDbEntity
  8
0
100
AcDbLine
 10
185.0
 20
9.12242
 30
0.0
 11
191.4234
 21
9.58497
 31
0.0
  0
LINE
  5
149F
330
1D
100
AcDbEntity
  8
0
100
AcDbLine
 10
191.4234
 20
0.71005
 30
0.0
 11
197.9197
 21
1.90095
 31
0.0
  0
LINE
  5
14A0
330
1D
100
AcDbEntity
  8
0
100
AcDbLine
 10
191.4234
 20
9.58497
 30
0.0
 11
197.9197
 21
10.7759
 31
0.0
  0
LINE
  5
14A1
330
1D
100
AcDbEntity
  8
0
100
AcDbLine
 10
191.144
 20
111.15375
 30
0.0
 11
192.488
 21
110.36465
 31
0.0
  0
LINE
  5
14A2
330
1D
100
AcDbEntity
  8
0
100
AcDbLine
 10
189.32
 20
111.78415
 30
0.0
 11
191.144
 21
111.15375
 31
0.0
  0
LINE
  5
14A3
330
1D
100
AcDbEntity
  8
0
100
AcDbLine
 10
190.952
 20
113.12575
 30
0.0
 11
193.448
 21
112.25765
 31
0.0
  0
LINE
  5
14A4
330
1D
100
AcDbEntity
  8
0
100
AcDbLine
 10
188.072
 20
113.63765
 30
0.0
 11
190.952
 21
113.12575
 31
0.0
  0
LINE
  5
14A5
330
1D
100
AcDbEntity
  8
0
100
AcDbLine
 10
187.208
 20
112.17865
 30
0.0
 11
189.32
 21
111.78415
 31
0.0
  0
LINE
  5
14A6
330
1D
100
AcDbEntity
  8
0
100
AcDbLine
 10
193.64
 20
98.883437594477
 30
0.0
 11
193.64
 21
108.39275
 31
0.0
  0
LINE
  5
14A7
330
1D
100
AcDbEntity
  8
0
100
AcDbLine
 10
193.64
 20
104.68141
 30
0.0
 11
195.368
 21
105.71065
 31
0.0
  0
LINE
  5
14A8
330
1D
100
AcDbEntity
  8
0
100
AcDbLine
 10
193.64
 20
108.39275
 30
0.0
 11
193.64
 21
98.883437594477
 31
0.0
  0
LINE
  5
14A9
330
1D
100
AcDbEntity
  8
0
100
AcDbLine
 10
193.448
 20
112.25765
 30
0.0
 11
195.368
 21
111.11435
 31
0.0
  0
LINE
  5
14AA
330
1D
100
AcDbEntity
  8
0
100
AcDbLine
 10
193.352
 20
109.41765
 30
0.0
 11
193.64
 21
108.39275
 31
0.0
  0
LINE
  5
14AB
330
1D
100
AcDbEntity
  8
0
100
AcDbLine
 10
192.488
 20
110.36465
 30
0.0
 11
193.352
 21
109.41765
 31
0.0
  0
LINE
  5
14AC
330
1D
100
AcDbEntity
  8
0
100
AcDbLine
 10
191.4234
 20
99.28975
 30
0.0
 11
197.9197
 21
98.09895
 31
0.0
  0
LINE
  5
14AD
330
1D
100
AcDbEntity
  8
0
100
AcDbLine
 10
191.3504
 20
99.05075
 30
0.0
 11
197.4088
 21
97.92625
 31
0.0
  0
LINE
  5
14AE
330
1D
100
AcDbEntity
  8
0
100
AcDbLine
 10
191.3504
 20
10.66899
 30
0.0
 11
197.4088
 21
11.79403
 31
0.0
  0
LINE
  5
14AF
330
1D
100
AcDbEntity
  8
0
100
AcDbLine
 10
185.0
 20
10.20645
 30
0.0
 11
191.3504
 21
10.66899
 31
0.0
  0
LINE
  5
14B0
330
1D
100
AcDbEntity
  8
0
100
AcDbLine
 10
173.0
 20
168.87365
 30
0.0
 11
173.0
 21
108.39275
 31
0.0
  0
LINE
  5
14B1
330
1D
100
AcDbEntity
  8
0
100
AcDbLine
 10
173.0
 20
168.87365
 30
0.0
 11
173.384
 21
171.26765
 31
0.0
  0
LINE
  5
14B2
330
1D
100
AcDbEntity
  8
0
100
AcDbLine
 10
173.384
 20
171.26765
 30
0.0
 11
174.632
 21
173.49365
 31
0.0
  0
LINE
  5
14B3
330
1D
100
AcDbEntity
  8
0
100
AcDbLine
 10
174.632
 20
173.49365
 30
0.0
 11
176.552
 21
175.42365
 31
0.0
  0
LINE
  5
14B4
330
1D
100
AcDbEntity
  8
0
100
AcDbLine
 10
176.552
 20
175.42365
 30
0.0
 11
179.048
 21
176.84765
 31
0.0
  0
LINE
  5
14B5
330
1D
100
AcDbEntity
  8
0
100
AcDbLine
 10
193.448
 20
175.42365
 30
0.0
 11
195.368
 21
173.49365
 31
0.0
  0
LINE
  5
14B6
330
1D
100
AcDbEntity
  8
0
100
AcDbLine
 10
172.6488
 20
163.27965
 30
0.0
 11
173.0
 21
163.004791569351
 31
0.0
  0
LINE
  5
14B7
330
1D
100
AcDbEntity
  8
0
100
AcDbLine
 10
179.048
 20
176.84765
 30
0.0
 11
181.928
 21
177.72765
 31
0.0
  0
LINE
  5
14B8
330
1D
100
AcDbEntity
  8
0
100
AcDbLine
 10
195.368
 20
105.71065
 30
0.0
 11
196.616
 21
107.01275
 31
0.0
  0
LINE
  5
14B9
330
1D
100
AcDbEntity
  8
0
100
AcDbLine
 10
197.0
 20
108.39275
 30
0.0
 11
197.0
 21
168.87365
 31
0.0
  0
LINE
  5
14BA
330
1D
100
AcDbEntity
  8
0
100
AcDbLine
 10
196.616
 20
107.01275
 30
0.0
 11
197.0
 21
108.39275
 31
0.0
  0
LINE
  5
14BB
330
1D
100
AcDbEntity
  8
0
100
AcDbLine
 10
196.616
 20
109.81225
 30
0.0
 11
197.0
 21
108.39275
 31
0.0
  0
LINE
  5
14BC
330
1D
100
AcDbEntity
  8
0
100
AcDbLine
 10
195.368
 20
111.11435
 30
0.0
 11
196.616
 21
109.81225
 31
0.0
  0
LINE
  5
14BD
330
1D
100
AcDbEntity
  8
0
100
AcDbLine
 10
197.0
 20
168.87365
 30
0.0
 11
197.0
 21
108.39275
 31
0.0
  0
LINE
  5
14BE
330
1D
100
AcDbEntity
  8
0
100
AcDbLine
 10
196.616
 20
171.26765
 30
0.0
 11
197.0
 21
168.87365
 31
0.0
  0
LINE
  5
14BF
330
1D
100
AcDbEntity
  8
0
100
AcDbLine
 10
195.368
 20
173.49365
 30
0.0
 11
196.616
 21
171.26765
 31
0.0
  0
LINE
  5
14C0
330
1D
100
AcDbEntity
  8
0
100
AcDbLine
 10
197.0
 20
163.051914579079
 30
0.0
 11
197.7208
 21
163.79365
 31
0.0
  0
LINE
  5
14C1
330
1D
100
AcDbEntity
  8
0
100
AcDbLine
 10
197.4088
 20
97.92625
 30
0.0
 11
203.8321
 21
96.00775
 31
0.0
  0
LINE
  5
14C2
330
1D
100
AcDbEntity
  8
0
100
AcDbLine
 10
197.9197
 20
1.90095
 30
0.0
 11
204.1241
 21
3.75325
 31
0.0
  0
LINE
  5
14C3
330
1D
100
AcDbEntity
  8
0
100
AcDbLine
 10
197.9197
 20
98.09895
 30
0.0
 11
204.1241
 21
96.24665
 31
0.0
  0
LINE
  5
14C4
330
1D
100
AcDbEntity
  8
0
100
AcDbLine
 10
197.9197
 20
10.7759
 30
0.0
 11
204.1241
 21
12.62824
 31
0.0
  0
LINE
  5
14C5
330
1D
100
AcDbEntity
  8
0
100
AcDbLine
 10
197.4088
 20
11.79403
 30
0.0
 11
203.8321
 21
13.71226
 31
0.0
  0
LINE
  5
14C6
330
1D
100
AcDbEntity
  8
0
100
AcDbLine
 10
197.7208
 20
163.79365
 30
0.0
 11
199.611
 21
166.20665
 31
0.0
  0
LINE
  5
14C7
330
1D
100
AcDbEntity
  8
0
100
AcDbLine
 10
197.0
 20
163.739782022725
 30
0.0
 11
197.2243
 21
163.94165
 31
0.0
  0
LINE
  5
14C8
330
1D
100
AcDbEntity
  8
0
100
AcDbLine
 10
168.9647
 20
182.77665
 30
0.0
 11
169.0143
 21
184.58465
 31
0.0
  0
LINE
  5
14C9
330
1D
100
AcDbEntity
  8
0
100
AcDbLine
 10
168.9647
 20
182.77665
 30
0.0
 11
168.98420885824
 21
182.668756902157
 31
0.0
  0
LINE
  5
14CA
330
1D
100
AcDbEntity
  8
0
100
AcDbLine
 10
168.9737
 20
184.00365
 30
0.0
 11
168.9737
 21
209.82265
 31
0.0
  0
LINE
  5
14CB
330
1D
100
AcDbEntity
  8
0
100
AcDbLine
 10
168.9737
 20
184.00365
 30
0.0
 11
168.993160651288
 21
183.814086643708
 31
0.0
  0
LINE
  5
14CC
330
1D
100
AcDbEntity
  8
0
100
AcDbLine
 10
169.050472021244
 20
184.75147502401
 30
0.0
 11
169.1705
 21
185.92065
 31
0.0
  0
LINE
  5
14CD
330
1D
100
AcDbEntity
  8
0
100
AcDbLine
 10
168.9816
 20
182.77465
 30
0.0
 11
169.009399839211
 21
172.174596505211
 31
0.0
  0
LINE
  5
14CE
330
1D
100
AcDbEntity
  8
0
100
AcDbLine
 10
169.1705
 20
185.92065
 30
0.0
 11
169.7569
 21
187.79065
 31
0.0
  0
LINE
  5
14CF
330
1D
100
AcDbEntity
  8
0
100
AcDbLine
 10
168.9737
 20
209.82265
 30
0.0
 11
168.9835
 21
210.56165
 31
0.0
  0
LINE
  5
14D0
330
1D
100
AcDbEntity
  8
0
100
AcDbLine
 10
168.9737
 20
209.82265
 30
0.0
 11
168.9737
 21
184.00365
 31
0.0
  0
LINE
  5
14D1
330
1D
100
AcDbEntity
  8
0
100
AcDbLine
 10
169.0645
 20
212.04465
 30
0.0
 11
169.7581
 21
216.58565
 31
0.0
  0
LINE
  5
14D2
330
1D
100
AcDbEntity
  8
0
100
AcDbLine
 10
168.9835
 20
210.56165
 30
0.0
 11
169.0645
 21
212.04465
 31
0.0
  0
LINE
  5
14D3
330
1D
100
AcDbEntity
  8
0
100
AcDbLine
 10
169.2879
 20
238.41265
 30
0.0
 11
172.2421
 21
240.13165
 31
0.0
  0
LINE
  5
14D4
330
1D
100
AcDbEntity
  8
0
100
AcDbLine
 10
169.7581
 20
216.58565
 30
0.0
 11
171.2823
 21
220.63165
 31
0.0
  0
LINE
  5
14D5
330
1D
100
AcDbEntity
  8
0
100
AcDbLine
 10
169.7569
 20
187.79065
 30
0.0
 11
170.7174
 21
189.56765
 31
0.0
  0
LINE
  5
14D6
330
1D
100
AcDbEntity
  8
0
100
AcDbLine
 10
170.7174
 20
189.56765
 30
0.0
 11
172.0294
 21
191.20765
 31
0.0
  0
LINE
  5
14D7
330
1D
100
AcDbEntity
  8
0
100
AcDbLine
 10
171.2825
 20
220.63165
 30
0.0
 11
172.31744454052
 21
222.501511631519
 31
0.0
  0
LINE
  5
14D8
330
1D
100
AcDbEntity
  8
0
100
AcDbLine
 10
172.7291
 20
179.41365
 30
0.0
 11
175.6144
 21
181.45065
 31
0.0
  0
LINE
  5
14D9
330
1D
100
AcDbEntity
  8
0
100
AcDbLine
 10
175.6144
 20
181.45065
 30
0.0
 11
179.4279
 21
183.00365
 31
0.0
  0
LINE
  5
14DA
330
1D
100
AcDbEntity
  8
0
100
AcDbLine
 10
172.0294
 20
191.20765
 30
0.0
 11
173.6598
 21
192.67065
 31
0.0
  0
LINE
  5
14DB
330
1D
100
AcDbEntity
  8
0
100
AcDbLine
 10
179.4279
 20
183.00365
 30
0.0
 11
183.2533
 21
183.69765
 31
0.0
  0
LINE
  5
14DC
330
1D
100
AcDbEntity
  8
0
100
AcDbLine
 10
175.569
 20
193.91965
 30
0.0
 11
177.7097
 21
194.92465
 31
0.0
  0
LINE
  5
14DD
330
1D
100
AcDbEntity
  8
0
100
AcDbLine
 10
173.6598
 20
192.67065
 30
0.0
 11
175.569
 21
193.91965
 31
0.0
  0
LINE
  5
14DE
330
1D
100
AcDbEntity
  8
0
100
AcDbLine
 10
177.7097
 20
194.92465
 30
0.0
 11
180.0295
 21
195.66065
 31
0.0
  0
LINE
  5
14DF
330
1D
100
AcDbEntity
  8
0
100
AcDbLine
 10
172.31744454052
 20
222.501511631519
 30
0.0
 11
173.4162
 21
224.26565
 31
0.0
  0
LINE
  5
14E0
330
1D
100
AcDbEntity
  8
0
100
AcDbLine
 10
180.0295
 20
195.66065
 30
0.0
 11
182.471
 21
196.10965
 31
0.0
  0
LINE
  5
14E1
330
1D
100
AcDbEntity
  8
0
100
AcDbLine
 10
173.4162
 20
224.26565
 30
0.0
 11
174.6775
 21
225.80965
 31
0.0
  0
LINE
  5
14E2
330
1D
100
AcDbEntity
  8
0
100
AcDbLine
 10
174.6779
 20
225.80965
 30
0.0
 11
176.1008
 21
227.20365
 31
0.0
  0
LINE
  5
14E3
330
1D
100
AcDbEntity
  8
0
100
AcDbLine
 10
174.6775
 20
225.80965
 30
0.0
 11
176.1009
 21
227.20365
 31
0.0
  0
LINE
  5
14E4
330
1D
100
AcDbEntity
  8
0
100
AcDbLine
 10
176.1009
 20
227.20365
 30
0.0
 11
177.6423
 21
228.38765
 31
0.0
  0
LINE
  5
14E5
330
1D
100
AcDbEntity
  8
0
100
AcDbLine
 10
177.6423
 20
228.38765
 30
0.0
 11
178.545161849321
 21
228.912066762779
 31
0.0
  0
LINE
  5
14E6
330
1D
100
AcDbEntity
  8
0
100
AcDbLine
 10
181.101
 20
230.08765
 30
0.0
 11
181.93265665945
 21
230.30088192936
 31
0.0
  0
LINE
  5
14E7
330
1D
100
AcDbEntity
  8
0
100
AcDbLine
 10
179.3123
 20
229.35765
 30
0.0
 11
181.101
 21
230.08765
 31
0.0
  0
LINE
  5
14E8
330
1D
100
AcDbEntity
  8
0
100
AcDbLine
 10
178.554989968835
 20
228.91777531124
 30
0.0
 11
179.3123
 21
229.35765
 31
0.0
  0
LINE
  5
14E9
330
1D
100
AcDbEntity
  8
0
100
AcDbLine
 10
181.941281324554
 20
230.303093243319
 30
0.0
 11
182.6962
 21
230.49665
 31
0.0
  0
LINE
  5
14EA
330
1D
100
AcDbEntity
  8
0
100
AcDbLine
 10
173.4157
 20
224.26565
 30
0.0
 11
174.6779
 21
225.80965
 31
0.0
  0
LINE
  5
14EB
330
1D
100
AcDbEntity
  8
0
100
AcDbLine
 10
200.5988
 20
168.58565
 30
0.0
 11
200.9869
 21
170.67565
 31
0.0
  0
LINE
  5
14EC
330
1D
100
AcDbEntity
  8
0
100
AcDbLine
 10
199.611
 20
166.20665
 30
0.0
 11
200.5988
 21
168.58565
 31
0.0
  0
LINE
  5
14ED
330
1D
100
AcDbEntity
  8
0
100
AcDbLine
 10
200.008
 20
175.70565
 30
0.0
 11
200.7584
 21
173.67765
 31
0.0
  0
LINE
  5
14EE
330
1D
100
AcDbEntity
  8
0
100
AcDbLine
 10
200.7584
 20
173.67765
 30
0.0
 11
200.9869
 21
170.67565
 31
0.0
  0
LINE
  5
14EF
330
1D
100
AcDbEntity
  8
0
100
AcDbLine
 10
172.2421
 20
240.13165
 30
0.0
 11
175.3811
 21
241.48165
 31
0.0
  0
LINE
  5
14F0
330
1D
100
AcDbEntity
  8
0
100
AcDbLine
 10
178.6599
 20
242.44465
 30
0.0
 11
182.0312
 21
243.00365
 31
0.0
  0
LINE
  5
14F1
330
1D
100
AcDbEntity
  8
0
100
AcDbLine
 10
172.7225
 20
245.21465
 30
0.0
 11
175.7568
 21
246.26965
 31
0.0
  0
LINE
  5
14F2
330
1D
100
AcDbEntity
  8
0
100
AcDbLine
 10
172.7227
 20
245.21465
 30
0.0
 11
175.7568
 21
246.26865
 31
0.0
  0
LINE
  5
14F3
330
1D
100
AcDbEntity
  8
0
100
AcDbLine
 10
169.8058
 20
243.86765
 30
0.0
 11
172.7227
 21
245.21465
 31
0.0
  0
LINE
  5
14F4
330
1D
100
AcDbEntity
  8
0
100
AcDbLine
 10
169.8058
 20
243.86765
 30
0.0
 11
172.7225
 21
245.21465
 31
0.0
  0
LINE
  5
14F5
330
1D
100
AcDbEntity
  8
0
100
AcDbLine
 10
175.3811
 20
241.48165
 30
0.0
 11
178.6599
 21
242.44465
 31
0.0
  0
LINE
  5
14F6
330
1D
100
AcDbEntity
  8
0
100
AcDbLine
 10
175.7568
 20
246.26965
 30
0.0
 11
178.8805
 21
247.02065
 31
0.0
  0
LINE
  5
14F7
330
1D
100
AcDbEntity
  8
0
100
AcDbLine
 10
175.7568
 20
246.26865
 30
0.0
 11
178.8808
 21
247.02065
 31
0.0
  0
LINE
  5
14F8
330
1D
100
AcDbEntity
  8
0
100
AcDbLine
 10
169.7092
 20
246.29665
 30
0.0
 11
172.7703
 21
247.69165
 31
0.0
  0
LINE
  5
14F9
330
1D
100
AcDbEntity
  8
0
100
AcDbLine
 10
204.1241
 20
3.75325
 30
0.0
 11
209.8905
 21
6.33293
 31
0.0
  0
LINE
  5
14FA
330
1D
100
AcDbEntity
  8
0
100
AcDbLine
 10
209.8905
 20
6.33293
 30
0.0
 11
215.365
 21
9.64097
 31
0.0
  0
LINE
  5
14FB
330
1D
100
AcDbEntity
  8
0
100
AcDbLine
 10
204.1241
 20
12.62824
 30
0.0
 11
209.8905
 21
15.207877
 31
0.0
  0
LINE
  5
14FC
330
1D
100
AcDbEntity
  8
0
100
AcDbLine
 10
209.5255
 20
93.56005
 30
0.0
 11
214.927
 21
90.25225
 31
0.0
  0
LINE
  5
14FD
330
1D
100
AcDbEntity
  8
0
100
AcDbLine
 10
204.1241
 20
96.24665
 30
0.0
 11
209.8905
 21
93.66665
 31
0.0
  0
LINE
  5
14FE
330
1D
100
AcDbEntity
  8
0
100
AcDbLine
 10
203.8321
 20
96.00775
 30
0.0
 11
209.5255
 21
93.56005
 31
0.0
  0
LINE
  5
14FF
330
1D
100
AcDbEntity
  8
0
100
AcDbLine
 10
209.8905
 20
93.66665
 30
0.0
 11
215.365
 21
90.35885
 31
0.0
  0
LINE
  5
1500
330
1D
100
AcDbEntity
  8
0
100
AcDbLine
 10
209.8905
 20
15.207877
 30
0.0
 11
215.365
 21
18.51591
 31
0.0
  0
LINE
  5
1501
330
1D
100
AcDbEntity
  8
0
100
AcDbLine
 10
209.5255
 20
16.16002
 30
0.0
 11
214.927
 21
19.46805
 31
0.0
  0
LINE
  5
1502
330
1D
100
AcDbEntity
  8
0
100
AcDbLine
 10
203.8321
 20
13.71226
 30
0.0
 11
209.5255
 21
16.16002
 31
0.0
  0
LINE
  5
1503
330
1D
100
AcDbEntity
  8
0
100
AcDbLine
 10
220.3285
 20
13.54442
 30
0.0
 11
224.635
 21
18.04238
 31
0.0
  0
LINE
  5
1504
330
1D
100
AcDbEntity
  8
0
100
AcDbLine
 10
215.365
 20
9.64097
 30
0.0
 11
220.3285
 21
13.54442
 31
0.0
  0
LINE
  5
1505
330
1D
100
AcDbEntity
  8
0
100
AcDbLine
 10
224.635
 20
18.04238
 30
0.0
 11
228.2847
 21
23.00389
 31
0.0
  0
LINE
  5
1506
330
1D
100
AcDbEntity
  8
0
100
AcDbLine
 10
215.365
 20
18.51591
 30
0.0
 11
220.3285
 21
22.41945
 31
0.0
  0
LINE
  5
1507
330
1D
100
AcDbEntity
  8
0
100
AcDbLine
 10
214.927
 20
19.46805
 30
0.0
 11
219.8175
 21
23.30461
 31
0.0
  0
LINE
  5
1508
330
1D
100
AcDbEntity
  8
0
100
AcDbLine
 10
220.3285
 20
22.41945
 30
0.0
 11
224.635
 21
26.91735
 31
0.0
  0
LINE
  5
1509
330
1D
100
AcDbEntity
  8
0
100
AcDbLine
 10
228.2847
 20
23.00389
 30
0.0
 11
231.1314
 21
28.23015
 31
0.0
  0
LINE
  5
150A
330
1D
100
AcDbEntity
  8
0
100
AcDbLine
 10
219.8175
 20
23.30461
 30
0.0
 11
224.0511
 21
27.73655
 31
0.0
  0
LINE
  5
150B
330
1D
100
AcDbEntity
  8
0
100
AcDbLine
 10
231.1314
 20
28.23015
 30
0.0
 11
233.1752
 21
33.85315
 31
0.0
  0
LINE
  5
150C
330
1D
100
AcDbEntity
  8
0
100
AcDbLine
 10
224.635
 20
26.91735
 30
0.0
 11
228.2847
 21
31.87895
 31
0.0
  0
LINE
  5
150D
330
1D
100
AcDbEntity
  8
0
100
AcDbLine
 10
224.0511
 20
27.73655
 30
0.0
 11
227.7007
 21
32.63215
 31
0.0
  0
LINE
  5
150E
330
1D
100
AcDbEntity
  8
0
100
AcDbLine
 10
499.205
 20
13.58035
 30
0.0
 11
502.957
 21
11.64235
 31
0.0
  0
LINE
  5
150F
330
1D
100
AcDbEntity
  8
0
100
AcDbLine
 10
502.957
 20
11.64235
 30
0.0
 11
507.291
 21
10.45705
 31
0.0
  0
LINE
  5
1510
330
1D
100
AcDbEntity
  8
0
100
AcDbLine
 10
502.958
 20
11.64235
 30
0.0
 11
507.291
 21
10.45695
 31
0.0
  0
LINE
  5
1511
330
1D
100
AcDbEntity
  8
0
100
AcDbLine
 10
507.291
 20
10.45705
 30
0.0
 11
511.91
 21
10.10515
 31
0.0
  0
LINE
  5
1512
330
1D
100
AcDbEntity
  8
0
100
AcDbLine
 10
507.291
 20
10.45695
 30
0.0
 11
511.911
 21
10.10525
 31
0.0
  0
LINE
  5
1513
330
1D
100
AcDbEntity
  8
0
100
AcDbLine
 10
511.91
 20
10.10515
 30
0.0
 11
516.501
 21
10.61075
 31
0.0
  0
LINE
  5
1514
330
1D
100
AcDbEntity
  8
0
100
AcDbLine
 10
516.502
 20
10.61075
 30
0.0
 11
520.565
 21
11.77705
 31
0.0
  0
LINE
  5
1515
330
1D
100
AcDbEntity
  8
0
100
AcDbLine
 10
511.911
 20
10.10525
 30
0.0
 11
516.502
 21
10.61075
 31
0.0
  0
LINE
  5
1516
330
1D
100
AcDbEntity
  8
0
100
AcDbLine
 10
520.565
 20
11.77705
 30
0.0
 11
524.111
 21
13.79655
 31
0.0
  0
LINE
  5
1517
330
1D
100
AcDbEntity
  8
0
100
AcDbLine
 10
524.369
 20
14.00035
 30
0.0
 11
525.554
 21
15.07295
 31
0.0
  0
LINE
  5
1518
330
1D
100
AcDbEntity
  8
0
100
AcDbLine
 10
525.554
 20
15.07295
 30
0.0
 11
527.11
 21
16.65345
 31
0.0
  0
LINE
  5
1519
330
1D
100
AcDbEntity
  8
0
100
AcDbLine
 10
527.11
 20
16.65345
 30
0.0
 11
527.479
 21
17.22745
 31
0.0
  0
LINE
  5
151A
330
1D
100
AcDbEntity
  8
0
100
AcDbLine
 10
527.479
 20
17.22715
 30
0.0
 11
528.203
 21
18.39895
 31
0.0
  0
LINE
  5
151B
330
1D
100
AcDbEntity
  8
0
100
AcDbLine
 10
527.479
 20
17.22745
 30
0.0
 11
528.203
 21
18.39895
 31
0.0
  0
LINE
  5
151C
330
1D
100
AcDbEntity
  8
0
100
AcDbLine
 10
528.203
 20
18.39895
 30
0.0
 11
528.786
 21
19.71745
 31
0.0
  0
LINE
  5
151D
330
1D
100
AcDbEntity
  8
0
100
AcDbLine
 10
529.329
 20
22.14505
 30
0.0
 11
529.346
 21
22.39665
 31
0.0
  0
LINE
  5
151E
330
1D
100
AcDbEntity
  8
0
100
AcDbLine
 10
529.346
 20
22.40855
 30
0.0
 11
529.356
 21
22.64895
 31
0.0
  0
LINE
  5
151F
330
1D
100
AcDbEntity
  8
0
100
AcDbLine
 10
529.329
 20
22.14475
 30
0.0
 11
529.346
 21
22.39685
 31
0.0
  0
LINE
  5
1520
330
1D
100
AcDbEntity
  8
0
100
AcDbLine
 10
528.967
 20
20.24075
 30
0.0
 11
529.329
 21
22.14475
 31
0.0
  0
LINE
  5
1521
330
1D
100
AcDbEntity
  8
0
100
AcDbLine
 10
528.967
 20
20.24075
 30
0.0
 11
529.329
 21
22.14505
 31
0.0
  0
LINE
  5
1522
330
1D
100
AcDbEntity
  8
0
100
AcDbLine
 10
529.346
 20
22.40865
 30
0.0
 11
529.356
 21
22.64875
 31
0.0
  0
LINE
  5
1523
330
1D
100
AcDbEntity
  8
0
100
AcDbLine
 10
528.786
 20
19.71745
 30
0.0
 11
528.967
 21
20.24075
 31
0.0
  0
LINE
  5
1524
330
1D
100
AcDbEntity
  8
0
100
AcDbLine
 10
524.111
 20
13.79655
 30
0.0
 11
524.37
 21
14.00035
 31
0.0
  0
LINE
  5
1525
330
1D
100
AcDbEntity
  8
0
100
AcDbLine
 10
233.1752
 20
33.85315
 30
0.0
 11
234.4891
 21
39.74085
 31
0.0
  0
LINE
  5
1526
330
1D
100
AcDbEntity
  8
0
100
AcDbLine
 10
228.2847
 20
31.87895
 30
0.0
 11
231.1314
 21
37.10515
 31
0.0
  0
LINE
  5
1527
330
1D
100
AcDbEntity
  8
0
100
AcDbLine
 10
231.1314
 20
37.10515
 30
0.0
 11
233.1752
 21
42.72805
 31
0.0
  0
LINE
  5
1528
330
1D
100
AcDbEntity
  8
0
100
AcDbLine
 10
227.7007
 20
32.63215
 30
0.0
 11
230.4015
 21
37.79255
 31
0.0
  0
LINE
  5
1529
330
1D
100
AcDbEntity
  8
0
100
AcDbLine
 10
230.4015
 20
37.79255
 30
0.0
 11
232.5182
 21
43.61425
 31
0.0
  0
LINE
  5
152A
330
1D
100
AcDbEntity
  8
0
100
AcDbLine
 10
234.4891
 20
39.74085
 30
0.0
 11
235.0
 21
45.56255
 31
0.0
  0
LINE
  5
152B
330
1D
100
AcDbEntity
  8
0
100
AcDbLine
 10
491.5
 20
39.29555
 30
0.0
 11
492.827
 21
28.42075
 31
0.0
  0
LINE
  5
152C
330
1D
100
AcDbEntity
  8
0
100
AcDbLine
 10
233.1752
 20
42.72805
 30
0.0
 11
234.4891
 21
48.61575
 31
0.0
  0
LINE
  5
152D
330
1D
100
AcDbEntity
  8
0
100
AcDbLine
 10
232.5182
 20
43.61425
 30
0.0
 11
233.7591
 21
49.10435
 31
0.0
  0
LINE
  5
152E
330
1D
100
AcDbEntity
  8
0
100
AcDbLine
 10
233.1752
 20
66.14665
 30
0.0
 11
234.4891
 21
60.25905
 31
0.0
  0
LINE
  5
152F
330
1D
100
AcDbEntity
  8
0
100
AcDbLine
 10
232.5182
 20
66.10615
 30
0.0
 11
233.7591
 21
60.61545
 31
0.0
  0
LINE
  5
1530
330
1D
100
AcDbEntity
  8
0
100
AcDbLine
 10
233.7591
 20
60.61545
 30
0.0
 11
234.2701
 21
54.86015
 31
0.0
  0
LINE
  5
1531
330
1D
100
AcDbEntity
  8
0
100
AcDbLine
 10
235.0
 20
45.56255
 30
0.0
 11
235.0
 21
54.43755
 31
0.0
  0
LINE
  5
1532
330
1D
100
AcDbEntity
  8
0
100
AcDbLine
 10
235.0
 20
54.43755
 30
0.0
 11
235.0
 21
45.56255
 31
0.0
  0
LINE
  5
1533
330
1D
100
AcDbEntity
  8
0
100
AcDbLine
 10
234.4891
 20
60.25905
 30
0.0
 11
235.0
 21
54.43755
 31
0.0
  0
LINE
  5
1534
330
1D
100
AcDbEntity
  8
0
100
AcDbLine
 10
234.4891
 20
48.61575
 30
0.0
 11
235.0
 21
54.43755
 31
0.0
  0
LINE
  5
1535
330
1D
100
AcDbEntity
  8
0
100
AcDbLine
 10
233.7591
 20
49.10435
 30
0.0
 11
234.2701
 21
54.86015
 31
0.0
  0
LINE
  5
1536
330
1D
100
AcDbEntity
  8
0
100
AcDbLine
 10
487.782895922551
 20
71.715353824067
 30
0.0
 11
491.5
 21
39.29525
 31
0.0
  0
LINE
  5
1537
330
1D
100
AcDbEntity
  8
0
100
AcDbLine
 10
228.2847
 20
76.99585
 30
0.0
 11
231.1314
 21
71.76985
 31
0.0
  0
LINE
  5
1538
330
1D
100
AcDbEntity
  8
0
100
AcDbLine
 10
215.365
 20
90.35885
 30
0.0
 11
220.3285
 21
86.45595
 31
0.0
  0
LINE
  5
1539
330
1D
100
AcDbEntity
  8
0
100
AcDbLine
 10
214.927
 20
90.25225
 30
0.0
 11
219.8175
 21
86.41545
 31
0.0
  0
LINE
  5
153A
330
1D
100
AcDbEntity
  8
0
100
AcDbLine
 10
220.3285
 20
86.45595
 30
0.0
 11
224.635
 21
81.95745
 31
0.0
  0
LINE
  5
153B
330
1D
100
AcDbEntity
  8
0
100
AcDbLine
 10
219.8175
 20
86.41545
 30
0.0
 11
224.0511
 21
81.98305
 31
0.0
  0
LINE
  5
153C
330
1D
100
AcDbEntity
  8
0
100
AcDbLine
 10
224.635
 20
81.95745
 30
0.0
 11
228.2847
 21
76.99585
 31
0.0
  0
LINE
  5
153D
330
1D
100
AcDbEntity
  8
0
100
AcDbLine
 10
224.0511
 20
81.98305
 30
0.0
 11
227.7007
 21
77.08775
 31
0.0
  0
LINE
  5
153E
330
1D
100
AcDbEntity
  8
0
100
AcDbLine
 10
227.7007
 20
77.08775
 30
0.0
 11
230.4015
 21
71.92775
 31
0.0
  0
LINE
  5
153F
330
1D
100
AcDbEntity
  8
0
100
AcDbLine
 10
231.1314
 20
71.76985
 30
0.0
 11
233.1752
 21
66.14665
 31
0.0
  0
LINE
  5
1540
330
1D
100
AcDbEntity
  8
0
100
AcDbLine
 10
230.4015
 20
71.92775
 30
0.0
 11
232.5182
 21
66.10615
 31
0.0
  0
LINE
  5
1541
330
1D
100
AcDbEntity
  8
0
100
AcDbLine
 10
477.69
 20
169.48365
 30
0.0
 11
477.751
 21
172.24965
 31
0.0
  0
LINE
  5
1542
330
1D
100
AcDbEntity
  8
0
100
AcDbLine
 10
477.685
 20
168.84865
 30
0.0
 11
478.096
 21
159.93465
 31
0.0
  0
LINE
  5
1543
330
1D
100
AcDbEntity
  8
0
100
AcDbLine
 10
477.685
 20
168.84865
 30
0.0
 11
477.69
 21
169.48365
 31
0.0
  0
LINE
  5
1544
330
1D
100
AcDbEntity
  8
0
100
AcDbLine
 10
477.751
 20
172.24965
 30
0.0
 11
477.85
 21
174.36465
 31
0.0
  0
LINE
  5
1545
330
1D
100
AcDbEntity
  8
0
100
AcDbLine
 10
294.326
 20
182.66865
 30
0.0
 11
294.99
 21
182.63665
 31
0.0
  0
LINE
  5
1546
330
1D
100
AcDbEntity
  8
0
100
AcDbLine
 10
293.213
 20
182.87865
 30
0.0
 11
294.326
 21
182.66865
 31
0.0
  0
LINE
  5
1547
330
1D
100
AcDbEntity
  8
0
100
AcDbLine
 10
477.838
 20
175.66065
 30
0.0
 11
477.85
 21
174.36565
 31
0.0
  0
LINE
  5
1548
330
1D
100
AcDbEntity
  8
0
100
AcDbLine
 10
477.838
 20
175.66065
 30
0.0
 11
478.192
 21
179.88365
 31
0.0
  0
LINE
  5
1549
330
1D
100
AcDbEntity
  8
0
100
AcDbLine
 10
477.751
 20
172.25065
 30
0.0
 11
477.85
 21
174.36565
 31
0.0
  0
LINE
  5
154A
330
1D
100
AcDbEntity
  8
0
100
AcDbLine
 10
479.866
 20
141.28365
 30
0.0
 11
485.468
 21
91.56085
 31
0.0
  0
LINE
  5
154B
330
1D
100
AcDbEntity
  8
0
100
AcDbLine
 10
478.82
 20
184.69065
 30
0.0
 11
480.28
 21
191.19165
 31
0.0
  0
LINE
  5
154C
330
1D
100
AcDbEntity
  8
0
100
AcDbLine
 10
478.192
 20
179.88365
 30
0.0
 11
478.82
 21
184.69065
 31
0.0
  0
LINE
  5
154D
330
1D
100
AcDbEntity
  8
0
100
AcDbLine
 10
480.28
 20
191.19165
 30
0.0
 11
481.538
 21
195.20565
 31
0.0
  0
LINE
  5
154E
330
1D
100
AcDbEntity
  8
0
100
AcDbLine
 10
481.538
 20
195.20565
 30
0.0
 11
482.923
 21
198.70165
 31
0.0
  0
LINE
  5
154F
330
1D
100
AcDbEntity
  8
0
100
AcDbLine
 10
492.457
 20
196.35265
 30
0.0
 11
493.593
 21
194.85165
 31
0.0
  0
LINE
  5
1550
330
1D
100
AcDbEntity
  8
0
100
AcDbLine
 10
493.593
 20
194.85165
 30
0.0
 11
496.404
 21
191.91165
 31
0.0
  0
LINE
  5
1551
330
1D
100
AcDbEntity
  8
0
100
AcDbLine
 10
493.593
 20
194.85165
 30
0.0
 11
496.403
 21
191.91165
 31
0.0
  0
LINE
  5
1552
330
1D
100
AcDbEntity
  8
0
100
AcDbLine
 10
492.456
 20
196.35265
 30
0.0
 11
493.593
 21
194.85165
 31
0.0
  0
LINE
  5
1553
330
1D
100
AcDbEntity
  8
0
100
AcDbLine
 10
478.096
 20
159.93465
 30
0.0
 11
479.866
 21
141.28365
 31
0.0
  0
LINE
  5
1554
330
1D
100
AcDbEntity
  8
0
100
AcDbLine
 10
487.782895922551
 20
71.715353824067
 30
0.0
 11
491.5
 21
39.29525
 31
0.0
  0
LINE
  5
1555
330
1D
100
AcDbEntity
  8
0
100
AcDbLine
 10
496.404
 20
191.91165
 30
0.0
 11
498.481
 21
190.20265
 31
0.0
  0
LINE
  5
1556
330
1D
100
AcDbEntity
  8
0
100
AcDbLine
 10
496.403
 20
191.91165
 30
0.0
 11
498.481
 21
190.20265
 31
0.0
  0
LINE
  5
1557
330
1D
100
AcDbEntity
  8
0
100
AcDbLine
 10
498.481
 20
190.20265
 30
0.0
 11
500.676
 21
188.72465
 31
0.0
  0
LINE
  5
1558
330
1D
100
AcDbEntity
  8
0
100
AcDbLine
 10
498.481
 20
190.20265
 30
0.0
 11
500.675
 21
188.72465
 31
0.0
  0
LINE
  5
1559
330
1D
100
AcDbEntity
  8
0
100
AcDbLine
 10
507.733
 20
185.70465
 30
0.0
 11
510.172
 21
185.17965
 31
0.0
  0
LINE
  5
155A
330
1D
100
AcDbEntity
  8
0
100
AcDbLine
 10
512.617
 20
184.90165
 30
0.0
 11
515.047
 21
184.87165
 31
0.0
  0
LINE
  5
155B
330
1D
100
AcDbEntity
  8
0
100
AcDbLine
 10
510.172
 20
185.17965
 30
0.0
 11
512.617
 21
184.90065
 31
0.0
  0
LINE
  5
155C
330
1D
100
AcDbEntity
  8
0
100
AcDbLine
 10
510.172
 20
185.17965
 30
0.0
 11
512.617
 21
184.90165
 31
0.0
  0
LINE
  5
155D
330
1D
100
AcDbEntity
  8
0
100
AcDbLine
 10
515.047
 20
184.87165
 30
0.0
 11
517.263
 21
185.06765
 31
0.0
  0
LINE
  5
155E
330
1D
100
AcDbEntity
  8
0
100
AcDbLine
 10
515.046
 20
184.87265
 30
0.0
 11
517.263
 21
185.06765
 31
0.0
  0
LINE
  5
155F
330
1D
100
AcDbEntity
  8
0
100
AcDbLine
 10
517.263
 20
185.06765
 30
0.0
 11
519.637
 21
185.51765
 31
0.0
  0
LINE
  5
1560
330
1D
100
AcDbEntity
  8
0
100
AcDbLine
 10
517.263
 20
185.06765
 30
0.0
 11
519.637
 21
185.51865
 31
0.0
  0
LINE
  5
1561
330
1D
100
AcDbEntity
  8
0
100
AcDbLine
 10
519.637
 20
185.51865
 30
0.0
 11
521.946
 21
186.20665
 31
0.0
  0
LINE
  5
1562
330
1D
100
AcDbEntity
  8
0
100
AcDbLine
 10
519.637
 20
185.51765
 30
0.0
 11
521.946
 21
186.20565
 31
0.0
  0
LINE
  5
1563
330
1D
100
AcDbEntity
  8
0
100
AcDbLine
 10
512.617
 20
184.90065
 30
0.0
 11
515.046
 21
184.87265
 31
0.0
  0
LINE
  5
1564
330
1D
100
AcDbEntity
  8
0
100
AcDbLine
 10
507.734
 20
185.70465
 30
0.0
 11
510.172
 21
185.17965
 31
0.0
  0
LINE
  5
1565
330
1D
100
AcDbEntity
  8
0
100
AcDbLine
 10
529.308
 20
143.63165
 30
0.0
 11
530.456
 21
174.77165
 31
0.0
  0
LINE
  5
1566
330
1D
100
AcDbEntity
  8
0
100
AcDbLine
 10
530.866
 20
178.54965
 30
0.0
 11
531.932
 21
185.53165
 31
0.0
  0
LINE
  5
1567
330
1D
100
AcDbEntity
  8
0
100
AcDbLine
 10
533.201
 20
184.87265
 30
0.0
 11
535.96
 21
186.73965
 31
0.0
  0
LINE
  5
1568
330
1D
100
AcDbEntity
  8
0
100
AcDbLine
 10
531.706955221394
 20
184.057670033558
 30
0.0
 11
533.201
 21
184.87265
 31
0.0
  0
LINE
  5
1569
330
1D
100
AcDbEntity
  8
0
100
AcDbLine
 10
530.456
 20
174.77165
 30
0.0
 11
530.866
 21
178.54965
 31
0.0
  0
LINE
  5
156A
330
1D
100
AcDbEntity
  8
0
100
AcDbLine
 10
531.932
 20
185.53165
 30
0.0
 11
533.068
 21
191.23865
 31
0.0
  0
LINE
  5
156B
330
1D
100
AcDbEntity
  8
0
100
AcDbLine
 10
529.248
 20
93.79635
 30
0.0
 11
529.397
 21
40.22975
 31
0.0
  0
LINE
  5
156C
330
1D
100
AcDbEntity
  8
0
100
AcDbLine
 10
529.248
 20
93.79635
 30
0.0
 11
529.308
 21
143.63165
 31
0.0
  0
LINE
  5
156D
330
1D
100
AcDbEntity
  8
0
100
AcDbLine
 10
521.946
 20
186.20665
 30
0.0
 11
524.177
 21
187.12065
 31
0.0
  0
LINE
  5
156E
330
1D
100
AcDbEntity
  8
0
100
AcDbLine
 10
505.324
 20
186.47265
 30
0.0
 11
507.733
 21
185.70465
 31
0.0
  0
LINE
  5
156F
330
1D
100
AcDbEntity
  8
0
100
AcDbLine
 10
505.323
 20
186.47265
 30
0.0
 11
507.734
 21
185.70465
 31
0.0
  0
LINE
  5
1570
330
1D
100
AcDbEntity
  8
0
100
AcDbLine
 10
502.963
 20
187.47965
 30
0.0
 11
505.324
 21
186.47265
 31
0.0
  0
LINE
  5
1571
330
1D
100
AcDbEntity
  8
0
100
AcDbLine
 10
500.675
 20
188.72465
 30
0.0
 11
502.963
 21
187.47965
 31
0.0
  0
LINE
  5
1572
330
1D
100
AcDbEntity
  8
0
100
AcDbLine
 10
500.676
 20
188.72465
 30
0.0
 11
502.964
 21
187.47965
 31
0.0
  0
LINE
  5
1573
330
1D
100
AcDbEntity
  8
0
100
AcDbLine
 10
502.964
 20
187.47965
 30
0.0
 11
505.323
 21
186.47265
 31
0.0
  0
LINE
  5
1574
330
1D
100
AcDbEntity
  8
0
100
AcDbLine
 10
526.314
 20
188.24965
 30
0.0
 11
528.344
 21
189.58465
 31
0.0
  0
LINE
  5
1575
330
1D
100
AcDbEntity
  8
0
100
AcDbLine
 10
524.177
 20
187.12065
 30
0.0
 11
526.314
 21
188.25065
 31
0.0
  0
LINE
  5
1576
330
1D
100
AcDbEntity
  8
0
100
AcDbLine
 10
524.177
 20
187.12065
 30
0.0
 11
526.314
 21
188.24965
 31
0.0
  0
LINE
  5
1577
330
1D
100
AcDbEntity
  8
0
100
AcDbLine
 10
532.147800621197
 20
186.615782170044
 30
0.0
 11
533.072
 21
187.15865
 31
0.0
  0
LINE
  5
1578
330
1D
100
AcDbEntity
  8
0
100
AcDbLine
 10
533.072
 20
187.15865
 30
0.0
 11
535.692
 21
189.06365
 31
0.0
  0
LINE
  5
1579
330
1D
100
AcDbEntity
  8
0
100
AcDbLine
 10
535.96
 20
186.73965
 30
0.0
 11
537.618920214956
 21
188.109809570063
 31
0.0
  0
LINE
  5
157A
330
1D
100
AcDbEntity
  8
0
100
AcDbLine
 10
532.147712081267
 20
186.615337366014
 30
0.0
 11
533.073
 21
187.15865
 31
0.0
  0
LINE
  5
157B
330
1D
100
AcDbEntity
  8
0
100
AcDbLine
 10
528.344
 20
189.58465
 30
0.0
 11
537.536
 21
197.90365
 31
0.0
  0
LINE
  5
157C
330
1D
100
AcDbEntity
  8
0
100
AcDbLine
 10
533.068
 20
191.23865
 30
0.0
 11
533.778772928247
 21
194.092510999779
 31
0.0
  0
LINE
  5
157D
330
1D
100
AcDbEntity
  8
0
100
AcDbLine
 10
535.692
 20
189.06365
 30
0.0
 11
538.111
 21
191.21665
 31
0.0
  0
LINE
  5
157E
330
1D
100
AcDbEntity
  8
0
100
AcDbLine
 10
535.692
 20
189.06465
 30
0.0
 11
538.111
 21
191.21665
 31
0.0
  0
LINE
  5
157F
330
1D
100
AcDbEntity
  8
0
100
AcDbLine
 10
538.111
 20
191.21665
 30
0.0
 11
540.307
 21
193.59565
 31
0.0
  0
LINE
  5
1580
330
1D
100
AcDbEntity
  8
0
100
AcDbLine
 10
538.111
 20
191.21665
 30
0.0
 11
540.307
 21
193.59665
 31
0.0
  0
LINE
  5
1581
330
1D
100
AcDbEntity
  8
0
100
AcDbLine
 10
540.307
 20
193.59665
 30
0.0
 11
542.261
 21
196.17965
 31
0.0
  0
LINE
  5
1582
330
1D
100
AcDbEntity
  8
0
100
AcDbLine
 10
542.261
 20
196.17965
 30
0.0
 11
543.951
 21
198.94165
 31
0.0
  0
LINE
  5
1583
330
1D
100
AcDbEntity
  8
0
100
AcDbLine
 10
540.307
 20
193.59565
 30
0.0
 11
542.26
 21
196.17965
 31
0.0
  0
LINE
  5
1584
330
1D
100
AcDbEntity
  8
0
100
AcDbLine
 10
542.26
 20
196.17965
 30
0.0
 11
543.951
 21
198.94165
 31
0.0
  0
LINE
  5
1585
330
1D
100
AcDbEntity
  8
0
100
AcDbLine
 10
533.073
 20
187.15865
 30
0.0
 11
533.848628304786
 21
187.723335847563
 31
0.0
  0
LINE
  5
1586
330
1D
100
AcDbEntity
  8
0
100
AcDbLine
 10
533.073
 20
187.15865
 30
0.0
 11
535.692
 21
189.06465
 31
0.0
  0
LINE
  5
1587
330
1D
100
AcDbEntity
  8
0
100
AcDbLine
 10
526.314
 20
188.25065
 30
0.0
 11
528.344
 21
189.58465
 31
0.0
  0
LINE
  5
1588
330
1D
100
AcDbEntity
  8
0
100
AcDbLine
 10
521.946
 20
186.20565
 30
0.0
 11
524.177
 21
187.12065
 31
0.0
  0
LINE
  5
1589
330
1D
100
AcDbEntity
  8
0
100
AcDbLine
 10
482.923
 20
198.70165
 30
0.0
 11
485.288
 21
203.10665
 31
0.0
  0
LINE
  5
158A
330
1D
100
AcDbEntity
  8
0
100
AcDbLine
 10
491.468
 20
197.94565
 30
0.0
 11
492.456
 21
196.35265
 31
0.0
  0
LINE
  5
158B
330
1D
100
AcDbEntity
  8
0
100
AcDbLine
 10
491.468
 20
197.94465
 30
0.0
 11
492.457
 21
196.35265
 31
0.0
  0
LINE
  5
158C
330
1D
100
AcDbEntity
  8
0
100
AcDbLine
 10
531.79
 20
198.11765
 30
0.0
 11
534.808
 21
198.36865
 31
0.0
  0
LINE
  5
158D
330
1D
100
AcDbEntity
  8
0
100
AcDbLine
 10
531.791
 20
198.11765
 30
0.0
 11
534.808
 21
198.36865
 31
0.0
  0
LINE
  5
158E
330
1D
100
AcDbEntity
  8
0
100
AcDbLine
 10
537.536
 20
197.90365
 30
0.0
 11
542.593
 21
201.85765
 31
0.0
  0
LINE
  5
158F
330
1D
100
AcDbEntity
  8
0
100
AcDbLine
 10
528.744
 20
198.32765
 30
0.0
 11
531.791
 21
198.11765
 31
0.0
  0
LINE
  5
1590
330
1D
100
AcDbEntity
  8
0
100
AcDbLine
 10
534.808
 20
198.36865
 30
0.0
 11
536.273
 21
198.67165
 31
0.0
  0
LINE
  5
1591
330
1D
100
AcDbEntity
  8
0
100
AcDbLine
 10
528.744
 20
198.32665
 30
0.0
 11
531.79
 21
198.11765
 31
0.0
  0
LINE
  5
1592
330
1D
100
AcDbEntity
  8
0
100
AcDbLine
 10
527.234
 20
198.60165
 30
0.0
 11
528.744
 21
198.32665
 31
0.0
  0
LINE
  5
1593
330
1D
100
AcDbEntity
  8
0
100
AcDbLine
 10
527.234
 20
198.60165
 30
0.0
 11
528.744
 21
198.32765
 31
0.0
  0
LINE
  5
1594
330
1D
100
AcDbEntity
  8
0
100
AcDbLine
 10
543.951
 20
198.94165
 30
0.0
 11
545.361
 21
201.85665
 31
0.0
  0
LINE
  5
1595
330
1D
100
AcDbEntity
  8
0
100
AcDbLine
 10
543.951
 20
198.94165
 30
0.0
 11
545.362
 21
201.85665
 31
0.0
  0
LINE
  5
1596
330
1D
100
AcDbEntity
  8
0
100
AcDbLine
 10
543.951
 20
198.94165
 30
0.0
 11
545.361
 21
201.85765
 31
0.0
  0
LINE
  5
1597
330
1D
100
AcDbEntity
  8
0
100
AcDbLine
 10
524.786
 20
199.29965
 30
0.0
 11
527.234
 21
198.60165
 31
0.0
  0
LINE
  5
1598
330
1D
100
AcDbEntity
  8
0
100
AcDbLine
 10
524.787
 20
199.29965
 30
0.0
 11
527.234
 21
198.60165
 31
0.0
  0
LINE
  5
1599
330
1D
100
AcDbEntity
  8
0
100
AcDbLine
 10
485.288
 20
203.10665
 30
0.0
 11
487.274
 21
206.57965
 31
0.0
  0
LINE
  5
159A
330
1D
100
AcDbEntity
  8
0
100
AcDbLine
 10
489.847
 20
203.20865
 30
0.0
 11
490.011
 21
205.78765
 31
0.0
  0
LINE
  5
159B
330
1D
100
AcDbEntity
  8
0
100
AcDbLine
 10
489.847
 20
203.20865
 30
0.0
 11
490.118
 21
201.37965
 31
0.0
  0
LINE
  5
159C
330
1D
100
AcDbEntity
  8
0
100
AcDbLine
 10
490.118
 20
201.37965
 30
0.0
 11
490.674
 21
199.62365
 31
0.0
  0
LINE
  5
159D
330
1D
100
AcDbEntity
  8
0
100
AcDbLine
 10
482.813
 20
200.99165
 30
0.0
 11
483.449176338838
 21
199.681695146969
 31
0.0
  0
LINE
  5
159E
330
1D
100
AcDbEntity
  8
0
100
AcDbLine
 10
522.403
 20
200.30865
 30
0.0
 11
524.787
 21
199.29965
 31
0.0
  0
LINE
  5
159F
330
1D
100
AcDbEntity
  8
0
100
AcDbLine
 10
522.403
 20
200.30865
 30
0.0
 11
524.786
 21
199.29965
 31
0.0
  0
LINE
  5
15A0
330
1D
100
AcDbEntity
  8
0
100
AcDbLine
 10
519.74
 20
201.89065
 30
0.0
 11
522.403
 21
200.30865
 31
0.0
  0
LINE
  5
15A1
330
1D
100
AcDbEntity
  8
0
100
AcDbLine
 10
545.362
 20
201.85665
 30
0.0
 11
546.48
 21
204.89665
 31
0.0
  0
LINE
  5
15A2
330
1D
100
AcDbEntity
  8
0
100
AcDbLine
 10
544.793494475109
 20
200.68340276237
 30
0.0
 11
545.362
 21
201.85665
 31
0.0
  0
LINE
  5
15A3
330
1D
100
AcDbEntity
  8
0
100
AcDbLine
 10
545.361
 20
201.85765
 30
0.0
 11
546.48
 21
204.89565
 31
0.0
  0
LINE
  5
15A4
330
1D
100
AcDbEntity
  8
0
100
AcDbLine
 10
542.593
 20
201.85765
 30
0.0
 11
543.609
 21
202.80665
 31
0.0
  0
LINE
  5
15A5
330
1D
100
AcDbEntity
  8
0
100
AcDbLine
 10
543.609
 20
202.80665
 30
0.0
 11
544.793
 21
204.18665
 31
0.0
  0
LINE
  5
15A6
330
1D
100
AcDbEntity
  8
0
100
AcDbLine
 10
542.592
 20
201.85765
 30
0.0
 11
543.609
 21
202.80665
 31
0.0
  0
LINE
  5
15A7
330
1D
100
AcDbEntity
  8
0
100
AcDbLine
 10
545.361
 20
201.85665
 30
0.0
 11
545.9205
 21
203.37665
 31
0.0
  0
LINE
  5
15A8
330
1D
100
AcDbEntity
  8
0
100
AcDbLine
 10
490.674
 20
199.62365
 30
0.0
 11
491.468
 21
197.94565
 31
0.0
  0
LINE
  5
15A9
330
1D
100
AcDbEntity
  8
0
100
AcDbLine
 10
490.674
 20
199.62365
 30
0.0
 11
491.468
 21
197.94465
 31
0.0
  0
LINE
  5
15AA
330
1D
100
AcDbEntity
  8
0
100
AcDbLine
 10
490.118
 20
201.38065
 30
0.0
 11
490.674
 21
199.62365
 31
0.0
  0
LINE
  5
15AB
330
1D
100
AcDbEntity
  8
0
100
AcDbLine
 10
489.847
 20
203.20965
 30
0.0
 11
490.118
 21
201.38065
 31
0.0
  0
LINE
  5
15AC
330
1D
100
AcDbEntity
  8
0
100
AcDbLine
 10
489.847
 20
203.20965
 30
0.0
 11
490.01
 21
205.78665
 31
0.0
  0
LINE
  5
15AD
330
1D
100
AcDbEntity
  8
0
100
AcDbLine
 10
517.312
 20
203.86365
 30
0.0
 11
519.74
 21
201.89065
 31
0.0
  0
LINE
  5
15AE
330
1D
100
AcDbEntity
  8
0
100
AcDbLine
 10
481.65
 20
204.11265
 30
0.0
 11
482.813
 21
200.99165
 31
0.0
  0
LINE
  5
15AF
330
1D
100
AcDbEntity
  8
0
100
AcDbLine
 10
544.793
 20
204.18665
 30
0.0
 11
546.246
 21
206.52565
 31
0.0
  0
LINE
  5
15B0
330
1D
100
AcDbEntity
  8
0
100
AcDbLine
 10
517.313
 20
203.86365
 30
0.0
 11
519.74
 21
201.89065
 31
0.0
  0
LINE
  5
15B1
330
1D
100
AcDbEntity
  8
0
100
AcDbLine
 10
490.011
 20
205.78765
 30
0.0
 11
490.809
 21
208.44165
 31
0.0
  0
LINE
  5
15B2
330
1D
100
AcDbEntity
  8
0
100
AcDbLine
 10
512.585
 20
210.16865
 30
0.0
 11
513.386
 21
208.74465
 31
0.0
  0
LINE
  5
15B3
330
1D
100
AcDbEntity
  8
0
100
AcDbLine
 10
490.809
 20
208.44165
 30
0.0
 11
492.159
 21
211.17365
 31
0.0
  0
LINE
  5
15B4
330
1D
100
AcDbEntity
  8
0
100
AcDbLine
 10
490.809
 20
208.44165
 30
0.0
 11
492.158
 21
211.17365
 31
0.0
  0
LINE
  5
15B5
330
1D
100
AcDbEntity
  8
0
100
AcDbLine
 10
487.274
 20
206.57965
 30
0.0
 11
490.124
 21
210.58665
 31
0.0
  0
LINE
  5
15B6
330
1D
100
AcDbEntity
  8
0
100
AcDbLine
 10
490.01
 20
205.78665
 30
0.0
 11
490.809
 21
208.44165
 31
0.0
  0
LINE
  5
15B7
330
1D
100
AcDbEntity
  8
0
100
AcDbLine
 10
480.788
 20
207.32965
 30
0.0
 11
481.65
 21
204.11265
 31
0.0
  0
LINE
  5
15B8
330
1D
100
AcDbEntity
  8
0
100
AcDbLine
 10
490.124
 20
210.58665
 30
0.0
 11
492.028
 21
212.80665
 31
0.0
  0
LINE
  5
15B9
330
1D
100
AcDbEntity
  8
0
100
AcDbLine
 10
492.158
 20
211.17365
 30
0.0
 11
492.541
 21
211.81765
 31
0.0
  0
LINE
  5
15BA
330
1D
100
AcDbEntity
  8
0
100
AcDbLine
 10
489.24
 20
211.43865
 30
0.0
 11
489.581305981433
 21
209.82364125179
 31
0.0
  0
LINE
  5
15BB
330
1D
100
AcDbEntity
  8
0
100
AcDbLine
 10
492.159
 20
211.17365
 30
0.0
 11
492.541
 21
211.81765
 31
0.0
  0
LINE
  5
15BC
330
1D
100
AcDbEntity
  8
0
100
AcDbLine
 10
511.883
 20
211.63565
 30
0.0
 11
512.584
 21
210.16965
 31
0.0
  0
LINE
  5
15BD
330
1D
100
AcDbEntity
  8
0
100
AcDbLine
 10
511.882
 20
211.63565
 30
0.0
 11
512.585
 21
210.16865
 31
0.0
  0
LINE
  5
15BE
330
1D
100
AcDbEntity
  8
0
100
AcDbLine
 10
492.541
 20
211.81765
 30
0.0
 11
494.106
 21
214.15265
 31
0.0
  0
LINE
  5
15BF
330
1D
100
AcDbEntity
  8
0
100
AcDbLine
 10
492.541
 20
211.81765
 30
0.0
 11
494.106
 21
214.15365
 31
0.0
  0
LINE
  5
15C0
330
1D
100
AcDbEntity
  8
0
100
AcDbLine
 10
480.237
 20
210.61465
 30
0.0
 11
480.788
 21
207.32965
 31
0.0
  0
LINE
  5
15C1
330
1D
100
AcDbEntity
  8
0
100
AcDbLine
 10
512.584
 20
210.16965
 30
0.0
 11
513.386
 21
208.74565
 31
0.0
  0
LINE
  5
15C2
330
1D
100
AcDbEntity
  8
0
100
AcDbLine
 10
515.195
 20
206.15665
 30
0.0
 11
517.313
 21
203.86365
 31
0.0
  0
LINE
  5
15C3
330
1D
100
AcDbEntity
  8
0
100
AcDbLine
 10
515.195
 20
206.15665
 30
0.0
 11
517.312
 21
203.86365
 31
0.0
  0
LINE
  5
15C4
330
1D
100
AcDbEntity
  8
0
100
AcDbLine
 10
546.48
 20
204.89565
 30
0.0
 11
547.296
 21
208.03065
 31
0.0
  0
LINE
  5
15C5
330
1D
100
AcDbEntity
  8
0
100
AcDbLine
 10
547.296
 20
208.03065
 30
0.0
 11
547.8
 21
211.22865
 31
0.0
  0
LINE
  5
15C6
330
1D
100
AcDbEntity
  8
0
100
AcDbLine
 10
547.296
 20
208.03065
 30
0.0
 11
547.801
 21
211.22865
 31
0.0
  0
LINE
  5
15C7
330
1D
100
AcDbEntity
  8
0
100
AcDbLine
 10
546.48
 20
204.89665
 30
0.0
 11
547.296
 21
208.03065
 31
0.0
  0
LINE
  5
15C8
330
1D
100
AcDbEntity
  8
0
100
AcDbLine
 10
546.246
 20
206.52565
 30
0.0
 11
546.904
 21
208.04065
 31
0.0
  0
LINE
  5
15C9
330
1D
100
AcDbEntity
  8
0
100
AcDbLine
 10
546.904
 20
208.04065
 30
0.0
 11
547.303
 21
209.15165
 31
0.0
  0
LINE
  5
15CA
330
1D
100
AcDbEntity
  8
0
100
AcDbLine
 10
513.386
 20
208.74465
 30
0.0
 11
515.195
 21
206.15665
 31
0.0
  0
LINE
  5
15CB
330
1D
100
AcDbEntity
  8
0
100
AcDbLine
 10
547.801
 20
211.22865
 30
0.0
 11
547.808306962649
 21
211.354306437465
 31
0.0
  0
LINE
  5
15CC
330
1D
100
AcDbEntity
  8
0
100
AcDbLine
 10
547.8
 20
211.22865
 30
0.0
 11
547.807017148343
 21
211.348684077208
 31
0.0
  0
LINE
  5
15CD
330
1D
100
AcDbEntity
  8
0
100
AcDbLine
 10
547.303
 20
209.15165
 30
0.0
 11
548.016
 21
212.25965
 31
0.0
  0
LINE
  5
15CE
330
1D
100
AcDbEntity
  8
0
100
AcDbLine
 10
548.016
 20
212.25965
 30
0.0
 11
548.158
 21
214.11265
 31
0.0
  0
LINE
  5
15CF
330
1D
100
AcDbEntity
  8
0
100
AcDbLine
 10
513.386
 20
208.74565
 30
0.0
 11
515.195
 21
206.15665
 31
0.0
  0
LINE
  5
15D0
330
1D
100
AcDbEntity
  8
0
100
AcDbLine
 10
492.028
 20
212.80665
 30
0.0
 11
493.792
 21
215.08565
 31
0.0
  0
LINE
  5
15D1
330
1D
100
AcDbEntity
  8
0
100
AcDbLine
 10
511.102
 20
213.66765
 30
0.0
 11
511.883
 21
211.63565
 31
0.0
  0
LINE
  5
15D2
330
1D
100
AcDbEntity
  8
0
100
AcDbLine
 10
511.102
 20
213.66765
 30
0.0
 11
511.882
 21
211.63565
 31
0.0
  0
LINE
  5
15D3
330
1D
100
AcDbEntity
  8
0
100
AcDbLine
 10
489.043
 20
213.80465
 30
0.0
 11
489.24
 21
211.43865
 31
0.0
  0
LINE
  5
15D4
330
1D
100
AcDbEntity
  8
0
100
AcDbLine
 10
489.043
 20
213.80465
 30
0.0
 11
489.297
 21
218.52865
 31
0.0
  0
LINE
  5
15D5
330
1D
100
AcDbEntity
  8
0
100
AcDbLine
 10
494.106
 20
214.15365
 30
0.0
 11
495.33
 21
215.76165
 31
0.0
  0
LINE
  5
15D6
330
1D
100
AcDbEntity
  8
0
100
AcDbLine
 10
495.33
 20
215.76165
 30
0.0
 11
496.626
 21
217.28765
 31
0.0
  0
LINE
  5
15D7
330
1D
100
AcDbEntity
  8
0
100
AcDbLine
 10
510.424
 20
216.25265
 30
0.0
 11
511.102
 21
213.66765
 31
0.0
  0
LINE
  5
15D8
330
1D
100
AcDbEntity
  8
0
100
AcDbLine
 10
495.329
 20
215.76165
 30
0.0
 11
496.626
 21
217.28765
 31
0.0
  0
LINE
  5
15D9
330
1D
100
AcDbEntity
  8
0
100
AcDbLine
 10
494.106
 20
214.15265
 30
0.0
 11
495.329
 21
215.76165
 31
0.0
  0
LINE
  5
15DA
330
1D
100
AcDbEntity
  8
0
100
AcDbLine
 10
480.0
 20
213.93765
 30
0.0
 11
480.237
 21
210.61465
 31
0.0
  0
LINE
  5
15DB
330
1D
100
AcDbEntity
  8
0
100
AcDbLine
 10
480.0
 20
213.93765
 30
0.0
 11
480.08
 21
217.26665
 31
0.0
  0
LINE
  5
15DC
330
1D
100
AcDbEntity
  8
0
100
AcDbLine
 10
489.043
 20
213.80365
 30
0.0
 11
489.297
 21
218.52765
 31
0.0
  0
LINE
  5
15DD
330
1D
100
AcDbEntity
  8
0
100
AcDbLine
 10
489.043
 20
213.80365
 30
0.0
 11
489.24
 21
211.43865
 31
0.0
  0
LINE
  5
15DE
330
1D
100
AcDbEntity
  8
0
100
AcDbLine
 10
548.133
 20
216.21265
 30
0.0
 11
548.158
 21
214.11265
 31
0.0
  0
LINE
  5
15DF
330
1D
100
AcDbEntity
  8
0
100
AcDbLine
 10
496.626
 20
217.28765
 30
0.0
 11
497.328
 21
218.06065
 31
0.0
  0
LINE
  5
15E0
330
1D
100
AcDbEntity
  8
0
100
AcDbLine
 10
489.297
 20
218.52765
 30
0.0
 11
489.747
 21
220.85865
 31
0.0
  0
LINE
  5
15E1
330
1D
100
AcDbEntity
  8
0
100
AcDbLine
 10
480.08
 20
217.26665
 30
0.0
 11
480.476
 21
220.57465
 31
0.0
  0
LINE
  5
15E2
330
1D
100
AcDbEntity
  8
0
100
AcDbLine
 10
489.297
 20
218.52865
 30
0.0
 11
489.747
 21
220.85865
 31
0.0
  0
LINE
  5
15E3
330
1D
100
AcDbEntity
  8
0
100
AcDbLine
 10
548.038
 20
217.23665
 30
0.0
 11
548.133
 21
216.21265
 31
0.0
  0
LINE
  5
15E4
330
1D
100
AcDbEntity
  8
0
100
AcDbLine
 10
549.743
 20
218.91165
 30
0.0
 11
549.98
 21
215.58865
 31
0.0
  0
LINE
  5
15E5
330
1D
100
AcDbEntity
  8
0
100
AcDbLine
 10
510.091
 20
219.23665
 30
0.0
 11
510.224
 21
222.15765
 31
0.0
  0
LINE
  5
15E6
330
1D
100
AcDbEntity
  8
0
100
AcDbLine
 10
510.091
 20
219.23665
 30
0.0
 11
510.224
 21
222.15665
 31
0.0
  0
LINE
  5
15E7
330
1D
100
AcDbEntity
  8
0
100
AcDbLine
 10
510.091
 20
219.23665
 30
0.0
 11
510.424
 21
216.25265
 31
0.0
  0
LINE
  5
15E8
330
1D
100
AcDbEntity
  8
0
100
AcDbLine
 10
480.476
 20
220.57465
 30
0.0
 11
481.185
 21
223.82865
 31
0.0
  0
LINE
  5
15E9
330
1D
100
AcDbEntity
  8
0
100
AcDbLine
 10
480.602664647996
 20
221.155985352015
 30
0.0
 11
481.184
 21
223.82865
 31
0.0
  0
LINE
  5
15EA
330
1D
100
AcDbEntity
  8
0
100
AcDbLine
 10
481.184
 20
223.82865
 30
0.0
 11
481.692
 21
225.41465
 31
0.0
  0
LINE
  5
15EB
330
1D
100
AcDbEntity
  8
0
100
AcDbLine
 10
481.185
 20
223.82865
 30
0.0
 11
482.199
 21
227.00065
 31
0.0
  0
LINE
  5
15EC
330
1D
100
AcDbEntity
  8
0
100
AcDbLine
 10
489.747
 20
220.85865
 30
0.0
 11
491.027
 21
224.78365
 31
0.0
  0
LINE
  5
15ED
330
1D
100
AcDbEntity
  8
0
100
AcDbLine
 10
547.562
 20
219.74165
 30
0.0
 11
548.038
 21
217.23665
 31
0.0
  0
LINE
  5
15EE
330
1D
100
AcDbEntity
  8
0
100
AcDbLine
 10
510.224
 20
222.15765
 30
0.0
 11
510.864
 21
225.13265
 31
0.0
  0
LINE
  5
15EF
330
1D
100
AcDbEntity
  8
0
100
AcDbLine
 10
510.224
 20
222.15665
 30
0.0
 11
510.864
 21
225.13265
 31
0.0
  0
LINE
  5
15F0
330
1D
100
AcDbEntity
  8
0
100
AcDbLine
 10
546.577
 20
222.66465
 30
0.0
 11
547.562
 21
219.74165
 31
0.0
  0
LINE
  5
15F1
330
1D
100
AcDbEntity
  8
0
100
AcDbLine
 10
549.192
 20
222.19665
 30
0.0
 11
549.743
 21
218.91165
 31
0.0
  0
LINE
  5
15F2
330
1D
100
AcDbEntity
  8
0
100
AcDbLine
 10
491.027
 20
224.78365
 30
0.0
 11
492.914
 21
228.45965
 31
0.0
  0
LINE
  5
15F3
330
1D
100
AcDbEntity
  8
0
100
AcDbLine
 10
510.864
 20
225.13265
 30
0.0
 11
511.667
 21
227.24165
 31
0.0
  0
LINE
  5
15F4
330
1D
100
AcDbEntity
  8
0
100
AcDbLine
 10
545.348
 20
225.15565
 30
0.0
 11
546.577
 21
222.66465
 31
0.0
  0
LINE
  5
15F5
330
1D
100
AcDbEntity
  8
0
100
AcDbLine
 10
545.349
 20
225.15565
 30
0.0
 11
546.577
 21
222.66465
 31
0.0
  0
LINE
  5
15F6
330
1D
100
AcDbEntity
  8
0
100
AcDbLine
 10
507.569
 20
225.97165
 30
0.0
 11
515.626
 21
232.64365
 31
0.0
  0
LINE
  5
15F7
330
1D
100
AcDbEntity
  8
0
100
AcDbLine
 10
482.199
 20
227.00065
 30
0.0
 11
483.511
 21
230.06265
 31
0.0
  0
LINE
  5
15F8
330
1D
100
AcDbEntity
  8
0
100
AcDbLine
 10
492.914
 20
228.45965
 30
0.0
 11
495.386
 21
231.82265
 31
0.0
  0
LINE
  5
15F9
330
1D
100
AcDbEntity
  8
0
100
AcDbLine
 10
483.511
 20
230.06265
 30
0.0
 11
485.108
 21
232.98565
 31
0.0
  0
LINE
  5
15FA
330
1D
100
AcDbEntity
  8
0
100
AcDbLine
 10
543.379333618773
 20
228.163916925539
 30
0.0
 11
545.349
 21
225.15565
 31
0.0
  0
LINE
  5
15FB
330
1D
100
AcDbEntity
  8
0
100
AcDbLine
 10
543.376
 20
228.16965
 30
0.0
 11
545.348
 21
225.15565
 31
0.0
  0
LINE
  5
15FC
330
1D
100
AcDbEntity
  8
0
100
AcDbLine
 10
548.331
 20
225.41265
 30
0.0
 11
548.645780851707
 21
224.235150000069
 31
0.0
  0
LINE
  5
15FD
330
1D
100
AcDbEntity
  8
0
100
AcDbLine
 10
548.33
 20
225.41365
 30
0.0
 11
549.192
 21
222.19665
 31
0.0
  0
LINE
  5
15FE
330
1D
100
AcDbEntity
  8
0
100
AcDbLine
 10
547.167
 20
228.53465
 30
0.0
 11
548.33
 21
225.41365
 31
0.0
  0
LINE
  5
15FF
330
1D
100
AcDbEntity
  8
0
100
AcDbLine
 10
547.167
 20
228.53465
 30
0.0
 11
548.331
 21
225.41265
 31
0.0
  0
LINE
  5
1600
330
1D
100
AcDbEntity
  8
0
100
AcDbLine
 10
541.124
 20
230.56065
 30
0.0
 11
543.376
 21
228.16965
 31
0.0
  0
LINE
  5
1601
330
1D
100
AcDbEntity
  8
0
100
AcDbLine
 10
485.108
 20
232.98565
 30
0.0
 11
486.975
 21
235.74365
 31
0.0
  0
LINE
  5
1602
330
1D
100
AcDbEntity
  8
0
100
AcDbLine
 10
495.386
 20
231.82265
 30
0.0
 11
497.367
 21
233.86765
 31
0.0
  0
LINE
  5
1603
330
1D
100
AcDbEntity
  8
0
100
AcDbLine
 10
515.626
 20
232.64365
 30
0.0
 11
517.871
 21
234.25465
 31
0.0
  0
LINE
  5
1604
330
1D
100
AcDbEntity
  8
0
100
AcDbLine
 10
517.871
 20
234.25465
 30
0.0
 11
520.327
 21
235.37865
 31
0.0
  0
LINE
  5
1605
330
1D
100
AcDbEntity
  8
0
100
AcDbLine
 10
538.13
 20
232.98665
 30
0.0
 11
541.124
 21
230.56065
 31
0.0
  0
LINE
  5
1606
330
1D
100
AcDbEntity
  8
0
100
AcDbLine
 10
545.712
 20
231.53065
 30
0.0
 11
547.167
 21
228.53465
 31
0.0
  0
LINE
  5
1607
330
1D
100
AcDbEntity
  8
0
100
AcDbLine
 10
543.979
 20
234.37565
 30
0.0
 11
545.712
 21
231.53065
 31
0.0
  0
LINE
  5
1608
330
1D
100
AcDbEntity
  8
0
100
AcDbLine
 10
543.979
 20
234.37465
 30
0.0
 11
545.712
 21
231.53065
 31
0.0
  0
LINE
  5
1609
330
1D
100
AcDbEntity
  8
0
100
AcDbLine
 10
535.295
 20
234.59065
 30
0.0
 11
538.13
 21
232.98665
 31
0.0
  0
LINE
  5
160A
330
1D
100
AcDbEntity
  8
0
100
AcDbLine
 10
497.367
 20
233.86765
 30
0.0
 11
499.545
 21
235.67365
 31
0.0
  0
LINE
  5
160B
330
1D
100
AcDbEntity
  8
0
100
AcDbLine
 10
486.975
 20
235.74365
 30
0.0
 11
489.096
 21
238.31165
 31
0.0
  0
LINE
  5
160C
330
1D
100
AcDbEntity
  8
0
100
AcDbLine
 10
489.096
 20
238.31165
 30
0.0
 11
491.452
 21
240.66665
 31
0.0
  0
LINE
  5
160D
330
1D
100
AcDbEntity
  8
0
100
AcDbLine
 10
512.493
 20
236.44665
 30
0.0
 11
512.493
 21
235.193148561841
 31
0.0
  0
LINE
  5
160E
330
1D
100
AcDbEntity
  8
0
100
AcDbLine
 10
512.493
 20
235.193148561841
 30
0.0
 11
512.493
 21
236.44665
 31
0.0
  0
LINE
  5
160F
330
1D
100
AcDbEntity
  8
0
100
AcDbLine
 10
513.51
 20
235.21265
 30
0.0
 11
515.038
 21
235.24765
 31
0.0
  0
LINE
  5
1610
330
1D
100
AcDbEntity
  8
0
100
AcDbLine
 10
516.058
 20
235.24665
 30
0.0
 11
517.265
 21
235.23465
 31
0.0
  0
LINE
  5
1611
330
1D
100
AcDbEntity
  8
0
100
AcDbLine
 10
515.038
 20
235.24765
 30
0.0
 11
516.058
 21
235.24665
 31
0.0
  0
LINE
  5
1612
330
1D
100
AcDbEntity
  8
0
100
AcDbLine
 10
520.327
 20
235.37865
 30
0.0
 11
523.012
 21
236.08365
 31
0.0
  0
LINE
  5
1613
330
1D
100
AcDbEntity
  8
0
100
AcDbLine
 10
517.487
 20
235.259420526316
 30
0.0
 11
517.487
 21
236.44665
 31
0.0
  0
LINE
  5
1614
330
1D
100
AcDbEntity
  8
0
100
AcDbLine
 10
532.4
 20
235.65365
 30
0.0
 11
535.295
 21
234.59065
 31
0.0
  0
LINE
  5
1615
330
1D
100
AcDbEntity
  8
0
100
AcDbLine
 10
543.12485585587
 20
235.516505855837
 30
0.0
 11
543.979
 21
234.37565
 31
0.0
  0
LINE
  5
1616
330
1D
100
AcDbEntity
  8
0
100
AcDbLine
 10
529.204
 20
236.27165
 30
0.0
 11
532.4
 21
235.65365
 31
0.0
  0
LINE
  5
1617
330
1D
100
AcDbEntity
  8
0
100
AcDbLine
 10
525.964
 20
236.39365
 30
0.0
 11
529.204
 21
236.27165
 31
0.0
  0
LINE
  5
1618
330
1D
100
AcDbEntity
  8
0
100
AcDbLine
 10
529.632
 20
236.24465
 30
0.0
 11
529.730748949769
 21
236.169794289438
 31
0.0
  0
LINE
  5
1619
330
1D
100
AcDbEntity
  8
0
100
AcDbLine
 10
517.487
 20
236.44665
 30
0.0
 11
517.827
 21
239.03465
 31
0.0
  0
LINE
  5
161A
330
1D
100
AcDbEntity
  8
0
100
AcDbLine
 10
517.487
 20
236.44665
 30
0.0
 11
517.487
 21
235.259420526316
 31
0.0
  0
LINE
  5
161B
330
1D
100
AcDbEntity
  8
0
100
AcDbLine
 10
523.012
 20
236.08365
 30
0.0
 11
525.964
 21
236.39365
 31
0.0
  0
LINE
  5
161C
330
1D
100
AcDbEntity
  8
0
100
AcDbLine
 10
512.153
 20
239.03465
 30
0.0
 11
512.253345365555
 21
238.562144624831
 31
0.0
  0
LINE
  5
161D
330
1D
100
AcDbEntity
  8
0
100
AcDbLine
 10
527.47
 20
237.57265
 30
0.0
 11
529.632
 21
236.24465
 31
0.0
  0
LINE
  5
161E
330
1D
100
AcDbEntity
  8
0
100
AcDbLine
 10
527.469
 20
237.57265
 30
0.0
 11
529.632
 21
236.24465
 31
0.0
  0
LINE
  5
161F
330
1D
100
AcDbEntity
  8
0
100
AcDbLine
 10
525.187
 20
238.68365
 30
0.0
 11
527.469
 21
237.57265
 31
0.0
  0
LINE
  5
1620
330
1D
100
AcDbEntity
  8
0
100
AcDbLine
 10
525.187
 20
238.68365
 30
0.0
 11
527.47
 21
237.57265
 31
0.0
  0
LINE
  5
1621
330
1D
100
AcDbEntity
  8
0
100
AcDbLine
 10
517.827
 20
239.03465
 30
0.0
 11
518.139
 21
240.22365
 31
0.0
  0
LINE
  5
1622
330
1D
100
AcDbEntity
  8
0
100
AcDbLine
 10
504.379
 20
238.50265
 30
0.0
 11
506.937
 21
239.49065
 31
0.0
  0
LINE
  5
1623
330
1D
100
AcDbEntity
  8
0
100
AcDbLine
 10
504.379
 20
238.50265
 30
0.0
 11
506.936
 21
239.49065
 31
0.0
  0
LINE
  5
1624
330
1D
100
AcDbEntity
  8
0
100
AcDbLine
 10
501.891
 20
237.22265
 30
0.0
 11
504.379
 21
238.50265
 31
0.0
  0
LINE
  5
1625
330
1D
100
AcDbEntity
  8
0
100
AcDbLine
 10
499.545
 20
235.67365
 30
0.0
 11
501.891
 21
237.22265
 31
0.0
  0
LINE
  5
1626
330
1D
100
AcDbEntity
  8
0
100
AcDbLine
 10
512.467
 20
235.19265
 30
0.0
 11
513.51
 21
235.21265
 31
0.0
  0
LINE
  5
1627
330
1D
100
AcDbEntity
  8
0
100
AcDbLine
 10
494.021
 20
242.78665
 30
0.0
 11
496.78
 21
244.65265
 31
0.0
  0
LINE
  5
1628
330
1D
100
AcDbEntity
  8
0
100
AcDbLine
 10
492.736500000018
 20
241.726150000015
 30
0.0
 11
494.021
 21
242.78665
 31
0.0
  0
LINE
  5
1629
330
1D
100
AcDbEntity
  8
0
100
AcDbLine
 10
494.021
 20
242.78565
 30
0.0
 11
496.78
 21
244.65265
 31
0.0
  0
LINE
  5
162A
330
1D
100
AcDbEntity
  8
0
100
AcDbLine
 10
491.452
 20
240.66665
 30
0.0
 11
494.021
 21
242.78565
 31
0.0
  0
LINE
  5
162B
330
1D
100
AcDbEntity
  8
0
100
AcDbLine
 10
506.936
 20
239.49065
 30
0.0
 11
509.566
 21
240.19965
 31
0.0
  0
LINE
  5
162C
330
1D
100
AcDbEntity
  8
0
100
AcDbLine
 10
506.937
 20
239.49065
 30
0.0
 11
509.566
 21
240.19965
 31
0.0
  0
LINE
  5
162D
330
1D
100
AcDbEntity
  8
0
100
AcDbLine
 10
509.566
 20
240.19965
 30
0.0
 11
511.781358192952
 21
240.552954336348
 31
0.0
  0
LINE
  5
162E
330
1D
100
AcDbEntity
  8
0
100
AcDbLine
 10
518.139
 20
240.22365
 30
0.0
 11
518.386
 21
241.85965
 31
0.0
  0
LINE
  5
162F
330
1D
100
AcDbEntity
  8
0
100
AcDbLine
 10
520.347
 20
240.21365
 30
0.0
 11
522.806
 21
239.56665
 31
0.0
  0
LINE
  5
1630
330
1D
100
AcDbEntity
  8
0
100
AcDbLine
 10
511.49
 20
242.16165
 30
0.0
 11
511.841
 21
240.22365
 31
0.0
  0
LINE
  5
1631
330
1D
100
AcDbEntity
  8
0
100
AcDbLine
 10
518.386
 20
241.85965
 30
0.0
 11
518.476
 21
242.81165
 31
0.0
  0
LINE
  5
1632
330
1D
100
AcDbEntity
  8
0
100
AcDbLine
 10
518.188721815921
 20
240.552981541887
 30
0.0
 11
520.347
 21
240.21365
 31
0.0
  0
LINE
  5
1633
330
1D
100
AcDbEntity
  8
0
100
AcDbLine
 10
511.841
 20
240.22365
 30
0.0
 11
512.153
 21
239.03465
 31
0.0
  0
LINE
  5
1634
330
1D
100
AcDbEntity
  8
0
100
AcDbLine
 10
539.744
 20
239.50765
 30
0.0
 11
540.809963868225
 21
238.333613868226
 31
0.0
  0
LINE
  5
1635
330
1D
100
AcDbEntity
  8
0
100
AcDbLine
 10
537.28
 20
241.74765
 30
0.0
 11
539.744
 21
239.50765
 31
0.0
  0
LINE
  5
1636
330
1D
100
AcDbEntity
  8
0
100
AcDbLine
 10
537.279
 20
241.74765
 30
0.0
 11
539.744
 21
239.50665
 31
0.0
  0
LINE
  5
1637
330
1D
100
AcDbEntity
  8
0
100
AcDbLine
 10
522.806
 20
239.56665
 30
0.0
 11
525.187
 21
238.68365
 31
0.0
  0
LINE
  5
1638
330
1D
100
AcDbEntity
  8
0
100
AcDbLine
 10
518.476
 20
242.81165
 30
0.0
 11
518.519
 21
252.73265
 31
0.0
  0
LINE
  5
1639
330
1D
100
AcDbEntity
  8
0
100
AcDbLine
 10
496.78
 20
244.65265
 30
0.0
 11
499.703
 21
246.24765
 31
0.0
  0
LINE
  5
163A
330
1D
100
AcDbEntity
  8
0
100
AcDbLine
 10
496.78
 20
244.65265
 30
0.0
 11
499.704
 21
246.24865
 31
0.0
  0
LINE
  5
163B
330
1D
100
AcDbEntity
  8
0
100
AcDbLine
 10
499.704
 20
246.24865
 30
0.0
 11
502.765
 21
247.55865
 31
0.0
  0
LINE
  5
163C
330
1D
100
AcDbEntity
  8
0
100
AcDbLine
 10
499.703
 20
246.24765
 30
0.0
 11
502.766
 21
247.55865
 31
0.0
  0
LINE
  5
163D
330
1D
100
AcDbEntity
  8
0
100
AcDbLine
 10
534.614
 20
243.74465
 30
0.0
 11
537.28
 21
241.74765
 31
0.0
  0
LINE
  5
163E
330
1D
100
AcDbEntity
  8
0
100
AcDbLine
 10
534.614
 20
243.74365
 30
0.0
 11
537.279
 21
241.74765
 31
0.0
  0
LINE
  5
163F
330
1D
100
AcDbEntity
  8
0
100
AcDbLine
 10
531.77
 20
245.47865
 30
0.0
 11
534.614
 21
243.74365
 31
0.0
  0
LINE
  5
1640
330
1D
100
AcDbEntity
  8
0
100
AcDbLine
 10
531.77
 20
245.47865
 30
0.0
 11
534.614
 21
243.74465
 31
0.0
  0
LINE
  5
1641
330
1D
100
AcDbEntity
  8
0
100
AcDbLine
 10
178.8805
 20
247.02065
 30
0.0
 11
182.0618
 21
247.46365
 31
0.0
  0
LINE
  5
1642
330
1D
100
AcDbEntity
  8
0
100
AcDbLine
 10
178.8808
 20
247.02065
 30
0.0
 11
182.0626
 21
247.46365
 31
0.0
  0
LINE
  5
1643
330
1D
100
AcDbEntity
  8
0
100
AcDbLine
 10
175.9197
 20
248.67365
 30
0.0
 11
177.538
 21
249.08165
 31
0.0
  0
LINE
  5
1644
330
1D
100
AcDbEntity
  8
0
100
AcDbLine
 10
177.538
 20
249.08165
 30
0.0
 11
179.9445
 21
249.52265
 31
0.0
  0
LINE
  5
1645
330
1D
100
AcDbEntity
  8
0
100
AcDbLine
 10
172.7703
 20
247.69165
 30
0.0
 11
175.9197
 21
248.67365
 31
0.0
  0
LINE
  5
1646
330
1D
100
AcDbEntity
  8
0
100
AcDbLine
 10
528.775
 20
246.93465
 30
0.0
 11
531.77
 21
245.47865
 31
0.0
  0
LINE
  5
1647
330
1D
100
AcDbEntity
  8
0
100
AcDbLine
 10
502.765
 20
247.55865
 30
0.0
 11
504.351999999927
 21
248.065149999977
 31
0.0
  0
LINE
  5
1648
330
1D
100
AcDbEntity
  8
0
100
AcDbLine
 10
525.654
 20
248.09865
 30
0.0
 11
528.775
 21
246.93465
 31
0.0
  0
LINE
  5
1649
330
1D
100
AcDbEntity
  8
0
100
AcDbLine
 10
522.437
 20
248.96165
 30
0.0
 11
525.654
 21
248.09865
 31
0.0
  0
LINE
  5
164A
330
1D
100
AcDbEntity
  8
0
100
AcDbLine
 10
519.152
 20
249.51465
 30
0.0
 11
522.437
 21
248.96165
 31
0.0
  0
LINE
  5
164B
330
1D
100
AcDbEntity
  8
0
100
AcDbLine
 10
511.864
 20
253.91865
 30
0.0
 11
512.466
 21
254.49365
 31
0.0
  0
LINE
  5
164C
330
1D
100
AcDbEntity
  8
0
100
AcDbLine
 10
512.466
 20
254.49365
 30
0.0
 11
513.364
 21
254.70965
 31
0.0
  0
LINE
  5
164D
330
1D
100
AcDbEntity
  8
0
100
AcDbLine
 10
518.244
 20
253.88965
 30
0.0
 11
518.519
 21
252.73265
 31
0.0
  0
LINE
  5
164E
330
1D
100
AcDbEntity
  8
0
100
AcDbLine
 10
516.852
 20
254.61465
 30
0.0
 11
518.244
 21
253.88965
 31
0.0
  0
LINE
  5
164F
330
1D
100
AcDbEntity
  8
0
100
AcDbLine
 10
514.99
 20
254.76265
 30
0.0
 11
516.852
 21
254.61465
 31
0.0
  0
LINE
  5
1650
330
1D
100
AcDbEntity
  8
0
100
AcDbLine
 10
513.364
 20
254.70965
 30
0.0
 11
514.99
 21
254.76265
 31
0.0
  0
LINE
  5
1651
330
1D
100
AcDbEntity
  8
0
100
AcDbLine
 10
511.484
 20
253.12865
 30
0.0
 11
511.49
 21
242.16165
 31
0.0
  0
LINE
  5
1652
330
1D
100
AcDbEntity
  8
0
100
AcDbLine
 10
511.484
 20
253.12865
 30
0.0
 11
511.864
 21
253.91865
 31
0.0
  0
LINE
  5
1653
330
1D
100
AcDbEntity
  8
0
100
AcDbLine
 10
518.505253242225
 20
249.560985258384
 30
0.0
 11
519.152
 21
249.51465
 31
0.0
  0
LINE
  5
1654
330
1D
100
AcDbEntity
  8
0
100
AcDbLine
 10
509.193
 20
249.27965
 30
0.0
 11
511.485955979137
 21
249.553446134147
 31
0.0
  0
LINE
  5
1655
330
1D
100
AcDbEntity
  8
0
100
AcDbLine
 10
505.938
 20
248.57165
 30
0.0
 11
509.193
 21
249.27965
 31
0.0
  0
LINE
  5
1656
330
1D
100
AcDbEntity
  8
0
100
AcDbLine
 10
502.766
 20
247.55865
 30
0.0
 11
505.938
 21
248.57165
 31
0.0
  0
LINE
  5
1657
330
1D
100
AcDbEntity
  8
0
100
AcDbLine
 10
168.2186
 20
184.19065
 30
0.0
 11
168.993126753605
 21
183.812851018518
 31
0.0
  0
LINE
  5
1658
330
1D
100
AcDbEntity
  8
0
100
AcDbLine
 10
309.097609957704
 20
193.634502314134
 30
0.0
 11
307.622709957705
 21
191.671402314134
 31
0.0
  0
LINE
  5
1659
330
1D
100
AcDbEntity
  8
0
100
AcDbLine
 10
309.618009957705
 20
195.265302314134
 30
0.0
 11
307.729109957705
 21
192.612102314134
 31
0.0
  0
LINE
  5
165A
330
1D
100
AcDbEntity
  8
0
100
AcDbLine
 10
309.618009957705
 20
195.265302314134
 30
0.0
 11
307.728909957704
 21
192.612402314134
 31
0.0
  0
LINE
  5
165B
330
1D
100
AcDbEntity
  8
0
100
AcDbLine
 10
309.287209957704
 20
192.365902314134
 30
0.0
 11
308.025809957704
 21
191.635902314134
 31
0.0
  0
LINE
  5
165C
330
1D
100
AcDbEntity
  8
0
100
AcDbLine
 10
309.287409957705
 20
192.365802314134
 30
0.0
 11
308.025909957704
 21
191.635902314134
 31
0.0
  0
LINE
  5
165D
330
1D
100
AcDbEntity
  8
0
100
AcDbLine
 10
309.259909957705
 20
236.212902314134
 30
0.0
 11
307.779009957704
 21
237.497602314134
 31
0.0
  0
LINE
  5
165E
330
1D
100
AcDbEntity
  8
0
100
AcDbLine
 10
309.259909957705
 20
236.212902314134
 30
0.0
 11
307.778909957705
 21
237.497602314134
 31
0.0
  0
LINE
  5
165F
330
1D
100
AcDbEntity
  8
0
100
AcDbLine
 10
308.916509957705
 20
235.851902314134
 30
0.0
 11
307.828809957704
 21
236.816502314134
 31
0.0
  0
LINE
  5
1660
330
1D
100
AcDbEntity
  8
0
100
AcDbLine
 10
309.449609957705
 20
238.781402314134
 30
0.0
 11
308.273609957704
 21
239.474802314134
 31
0.0
  0
LINE
  5
1661
330
1D
100
AcDbEntity
  8
0
100
AcDbLine
 10
309.449509957704
 20
238.781502314134
 30
0.0
 11
308.273309957704
 21
239.475002314134
 31
0.0
  0
LINE
  5
1662
330
1D
100
AcDbEntity
  8
0
100
AcDbLine
 10
268.672709957704
 20
222.927302314134
 30
0.0
 11
269.095309957704
 21
224.305502314134
 31
0.0
  0
LINE
  5
1663
330
1D
100
AcDbEntity
  8
0
100
AcDbLine
 10
268.673109957704
 20
222.927502314134
 30
0.0
 11
269.095109957704
 21
224.305402314134
 31
0.0
  0
LINE
  5
1664
330
1D
100
AcDbEntity
  8
0
100
AcDbLine
 10
273.673509957704
 20
221.100602314134
 30
0.0
 11
274.225009957705
 21
223.882402314134
 31
0.0
  0
LINE
  5
1665
330
1D
100
AcDbEntity
  8
0
100
AcDbLine
 10
273.673409957705
 20
221.100402314134
 30
0.0
 11
274.224809957704
 21
223.882402314134
 31
0.0
  0
LINE
  5
1666
330
1D
100
AcDbEntity
  8
0
100
AcDbLine
 10
273.426309957704
 20
222.598202314134
 30
0.0
 11
273.742009957704
 21
224.003602314134
 31
0.0
  0
LINE
  5
1667
330
1D
100
AcDbEntity
  8
0
100
AcDbLine
 10
273.426209957704
 20
222.598102314134
 30
0.0
 11
273.742209957705
 21
224.003802314134
 31
0.0
  0
LINE
  5
1668
330
1D
100
AcDbEntity
  8
0
100
AcDbLine
 10
287.656509957704
 20
186.782202314134
 30
0.0
 11
289.727809957704
 21
185.169402314134
 31
0.0
  0
LINE
  5
1669
330
1D
100
AcDbEntity
  8
0
100
AcDbLine
 10
286.731609957704
 20
186.939202314134
 30
0.0
 11
288.576509957705
 21
185.392902314134
 31
0.0
  0
LINE
  5
166A
330
1D
100
AcDbEntity
  8
0
100
AcDbLine
 10
286.731609957704
 20
186.939202314134
 30
0.0
 11
288.576509957705
 21
185.392702314134
 31
0.0
  0
LINE
  5
166B
330
1D
100
AcDbEntity
  8
0
100
AcDbLine
 10
287.656409957704
 20
186.782602314134
 30
0.0
 11
289.727809957704
 21
185.169202314134
 31
0.0
  0
LINE
  5
166C
330
1D
100
AcDbEntity
  8
0
100
AcDbLine
 10
269.997609957705
 20
204.612302314134
 30
0.0
 11
270.693309957705
 21
203.154602314134
 31
0.0
  0
LINE
  5
166D
330
1D
100
AcDbEntity
  8
0
100
AcDbLine
 10
269.997909957704
 20
204.612302314134
 30
0.0
 11
270.693309957705
 21
203.154602314134
 31
0.0
  0
LINE
  5
166E
330
1D
100
AcDbEntity
  8
0
100
AcDbLine
 10
275.041609957705
 20
204.721002314134
 30
0.0
 11
275.882809957704
 21
202.551802314134
 31
0.0
  0
LINE
  5
166F
330
1D
100
AcDbEntity
  8
0
100
AcDbLine
 10
275.041809957704
 20
204.720602314134
 30
0.0
 11
275.882809957704
 21
202.551802314134
 31
0.0
  0
LINE
  5
1670
330
1D
100
AcDbEntity
  8
0
100
AcDbLine
 10
275.622709957705
 20
204.568902314134
 30
0.0
 11
276.339409957704
 21
202.742702314134
 31
0.0
  0
LINE
  5
1671
330
1D
100
AcDbEntity
  8
0
100
AcDbLine
 10
275.622509957704
 20
204.569002314134
 30
0.0
 11
276.339409957704
 21
202.742902314134
 31
0.0
  0
LINE
  5
1672
330
1D
100
AcDbEntity
  8
0
100
AcDbLine
 10
277.163709957704
 20
194.943702314134
 30
0.0
 11
278.292809957704
 21
194.022202314134
 31
0.0
  0
LINE
  5
1673
330
1D
100
AcDbEntity
  8
0
100
AcDbLine
 10
277.163709957704
 20
194.943402314134
 30
0.0
 11
278.292909957705
 21
194.022202314134
 31
0.0
  0
LINE
  5
1674
330
1D
100
AcDbEntity
  8
0
100
AcDbLine
 10
276.976009957704
 20
200.157302314134
 30
0.0
 11
278.195009957704
 21
197.852802314134
 31
0.0
  0
LINE
  5
1675
330
1D
100
AcDbEntity
  8
0
100
AcDbLine
 10
276.976009957704
 20
200.157302314134
 30
0.0
 11
278.195009957704
 21
197.852602314134
 31
0.0
  0
LINE
  5
1676
330
1D
100
AcDbEntity
  8
0
100
AcDbLine
 10
277.420209957705
 20
200.375302314134
 30
0.0
 11
278.625609957704
 21
198.095502314134
 31
0.0
  0
LINE
  5
1677
330
1D
100
AcDbEntity
  8
0
100
AcDbLine
 10
277.420009957704
 20
200.375502314134
 30
0.0
 11
278.626109957704
 21
198.095102314134
 31
0.0
  0
LINE
  5
1678
330
1D
100
AcDbEntity
  8
0
100
AcDbLine
 10
273.183709957705
 20
199.188602314134
 30
0.0
 11
274.092409957704
 21
198.049402314134
 31
0.0
  0
LINE
  5
1679
330
1D
100
AcDbEntity
  8
0
100
AcDbLine
 10
273.183809957705
 20
199.188502314134
 30
0.0
 11
274.092309957705
 21
198.049602314134
 31
0.0
  0
LINE
  5
167A
330
1D
100
AcDbEntity
  8
0
100
AcDbLine
 10
274.092409957704
 20
198.049402314134
 30
0.0
 11
275.060209957705
 21
196.960302314134
 31
0.0
  0
LINE
  5
167B
330
1D
100
AcDbEntity
  8
0
100
AcDbLine
 10
274.092309957705
 20
198.049602314134
 30
0.0
 11
275.060309957704
 21
196.960202314134
 31
0.0
  0
LINE
  5
167C
330
1D
100
AcDbEntity
  8
0
100
AcDbLine
 10
271.474009957705
 20
201.740602314134
 30
0.0
 11
272.337009957704
 21
200.375002314134
 31
0.0
  0
LINE
  5
167D
330
1D
100
AcDbEntity
  8
0
100
AcDbLine
 10
272.337009957704
 20
200.375002314134
 30
0.0
 11
273.183809957705
 21
199.188502314134
 31
0.0
  0
LINE
  5
167E
330
1D
100
AcDbEntity
  8
0
100
AcDbLine
 10
272.337009957704
 20
200.375002314134
 30
0.0
 11
273.183709957705
 21
199.188602314134
 31
0.0
  0
LINE
  5
167F
330
1D
100
AcDbEntity
  8
0
100
AcDbLine
 10
270.693309957705
 20
203.154602314134
 30
0.0
 11
271.474009957705
 21
201.740602314134
 31
0.0
  0
LINE
  5
1680
330
1D
100
AcDbEntity
  8
0
100
AcDbLine
 10
270.693309957705
 20
203.154602314134
 30
0.0
 11
271.473809957704
 21
201.740602314134
 31
0.0
  0
LINE
  5
1681
330
1D
100
AcDbEntity
  8
0
100
AcDbLine
 10
271.473809957704
 20
201.740602314134
 30
0.0
 11
272.337009957704
 21
200.375002314134
 31
0.0
  0
LINE
  5
1682
330
1D
100
AcDbEntity
  8
0
100
AcDbLine
 10
275.060309957704
 20
196.960202314134
 30
0.0
 11
276.085009957705
 21
195.924002314134
 31
0.0
  0
LINE
  5
1683
330
1D
100
AcDbEntity
  8
0
100
AcDbLine
 10
275.060209957705
 20
196.960302314134
 30
0.0
 11
276.085209957704
 21
195.923702314134
 31
0.0
  0
LINE
  5
1684
330
1D
100
AcDbEntity
  8
0
100
AcDbLine
 10
276.085009957705
 20
195.924002314134
 30
0.0
 11
277.163709957704
 21
194.943402314134
 31
0.0
  0
LINE
  5
1685
330
1D
100
AcDbEntity
  8
0
100
AcDbLine
 10
276.085209957704
 20
195.923702314134
 30
0.0
 11
277.163709957704
 21
194.943702314134
 31
0.0
  0
LINE
  5
1686
330
1D
100
AcDbEntity
  8
0
100
AcDbLine
 10
276.339409957704
 20
202.742702314134
 30
0.0
 11
277.420009957704
 21
200.375502314134
 31
0.0
  0
LINE
  5
1687
330
1D
100
AcDbEntity
  8
0
100
AcDbLine
 10
276.339409957704
 20
202.742902314134
 30
0.0
 11
277.420209957705
 21
200.375302314134
 31
0.0
  0
LINE
  5
1688
330
1D
100
AcDbEntity
  8
0
100
AcDbLine
 10
275.882809957704
 20
202.551802314134
 30
0.0
 11
276.976009957704
 21
200.157302314134
 31
0.0
  0
LINE
  5
1689
330
1D
100
AcDbEntity
  8
0
100
AcDbLine
 10
280.880209957704
 20
193.634502314134
 30
0.0
 11
282.355109957704
 21
191.671402314134
 31
0.0
  0
LINE
  5
168A
330
1D
100
AcDbEntity
  8
0
100
AcDbLine
 10
280.359809957704
 20
195.265302314134
 30
0.0
 11
282.248709957704
 21
192.612102314134
 31
0.0
  0
LINE
  5
168B
330
1D
100
AcDbEntity
  8
0
100
AcDbLine
 10
280.359809957704
 20
195.265302314134
 30
0.0
 11
282.248909957705
 21
192.612402314134
 31
0.0
  0
LINE
  5
168C
330
1D
100
AcDbEntity
  8
0
100
AcDbLine
 10
280.690409957704
 20
192.365802314134
 30
0.0
 11
279.469609957705
 21
193.162102314134
 31
0.0
  0
LINE
  5
168D
330
1D
100
AcDbEntity
  8
0
100
AcDbLine
 10
280.690609957705
 20
192.365902314134
 30
0.0
 11
281.952009957704
 21
191.635902314134
 31
0.0
  0
LINE
  5
168E
330
1D
100
AcDbEntity
  8
0
100
AcDbLine
 10
280.690409957704
 20
192.365802314134
 30
0.0
 11
281.951909957705
 21
191.635902314134
 31
0.0
  0
LINE
  5
168F
330
1D
100
AcDbEntity
  8
0
100
AcDbLine
 10
281.951909957705
 20
191.635902314134
 30
0.0
 11
282.328674971462
 21
191.444009754386
 31
0.0
  0
LINE
  5
1690
330
1D
100
AcDbEntity
  8
0
100
AcDbLine
 10
281.952009957704
 20
191.635902314134
 30
0.0
 11
282.328713245916
 21
191.443967854773
 31
0.0
  0
LINE
  5
1691
330
1D
100
AcDbEntity
  8
0
100
AcDbLine
 10
283.917509957705
 20
189.806402314134
 30
0.0
 11
285.008009957705
 21
188.622802314134
 31
0.0
  0
LINE
  5
1692
330
1D
100
AcDbEntity
  8
0
100
AcDbLine
 10
283.917509957705
 20
189.806402314134
 30
0.0
 11
285.008209957704
 21
188.622402314134
 31
0.0
  0
LINE
  5
1693
330
1D
100
AcDbEntity
  8
0
100
AcDbLine
 10
285.008209957704
 20
188.622402314134
 30
0.0
 11
286.731609957704
 21
186.939202314134
 31
0.0
  0
LINE
  5
1694
330
1D
100
AcDbEntity
  8
0
100
AcDbLine
 10
285.008009957705
 20
188.622802314134
 30
0.0
 11
286.731609957704
 21
186.939202314134
 31
0.0
  0
LINE
  5
1695
330
1D
100
AcDbEntity
  8
0
100
AcDbLine
 10
284.288609957704
 20
190.134102314134
 30
0.0
 11
286.488709957704
 21
187.844202314134
 31
0.0
  0
LINE
  5
1696
330
1D
100
AcDbEntity
  8
0
100
AcDbLine
 10
284.288509957704
 20
190.134402314134
 30
0.0
 11
286.488709957704
 21
187.844302314134
 31
0.0
  0
LINE
  5
1697
330
1D
100
AcDbEntity
  8
0
100
AcDbLine
 10
282.248909957705
 20
192.612402314134
 30
0.0
 11
284.288609957704
 21
190.134102314134
 31
0.0
  0
LINE
  5
1698
330
1D
100
AcDbEntity
  8
0
100
AcDbLine
 10
282.248709957704
 20
192.612102314134
 30
0.0
 11
284.288509957704
 21
190.134402314134
 31
0.0
  0
LINE
  5
1699
330
1D
100
AcDbEntity
  8
0
100
AcDbLine
 10
286.488709957704
 20
187.844302314134
 30
0.0
 11
287.656409957704
 21
186.782602314134
 31
0.0
  0
LINE
  5
169A
330
1D
100
AcDbEntity
  8
0
100
AcDbLine
 10
286.488709957704
 20
187.844202314134
 30
0.0
 11
287.656509957704
 21
186.782202314134
 31
0.0
  0
LINE
  5
169B
330
1D
100
AcDbEntity
  8
0
100
AcDbLine
 10
282.355109957704
 20
191.671402314134
 30
0.0
 11
283.917509957705
 21
189.806402314134
 31
0.0
  0
LINE
  5
169C
330
1D
100
AcDbEntity
  8
0
100
AcDbLine
 10
278.195009957704
 20
197.852602314134
 30
0.0
 11
279.718109957705
 21
195.342702314134
 31
0.0
  0
LINE
  5
169D
330
1D
100
AcDbEntity
  8
0
100
AcDbLine
 10
278.195009957704
 20
197.852802314134
 30
0.0
 11
279.718109957705
 21
195.342702314134
 31
0.0
  0
LINE
  5
169E
330
1D
100
AcDbEntity
  8
0
100
AcDbLine
 10
278.292909957705
 20
194.022202314134
 30
0.0
 11
279.469609957705
 21
193.162102314134
 31
0.0
  0
LINE
  5
169F
330
1D
100
AcDbEntity
  8
0
100
AcDbLine
 10
279.718109957705
 20
195.342702314134
 30
0.0
 11
280.880109957704
 21
193.634702314134
 31
0.0
  0
LINE
  5
16A0
330
1D
100
AcDbEntity
  8
0
100
AcDbLine
 10
278.292809957704
 20
194.022202314134
 30
0.0
 11
279.469709957704
 21
193.162102314134
 31
0.0
  0
LINE
  5
16A1
330
1D
100
AcDbEntity
  8
0
100
AcDbLine
 10
278.625609957704
 20
198.095502314134
 30
0.0
 11
280.359809957704
 21
195.265302314134
 31
0.0
  0
LINE
  5
16A2
330
1D
100
AcDbEntity
  8
0
100
AcDbLine
 10
278.626109957704
 20
198.095102314134
 30
0.0
 11
280.359809957704
 21
195.265302314134
 31
0.0
  0
LINE
  5
16A3
330
1D
100
AcDbEntity
  8
0
100
AcDbLine
 10
267.727409957704
 20
213.984102314134
 30
0.0
 11
267.871809957704
 21
212.375002314134
 31
0.0
  0
LINE
  5
16A4
330
1D
100
AcDbEntity
  8
0
100
AcDbLine
 10
272.979709957704
 20
214.051602314134
 30
0.0
 11
273.148609957704
 21
212.483902314134
 31
0.0
  0
LINE
  5
16A5
330
1D
100
AcDbEntity
  8
0
100
AcDbLine
 10
272.979809957704
 20
214.051302314134
 30
0.0
 11
273.148809957704
 21
212.483802314134
 31
0.0
  0
LINE
  5
16A6
330
1D
100
AcDbEntity
  8
0
100
AcDbLine
 10
267.727409957704
 20
213.984002314134
 30
0.0
 11
267.871709957705
 21
212.374902314134
 31
0.0
  0
LINE
  5
16A7
330
1D
100
AcDbEntity
  8
0
100
AcDbLine
 10
273.381309957705
 20
215.638202314134
 30
0.0
 11
273.640109957704
 21
212.548002314134
 31
0.0
  0
LINE
  5
16A8
330
1D
100
AcDbEntity
  8
0
100
AcDbLine
 10
273.381309957705
 20
215.638602314134
 30
0.0
 11
273.640009957704
 21
212.548302314134
 31
0.0
  0
LINE
  5
16A9
330
1D
100
AcDbEntity
  8
0
100
AcDbLine
 10
269.389509957704
 20
206.109102314134
 30
0.0
 11
269.997609957705
 21
204.612302314134
 31
0.0
  0
LINE
  5
16AA
330
1D
100
AcDbEntity
  8
0
100
AcDbLine
 10
269.389609957704
 20
206.109102314134
 30
0.0
 11
269.997909957704
 21
204.612302314134
 31
0.0
  0
LINE
  5
16AB
330
1D
100
AcDbEntity
  8
0
100
AcDbLine
 10
267.871709957705
 20
212.374902314134
 30
0.0
 11
268.110909957705
 21
210.777602314134
 31
0.0
  0
LINE
  5
16AC
330
1D
100
AcDbEntity
  8
0
100
AcDbLine
 10
267.871809957704
 20
212.375002314134
 30
0.0
 11
268.111009957704
 21
210.777602314134
 31
0.0
  0
LINE
  5
16AD
330
1D
100
AcDbEntity
  8
0
100
AcDbLine
 10
268.444609957705
 20
209.196702314134
 30
0.0
 11
268.871409957704
 21
207.638702314134
 31
0.0
  0
LINE
  5
16AE
330
1D
100
AcDbEntity
  8
0
100
AcDbLine
 10
268.871309957705
 20
207.638802314134
 30
0.0
 11
269.389509957704
 21
206.109102314134
 31
0.0
  0
LINE
  5
16AF
330
1D
100
AcDbEntity
  8
0
100
AcDbLine
 10
268.444709957705
 20
209.196702314134
 30
0.0
 11
268.871309957705
 21
207.638802314134
 31
0.0
  0
LINE
  5
16B0
330
1D
100
AcDbEntity
  8
0
100
AcDbLine
 10
268.111009957704
 20
210.777602314134
 30
0.0
 11
268.444709957705
 21
209.196702314134
 31
0.0
  0
LINE
  5
16B1
330
1D
100
AcDbEntity
  8
0
100
AcDbLine
 10
268.871409957704
 20
207.638702314134
 30
0.0
 11
269.389609957704
 21
206.109102314134
 31
0.0
  0
LINE
  5
16B2
330
1D
100
AcDbEntity
  8
0
100
AcDbLine
 10
268.110909957705
 20
210.777602314134
 30
0.0
 11
268.444609957705
 21
209.196702314134
 31
0.0
  0
LINE
  5
16B3
330
1D
100
AcDbEntity
  8
0
100
AcDbLine
 10
274.516909957704
 20
206.299802314134
 30
0.0
 11
275.041809957704
 21
204.720602314134
 31
0.0
  0
LINE
  5
16B4
330
1D
100
AcDbEntity
  8
0
100
AcDbLine
 10
274.989909957705
 20
206.445902314134
 30
0.0
 11
275.622509957704
 21
204.569002314134
 31
0.0
  0
LINE
  5
16B5
330
1D
100
AcDbEntity
  8
0
100
AcDbLine
 10
273.148609957704
 20
212.483902314134
 30
0.0
 11
273.389909957705
 21
210.921702314134
 31
0.0
  0
LINE
  5
16B6
330
1D
100
AcDbEntity
  8
0
100
AcDbLine
 10
273.148809957704
 20
212.483802314134
 30
0.0
 11
273.390009957704
 21
210.921402314134
 31
0.0
  0
LINE
  5
16B7
330
1D
100
AcDbEntity
  8
0
100
AcDbLine
 10
273.390009957704
 20
210.921402314134
 30
0.0
 11
273.700409957704
 21
209.367802314134
 31
0.0
  0
LINE
  5
16B8
330
1D
100
AcDbEntity
  8
0
100
AcDbLine
 10
273.700409957704
 20
209.367802314134
 30
0.0
 11
274.077109957704
 21
207.826302314134
 31
0.0
  0
LINE
  5
16B9
330
1D
100
AcDbEntity
  8
0
100
AcDbLine
 10
274.183809957705
 20
209.474902314134
 30
0.0
 11
274.989909957705
 21
206.445902314134
 31
0.0
  0
LINE
  5
16BA
330
1D
100
AcDbEntity
  8
0
100
AcDbLine
 10
274.077009957704
 20
207.826502314134
 30
0.0
 11
274.516909957704
 21
206.299902314134
 31
0.0
  0
LINE
  5
16BB
330
1D
100
AcDbEntity
  8
0
100
AcDbLine
 10
274.077109957704
 20
207.826302314134
 30
0.0
 11
274.516909957704
 21
206.299802314134
 31
0.0
  0
LINE
  5
16BC
330
1D
100
AcDbEntity
  8
0
100
AcDbLine
 10
273.700509957705
 20
209.367602314134
 30
0.0
 11
274.077009957704
 21
207.826502314134
 31
0.0
  0
LINE
  5
16BD
330
1D
100
AcDbEntity
  8
0
100
AcDbLine
 10
273.640109957704
 20
212.548002314134
 30
0.0
 11
274.183809957705
 21
209.474902314134
 31
0.0
  0
LINE
  5
16BE
330
1D
100
AcDbEntity
  8
0
100
AcDbLine
 10
273.389909957705
 20
210.921702314134
 30
0.0
 11
273.700509957705
 21
209.367602314134
 31
0.0
  0
LINE
  5
16BF
330
1D
100
AcDbEntity
  8
0
100
AcDbLine
 10
273.640009957704
 20
212.548302314134
 30
0.0
 11
274.183809957705
 21
209.475102314134
 31
0.0
  0
LINE
  5
16C0
330
1D
100
AcDbEntity
  8
0
100
AcDbLine
 10
274.183809957705
 20
209.475102314134
 30
0.0
 11
274.989809957704
 21
206.446202314134
 31
0.0
  0
LINE
  5
16C1
330
1D
100
AcDbEntity
  8
0
100
AcDbLine
 10
274.989809957704
 20
206.446202314134
 30
0.0
 11
275.622709957705
 21
204.568902314134
 31
0.0
  0
LINE
  5
16C2
330
1D
100
AcDbEntity
  8
0
100
AcDbLine
 10
267.678309957705
 20
215.620502314134
 30
0.0
 11
267.726709957704
 21
217.250202314134
 31
0.0
  0
LINE
  5
16C3
330
1D
100
AcDbEntity
  8
0
100
AcDbLine
 10
267.727009957704
 20
217.250402314134
 30
0.0
 11
267.850709957704
 21
218.686602314134
 31
0.0
  0
LINE
  5
16C4
330
1D
100
AcDbEntity
  8
0
100
AcDbLine
 10
267.726709957704
 20
217.250202314134
 30
0.0
 11
267.850409957705
 21
218.686402314134
 31
0.0
  0
LINE
  5
16C5
330
1D
100
AcDbEntity
  8
0
100
AcDbLine
 10
267.678209957704
 20
215.620502314134
 30
0.0
 11
267.727009957704
 21
217.250402314134
 31
0.0
  0
LINE
  5
16C6
330
1D
100
AcDbEntity
  8
0
100
AcDbLine
 10
267.678209957704
 20
215.620502314134
 30
0.0
 11
267.727409957704
 21
213.984002314134
 31
0.0
  0
LINE
  5
16C7
330
1D
100
AcDbEntity
  8
0
100
AcDbLine
 10
267.678209957704
 20
215.620502314134
 30
0.0
 11
267.727409957704
 21
213.984102314134
 31
0.0
  0
LINE
  5
16C8
330
1D
100
AcDbEntity
  8
0
100
AcDbLine
 10
267.850709957704
 20
218.686602314134
 30
0.0
 11
268.049909957704
 21
220.113902314134
 31
0.0
  0
LINE
  5
16C9
330
1D
100
AcDbEntity
  8
0
100
AcDbLine
 10
267.850409957705
 20
218.686402314134
 30
0.0
 11
268.049709957705
 21
220.113802314134
 31
0.0
  0
LINE
  5
16CA
330
1D
100
AcDbEntity
  8
0
100
AcDbLine
 10
268.049709957705
 20
220.113802314134
 30
0.0
 11
268.324009957704
 21
221.528802314134
 31
0.0
  0
LINE
  5
16CB
330
1D
100
AcDbEntity
  8
0
100
AcDbLine
 10
268.324409957704
 20
221.528902314134
 30
0.0
 11
268.673109957704
 21
222.927502314134
 31
0.0
  0
LINE
  5
16CC
330
1D
100
AcDbEntity
  8
0
100
AcDbLine
 10
268.324009957704
 20
221.528802314134
 30
0.0
 11
268.672709957704
 21
222.927302314134
 31
0.0
  0
LINE
  5
16CD
330
1D
100
AcDbEntity
  8
0
100
AcDbLine
 10
268.049909957704
 20
220.113902314134
 30
0.0
 11
268.324409957704
 21
221.528902314134
 31
0.0
  0
LINE
  5
16CE
330
1D
100
AcDbEntity
  8
0
100
AcDbLine
 10
272.885309957705
 20
215.620602314134
 30
0.0
 11
272.979809957704
 21
214.051302314134
 31
0.0
  0
LINE
  5
16CF
330
1D
100
AcDbEntity
  8
0
100
AcDbLine
 10
273.368009957704
 20
217.414502314134
 30
0.0
 11
273.463609957705
 21
219.267402314134
 31
0.0
  0
LINE
  5
16D0
330
1D
100
AcDbEntity
  8
0
100
AcDbLine
 10
273.368009957704
 20
217.414502314134
 30
0.0
 11
273.381109957704
 21
215.638102314134
 31
0.0
  0
LINE
  5
16D1
330
1D
100
AcDbEntity
  8
0
100
AcDbLine
 10
272.885209957704
 20
215.620802314134
 30
0.0
 11
272.979709957704
 21
214.051602314134
 31
0.0
  0
LINE
  5
16D2
330
1D
100
AcDbEntity
  8
0
100
AcDbLine
 10
273.368309957704
 20
217.414602314134
 30
0.0
 11
273.381309957705
 21
215.638602314134
 31
0.0
  0
LINE
  5
16D3
330
1D
100
AcDbEntity
  8
0
100
AcDbLine
 10
273.368309957704
 20
217.414602314134
 30
0.0
 11
273.464109957705
 21
219.267302314134
 31
0.0
  0
LINE
  5
16D4
330
1D
100
AcDbEntity
  8
0
100
AcDbLine
 10
272.871509957704
 20
217.424902314134
 30
0.0
 11
272.968209957705
 21
219.308402314134
 31
0.0
  0
LINE
  5
16D5
330
1D
100
AcDbEntity
  8
0
100
AcDbLine
 10
272.871509957704
 20
217.424902314134
 30
0.0
 11
272.885209957704
 21
215.620502314134
 31
0.0
  0
LINE
  5
16D6
330
1D
100
AcDbEntity
  8
0
100
AcDbLine
 10
273.464109957705
 20
219.267302314134
 30
0.0
 11
273.673509957704
 21
221.100602314134
 31
0.0
  0
LINE
  5
16D7
330
1D
100
AcDbEntity
  8
0
100
AcDbLine
 10
273.463609957705
 20
219.267402314134
 30
0.0
 11
273.673409957705
 21
221.100402314134
 31
0.0
  0
LINE
  5
16D8
330
1D
100
AcDbEntity
  8
0
100
AcDbLine
 10
272.968209957705
 20
219.308402314134
 30
0.0
 11
273.180909957704
 21
221.172402314134
 31
0.0
  0
LINE
  5
16D9
330
1D
100
AcDbEntity
  8
0
100
AcDbLine
 10
272.968209957705
 20
219.308402314134
 30
0.0
 11
273.181309957704
 21
221.172502314134
 31
0.0
  0
LINE
  5
16DA
330
1D
100
AcDbEntity
  8
0
100
AcDbLine
 10
273.180909957704
 20
221.172402314134
 30
0.0
 11
273.426309957704
 21
222.598202314134
 31
0.0
  0
LINE
  5
16DB
330
1D
100
AcDbEntity
  8
0
100
AcDbLine
 10
273.181309957704
 20
221.172502314134
 30
0.0
 11
273.426209957704
 21
222.598102314134
 31
0.0
  0
LINE
  5
16DC
330
1D
100
AcDbEntity
  8
0
100
AcDbLine
 10
272.871309957705
 20
217.424902314134
 30
0.0
 11
272.968209957705
 21
219.308402314134
 31
0.0
  0
LINE
  5
16DD
330
1D
100
AcDbEntity
  8
0
100
AcDbLine
 10
272.871309957705
 20
217.424902314134
 30
0.0
 11
272.885309957705
 21
215.620602314134
 31
0.0
  0
LINE
  5
16DE
330
1D
100
AcDbEntity
  8
0
100
AcDbLine
 10
298.823709957705
 20
183.716102314134
 30
0.0
 11
297.685509957705
 21
183.189402314134
 31
0.0
  0
LINE
  5
16DF
330
1D
100
AcDbEntity
  8
0
100
AcDbLine
 10
298.823909957704
 20
183.716402314134
 30
0.0
 11
297.685509957705
 21
183.189402314134
 31
0.0
  0
LINE
  5
16E0
330
1D
100
AcDbEntity
  8
0
100
AcDbLine
 10
298.591709957704
 20
184.155802314134
 30
0.0
 11
297.071309957704
 21
183.492402314134
 31
0.0
  0
LINE
  5
16E1
330
1D
100
AcDbEntity
  8
0
100
AcDbLine
 10
298.591909957705
 20
184.155502314134
 30
0.0
 11
297.071709957704
 21
183.492402314134
 31
0.0
  0
LINE
  5
16E2
330
1D
100
AcDbEntity
  8
0
100
AcDbLine
 10
293.214909957704
 20
182.878102314134
 30
0.0
 11
294.326509957705
 21
182.668502314134
 31
0.0
  0
LINE
  5
16E3
330
1D
100
AcDbEntity
  8
0
100
AcDbLine
 10
293.214909957704
 20
182.877902314134
 30
0.0
 11
294.326309957704
 21
182.668502314134
 31
0.0
  0
LINE
  5
16E4
330
1D
100
AcDbEntity
  8
0
100
AcDbLine
 10
292.906109957705
 20
183.492402314134
 30
0.0
 11
294.025609957704
 21
183.208402314134
 31
0.0
  0
LINE
  5
16E5
330
1D
100
AcDbEntity
  8
0
100
AcDbLine
 10
292.906509957704
 20
183.492402314134
 30
0.0
 11
294.025309957705
 21
183.208802314134
 31
0.0
  0
LINE
  5
16E6
330
1D
100
AcDbEntity
  8
0
100
AcDbLine
 10
291.154109957704
 20
183.716102314134
 30
0.0
 11
292.292309957704
 21
183.189402314134
 31
0.0
  0
LINE
  5
16E7
330
1D
100
AcDbEntity
  8
0
100
AcDbLine
 10
291.153909957705
 20
183.716402314134
 30
0.0
 11
292.292309957704
 21
183.189402314134
 31
0.0
  0
LINE
  5
16E8
330
1D
100
AcDbEntity
  8
0
100
AcDbLine
 10
292.292309957704
 20
183.189402314134
 30
0.0
 11
293.214909957704
 21
182.877902314134
 31
0.0
  0
LINE
  5
16E9
330
1D
100
AcDbEntity
  8
0
100
AcDbLine
 10
292.292309957704
 20
183.189402314134
 30
0.0
 11
293.214909957704
 21
182.878102314134
 31
0.0
  0
LINE
  5
16EA
330
1D
100
AcDbEntity
  8
0
100
AcDbLine
 10
288.576509957705
 20
185.392702314134
 30
0.0
 11
289.892209957704
 21
184.460602314134
 31
0.0
  0
LINE
  5
16EB
330
1D
100
AcDbEntity
  8
0
100
AcDbLine
 10
288.576509957705
 20
185.392902314134
 30
0.0
 11
289.892309957704
 21
184.460502314134
 31
0.0
  0
LINE
  5
16EC
330
1D
100
AcDbEntity
  8
0
100
AcDbLine
 10
289.727809957704
 20
185.169402314134
 30
0.0
 11
291.386109957704
 21
184.155802314134
 31
0.0
  0
LINE
  5
16ED
330
1D
100
AcDbEntity
  8
0
100
AcDbLine
 10
289.892209957704
 20
184.460602314134
 30
0.0
 11
291.154109957704
 21
183.716102314134
 31
0.0
  0
LINE
  5
16EE
330
1D
100
AcDbEntity
  8
0
100
AcDbLine
 10
289.892309957704
 20
184.460502314134
 30
0.0
 11
291.153909957705
 21
183.716402314134
 31
0.0
  0
LINE
  5
16EF
330
1D
100
AcDbEntity
  8
0
100
AcDbLine
 10
291.386109957704
 20
184.155802314134
 30
0.0
 11
292.906509957704
 21
183.492402314134
 31
0.0
  0
LINE
  5
16F0
330
1D
100
AcDbEntity
  8
0
100
AcDbLine
 10
289.727809957704
 20
185.169202314134
 30
0.0
 11
291.385909957704
 21
184.155502314134
 31
0.0
  0
LINE
  5
16F1
330
1D
100
AcDbEntity
  8
0
100
AcDbLine
 10
291.385909957704
 20
184.155502314134
 30
0.0
 11
292.906109957705
 21
183.492402314134
 31
0.0
  0
LINE
  5
16F2
330
1D
100
AcDbEntity
  8
0
100
AcDbLine
 10
294.326509957705
 20
182.668502314134
 30
0.0
 11
294.988809957704
 21
182.636602314134
 31
0.0
  0
LINE
  5
16F3
330
1D
100
AcDbEntity
  8
0
100
AcDbLine
 10
294.326309957704
 20
182.668502314134
 30
0.0
 11
294.988909957704
 21
182.636702314134
 31
0.0
  0
LINE
  5
16F4
330
1D
100
AcDbEntity
  8
0
100
AcDbLine
 10
294.025309957705
 20
183.208802314134
 30
0.0
 11
294.988609957705
 21
183.133902314134
 31
0.0
  0
LINE
  5
16F5
330
1D
100
AcDbEntity
  8
0
100
AcDbLine
 10
294.025609957704
 20
183.208402314134
 30
0.0
 11
294.988309957704
 21
183.134302314134
 31
0.0
  0
LINE
  5
16F6
330
1D
100
AcDbEntity
  8
0
100
AcDbLine
 10
297.685509957705
 20
183.189402314134
 30
0.0
 11
296.762909957704
 21
182.877902314134
 31
0.0
  0
LINE
  5
16F7
330
1D
100
AcDbEntity
  8
0
100
AcDbLine
 10
297.685509957705
 20
183.189402314134
 30
0.0
 11
296.762909957704
 21
182.878102314134
 31
0.0
  0
LINE
  5
16F8
330
1D
100
AcDbEntity
  8
0
100
AcDbLine
 10
295.651309957704
 20
182.668502314134
 30
0.0
 11
294.989009957705
 21
182.636602314134
 31
0.0
  0
LINE
  5
16F9
330
1D
100
AcDbEntity
  8
0
100
AcDbLine
 10
295.651509957704
 20
182.668502314134
 30
0.0
 11
294.988909957704
 21
182.636702314134
 31
0.0
  0
LINE
  5
16FA
330
1D
100
AcDbEntity
  8
0
100
AcDbLine
 10
296.762909957704
 20
182.878102314134
 30
0.0
 11
295.651309957704
 21
182.668502314134
 31
0.0
  0
LINE
  5
16FB
330
1D
100
AcDbEntity
  8
0
100
AcDbLine
 10
296.762909957704
 20
182.877902314134
 30
0.0
 11
295.651509957704
 21
182.668502314134
 31
0.0
  0
LINE
  5
16FC
330
1D
100
AcDbEntity
  8
0
100
AcDbLine
 10
295.952509957704
 20
183.208802314134
 30
0.0
 11
294.989209957704
 21
183.133902314134
 31
0.0
  0
LINE
  5
16FD
330
1D
100
AcDbEntity
  8
0
100
AcDbLine
 10
295.952209957704
 20
183.208402314134
 30
0.0
 11
294.989509957705
 21
183.134302314134
 31
0.0
  0
LINE
  5
16FE
330
1D
100
AcDbEntity
  8
0
100
AcDbLine
 10
297.071709957704
 20
183.492402314134
 30
0.0
 11
295.952209957704
 21
183.208402314134
 31
0.0
  0
LINE
  5
16FF
330
1D
100
AcDbEntity
  8
0
100
AcDbLine
 10
297.071309957704
 20
183.492402314134
 30
0.0
 11
295.952509957704
 21
183.208802314134
 31
0.0
  0
LINE
  5
1700
330
1D
100
AcDbEntity
  8
0
100
AcDbLine
 10
304.969609957705
 20
188.622402314134
 30
0.0
 11
303.246209957705
 21
186.939202314134
 31
0.0
  0
LINE
  5
1701
330
1D
100
AcDbEntity
  8
0
100
AcDbLine
 10
304.969809957704
 20
188.622802314134
 30
0.0
 11
303.246209957705
 21
186.939202314134
 31
0.0
  0
LINE
  5
1702
330
1D
100
AcDbEntity
  8
0
100
AcDbLine
 10
305.689209957705
 20
190.134102314134
 30
0.0
 11
303.489109957704
 21
187.844202314134
 31
0.0
  0
LINE
  5
1703
330
1D
100
AcDbEntity
  8
0
100
AcDbLine
 10
305.689309957704
 20
190.134402314134
 30
0.0
 11
303.489109957704
 21
187.844302314134
 31
0.0
  0
LINE
  5
1704
330
1D
100
AcDbEntity
  8
0
100
AcDbLine
 10
303.489109957704
 20
187.844302314134
 30
0.0
 11
302.321409957705
 21
186.782602314134
 31
0.0
  0
LINE
  5
1705
330
1D
100
AcDbEntity
  8
0
100
AcDbLine
 10
303.246209957705
 20
186.939202314134
 30
0.0
 11
301.401309957704
 21
185.392902314134
 31
0.0
  0
LINE
  5
1706
330
1D
100
AcDbEntity
  8
0
100
AcDbLine
 10
303.246209957705
 20
186.939202314134
 30
0.0
 11
301.401309957704
 21
185.392702314134
 31
0.0
  0
LINE
  5
1707
330
1D
100
AcDbEntity
  8
0
100
AcDbLine
 10
303.489109957704
 20
187.844202314134
 30
0.0
 11
302.321309957704
 21
186.782202314134
 31
0.0
  0
LINE
  5
1708
330
1D
100
AcDbEntity
  8
0
100
AcDbLine
 10
301.401309957704
 20
185.392702314134
 30
0.0
 11
300.085609957704
 21
184.460602314134
 31
0.0
  0
LINE
  5
1709
330
1D
100
AcDbEntity
  8
0
100
AcDbLine
 10
301.401309957704
 20
185.392902314134
 30
0.0
 11
300.085509957705
 21
184.460502314134
 31
0.0
  0
LINE
  5
170A
330
1D
100
AcDbEntity
  8
0
100
AcDbLine
 10
300.250009957704
 20
185.169402314134
 30
0.0
 11
298.591709957704
 21
184.155802314134
 31
0.0
  0
LINE
  5
170B
330
1D
100
AcDbEntity
  8
0
100
AcDbLine
 10
300.250009957704
 20
185.169202314134
 30
0.0
 11
298.591909957705
 21
184.155502314134
 31
0.0
  0
LINE
  5
170C
330
1D
100
AcDbEntity
  8
0
100
AcDbLine
 10
300.085609957704
 20
184.460602314134
 30
0.0
 11
298.823709957705
 21
183.716102314134
 31
0.0
  0
LINE
  5
170D
330
1D
100
AcDbEntity
  8
0
100
AcDbLine
 10
300.085509957705
 20
184.460502314134
 30
0.0
 11
298.823909957704
 21
183.716402314134
 31
0.0
  0
LINE
  5
170E
330
1D
100
AcDbEntity
  8
0
100
AcDbLine
 10
302.321309957704
 20
186.782202314134
 30
0.0
 11
300.250009957704
 21
185.169402314134
 31
0.0
  0
LINE
  5
170F
330
1D
100
AcDbEntity
  8
0
100
AcDbLine
 10
302.321409957705
 20
186.782602314134
 30
0.0
 11
300.250009957704
 21
185.169202314134
 31
0.0
  0
LINE
  5
1710
330
1D
100
AcDbEntity
  8
0
100
AcDbLine
 10
307.622709957705
 20
191.671402314134
 30
0.0
 11
306.060309957704
 21
189.806402314134
 31
0.0
  0
LINE
  5
1711
330
1D
100
AcDbEntity
  8
0
100
AcDbLine
 10
307.728909957704
 20
192.612402314134
 30
0.0
 11
305.689209957705
 21
190.134102314134
 31
0.0
  0
LINE
  5
1712
330
1D
100
AcDbEntity
  8
0
100
AcDbLine
 10
307.729109957705
 20
192.612102314134
 30
0.0
 11
305.689309957704
 21
190.134402314134
 31
0.0
  0
LINE
  5
1713
330
1D
100
AcDbEntity
  8
0
100
AcDbLine
 10
308.025909957704
 20
191.635902314134
 30
0.0
 11
307.649144943947
 21
191.444009754386
 31
0.0
  0
LINE
  5
1714
330
1D
100
AcDbEntity
  8
0
100
AcDbLine
 10
308.025809957704
 20
191.635902314134
 30
0.0
 11
307.649106669493
 21
191.443967854773
 31
0.0
  0
LINE
  5
1715
330
1D
100
AcDbEntity
  8
0
100
AcDbLine
 10
306.060309957704
 20
189.806402314134
 30
0.0
 11
304.969809957704
 21
188.622802314134
 31
0.0
  0
LINE
  5
1716
330
1D
100
AcDbEntity
  8
0
100
AcDbLine
 10
306.060309957704
 20
189.806402314134
 30
0.0
 11
304.969609957705
 21
188.622402314134
 31
0.0
  0
LINE
  5
1717
330
1D
100
AcDbEntity
  8
0
100
AcDbLine
 10
287.778509957705
 20
240.131402314134
 30
0.0
 11
289.971109957704
 21
240.828802314134
 31
0.0
  0
LINE
  5
1718
330
1D
100
AcDbEntity
  8
0
100
AcDbLine
 10
287.778809957705
 20
240.131302314134
 30
0.0
 11
289.971009957704
 21
240.829202314134
 31
0.0
  0
LINE
  5
1719
330
1D
100
AcDbEntity
  8
0
100
AcDbLine
 10
287.599609957705
 20
240.595902314134
 30
0.0
 11
289.848309957704
 21
241.311602314134
 31
0.0
  0
LINE
  5
171A
330
1D
100
AcDbEntity
  8
0
100
AcDbLine
 10
287.599509957705
 20
240.595802314134
 30
0.0
 11
289.847909957704
 21
241.311502314134
 31
0.0
  0
LINE
  5
171B
330
1D
100
AcDbEntity
  8
0
100
AcDbLine
 10
288.022109957705
 20
242.018002314134
 30
0.0
 11
289.351109957704
 21
242.332802314134
 31
0.0
  0
LINE
  5
171C
330
1D
100
AcDbEntity
  8
0
100
AcDbLine
 10
288.022109957705
 20
242.018002314134
 30
0.0
 11
289.351209957704
 21
242.332702314134
 31
0.0
  0
LINE
  5
171D
330
1D
100
AcDbEntity
  8
0
100
AcDbLine
 10
277.495509957704
 20
231.519702314134
 30
0.0
 11
279.089609957705
 21
233.724502314134
 31
0.0
  0
LINE
  5
171E
330
1D
100
AcDbEntity
  8
0
100
AcDbLine
 10
277.859109957705
 20
232.939302314134
 30
0.0
 11
278.702609957704
 21
234.038502314134
 31
0.0
  0
LINE
  5
171F
330
1D
100
AcDbEntity
  8
0
100
AcDbLine
 10
277.858809957704
 20
232.939202314134
 30
0.0
 11
278.702809957705
 21
234.038502314134
 31
0.0
  0
LINE
  5
1720
330
1D
100
AcDbEntity
  8
0
100
AcDbLine
 10
277.495709957704
 20
231.519602314134
 30
0.0
 11
279.089909957704
 21
233.724102314134
 31
0.0
  0
LINE
  5
1721
330
1D
100
AcDbEntity
  8
0
100
AcDbLine
 10
277.089309957704
 20
236.241402314134
 30
0.0
 11
278.214809957704
 21
237.166402314134
 31
0.0
  0
LINE
  5
1722
330
1D
100
AcDbEntity
  8
0
100
AcDbLine
 10
277.089009957704
 20
236.241302314134
 30
0.0
 11
278.214709957704
 21
237.166402314134
 31
0.0
  0
LINE
  5
1723
330
1D
100
AcDbEntity
  8
0
100
AcDbLine
 10
274.030009957704
 20
233.126102314134
 30
0.0
 11
274.993909957704
 21
234.218402314134
 31
0.0
  0
LINE
  5
1724
330
1D
100
AcDbEntity
  8
0
100
AcDbLine
 10
274.030109957704
 20
233.126202314134
 30
0.0
 11
274.993709957704
 21
234.218302314134
 31
0.0
  0
LINE
  5
1725
330
1D
100
AcDbEntity
  8
0
100
AcDbLine
 10
272.284009957704
 20
230.795602314134
 30
0.0
 11
273.125609957704
 21
231.984002314134
 31
0.0
  0
LINE
  5
1726
330
1D
100
AcDbEntity
  8
0
100
AcDbLine
 10
272.283709957704
 20
230.795602314134
 30
0.0
 11
273.125809957705
 21
231.984202314134
 31
0.0
  0
LINE
  5
1727
330
1D
100
AcDbEntity
  8
0
100
AcDbLine
 10
269.095109957704
 20
224.305402314134
 30
0.0
 11
269.589509957705
 21
225.659302314134
 31
0.0
  0
LINE
  5
1728
330
1D
100
AcDbEntity
  8
0
100
AcDbLine
 10
269.095309957704
 20
224.305502314134
 30
0.0
 11
269.589509957705
 21
225.659302314134
 31
0.0
  0
LINE
  5
1729
330
1D
100
AcDbEntity
  8
0
100
AcDbLine
 10
270.155109957704
 20
226.985502314134
 30
0.0
 11
270.796209957704
 21
228.292602314134
 31
0.0
  0
LINE
  5
172A
330
1D
100
AcDbEntity
  8
0
100
AcDbLine
 10
270.154909957704
 20
226.985302314134
 30
0.0
 11
270.796509957705
 21
228.292702314134
 31
0.0
  0
LINE
  5
172B
330
1D
100
AcDbEntity
  8
0
100
AcDbLine
 10
269.589509957705
 20
225.659302314134
 30
0.0
 11
270.154909957704
 21
226.985302314134
 31
0.0
  0
LINE
  5
172C
330
1D
100
AcDbEntity
  8
0
100
AcDbLine
 10
269.589509957705
 20
225.659302314134
 30
0.0
 11
270.155109957704
 21
226.985502314134
 31
0.0
  0
LINE
  5
172D
330
1D
100
AcDbEntity
  8
0
100
AcDbLine
 10
270.796509957705
 20
228.292702314134
 30
0.0
 11
271.506809957704
 21
229.564002314134
 31
0.0
  0
LINE
  5
172E
330
1D
100
AcDbEntity
  8
0
100
AcDbLine
 10
270.796209957704
 20
228.292602314134
 30
0.0
 11
271.506809957704
 21
229.564002314134
 31
0.0
  0
LINE
  5
172F
330
1D
100
AcDbEntity
  8
0
100
AcDbLine
 10
271.506809957704
 20
229.564002314134
 30
0.0
 11
272.284009957704
 21
230.795602314134
 31
0.0
  0
LINE
  5
1730
330
1D
100
AcDbEntity
  8
0
100
AcDbLine
 10
271.506809957704
 20
229.564002314134
 30
0.0
 11
272.283709957704
 21
230.795602314134
 31
0.0
  0
LINE
  5
1731
330
1D
100
AcDbEntity
  8
0
100
AcDbLine
 10
275.050409957704
 20
226.567002314134
 30
0.0
 11
276.144209957704
 21
229.123602314134
 31
0.0
  0
LINE
  5
1732
330
1D
100
AcDbEntity
  8
0
100
AcDbLine
 10
275.106009957704
 20
228.058502314134
 30
0.0
 11
275.697209957704
 21
229.343202314134
 31
0.0
  0
LINE
  5
1733
330
1D
100
AcDbEntity
  8
0
100
AcDbLine
 10
275.106209957704
 20
228.058502314134
 30
0.0
 11
275.697409957705
 21
229.343102314134
 31
0.0
  0
LINE
  5
1734
330
1D
100
AcDbEntity
  8
0
100
AcDbLine
 10
275.050609957705
 20
226.567202314134
 30
0.0
 11
276.144409957705
 21
229.123402314134
 31
0.0
  0
LINE
  5
1735
330
1D
100
AcDbEntity
  8
0
100
AcDbLine
 10
273.742209957705
 20
224.003802314134
 30
0.0
 11
274.127709957704
 21
225.384802314134
 31
0.0
  0
LINE
  5
1736
330
1D
100
AcDbEntity
  8
0
100
AcDbLine
 10
273.742009957704
 20
224.003602314134
 30
0.0
 11
274.127509957704
 21
225.384802314134
 31
0.0
  0
LINE
  5
1737
330
1D
100
AcDbEntity
  8
0
100
AcDbLine
 10
274.225009957705
 20
223.882402314134
 30
0.0
 11
275.050409957704
 21
226.567002314134
 31
0.0
  0
LINE
  5
1738
330
1D
100
AcDbEntity
  8
0
100
AcDbLine
 10
274.127509957704
 20
225.384802314134
 30
0.0
 11
274.582509957704
 21
226.737702314134
 31
0.0
  0
LINE
  5
1739
330
1D
100
AcDbEntity
  8
0
100
AcDbLine
 10
274.582509957704
 20
226.737702314134
 30
0.0
 11
275.106209957704
 21
228.058502314134
 31
0.0
  0
LINE
  5
173A
330
1D
100
AcDbEntity
  8
0
100
AcDbLine
 10
274.127709957704
 20
225.384802314134
 30
0.0
 11
274.582709957705
 21
226.737702314134
 31
0.0
  0
LINE
  5
173B
330
1D
100
AcDbEntity
  8
0
100
AcDbLine
 10
274.582709957705
 20
226.737702314134
 30
0.0
 11
275.106009957704
 21
228.058502314134
 31
0.0
  0
LINE
  5
173C
330
1D
100
AcDbEntity
  8
0
100
AcDbLine
 10
274.224809957704
 20
223.882402314134
 30
0.0
 11
275.050609957705
 21
226.567202314134
 31
0.0
  0
LINE
  5
173D
330
1D
100
AcDbEntity
  8
0
100
AcDbLine
 10
275.697409957705
 20
229.343102314134
 30
0.0
 11
276.354009957705
 21
230.587402314134
 31
0.0
  0
LINE
  5
173E
330
1D
100
AcDbEntity
  8
0
100
AcDbLine
 10
273.125609957704
 20
231.984002314134
 30
0.0
 11
274.030109957704
 21
233.126202314134
 31
0.0
  0
LINE
  5
173F
330
1D
100
AcDbEntity
  8
0
100
AcDbLine
 10
273.125809957705
 20
231.984202314134
 30
0.0
 11
274.030009957704
 21
233.126102314134
 31
0.0
  0
LINE
  5
1740
330
1D
100
AcDbEntity
  8
0
100
AcDbLine
 10
275.697209957704
 20
229.343202314134
 30
0.0
 11
276.354009957705
 21
230.587402314134
 31
0.0
  0
LINE
  5
1741
330
1D
100
AcDbEntity
  8
0
100
AcDbLine
 10
276.354009957705
 20
230.587402314134
 30
0.0
 11
277.075209957704
 21
231.787302314134
 31
0.0
  0
LINE
  5
1742
330
1D
100
AcDbEntity
  8
0
100
AcDbLine
 10
276.354009957705
 20
230.587402314134
 30
0.0
 11
277.075109957705
 21
231.787402314134
 31
0.0
  0
LINE
  5
1743
330
1D
100
AcDbEntity
  8
0
100
AcDbLine
 10
277.075109957705
 20
231.787402314134
 30
0.0
 11
277.858809957704
 21
232.939202314134
 31
0.0
  0
LINE
  5
1744
330
1D
100
AcDbEntity
  8
0
100
AcDbLine
 10
277.075209957704
 20
231.787302314134
 30
0.0
 11
277.859109957705
 21
232.939302314134
 31
0.0
  0
LINE
  5
1745
330
1D
100
AcDbEntity
  8
0
100
AcDbLine
 10
276.144209957704
 20
229.123602314134
 30
0.0
 11
277.495709957704
 21
231.519602314134
 31
0.0
  0
LINE
  5
1746
330
1D
100
AcDbEntity
  8
0
100
AcDbLine
 10
276.144409957705
 20
229.123402314134
 30
0.0
 11
277.495509957704
 21
231.519702314134
 31
0.0
  0
LINE
  5
1747
330
1D
100
AcDbEntity
  8
0
100
AcDbLine
 10
274.993909957704
 20
234.218402314134
 30
0.0
 11
276.014209957704
 21
235.257802314134
 31
0.0
  0
LINE
  5
1748
330
1D
100
AcDbEntity
  8
0
100
AcDbLine
 10
274.993709957704
 20
234.218302314134
 30
0.0
 11
276.014609957704
 21
235.258002314134
 31
0.0
  0
LINE
  5
1749
330
1D
100
AcDbEntity
  8
0
100
AcDbLine
 10
276.014609957704
 20
235.258002314134
 30
0.0
 11
277.089009957704
 21
236.241302314134
 31
0.0
  0
LINE
  5
174A
330
1D
100
AcDbEntity
  8
0
100
AcDbLine
 10
276.014209957704
 20
235.257802314134
 30
0.0
 11
277.089309957704
 21
236.241402314134
 31
0.0
  0
LINE
  5
174B
330
1D
100
AcDbEntity
  8
0
100
AcDbLine
 10
278.702809957705
 20
234.038502314134
 30
0.0
 11
279.678309957705
 21
235.160902314134
 31
0.0
  0
LINE
  5
174C
330
1D
100
AcDbEntity
  8
0
100
AcDbLine
 10
279.089609957705
 20
233.724502314134
 30
0.0
 11
281.061309957704
 21
235.851902314134
 31
0.0
  0
LINE
  5
174D
330
1D
100
AcDbEntity
  8
0
100
AcDbLine
 10
282.149009957704
 20
236.816102314134
 30
0.0
 11
283.294109957704
 21
237.700102314134
 31
0.0
  0
LINE
  5
174E
330
1D
100
AcDbEntity
  8
0
100
AcDbLine
 10
282.149009957704
 20
236.816502314134
 30
0.0
 11
283.293809957705
 21
237.700202314134
 31
0.0
  0
LINE
  5
174F
330
1D
100
AcDbEntity
  8
0
100
AcDbLine
 10
282.913609957704
 20
240.108702314134
 30
0.0
 11
284.153309957704
 21
240.681402314134
 31
0.0
  0
LINE
  5
1750
330
1D
100
AcDbEntity
  8
0
100
AcDbLine
 10
282.913409957705
 20
240.108602314134
 30
0.0
 11
284.153109957704
 21
240.681302314134
 31
0.0
  0
LINE
  5
1751
330
1D
100
AcDbEntity
  8
0
100
AcDbLine
 10
282.198909957704
 20
237.497602314134
 30
0.0
 11
283.780109957704
 21
238.637002314134
 31
0.0
  0
LINE
  5
1752
330
1D
100
AcDbEntity
  8
0
100
AcDbLine
 10
282.198809957704
 20
237.497602314134
 30
0.0
 11
283.780109957704
 21
238.637002314134
 31
0.0
  0
LINE
  5
1753
330
1D
100
AcDbEntity
  8
0
100
AcDbLine
 10
279.678309957705
 20
235.160902314134
 30
0.0
 11
280.717909957704
 21
236.212902314134
 31
0.0
  0
LINE
  5
1754
330
1D
100
AcDbEntity
  8
0
100
AcDbLine
 10
279.678209957704
 20
235.160902314134
 30
0.0
 11
280.717909957704
 21
236.212902314134
 31
0.0
  0
LINE
  5
1755
330
1D
100
AcDbEntity
  8
0
100
AcDbLine
 10
280.717909957704
 20
236.212902314134
 30
0.0
 11
282.198809957704
 21
237.497602314134
 31
0.0
  0
LINE
  5
1756
330
1D
100
AcDbEntity
  8
0
100
AcDbLine
 10
280.717909957704
 20
236.212902314134
 30
0.0
 11
282.198909957704
 21
237.497602314134
 31
0.0
  0
LINE
  5
1757
330
1D
100
AcDbEntity
  8
0
100
AcDbLine
 10
281.061309957704
 20
235.851902314134
 30
0.0
 11
282.149009957704
 21
236.816502314134
 31
0.0
  0
LINE
  5
1758
330
1D
100
AcDbEntity
  8
0
100
AcDbLine
 10
278.214809957704
 20
237.166402314134
 30
0.0
 11
279.388609957704
 21
238.030002314134
 31
0.0
  0
LINE
  5
1759
330
1D
100
AcDbEntity
  8
0
100
AcDbLine
 10
279.388609957704
 20
238.030002314134
 30
0.0
 11
280.528309957704
 21
238.781502314134
 31
0.0
  0
LINE
  5
175A
330
1D
100
AcDbEntity
  8
0
100
AcDbLine
 10
280.528209957704
 20
238.781402314134
 30
0.0
 11
281.704209957705
 21
239.474802314134
 31
0.0
  0
LINE
  5
175B
330
1D
100
AcDbEntity
  8
0
100
AcDbLine
 10
281.704209957705
 20
239.474802314134
 30
0.0
 11
282.913409957705
 21
240.108602314134
 31
0.0
  0
LINE
  5
175C
330
1D
100
AcDbEntity
  8
0
100
AcDbLine
 10
280.528309957704
 20
238.781502314134
 30
0.0
 11
281.704509957704
 21
239.475002314134
 31
0.0
  0
LINE
  5
175D
330
1D
100
AcDbEntity
  8
0
100
AcDbLine
 10
281.704509957704
 20
239.475002314134
 30
0.0
 11
282.913609957704
 21
240.108702314134
 31
0.0
  0
LINE
  5
175E
330
1D
100
AcDbEntity
  8
0
100
AcDbLine
 10
279.388509957705
 20
238.030002314134
 30
0.0
 11
280.528209957704
 21
238.781402314134
 31
0.0
  0
LINE
  5
175F
330
1D
100
AcDbEntity
  8
0
100
AcDbLine
 10
278.214709957704
 20
237.166402314134
 30
0.0
 11
279.388509957705
 21
238.030002314134
 31
0.0
  0
LINE
  5
1760
330
1D
100
AcDbEntity
  8
0
100
AcDbLine
 10
283.293809957705
 20
237.700202314134
 30
0.0
 11
284.465809957704
 21
238.483102314134
 31
0.0
  0
LINE
  5
1761
330
1D
100
AcDbEntity
  8
0
100
AcDbLine
 10
284.465709957704
 20
238.482902314134
 30
0.0
 11
285.684609957705
 21
239.180402314134
 31
0.0
  0
LINE
  5
1762
330
1D
100
AcDbEntity
  8
0
100
AcDbLine
 10
284.465809957704
 20
238.483102314134
 30
0.0
 11
285.684409957704
 21
239.180302314134
 31
0.0
  0
LINE
  5
1763
330
1D
100
AcDbEntity
  8
0
100
AcDbLine
 10
283.294109957704
 20
237.700102314134
 30
0.0
 11
284.465709957704
 21
238.482902314134
 31
0.0
  0
LINE
  5
1764
330
1D
100
AcDbEntity
  8
0
100
AcDbLine
 10
284.153309957704
 20
240.681402314134
 30
0.0
 11
285.419909957704
 21
241.191302314134
 31
0.0
  0
LINE
  5
1765
330
1D
100
AcDbEntity
  8
0
100
AcDbLine
 10
285.419909957704
 20
241.191302314134
 30
0.0
 11
286.711009957705
 21
241.637202314134
 31
0.0
  0
LINE
  5
1766
330
1D
100
AcDbEntity
  8
0
100
AcDbLine
 10
285.420109957705
 20
241.191202314134
 30
0.0
 11
286.710909957705
 21
241.637202314134
 31
0.0
  0
LINE
  5
1767
330
1D
100
AcDbEntity
  8
0
100
AcDbLine
 10
284.153109957704
 20
240.681302314134
 30
0.0
 11
285.420109957705
 21
241.191202314134
 31
0.0
  0
LINE
  5
1768
330
1D
100
AcDbEntity
  8
0
100
AcDbLine
 10
285.451809957705
 20
239.620602314134
 30
0.0
 11
287.599609957705
 21
240.595902314134
 31
0.0
  0
LINE
  5
1769
330
1D
100
AcDbEntity
  8
0
100
AcDbLine
 10
285.451709957704
 20
239.620502314134
 30
0.0
 11
287.599509957705
 21
240.595802314134
 31
0.0
  0
LINE
  5
176A
330
1D
100
AcDbEntity
  8
0
100
AcDbLine
 10
283.780109957704
 20
238.637002314134
 30
0.0
 11
285.451709957704
 21
239.620502314134
 31
0.0
  0
LINE
  5
176B
330
1D
100
AcDbEntity
  8
0
100
AcDbLine
 10
283.780109957704
 20
238.637002314134
 30
0.0
 11
285.451809957705
 21
239.620602314134
 31
0.0
  0
LINE
  5
176C
330
1D
100
AcDbEntity
  8
0
100
AcDbLine
 10
285.684609957705
 20
239.180402314134
 30
0.0
 11
287.778509957705
 21
240.131402314134
 31
0.0
  0
LINE
  5
176D
330
1D
100
AcDbEntity
  8
0
100
AcDbLine
 10
285.684409957704
 20
239.180302314134
 30
0.0
 11
287.778809957705
 21
240.131302314134
 31
0.0
  0
LINE
  5
176E
330
1D
100
AcDbEntity
  8
0
100
AcDbLine
 10
286.711009957705
 20
241.637202314134
 30
0.0
 11
288.022109957705
 21
242.018002314134
 31
0.0
  0
LINE
  5
176F
330
1D
100
AcDbEntity
  8
0
100
AcDbLine
 10
286.710909957705
 20
241.637202314134
 30
0.0
 11
288.022109957705
 21
242.018002314134
 31
0.0
  0
LINE
  5
1770
330
1D
100
AcDbEntity
  8
0
100
AcDbLine
 10
300.006709957705
 20
240.828802314134
 30
0.0
 11
297.733709957704
 21
241.266002314134
 31
0.0
  0
LINE
  5
1771
330
1D
100
AcDbEntity
  8
0
100
AcDbLine
 10
300.006809957704
 20
240.829202314134
 30
0.0
 11
297.733809957704
 21
241.266302314134
 31
0.0
  0
LINE
  5
1772
330
1D
100
AcDbEntity
  8
0
100
AcDbLine
 10
300.129509957704
 20
241.311602314134
 30
0.0
 11
297.799209957705
 21
241.759802314134
 31
0.0
  0
LINE
  5
1773
330
1D
100
AcDbEntity
  8
0
100
AcDbLine
 10
300.129909957705
 20
241.311502314134
 30
0.0
 11
297.799409957704
 21
241.759502314134
 31
0.0
  0
LINE
  5
1774
330
1D
100
AcDbEntity
  8
0
100
AcDbLine
 10
300.626609957704
 20
242.332702314134
 30
0.0
 11
297.929209957705
 21
242.761302314134
 31
0.0
  0
LINE
  5
1775
330
1D
100
AcDbEntity
  8
0
100
AcDbLine
 10
300.626709957705
 20
242.332802314134
 30
0.0
 11
297.929309957705
 21
242.761202314134
 31
0.0
  0
LINE
  5
1776
330
1D
100
AcDbEntity
  8
0
100
AcDbLine
 10
292.244009957705
 20
241.266302314134
 30
0.0
 11
294.988809957704
 21
241.444602314134
 31
0.0
  0
LINE
  5
1777
330
1D
100
AcDbEntity
  8
0
100
AcDbLine
 10
292.244109957704
 20
241.266002314134
 30
0.0
 11
294.988609957705
 21
241.444702314134
 31
0.0
  0
LINE
  5
1778
330
1D
100
AcDbEntity
  8
0
100
AcDbLine
 10
292.178609957704
 20
241.759802314134
 30
0.0
 11
294.571209957704
 21
241.938302314134
 31
0.0
  0
LINE
  5
1779
330
1D
100
AcDbEntity
  8
0
100
AcDbLine
 10
292.178409957705
 20
241.759502314134
 30
0.0
 11
294.571309957704
 21
241.938202314134
 31
0.0
  0
LINE
  5
177A
330
1D
100
AcDbEntity
  8
0
100
AcDbLine
 10
292.048609957704
 20
242.761302314134
 30
0.0
 11
294.775309957705
 21
242.918602314134
 31
0.0
  0
LINE
  5
177B
330
1D
100
AcDbEntity
  8
0
100
AcDbLine
 10
292.048509957704
 20
242.761202314134
 30
0.0
 11
294.775509957704
 21
242.918802314134
 31
0.0
  0
LINE
  5
177C
330
1D
100
AcDbEntity
  8
0
100
AcDbLine
 10
289.971109957704
 20
240.828802314134
 30
0.0
 11
292.244109957704
 21
241.266002314134
 31
0.0
  0
LINE
  5
177D
330
1D
100
AcDbEntity
  8
0
100
AcDbLine
 10
289.971009957704
 20
240.829202314134
 30
0.0
 11
292.244009957705
 21
241.266302314134
 31
0.0
  0
LINE
  5
177E
330
1D
100
AcDbEntity
  8
0
100
AcDbLine
 10
289.848309957704
 20
241.311602314134
 30
0.0
 11
292.178609957704
 21
241.759802314134
 31
0.0
  0
LINE
  5
177F
330
1D
100
AcDbEntity
  8
0
100
AcDbLine
 10
289.847909957704
 20
241.311502314134
 30
0.0
 11
292.178409957705
 21
241.759502314134
 31
0.0
  0
LINE
  5
1780
330
1D
100
AcDbEntity
  8
0
100
AcDbLine
 10
289.351209957704
 20
242.332702314134
 30
0.0
 11
292.048609957704
 21
242.761302314134
 31
0.0
  0
LINE
  5
1781
330
1D
100
AcDbEntity
  8
0
100
AcDbLine
 10
289.351109957704
 20
242.332802314134
 30
0.0
 11
292.048509957704
 21
242.761202314134
 31
0.0
  0
LINE
  5
1782
330
1D
100
AcDbEntity
  8
0
100
AcDbLine
 10
294.571309957704
 20
241.938202314134
 30
0.0
 11
294.988809957704
 21
241.942202314134
 31
0.0
  0
LINE
  5
1783
330
1D
100
AcDbEntity
  8
0
100
AcDbLine
 10
294.775509957704
 20
242.918802314134
 30
0.0
 11
294.988809957704
 21
242.919502314134
 31
0.0
  0
LINE
  5
1784
330
1D
100
AcDbEntity
  8
0
100
AcDbLine
 10
294.775309957705
 20
242.918602314134
 30
0.0
 11
294.988909957704
 21
242.919402314134
 31
0.0
  0
LINE
  5
1785
330
1D
100
AcDbEntity
  8
0
100
AcDbLine
 10
294.571209957704
 20
241.938302314134
 30
0.0
 11
294.988909957704
 21
241.942202314134
 31
0.0
  0
LINE
  5
1786
330
1D
100
AcDbEntity
  8
0
100
AcDbLine
 10
297.799209957705
 20
241.759802314134
 30
0.0
 11
295.406609957705
 21
241.938302314134
 31
0.0
  0
LINE
  5
1787
330
1D
100
AcDbEntity
  8
0
100
AcDbLine
 10
297.799409957704
 20
241.759502314134
 30
0.0
 11
295.406509957705
 21
241.938202314134
 31
0.0
  0
LINE
  5
1788
330
1D
100
AcDbEntity
  8
0
100
AcDbLine
 10
297.733809957704
 20
241.266302314134
 30
0.0
 11
294.989009957705
 21
241.444602314134
 31
0.0
  0
LINE
  5
1789
330
1D
100
AcDbEntity
  8
0
100
AcDbLine
 10
297.733709957704
 20
241.266002314134
 30
0.0
 11
294.989209957704
 21
241.444702314134
 31
0.0
  0
LINE
  5
178A
330
1D
100
AcDbEntity
  8
0
100
AcDbLine
 10
295.406509957705
 20
241.938202314134
 30
0.0
 11
294.989009957705
 21
241.942202314134
 31
0.0
  0
LINE
  5
178B
330
1D
100
AcDbEntity
  8
0
100
AcDbLine
 10
297.929209957705
 20
242.761302314134
 30
0.0
 11
295.202509957704
 21
242.918602314134
 31
0.0
  0
LINE
  5
178C
330
1D
100
AcDbEntity
  8
0
100
AcDbLine
 10
297.929309957705
 20
242.761202314134
 30
0.0
 11
295.202309957705
 21
242.918802314134
 31
0.0
  0
LINE
  5
178D
330
1D
100
AcDbEntity
  8
0
100
AcDbLine
 10
295.202309957705
 20
242.918802314134
 30
0.0
 11
294.989009957705
 21
242.919502314134
 31
0.0
  0
LINE
  5
178E
330
1D
100
AcDbEntity
  8
0
100
AcDbLine
 10
295.202509957704
 20
242.918602314134
 30
0.0
 11
294.988909957704
 21
242.919402314134
 31
0.0
  0
LINE
  5
178F
330
1D
100
AcDbEntity
  8
0
100
AcDbLine
 10
295.406609957705
 20
241.938302314134
 30
0.0
 11
294.988909957704
 21
241.942202314134
 31
0.0
  0
LINE
  5
1790
330
1D
100
AcDbEntity
  8
0
100
AcDbLine
 10
304.526009957704
 20
239.620602314134
 30
0.0
 11
302.378209957704
 21
240.595902314134
 31
0.0
  0
LINE
  5
1791
330
1D
100
AcDbEntity
  8
0
100
AcDbLine
 10
304.526109957705
 20
239.620502314134
 30
0.0
 11
302.378309957704
 21
240.595802314134
 31
0.0
  0
LINE
  5
1792
330
1D
100
AcDbEntity
  8
0
100
AcDbLine
 10
304.293209957704
 20
239.180402314134
 30
0.0
 11
302.199309957704
 21
240.131402314134
 31
0.0
  0
LINE
  5
1793
330
1D
100
AcDbEntity
  8
0
100
AcDbLine
 10
304.293409957705
 20
239.180302314134
 30
0.0
 11
302.199009957704
 21
240.131302314134
 31
0.0
  0
LINE
  5
1794
330
1D
100
AcDbEntity
  8
0
100
AcDbLine
 10
304.557909957705
 20
241.191302314134
 30
0.0
 11
303.266809957704
 21
241.637202314134
 31
0.0
  0
LINE
  5
1795
330
1D
100
AcDbEntity
  8
0
100
AcDbLine
 10
304.557709957704
 20
241.191202314134
 30
0.0
 11
303.266909957704
 21
241.637202314134
 31
0.0
  0
LINE
  5
1796
330
1D
100
AcDbEntity
  8
0
100
AcDbLine
 10
303.266809957704
 20
241.637202314134
 30
0.0
 11
301.955709957704
 21
242.018002314134
 31
0.0
  0
LINE
  5
1797
330
1D
100
AcDbEntity
  8
0
100
AcDbLine
 10
303.266909957704
 20
241.637202314134
 30
0.0
 11
301.955709957704
 21
242.018002314134
 31
0.0
  0
LINE
  5
1798
330
1D
100
AcDbEntity
  8
0
100
AcDbLine
 10
302.199309957704
 20
240.131402314134
 30
0.0
 11
300.006709957705
 21
240.828802314134
 31
0.0
  0
LINE
  5
1799
330
1D
100
AcDbEntity
  8
0
100
AcDbLine
 10
302.199009957704
 20
240.131302314134
 30
0.0
 11
300.006809957704
 21
240.829202314134
 31
0.0
  0
LINE
  5
179A
330
1D
100
AcDbEntity
  8
0
100
AcDbLine
 10
302.378209957704
 20
240.595902314134
 30
0.0
 11
300.129509957704
 21
241.311602314134
 31
0.0
  0
LINE
  5
179B
330
1D
100
AcDbEntity
  8
0
100
AcDbLine
 10
302.378309957704
 20
240.595802314134
 30
0.0
 11
300.129909957705
 21
241.311502314134
 31
0.0
  0
LINE
  5
179C
330
1D
100
AcDbEntity
  8
0
100
AcDbLine
 10
301.955709957704
 20
242.018002314134
 30
0.0
 11
300.626709957705
 21
242.332802314134
 31
0.0
  0
LINE
  5
179D
330
1D
100
AcDbEntity
  8
0
100
AcDbLine
 10
301.955709957704
 20
242.018002314134
 30
0.0
 11
300.626609957704
 21
242.332702314134
 31
0.0
  0
LINE
  5
179E
330
1D
100
AcDbEntity
  8
0
100
AcDbLine
 10
307.064209957705
 20
240.108702314134
 30
0.0
 11
305.824509957704
 21
240.681402314134
 31
0.0
  0
LINE
  5
179F
330
1D
100
AcDbEntity
  8
0
100
AcDbLine
 10
307.064409957704
 20
240.108602314134
 30
0.0
 11
305.824709957704
 21
240.681302314134
 31
0.0
  0
LINE
  5
17A0
330
1D
100
AcDbEntity
  8
0
100
AcDbLine
 10
307.778909957705
 20
237.497602314134
 30
0.0
 11
306.197709957704
 21
238.637002314134
 31
0.0
  0
LINE
  5
17A1
330
1D
100
AcDbEntity
  8
0
100
AcDbLine
 10
307.779009957704
 20
237.497602314134
 30
0.0
 11
306.197709957704
 21
238.637002314134
 31
0.0
  0
LINE
  5
17A2
330
1D
100
AcDbEntity
  8
0
100
AcDbLine
 10
306.684009957704
 20
237.700202314134
 30
0.0
 11
305.512009957704
 21
238.483102314134
 31
0.0
  0
LINE
  5
17A3
330
1D
100
AcDbEntity
  8
0
100
AcDbLine
 10
306.683709957705
 20
237.700102314134
 30
0.0
 11
305.512109957705
 21
238.482902314134
 31
0.0
  0
LINE
  5
17A4
330
1D
100
AcDbEntity
  8
0
100
AcDbLine
 10
308.273609957704
 20
239.474802314134
 30
0.0
 11
307.064409957704
 21
240.108602314134
 31
0.0
  0
LINE
  5
17A5
330
1D
100
AcDbEntity
  8
0
100
AcDbLine
 10
308.273309957704
 20
239.475002314134
 30
0.0
 11
307.064209957705
 21
240.108702314134
 31
0.0
  0
LINE
  5
17A6
330
1D
100
AcDbEntity
  8
0
100
AcDbLine
 10
307.828809957704
 20
236.816102314134
 30
0.0
 11
306.683709957705
 21
237.700102314134
 31
0.0
  0
LINE
  5
17A7
330
1D
100
AcDbEntity
  8
0
100
AcDbLine
 10
307.828809957704
 20
236.816502314134
 30
0.0
 11
306.684009957704
 21
237.700202314134
 31
0.0
  0
LINE
  5
17A8
330
1D
100
AcDbEntity
  8
0
100
AcDbLine
 10
305.512109957705
 20
238.482902314134
 30
0.0
 11
304.293209957704
 21
239.180402314134
 31
0.0
  0
LINE
  5
17A9
330
1D
100
AcDbEntity
  8
0
100
AcDbLine
 10
305.512009957704
 20
238.483102314134
 30
0.0
 11
304.293409957705
 21
239.180302314134
 31
0.0
  0
LINE
  5
17AA
330
1D
100
AcDbEntity
  8
0
100
AcDbLine
 10
305.824509957704
 20
240.681402314134
 30
0.0
 11
304.557909957705
 21
241.191302314134
 31
0.0
  0
LINE
  5
17AB
330
1D
100
AcDbEntity
  8
0
100
AcDbLine
 10
305.824709957704
 20
240.681302314134
 30
0.0
 11
304.557709957704
 21
241.191202314134
 31
0.0
  0
LINE
  5
17AC
330
1D
100
AcDbEntity
  8
0
100
AcDbLine
 10
306.197709957704
 20
238.637002314134
 30
0.0
 11
304.526109957705
 21
239.620502314134
 31
0.0
  0
LINE
  5
17AD
330
1D
100
AcDbEntity
  8
0
100
AcDbLine
 10
306.197709957704
 20
238.637002314134
 30
0.0
 11
304.526009957704
 21
239.620602314134
 31
0.0
  0
LINE
  5
17AE
330
1D
100
AcDbEntity
  8
0
100
AcDbLine
 10
321.305109957705
 20
222.927302314134
 30
0.0
 11
320.882509957705
 21
224.305502314134
 31
0.0
  0
LINE
  5
17AF
330
1D
100
AcDbEntity
  8
0
100
AcDbLine
 10
321.304709957705
 20
222.927502314134
 30
0.0
 11
320.882709957704
 21
224.305402314134
 31
0.0
  0
LINE
  5
17B0
330
1D
100
AcDbEntity
  8
0
100
AcDbLine
 10
316.304309957705
 20
221.100602314134
 30
0.0
 11
315.752809957704
 21
223.882402314134
 31
0.0
  0
LINE
  5
17B1
330
1D
100
AcDbEntity
  8
0
100
AcDbLine
 10
316.304409957704
 20
221.100402314134
 30
0.0
 11
315.753009957705
 21
223.882402314134
 31
0.0
  0
LINE
  5
17B2
330
1D
100
AcDbEntity
  8
0
100
AcDbLine
 10
316.551509957705
 20
222.598202314134
 30
0.0
 11
316.235809957705
 21
224.003602314134
 31
0.0
  0
LINE
  5
17B3
330
1D
100
AcDbEntity
  8
0
100
AcDbLine
 10
316.551609957704
 20
222.598102314134
 30
0.0
 11
316.235609957704
 21
224.003802314134
 31
0.0
  0
LINE
  5
17B4
330
1D
100
AcDbEntity
  8
0
100
AcDbLine
 10
319.980209957704
 20
204.612302314134
 30
0.0
 11
319.284509957704
 21
203.154602314134
 31
0.0
  0
LINE
  5
17B5
330
1D
100
AcDbEntity
  8
0
100
AcDbLine
 10
319.979909957705
 20
204.612302314134
 30
0.0
 11
319.284509957704
 21
203.154602314134
 31
0.0
  0
LINE
  5
17B6
330
1D
100
AcDbEntity
  8
0
100
AcDbLine
 10
314.936209957704
 20
204.721002314134
 30
0.0
 11
314.095009957705
 21
202.551802314134
 31
0.0
  0
LINE
  5
17B7
330
1D
100
AcDbEntity
  8
0
100
AcDbLine
 10
314.936009957705
 20
204.720602314134
 30
0.0
 11
314.095009957705
 21
202.551802314134
 31
0.0
  0
LINE
  5
17B8
330
1D
100
AcDbEntity
  8
0
100
AcDbLine
 10
314.355109957704
 20
204.568902314134
 30
0.0
 11
313.638409957705
 21
202.742702314134
 31
0.0
  0
LINE
  5
17B9
330
1D
100
AcDbEntity
  8
0
100
AcDbLine
 10
314.355309957704
 20
204.569002314134
 30
0.0
 11
313.638409957705
 21
202.742902314134
 31
0.0
  0
LINE
  5
17BA
330
1D
100
AcDbEntity
  8
0
100
AcDbLine
 10
319.284509957704
 20
203.154602314134
 30
0.0
 11
318.503809957704
 21
201.740602314134
 31
0.0
  0
LINE
  5
17BB
330
1D
100
AcDbEntity
  8
0
100
AcDbLine
 10
319.284509957704
 20
203.154602314134
 30
0.0
 11
318.504009957705
 21
201.740602314134
 31
0.0
  0
LINE
  5
17BC
330
1D
100
AcDbEntity
  8
0
100
AcDbLine
 10
310.508109957705
 20
193.162102314134
 30
0.0
 11
309.287409957705
 21
192.365802314134
 31
0.0
  0
LINE
  5
17BD
330
1D
100
AcDbEntity
  8
0
100
AcDbLine
 10
310.508209957704
 20
193.162102314134
 30
0.0
 11
309.287209957704
 21
192.365902314134
 31
0.0
  0
LINE
  5
17BE
330
1D
100
AcDbEntity
  8
0
100
AcDbLine
 10
314.095009957705
 20
202.551802314134
 30
0.0
 11
313.001809957704
 21
200.157302314134
 31
0.0
  0
LINE
  5
17BF
330
1D
100
AcDbEntity
  8
0
100
AcDbLine
 10
314.917509957705
 20
196.960202314134
 30
0.0
 11
313.892809957704
 21
195.924002314134
 31
0.0
  0
LINE
  5
17C0
330
1D
100
AcDbEntity
  8
0
100
AcDbLine
 10
314.917609957704
 20
196.960302314134
 30
0.0
 11
313.892609957705
 21
195.923702314134
 31
0.0
  0
LINE
  5
17C1
330
1D
100
AcDbEntity
  8
0
100
AcDbLine
 10
311.782809957704
 20
197.852602314134
 30
0.0
 11
310.259709957704
 21
195.342702314134
 31
0.0
  0
LINE
  5
17C2
330
1D
100
AcDbEntity
  8
0
100
AcDbLine
 10
311.782809957704
 20
197.852802314134
 30
0.0
 11
310.259709957704
 21
195.342702314134
 31
0.0
  0
LINE
  5
17C3
330
1D
100
AcDbEntity
  8
0
100
AcDbLine
 10
311.684909957704
 20
194.022202314134
 30
0.0
 11
310.508209957704
 21
193.162102314134
 31
0.0
  0
LINE
  5
17C4
330
1D
100
AcDbEntity
  8
0
100
AcDbLine
 10
311.685009957704
 20
194.022202314134
 30
0.0
 11
310.508109957705
 21
193.162102314134
 31
0.0
  0
LINE
  5
17C5
330
1D
100
AcDbEntity
  8
0
100
AcDbLine
 10
311.352209957705
 20
198.095502314134
 30
0.0
 11
309.618009957705
 21
195.265302314134
 31
0.0
  0
LINE
  5
17C6
330
1D
100
AcDbEntity
  8
0
100
AcDbLine
 10
311.351709957705
 20
198.095102314134
 30
0.0
 11
309.618009957705
 21
195.265302314134
 31
0.0
  0
LINE
  5
17C7
330
1D
100
AcDbEntity
  8
0
100
AcDbLine
 10
313.638409957705
 20
202.742702314134
 30
0.0
 11
312.557809957705
 21
200.375502314134
 31
0.0
  0
LINE
  5
17C8
330
1D
100
AcDbEntity
  8
0
100
AcDbLine
 10
313.638409957705
 20
202.742902314134
 30
0.0
 11
312.557609957704
 21
200.375302314134
 31
0.0
  0
LINE
  5
17C9
330
1D
100
AcDbEntity
  8
0
100
AcDbLine
 10
313.892809957704
 20
195.924002314134
 30
0.0
 11
312.814109957704
 21
194.943402314134
 31
0.0
  0
LINE
  5
17CA
330
1D
100
AcDbEntity
  8
0
100
AcDbLine
 10
313.892609957705
 20
195.923702314134
 30
0.0
 11
312.814109957704
 21
194.943702314134
 31
0.0
  0
LINE
  5
17CB
330
1D
100
AcDbEntity
  8
0
100
AcDbLine
 10
312.814109957704
 20
194.943702314134
 30
0.0
 11
311.685009957704
 21
194.022202314134
 31
0.0
  0
LINE
  5
17CC
330
1D
100
AcDbEntity
  8
0
100
AcDbLine
 10
312.814109957704
 20
194.943402314134
 30
0.0
 11
311.684909957704
 21
194.022202314134
 31
0.0
  0
LINE
  5
17CD
330
1D
100
AcDbEntity
  8
0
100
AcDbLine
 10
313.001809957704
 20
200.157302314134
 30
0.0
 11
311.782809957704
 21
197.852802314134
 31
0.0
  0
LINE
  5
17CE
330
1D
100
AcDbEntity
  8
0
100
AcDbLine
 10
313.001809957704
 20
200.157302314134
 30
0.0
 11
311.782809957704
 21
197.852602314134
 31
0.0
  0
LINE
  5
17CF
330
1D
100
AcDbEntity
  8
0
100
AcDbLine
 10
312.557609957704
 20
200.375302314134
 30
0.0
 11
311.352209957705
 21
198.095502314134
 31
0.0
  0
LINE
  5
17D0
330
1D
100
AcDbEntity
  8
0
100
AcDbLine
 10
312.557809957705
 20
200.375502314134
 30
0.0
 11
311.351709957705
 21
198.095102314134
 31
0.0
  0
LINE
  5
17D1
330
1D
100
AcDbEntity
  8
0
100
AcDbLine
 10
310.259709957704
 20
195.342702314134
 30
0.0
 11
309.097709957705
 21
193.634702314134
 31
0.0
  0
LINE
  5
17D2
330
1D
100
AcDbEntity
  8
0
100
AcDbLine
 10
318.503809957704
 20
201.740602314134
 30
0.0
 11
317.640809957705
 21
200.375002314134
 31
0.0
  0
LINE
  5
17D3
330
1D
100
AcDbEntity
  8
0
100
AcDbLine
 10
318.504009957705
 20
201.740602314134
 30
0.0
 11
317.640809957705
 21
200.375002314134
 31
0.0
  0
LINE
  5
17D4
330
1D
100
AcDbEntity
  8
0
100
AcDbLine
 10
316.794109957704
 20
199.188602314134
 30
0.0
 11
315.885409957704
 21
198.049402314134
 31
0.0
  0
LINE
  5
17D5
330
1D
100
AcDbEntity
  8
0
100
AcDbLine
 10
316.794009957704
 20
199.188502314134
 30
0.0
 11
315.885509957704
 21
198.049602314134
 31
0.0
  0
LINE
  5
17D6
330
1D
100
AcDbEntity
  8
0
100
AcDbLine
 10
315.885409957704
 20
198.049402314134
 30
0.0
 11
314.917609957704
 21
196.960302314134
 31
0.0
  0
LINE
  5
17D7
330
1D
100
AcDbEntity
  8
0
100
AcDbLine
 10
315.885509957704
 20
198.049602314134
 30
0.0
 11
314.917509957705
 21
196.960202314134
 31
0.0
  0
LINE
  5
17D8
330
1D
100
AcDbEntity
  8
0
100
AcDbLine
 10
317.640809957705
 20
200.375002314134
 30
0.0
 11
316.794009957704
 21
199.188502314134
 31
0.0
  0
LINE
  5
17D9
330
1D
100
AcDbEntity
  8
0
100
AcDbLine
 10
317.640809957705
 20
200.375002314134
 30
0.0
 11
316.794109957704
 21
199.188602314134
 31
0.0
  0
LINE
  5
17DA
330
1D
100
AcDbEntity
  8
0
100
AcDbLine
 10
316.998109957705
 20
214.051602314134
 30
0.0
 11
316.829209957705
 21
212.483902314134
 31
0.0
  0
LINE
  5
17DB
330
1D
100
AcDbEntity
  8
0
100
AcDbLine
 10
316.998009957705
 20
214.051302314134
 30
0.0
 11
316.829009957704
 21
212.483802314134
 31
0.0
  0
LINE
  5
17DC
330
1D
100
AcDbEntity
  8
0
100
AcDbLine
 10
316.596509957704
 20
215.638202314134
 30
0.0
 11
316.337709957705
 21
212.548002314134
 31
0.0
  0
LINE
  5
17DD
330
1D
100
AcDbEntity
  8
0
100
AcDbLine
 10
316.596509957704
 20
215.638602314134
 30
0.0
 11
316.337809957705
 21
212.548302314134
 31
0.0
  0
LINE
  5
17DE
330
1D
100
AcDbEntity
  8
0
100
AcDbLine
 10
316.277409957704
 20
209.367802314134
 30
0.0
 11
315.900709957705
 21
207.826302314134
 31
0.0
  0
LINE
  5
17DF
330
1D
100
AcDbEntity
  8
0
100
AcDbLine
 10
315.794009957704
 20
209.474902314134
 30
0.0
 11
314.987909957704
 21
206.445902314134
 31
0.0
  0
LINE
  5
17E0
330
1D
100
AcDbEntity
  8
0
100
AcDbLine
 10
316.277309957704
 20
209.367602314134
 30
0.0
 11
315.900809957704
 21
207.826502314134
 31
0.0
  0
LINE
  5
17E1
330
1D
100
AcDbEntity
  8
0
100
AcDbLine
 10
315.794009957704
 20
209.475102314134
 30
0.0
 11
314.988009957704
 21
206.446202314134
 31
0.0
  0
LINE
  5
17E2
330
1D
100
AcDbEntity
  8
0
100
AcDbLine
 10
314.987909957704
 20
206.445902314134
 30
0.0
 11
314.355309957704
 21
204.569002314134
 31
0.0
  0
LINE
  5
17E3
330
1D
100
AcDbEntity
  8
0
100
AcDbLine
 10
314.988009957704
 20
206.446202314134
 30
0.0
 11
314.355109957704
 21
204.568902314134
 31
0.0
  0
LINE
  5
17E4
330
1D
100
AcDbEntity
  8
0
100
AcDbLine
 10
315.460909957705
 20
206.299802314134
 30
0.0
 11
314.936009957705
 21
204.720602314134
 31
0.0
  0
LINE
  5
17E5
330
1D
100
AcDbEntity
  8
0
100
AcDbLine
 10
315.900809957704
 20
207.826502314134
 30
0.0
 11
315.460909957705
 21
206.299902314134
 31
0.0
  0
LINE
  5
17E6
330
1D
100
AcDbEntity
  8
0
100
AcDbLine
 10
315.900709957705
 20
207.826302314134
 30
0.0
 11
315.460909957705
 21
206.299802314134
 31
0.0
  0
LINE
  5
17E7
330
1D
100
AcDbEntity
  8
0
100
AcDbLine
 10
316.829209957705
 20
212.483902314134
 30
0.0
 11
316.587909957704
 21
210.921702314134
 31
0.0
  0
LINE
  5
17E8
330
1D
100
AcDbEntity
  8
0
100
AcDbLine
 10
316.829009957704
 20
212.483802314134
 30
0.0
 11
316.587809957705
 21
210.921402314134
 31
0.0
  0
LINE
  5
17E9
330
1D
100
AcDbEntity
  8
0
100
AcDbLine
 10
316.587809957705
 20
210.921402314134
 30
0.0
 11
316.277409957704
 21
209.367802314134
 31
0.0
  0
LINE
  5
17EA
330
1D
100
AcDbEntity
  8
0
100
AcDbLine
 10
316.337709957705
 20
212.548002314134
 30
0.0
 11
315.794009957704
 21
209.474902314134
 31
0.0
  0
LINE
  5
17EB
330
1D
100
AcDbEntity
  8
0
100
AcDbLine
 10
316.587909957704
 20
210.921702314134
 30
0.0
 11
316.277309957704
 21
209.367602314134
 31
0.0
  0
LINE
  5
17EC
330
1D
100
AcDbEntity
  8
0
100
AcDbLine
 10
316.337809957705
 20
212.548302314134
 30
0.0
 11
315.794009957704
 21
209.475102314134
 31
0.0
  0
LINE
  5
17ED
330
1D
100
AcDbEntity
  8
0
100
AcDbLine
 10
316.609809957704
 20
217.414502314134
 30
0.0
 11
316.596709957704
 21
215.638102314134
 31
0.0
  0
LINE
  5
17EE
330
1D
100
AcDbEntity
  8
0
100
AcDbLine
 10
316.609509957705
 20
217.414602314134
 30
0.0
 11
316.596509957704
 21
215.638602314134
 31
0.0
  0
LINE
  5
17EF
330
1D
100
AcDbEntity
  8
0
100
AcDbLine
 10
317.106309957705
 20
217.424902314134
 30
0.0
 11
317.092609957704
 21
215.620502314134
 31
0.0
  0
LINE
  5
17F0
330
1D
100
AcDbEntity
  8
0
100
AcDbLine
 10
317.092509957704
 20
215.620602314134
 30
0.0
 11
316.998009957705
 21
214.051302314134
 31
0.0
  0
LINE
  5
17F1
330
1D
100
AcDbEntity
  8
0
100
AcDbLine
 10
316.609809957704
 20
217.414502314134
 30
0.0
 11
316.514209957704
 21
219.267402314134
 31
0.0
  0
LINE
  5
17F2
330
1D
100
AcDbEntity
  8
0
100
AcDbLine
 10
316.609509957705
 20
217.414602314134
 30
0.0
 11
316.513709957704
 21
219.267302314134
 31
0.0
  0
LINE
  5
17F3
330
1D
100
AcDbEntity
  8
0
100
AcDbLine
 10
317.106309957705
 20
217.424902314134
 30
0.0
 11
317.009609957704
 21
219.308402314134
 31
0.0
  0
LINE
  5
17F4
330
1D
100
AcDbEntity
  8
0
100
AcDbLine
 10
316.513709957704
 20
219.267302314134
 30
0.0
 11
316.304309957705
 21
221.100602314134
 31
0.0
  0
LINE
  5
17F5
330
1D
100
AcDbEntity
  8
0
100
AcDbLine
 10
316.514209957704
 20
219.267402314134
 30
0.0
 11
316.304409957704
 21
221.100402314134
 31
0.0
  0
LINE
  5
17F6
330
1D
100
AcDbEntity
  8
0
100
AcDbLine
 10
317.009609957704
 20
219.308402314134
 30
0.0
 11
316.796909957705
 21
221.172402314134
 31
0.0
  0
LINE
  5
17F7
330
1D
100
AcDbEntity
  8
0
100
AcDbLine
 10
317.009609957704
 20
219.308402314134
 30
0.0
 11
316.796509957705
 21
221.172502314134
 31
0.0
  0
LINE
  5
17F8
330
1D
100
AcDbEntity
  8
0
100
AcDbLine
 10
316.796909957705
 20
221.172402314134
 30
0.0
 11
316.551509957705
 21
222.598202314134
 31
0.0
  0
LINE
  5
17F9
330
1D
100
AcDbEntity
  8
0
100
AcDbLine
 10
316.796509957705
 20
221.172502314134
 30
0.0
 11
316.551609957704
 21
222.598102314134
 31
0.0
  0
LINE
  5
17FA
330
1D
100
AcDbEntity
  8
0
100
AcDbLine
 10
317.106509957704
 20
217.424902314134
 30
0.0
 11
317.009609957704
 21
219.308402314134
 31
0.0
  0
LINE
  5
17FB
330
1D
100
AcDbEntity
  8
0
100
AcDbLine
 10
322.250409957705
 20
213.984102314134
 30
0.0
 11
322.106009957704
 21
212.375002314134
 31
0.0
  0
LINE
  5
17FC
330
1D
100
AcDbEntity
  8
0
100
AcDbLine
 10
322.250409957705
 20
213.984002314134
 30
0.0
 11
322.106109957704
 21
212.374902314134
 31
0.0
  0
LINE
  5
17FD
330
1D
100
AcDbEntity
  8
0
100
AcDbLine
 10
321.866809957705
 20
210.777602314134
 30
0.0
 11
321.533109957704
 21
209.196702314134
 31
0.0
  0
LINE
  5
17FE
330
1D
100
AcDbEntity
  8
0
100
AcDbLine
 10
321.866909957704
 20
210.777602314134
 30
0.0
 11
321.533209957704
 21
209.196702314134
 31
0.0
  0
LINE
  5
17FF
330
1D
100
AcDbEntity
  8
0
100
AcDbLine
 10
320.588309957704
 20
206.109102314134
 30
0.0
 11
319.980209957704
 21
204.612302314134
 31
0.0
  0
LINE
  5
1800
330
1D
100
AcDbEntity
  8
0
100
AcDbLine
 10
320.588209957705
 20
206.109102314134
 30
0.0
 11
319.979909957705
 21
204.612302314134
 31
0.0
  0
LINE
  5
1801
330
1D
100
AcDbEntity
  8
0
100
AcDbLine
 10
321.533209957704
 20
209.196702314134
 30
0.0
 11
321.106409957704
 21
207.638702314134
 31
0.0
  0
LINE
  5
1802
330
1D
100
AcDbEntity
  8
0
100
AcDbLine
 10
321.106509957704
 20
207.638802314134
 30
0.0
 11
320.588309957704
 21
206.109102314134
 31
0.0
  0
LINE
  5
1803
330
1D
100
AcDbEntity
  8
0
100
AcDbLine
 10
321.533109957704
 20
209.196702314134
 30
0.0
 11
321.106509957704
 21
207.638802314134
 31
0.0
  0
LINE
  5
1804
330
1D
100
AcDbEntity
  8
0
100
AcDbLine
 10
321.106409957704
 20
207.638702314134
 30
0.0
 11
320.588209957705
 21
206.109102314134
 31
0.0
  0
LINE
  5
1805
330
1D
100
AcDbEntity
  8
0
100
AcDbLine
 10
322.106109957704
 20
212.374902314134
 30
0.0
 11
321.866909957704
 21
210.777602314134
 31
0.0
  0
LINE
  5
1806
330
1D
100
AcDbEntity
  8
0
100
AcDbLine
 10
322.106009957704
 20
212.375002314134
 30
0.0
 11
321.866809957705
 21
210.777602314134
 31
0.0
  0
LINE
  5
1807
330
1D
100
AcDbEntity
  8
0
100
AcDbLine
 10
322.250809957705
 20
217.250402314134
 30
0.0
 11
322.127109957705
 21
218.686602314134
 31
0.0
  0
LINE
  5
1808
330
1D
100
AcDbEntity
  8
0
100
AcDbLine
 10
322.251109957704
 20
217.250202314134
 30
0.0
 11
322.127409957704
 21
218.686402314134
 31
0.0
  0
LINE
  5
1809
330
1D
100
AcDbEntity
  8
0
100
AcDbLine
 10
322.299509957704
 20
215.620502314134
 30
0.0
 11
322.251109957704
 21
217.250202314134
 31
0.0
  0
LINE
  5
180A
330
1D
100
AcDbEntity
  8
0
100
AcDbLine
 10
322.299609957704
 20
215.620502314134
 30
0.0
 11
322.250809957705
 21
217.250402314134
 31
0.0
  0
LINE
  5
180B
330
1D
100
AcDbEntity
  8
0
100
AcDbLine
 10
322.299609957704
 20
215.620502314134
 30
0.0
 11
322.250409957705
 21
213.984002314134
 31
0.0
  0
LINE
  5
180C
330
1D
100
AcDbEntity
  8
0
100
AcDbLine
 10
322.299609957704
 20
215.620502314134
 30
0.0
 11
322.250409957705
 21
213.984102314134
 31
0.0
  0
LINE
  5
180D
330
1D
100
AcDbEntity
  8
0
100
AcDbLine
 10
322.127109957705
 20
218.686602314134
 30
0.0
 11
321.927909957705
 21
220.113902314134
 31
0.0
  0
LINE
  5
180E
330
1D
100
AcDbEntity
  8
0
100
AcDbLine
 10
322.127409957704
 20
218.686402314134
 30
0.0
 11
321.928109957704
 21
220.113802314134
 31
0.0
  0
LINE
  5
180F
330
1D
100
AcDbEntity
  8
0
100
AcDbLine
 10
321.928109957704
 20
220.113802314134
 30
0.0
 11
321.653809957705
 21
221.528802314134
 31
0.0
  0
LINE
  5
1810
330
1D
100
AcDbEntity
  8
0
100
AcDbLine
 10
321.653409957705
 20
221.528902314134
 30
0.0
 11
321.304709957705
 21
222.927502314134
 31
0.0
  0
LINE
  5
1811
330
1D
100
AcDbEntity
  8
0
100
AcDbLine
 10
321.653809957705
 20
221.528802314134
 30
0.0
 11
321.305109957705
 21
222.927302314134
 31
0.0
  0
LINE
  5
1812
330
1D
100
AcDbEntity
  8
0
100
AcDbLine
 10
321.927909957705
 20
220.113902314134
 30
0.0
 11
321.653409957705
 21
221.528902314134
 31
0.0
  0
LINE
  5
1813
330
1D
100
AcDbEntity
  8
0
100
AcDbLine
 10
319.181309957704
 20
228.292702314134
 30
0.0
 11
318.471009957704
 21
229.564002314134
 31
0.0
  0
LINE
  5
1814
330
1D
100
AcDbEntity
  8
0
100
AcDbLine
 10
319.181609957704
 20
228.292602314134
 30
0.0
 11
318.471009957704
 21
229.564002314134
 31
0.0
  0
LINE
  5
1815
330
1D
100
AcDbEntity
  8
0
100
AcDbLine
 10
311.275009957704
 20
234.038502314134
 30
0.0
 11
310.299509957704
 21
235.160902314134
 31
0.0
  0
LINE
  5
1816
330
1D
100
AcDbEntity
  8
0
100
AcDbLine
 10
310.888209957704
 20
233.724502314134
 30
0.0
 11
308.916509957705
 21
235.851902314134
 31
0.0
  0
LINE
  5
1817
330
1D
100
AcDbEntity
  8
0
100
AcDbLine
 10
315.947809957705
 20
233.126102314134
 30
0.0
 11
314.983909957704
 21
234.218402314134
 31
0.0
  0
LINE
  5
1818
330
1D
100
AcDbEntity
  8
0
100
AcDbLine
 10
315.947709957704
 20
233.126202314134
 30
0.0
 11
314.984109957705
 21
234.218302314134
 31
0.0
  0
LINE
  5
1819
330
1D
100
AcDbEntity
  8
0
100
AcDbLine
 10
314.927409957705
 20
226.567002314134
 30
0.0
 11
313.833609957705
 21
229.123602314134
 31
0.0
  0
LINE
  5
181A
330
1D
100
AcDbEntity
  8
0
100
AcDbLine
 10
314.927209957704
 20
226.567202314134
 30
0.0
 11
313.833409957704
 21
229.123402314134
 31
0.0
  0
LINE
  5
181B
330
1D
100
AcDbEntity
  8
0
100
AcDbLine
 10
314.280409957704
 20
229.343102314134
 30
0.0
 11
313.623809957704
 21
230.587402314134
 31
0.0
  0
LINE
  5
181C
330
1D
100
AcDbEntity
  8
0
100
AcDbLine
 10
314.280609957705
 20
229.343202314134
 30
0.0
 11
313.623809957704
 21
230.587402314134
 31
0.0
  0
LINE
  5
181D
330
1D
100
AcDbEntity
  8
0
100
AcDbLine
 10
312.482309957705
 20
231.519702314134
 30
0.0
 11
310.888209957704
 21
233.724502314134
 31
0.0
  0
LINE
  5
181E
330
1D
100
AcDbEntity
  8
0
100
AcDbLine
 10
312.118709957704
 20
232.939302314134
 30
0.0
 11
311.275209957705
 21
234.038502314134
 31
0.0
  0
LINE
  5
181F
330
1D
100
AcDbEntity
  8
0
100
AcDbLine
 10
312.119009957705
 20
232.939202314134
 30
0.0
 11
311.275009957704
 21
234.038502314134
 31
0.0
  0
LINE
  5
1820
330
1D
100
AcDbEntity
  8
0
100
AcDbLine
 10
312.482109957704
 20
231.519602314134
 30
0.0
 11
310.887909957704
 21
233.724102314134
 31
0.0
  0
LINE
  5
1821
330
1D
100
AcDbEntity
  8
0
100
AcDbLine
 10
313.623809957704
 20
230.587402314134
 30
0.0
 11
312.902609957704
 21
231.787302314134
 31
0.0
  0
LINE
  5
1822
330
1D
100
AcDbEntity
  8
0
100
AcDbLine
 10
313.623809957704
 20
230.587402314134
 30
0.0
 11
312.902709957704
 21
231.787402314134
 31
0.0
  0
LINE
  5
1823
330
1D
100
AcDbEntity
  8
0
100
AcDbLine
 10
312.902709957704
 20
231.787402314134
 30
0.0
 11
312.119009957705
 21
232.939202314134
 31
0.0
  0
LINE
  5
1824
330
1D
100
AcDbEntity
  8
0
100
AcDbLine
 10
312.902609957704
 20
231.787302314134
 30
0.0
 11
312.118709957704
 21
232.939302314134
 31
0.0
  0
LINE
  5
1825
330
1D
100
AcDbEntity
  8
0
100
AcDbLine
 10
313.833609957705
 20
229.123602314134
 30
0.0
 11
312.482109957704
 21
231.519602314134
 31
0.0
  0
LINE
  5
1826
330
1D
100
AcDbEntity
  8
0
100
AcDbLine
 10
313.833409957704
 20
229.123402314134
 30
0.0
 11
312.482309957705
 21
231.519702314134
 31
0.0
  0
LINE
  5
1827
330
1D
100
AcDbEntity
  8
0
100
AcDbLine
 10
315.752809957704
 20
223.882402314134
 30
0.0
 11
314.927409957705
 21
226.567002314134
 31
0.0
  0
LINE
  5
1828
330
1D
100
AcDbEntity
  8
0
100
AcDbLine
 10
315.850309957704
 20
225.384802314134
 30
0.0
 11
315.395309957705
 21
226.737702314134
 31
0.0
  0
LINE
  5
1829
330
1D
100
AcDbEntity
  8
0
100
AcDbLine
 10
315.850109957704
 20
225.384802314134
 30
0.0
 11
315.395109957704
 21
226.737702314134
 31
0.0
  0
LINE
  5
182A
330
1D
100
AcDbEntity
  8
0
100
AcDbLine
 10
315.753009957705
 20
223.882402314134
 30
0.0
 11
314.927209957704
 21
226.567202314134
 31
0.0
  0
LINE
  5
182B
330
1D
100
AcDbEntity
  8
0
100
AcDbLine
 10
316.235609957704
 20
224.003802314134
 30
0.0
 11
315.850109957704
 21
225.384802314134
 31
0.0
  0
LINE
  5
182C
330
1D
100
AcDbEntity
  8
0
100
AcDbLine
 10
316.235809957705
 20
224.003602314134
 30
0.0
 11
315.850309957704
 21
225.384802314134
 31
0.0
  0
LINE
  5
182D
330
1D
100
AcDbEntity
  8
0
100
AcDbLine
 10
314.871809957704
 20
228.058502314134
 30
0.0
 11
314.280609957705
 21
229.343202314134
 31
0.0
  0
LINE
  5
182E
330
1D
100
AcDbEntity
  8
0
100
AcDbLine
 10
314.871609957704
 20
228.058502314134
 30
0.0
 11
314.280409957704
 21
229.343102314134
 31
0.0
  0
LINE
  5
182F
330
1D
100
AcDbEntity
  8
0
100
AcDbLine
 10
315.395309957705
 20
226.737702314134
 30
0.0
 11
314.871609957704
 21
228.058502314134
 31
0.0
  0
LINE
  5
1830
330
1D
100
AcDbEntity
  8
0
100
AcDbLine
 10
315.395109957704
 20
226.737702314134
 30
0.0
 11
314.871809957704
 21
228.058502314134
 31
0.0
  0
LINE
  5
1831
330
1D
100
AcDbEntity
  8
0
100
AcDbLine
 10
318.471009957704
 20
229.564002314134
 30
0.0
 11
317.693809957705
 21
230.795602314134
 31
0.0
  0
LINE
  5
1832
330
1D
100
AcDbEntity
  8
0
100
AcDbLine
 10
318.471009957704
 20
229.564002314134
 30
0.0
 11
317.694109957705
 21
230.795602314134
 31
0.0
  0
LINE
  5
1833
330
1D
100
AcDbEntity
  8
0
100
AcDbLine
 10
316.852209957705
 20
231.984002314134
 30
0.0
 11
315.947709957704
 21
233.126202314134
 31
0.0
  0
LINE
  5
1834
330
1D
100
AcDbEntity
  8
0
100
AcDbLine
 10
317.693809957705
 20
230.795602314134
 30
0.0
 11
316.852209957705
 21
231.984002314134
 31
0.0
  0
LINE
  5
1835
330
1D
100
AcDbEntity
  8
0
100
AcDbLine
 10
316.852009957704
 20
231.984202314134
 30
0.0
 11
315.947809957705
 21
233.126102314134
 31
0.0
  0
LINE
  5
1836
330
1D
100
AcDbEntity
  8
0
100
AcDbLine
 10
317.694109957705
 20
230.795602314134
 30
0.0
 11
316.852009957704
 21
231.984202314134
 31
0.0
  0
LINE
  5
1837
330
1D
100
AcDbEntity
  8
0
100
AcDbLine
 10
311.763009957705
 20
237.166402314134
 30
0.0
 11
310.589209957704
 21
238.030002314134
 31
0.0
  0
LINE
  5
1838
330
1D
100
AcDbEntity
  8
0
100
AcDbLine
 10
311.763109957705
 20
237.166402314134
 30
0.0
 11
310.589309957704
 21
238.030002314134
 31
0.0
  0
LINE
  5
1839
330
1D
100
AcDbEntity
  8
0
100
AcDbLine
 10
314.983909957704
 20
234.218402314134
 30
0.0
 11
313.963609957705
 21
235.257802314134
 31
0.0
  0
LINE
  5
183A
330
1D
100
AcDbEntity
  8
0
100
AcDbLine
 10
314.984109957705
 20
234.218302314134
 30
0.0
 11
313.963209957705
 21
235.258002314134
 31
0.0
  0
LINE
  5
183B
330
1D
100
AcDbEntity
  8
0
100
AcDbLine
 10
313.963209957705
 20
235.258002314134
 30
0.0
 11
312.888809957704
 21
236.241302314134
 31
0.0
  0
LINE
  5
183C
330
1D
100
AcDbEntity
  8
0
100
AcDbLine
 10
313.963609957705
 20
235.257802314134
 30
0.0
 11
312.888509957705
 21
236.241402314134
 31
0.0
  0
LINE
  5
183D
330
1D
100
AcDbEntity
  8
0
100
AcDbLine
 10
312.888509957705
 20
236.241402314134
 30
0.0
 11
311.763009957705
 21
237.166402314134
 31
0.0
  0
LINE
  5
183E
330
1D
100
AcDbEntity
  8
0
100
AcDbLine
 10
312.888809957704
 20
236.241302314134
 30
0.0
 11
311.763109957705
 21
237.166402314134
 31
0.0
  0
LINE
  5
183F
330
1D
100
AcDbEntity
  8
0
100
AcDbLine
 10
310.299509957704
 20
235.160902314134
 30
0.0
 11
309.259909957705
 21
236.212902314134
 31
0.0
  0
LINE
  5
1840
330
1D
100
AcDbEntity
  8
0
100
AcDbLine
 10
310.299609957704
 20
235.160902314134
 30
0.0
 11
309.259909957705
 21
236.212902314134
 31
0.0
  0
LINE
  5
1841
330
1D
100
AcDbEntity
  8
0
100
AcDbLine
 10
310.589209957704
 20
238.030002314134
 30
0.0
 11
309.449509957704
 21
238.781502314134
 31
0.0
  0
LINE
  5
1842
330
1D
100
AcDbEntity
  8
0
100
AcDbLine
 10
310.589309957704
 20
238.030002314134
 30
0.0
 11
309.449609957705
 21
238.781402314134
 31
0.0
  0
LINE
  5
1843
330
1D
100
AcDbEntity
  8
0
100
AcDbLine
 10
320.882709957704
 20
224.305402314134
 30
0.0
 11
320.388309957704
 21
225.659302314134
 31
0.0
  0
LINE
  5
1844
330
1D
100
AcDbEntity
  8
0
100
AcDbLine
 10
320.882509957705
 20
224.305502314134
 30
0.0
 11
320.388309957704
 21
225.659302314134
 31
0.0
  0
LINE
  5
1845
330
1D
100
AcDbEntity
  8
0
100
AcDbLine
 10
319.822709957704
 20
226.985502314134
 30
0.0
 11
319.181609957704
 21
228.292602314134
 31
0.0
  0
LINE
  5
1846
330
1D
100
AcDbEntity
  8
0
100
AcDbLine
 10
319.822909957704
 20
226.985302314134
 30
0.0
 11
319.181309957704
 21
228.292702314134
 31
0.0
  0
LINE
  5
1847
330
1D
100
AcDbEntity
  8
0
100
AcDbLine
 10
320.388309957704
 20
225.659302314134
 30
0.0
 11
319.822909957704
 21
226.985302314134
 31
0.0
  0
LINE
  5
1848
330
1D
100
AcDbEntity
  8
0
100
AcDbLine
 10
320.388309957704
 20
225.659302314134
 30
0.0
 11
319.822709957704
 21
226.985502314134
 31
0.0
  0
LINE
  5
1849
330
1D
100
AcDbEntity
  8
0
100
AcDbLine
 10
295.654
 20
182.66865
 30
0.0
 11
294.99
 21
182.63665
 31
0.0
  0
LINE
  5
184A
330
1D
100
AcDbEntity
  8
0
100
AcDbLine
 10
296.767
 20
182.87865
 30
0.0
 11
295.654
 21
182.66865
 31
0.0
  0
CIRCLE
  5
184B
330
1D
100
AcDbEntity
  8
0
100
AcDbCircle
 10
294.99
 20
215.005
 30
0.0
 40
35.0
  0
LINE
  5
184C
330
1D
100
AcDbEntity
  8
0
100
AcDbLine
 10
431.533109957704
 20
209.196702314134
 30
0.0
 11
431.106509957704
 21
207.638802314134
 31
0.0
  0
LINE
  5
184D
330
1D
100
AcDbEntity
  8
0
100
AcDbLine
 10
431.533209957704
 20
209.196702314134
 30
0.0
 11
431.106409957704
 21
207.638702314134
 31
0.0
  0
LINE
  5
184E
330
1D
100
AcDbEntity
  8
0
100
AcDbLine
 10
425.900709957705
 20
207.826302314134
 30
0.0
 11
425.460909957705
 21
206.299802314134
 31
0.0
  0
LINE
  5
184F
330
1D
100
AcDbEntity
  8
0
100
AcDbLine
 10
425.900809957704
 20
207.826502314134
 30
0.0
 11
425.460909957705
 21
206.299902314134
 31
0.0
  0
LINE
  5
1850
330
1D
100
AcDbEntity
  8
0
100
AcDbLine
 10
425.794009957704
 20
209.475102314134
 30
0.0
 11
424.988009957704
 21
206.446202314134
 31
0.0
  0
LINE
  5
1851
330
1D
100
AcDbEntity
  8
0
100
AcDbLine
 10
425.794009957704
 20
209.474902314134
 30
0.0
 11
424.987909957704
 21
206.445902314134
 31
0.0
  0
LINE
  5
1852
330
1D
100
AcDbEntity
  8
0
100
AcDbLine
 10
384.183809957705
 20
209.475102314134
 30
0.0
 11
384.989809957704
 21
206.446202314134
 31
0.0
  0
LINE
  5
1853
330
1D
100
AcDbEntity
  8
0
100
AcDbLine
 10
384.077109957704
 20
207.826302314134
 30
0.0
 11
384.516909957704
 21
206.299802314134
 31
0.0
  0
LINE
  5
1854
330
1D
100
AcDbEntity
  8
0
100
AcDbLine
 10
384.077009957704
 20
207.826502314134
 30
0.0
 11
384.516909957704
 21
206.299902314134
 31
0.0
  0
LINE
  5
1855
330
1D
100
AcDbEntity
  8
0
100
AcDbLine
 10
384.183809957705
 20
209.474902314134
 30
0.0
 11
384.989909957705
 21
206.445902314134
 31
0.0
  0
LINE
  5
1856
330
1D
100
AcDbEntity
  8
0
100
AcDbLine
 10
378.444709957705
 20
209.196702314134
 30
0.0
 11
378.871309957705
 21
207.638802314134
 31
0.0
  0
LINE
  5
1857
330
1D
100
AcDbEntity
  8
0
100
AcDbLine
 10
378.444609957705
 20
209.196702314134
 30
0.0
 11
378.871409957704
 21
207.638702314134
 31
0.0
  0
CIRCLE
  5
1858
330
1D
100
AcDbEntity
  8
0
100
AcDbCircle
 10
404.99
 20
215.005
 30
0.0
 40
35.0
  0
LINE
  5
1859
330
1D
100
AcDbEntity
  8
0
100
AcDbLine
 10
399.727809957704
 20
185.169202314134
 30
0.0
 11
401.385909957704
 21
184.155502314134
 31
0.0
  0
LINE
  5
185A
330
1D
100
AcDbEntity
  8
0
100
AcDbLine
 10
399.892309957704
 20
184.460502314134
 30
0.0
 11
401.153909957705
 21
183.716402314134
 31
0.0
  0
LINE
  5
185B
330
1D
100
AcDbEntity
  8
0
100
AcDbLine
 10
399.892209957704
 20
184.460602314134
 30
0.0
 11
401.154109957704
 21
183.716102314134
 31
0.0
  0
LINE
  5
185C
330
1D
100
AcDbEntity
  8
0
100
AcDbLine
 10
399.727809957704
 20
185.169402314134
 30
0.0
 11
401.386109957704
 21
184.155802314134
 31
0.0
  0
LINE
  5
185D
330
1D
100
AcDbEntity
  8
0
100
AcDbLine
 10
387.420009957704
 20
200.375502314134
 30
0.0
 11
388.626109957704
 21
198.095102314134
 31
0.0
  0
LINE
  5
185E
330
1D
100
AcDbEntity
  8
0
100
AcDbLine
 10
387.420209957705
 20
200.375302314134
 30
0.0
 11
388.625609957704
 21
198.095502314134
 31
0.0
  0
LINE
  5
185F
330
1D
100
AcDbEntity
  8
0
100
AcDbLine
 10
386.976009957704
 20
200.157302314134
 30
0.0
 11
388.195009957704
 21
197.852602314134
 31
0.0
  0
LINE
  5
1860
330
1D
100
AcDbEntity
  8
0
100
AcDbLine
 10
386.976009957704
 20
200.157302314134
 30
0.0
 11
388.195009957704
 21
197.852802314134
 31
0.0
  0
LINE
  5
1861
330
1D
100
AcDbEntity
  8
0
100
AcDbLine
 10
387.163709957704
 20
194.943402314134
 30
0.0
 11
388.292909957705
 21
194.022202314134
 31
0.0
  0
LINE
  5
1862
330
1D
100
AcDbEntity
  8
0
100
AcDbLine
 10
387.163709957704
 20
194.943702314134
 30
0.0
 11
388.292809957704
 21
194.022202314134
 31
0.0
  0
LINE
  5
1863
330
1D
100
AcDbEntity
  8
0
100
AcDbLine
 10
380.693309957705
 20
203.154602314134
 30
0.0
 11
381.473809957704
 21
201.740602314134
 31
0.0
  0
LINE
  5
1864
330
1D
100
AcDbEntity
  8
0
100
AcDbLine
 10
380.693309957705
 20
203.154602314134
 30
0.0
 11
381.474009957705
 21
201.740602314134
 31
0.0
  0
LINE
  5
1865
330
1D
100
AcDbEntity
  8
0
100
AcDbLine
 10
378.871409957704
 20
207.638702314134
 30
0.0
 11
379.389609957704
 21
206.109102314134
 31
0.0
  0
LINE
  5
1866
330
1D
100
AcDbEntity
  8
0
100
AcDbLine
 10
378.871309957705
 20
207.638802314134
 30
0.0
 11
379.389509957704
 21
206.109102314134
 31
0.0
  0
LINE
  5
1867
330
1D
100
AcDbEntity
  8
0
100
AcDbLine
 10
379.389609957704
 20
206.109102314134
 30
0.0
 11
379.997909957704
 21
204.612302314134
 31
0.0
  0
LINE
  5
1868
330
1D
100
AcDbEntity
  8
0
100
AcDbLine
 10
379.389509957704
 20
206.109102314134
 30
0.0
 11
379.997609957705
 21
204.612302314134
 31
0.0
  0
LINE
  5
1869
330
1D
100
AcDbEntity
  8
0
100
AcDbLine
 10
379.997909957704
 20
204.612302314134
 30
0.0
 11
380.693309957705
 21
203.154602314134
 31
0.0
  0
LINE
  5
186A
330
1D
100
AcDbEntity
  8
0
100
AcDbLine
 10
379.997609957705
 20
204.612302314134
 30
0.0
 11
380.693309957705
 21
203.154602314134
 31
0.0
  0
LINE
  5
186B
330
1D
100
AcDbEntity
  8
0
100
AcDbLine
 10
385.882809957704
 20
202.551802314134
 30
0.0
 11
386.976009957704
 21
200.157302314134
 31
0.0
  0
LINE
  5
186C
330
1D
100
AcDbEntity
  8
0
100
AcDbLine
 10
386.339409957704
 20
202.742902314134
 30
0.0
 11
387.420209957705
 21
200.375302314134
 31
0.0
  0
LINE
  5
186D
330
1D
100
AcDbEntity
  8
0
100
AcDbLine
 10
386.339409957704
 20
202.742702314134
 30
0.0
 11
387.420009957704
 21
200.375502314134
 31
0.0
  0
LINE
  5
186E
330
1D
100
AcDbEntity
  8
0
100
AcDbLine
 10
381.473809957704
 20
201.740602314134
 30
0.0
 11
382.337009957704
 21
200.375002314134
 31
0.0
  0
LINE
  5
186F
330
1D
100
AcDbEntity
  8
0
100
AcDbLine
 10
381.474009957705
 20
201.740602314134
 30
0.0
 11
382.337009957704
 21
200.375002314134
 31
0.0
  0
LINE
  5
1870
330
1D
100
AcDbEntity
  8
0
100
AcDbLine
 10
386.085209957704
 20
195.923702314134
 30
0.0
 11
387.163709957704
 21
194.943702314134
 31
0.0
  0
LINE
  5
1871
330
1D
100
AcDbEntity
  8
0
100
AcDbLine
 10
386.085009957705
 20
195.924002314134
 30
0.0
 11
387.163709957704
 21
194.943402314134
 31
0.0
  0
LINE
  5
1872
330
1D
100
AcDbEntity
  8
0
100
AcDbLine
 10
385.060209957705
 20
196.960302314134
 30
0.0
 11
386.085209957704
 21
195.923702314134
 31
0.0
  0
LINE
  5
1873
330
1D
100
AcDbEntity
  8
0
100
AcDbLine
 10
385.060309957704
 20
196.960202314134
 30
0.0
 11
386.085009957705
 21
195.924002314134
 31
0.0
  0
LINE
  5
1874
330
1D
100
AcDbEntity
  8
0
100
AcDbLine
 10
382.337009957704
 20
200.375002314134
 30
0.0
 11
383.183709957705
 21
199.188602314134
 31
0.0
  0
LINE
  5
1875
330
1D
100
AcDbEntity
  8
0
100
AcDbLine
 10
382.337009957704
 20
200.375002314134
 30
0.0
 11
383.183809957705
 21
199.188502314134
 31
0.0
  0
LINE
  5
1876
330
1D
100
AcDbEntity
  8
0
100
AcDbLine
 10
384.092309957705
 20
198.049602314134
 30
0.0
 11
385.060309957704
 21
196.960202314134
 31
0.0
  0
LINE
  5
1877
330
1D
100
AcDbEntity
  8
0
100
AcDbLine
 10
384.092409957704
 20
198.049402314134
 30
0.0
 11
385.060209957705
 21
196.960302314134
 31
0.0
  0
LINE
  5
1878
330
1D
100
AcDbEntity
  8
0
100
AcDbLine
 10
383.183809957705
 20
199.188502314134
 30
0.0
 11
384.092309957705
 21
198.049602314134
 31
0.0
  0
LINE
  5
1879
330
1D
100
AcDbEntity
  8
0
100
AcDbLine
 10
383.183709957705
 20
199.188602314134
 30
0.0
 11
384.092409957704
 21
198.049402314134
 31
0.0
  0
LINE
  5
187A
330
1D
100
AcDbEntity
  8
0
100
AcDbLine
 10
384.989809957704
 20
206.446202314134
 30
0.0
 11
385.622709957705
 21
204.568902314134
 31
0.0
  0
LINE
  5
187B
330
1D
100
AcDbEntity
  8
0
100
AcDbLine
 10
384.989909957705
 20
206.445902314134
 30
0.0
 11
385.622509957704
 21
204.569002314134
 31
0.0
  0
LINE
  5
187C
330
1D
100
AcDbEntity
  8
0
100
AcDbLine
 10
384.516909957704
 20
206.299802314134
 30
0.0
 11
385.041809957704
 21
204.720602314134
 31
0.0
  0
LINE
  5
187D
330
1D
100
AcDbEntity
  8
0
100
AcDbLine
 10
385.622509957704
 20
204.569002314134
 30
0.0
 11
386.339409957704
 21
202.742902314134
 31
0.0
  0
LINE
  5
187E
330
1D
100
AcDbEntity
  8
0
100
AcDbLine
 10
385.622709957705
 20
204.568902314134
 30
0.0
 11
386.339409957704
 21
202.742702314134
 31
0.0
  0
LINE
  5
187F
330
1D
100
AcDbEntity
  8
0
100
AcDbLine
 10
385.041809957704
 20
204.720602314134
 30
0.0
 11
385.882809957704
 21
202.551802314134
 31
0.0
  0
LINE
  5
1880
330
1D
100
AcDbEntity
  8
0
100
AcDbLine
 10
385.041609957705
 20
204.721002314134
 30
0.0
 11
385.882809957704
 21
202.551802314134
 31
0.0
  0
LINE
  5
1881
330
1D
100
AcDbEntity
  8
0
100
AcDbLine
 10
389.718109957705
 20
195.342702314134
 30
0.0
 11
390.880109957704
 21
193.634702314134
 31
0.0
  0
LINE
  5
1882
330
1D
100
AcDbEntity
  8
0
100
AcDbLine
 10
390.359809957704
 20
195.265302314134
 30
0.0
 11
392.248909957705
 21
192.612402314134
 31
0.0
  0
LINE
  5
1883
330
1D
100
AcDbEntity
  8
0
100
AcDbLine
 10
390.359809957704
 20
195.265302314134
 30
0.0
 11
392.248709957704
 21
192.612102314134
 31
0.0
  0
LINE
  5
1884
330
1D
100
AcDbEntity
  8
0
100
AcDbLine
 10
392.248709957704
 20
192.612102314134
 30
0.0
 11
394.288509957704
 21
190.134402314134
 31
0.0
  0
LINE
  5
1885
330
1D
100
AcDbEntity
  8
0
100
AcDbLine
 10
392.248909957705
 20
192.612402314134
 30
0.0
 11
394.288609957704
 21
190.134102314134
 31
0.0
  0
LINE
  5
1886
330
1D
100
AcDbEntity
  8
0
100
AcDbLine
 10
393.917509957705
 20
189.806402314134
 30
0.0
 11
395.008209957704
 21
188.622402314134
 31
0.0
  0
LINE
  5
1887
330
1D
100
AcDbEntity
  8
0
100
AcDbLine
 10
393.917509957705
 20
189.806402314134
 30
0.0
 11
395.008009957705
 21
188.622802314134
 31
0.0
  0
LINE
  5
1888
330
1D
100
AcDbEntity
  8
0
100
AcDbLine
 10
388.292809957704
 20
194.022202314134
 30
0.0
 11
389.469709957704
 21
193.162102314134
 31
0.0
  0
LINE
  5
1889
330
1D
100
AcDbEntity
  8
0
100
AcDbLine
 10
388.292909957705
 20
194.022202314134
 30
0.0
 11
389.469609957705
 21
193.162102314134
 31
0.0
  0
LINE
  5
188A
330
1D
100
AcDbEntity
  8
0
100
AcDbLine
 10
392.355109957704
 20
191.671402314134
 30
0.0
 11
393.917509957705
 21
189.806402314134
 31
0.0
  0
LINE
  5
188B
330
1D
100
AcDbEntity
  8
0
100
AcDbLine
 10
391.952009957704
 20
191.635902314134
 30
0.0
 11
392.328713245916
 21
191.443967854773
 31
0.0
  0
LINE
  5
188C
330
1D
100
AcDbEntity
  8
0
100
AcDbLine
 10
391.951909957705
 20
191.635902314134
 30
0.0
 11
392.328674971462
 21
191.444009754386
 31
0.0
  0
LINE
  5
188D
330
1D
100
AcDbEntity
  8
0
100
AcDbLine
 10
390.690409957704
 20
192.365802314134
 30
0.0
 11
391.951909957705
 21
191.635902314134
 31
0.0
  0
LINE
  5
188E
330
1D
100
AcDbEntity
  8
0
100
AcDbLine
 10
390.690609957705
 20
192.365902314134
 30
0.0
 11
391.952009957704
 21
191.635902314134
 31
0.0
  0
LINE
  5
188F
330
1D
100
AcDbEntity
  8
0
100
AcDbLine
 10
390.690409957704
 20
192.365802314134
 30
0.0
 11
389.469609957705
 21
193.162102314134
 31
0.0
  0
LINE
  5
1890
330
1D
100
AcDbEntity
  8
0
100
AcDbLine
 10
390.880209957704
 20
193.634502314134
 30
0.0
 11
392.355109957704
 21
191.671402314134
 31
0.0
  0
LINE
  5
1891
330
1D
100
AcDbEntity
  8
0
100
AcDbLine
 10
398.576509957705
 20
185.392902314134
 30
0.0
 11
399.892309957704
 21
184.460502314134
 31
0.0
  0
LINE
  5
1892
330
1D
100
AcDbEntity
  8
0
100
AcDbLine
 10
398.576509957705
 20
185.392702314134
 30
0.0
 11
399.892209957704
 21
184.460602314134
 31
0.0
  0
LINE
  5
1893
330
1D
100
AcDbEntity
  8
0
100
AcDbLine
 10
396.488709957704
 20
187.844202314134
 30
0.0
 11
397.656509957704
 21
186.782202314134
 31
0.0
  0
LINE
  5
1894
330
1D
100
AcDbEntity
  8
0
100
AcDbLine
 10
396.488709957704
 20
187.844302314134
 30
0.0
 11
397.656409957704
 21
186.782602314134
 31
0.0
  0
LINE
  5
1895
330
1D
100
AcDbEntity
  8
0
100
AcDbLine
 10
394.288509957704
 20
190.134402314134
 30
0.0
 11
396.488709957704
 21
187.844302314134
 31
0.0
  0
LINE
  5
1896
330
1D
100
AcDbEntity
  8
0
100
AcDbLine
 10
394.288609957704
 20
190.134102314134
 30
0.0
 11
396.488709957704
 21
187.844202314134
 31
0.0
  0
LINE
  5
1897
330
1D
100
AcDbEntity
  8
0
100
AcDbLine
 10
395.008009957705
 20
188.622802314134
 30
0.0
 11
396.731609957704
 21
186.939202314134
 31
0.0
  0
LINE
  5
1898
330
1D
100
AcDbEntity
  8
0
100
AcDbLine
 10
395.008209957704
 20
188.622402314134
 30
0.0
 11
396.731609957704
 21
186.939202314134
 31
0.0
  0
LINE
  5
1899
330
1D
100
AcDbEntity
  8
0
100
AcDbLine
 10
397.656409957704
 20
186.782602314134
 30
0.0
 11
399.727809957704
 21
185.169202314134
 31
0.0
  0
LINE
  5
189A
330
1D
100
AcDbEntity
  8
0
100
AcDbLine
 10
396.731609957704
 20
186.939202314134
 30
0.0
 11
398.576509957705
 21
185.392702314134
 31
0.0
  0
LINE
  5
189B
330
1D
100
AcDbEntity
  8
0
100
AcDbLine
 10
396.731609957704
 20
186.939202314134
 30
0.0
 11
398.576509957705
 21
185.392902314134
 31
0.0
  0
LINE
  5
189C
330
1D
100
AcDbEntity
  8
0
100
AcDbLine
 10
397.656509957704
 20
186.782202314134
 30
0.0
 11
399.727809957704
 21
185.169402314134
 31
0.0
  0
LINE
  5
189D
330
1D
100
AcDbEntity
  8
0
100
AcDbLine
 10
388.626109957704
 20
198.095102314134
 30
0.0
 11
390.359809957704
 21
195.265302314134
 31
0.0
  0
LINE
  5
189E
330
1D
100
AcDbEntity
  8
0
100
AcDbLine
 10
388.625609957704
 20
198.095502314134
 30
0.0
 11
390.359809957704
 21
195.265302314134
 31
0.0
  0
LINE
  5
189F
330
1D
100
AcDbEntity
  8
0
100
AcDbLine
 10
388.195009957704
 20
197.852802314134
 30
0.0
 11
389.718109957705
 21
195.342702314134
 31
0.0
  0
LINE
  5
18A0
330
1D
100
AcDbEntity
  8
0
100
AcDbLine
 10
388.195009957704
 20
197.852602314134
 30
0.0
 11
389.718109957705
 21
195.342702314134
 31
0.0
  0
LINE
  5
18A1
330
1D
100
AcDbEntity
  8
0
100
AcDbLine
 10
426.794009957704
 20
199.188502314134
 30
0.0
 11
425.885509957704
 21
198.049602314134
 31
0.0
  0
LINE
  5
18A2
330
1D
100
AcDbEntity
  8
0
100
AcDbLine
 10
426.794109957704
 20
199.188602314134
 30
0.0
 11
425.885409957704
 21
198.049402314134
 31
0.0
  0
LINE
  5
18A3
330
1D
100
AcDbEntity
  8
0
100
AcDbLine
 10
415.689309957704
 20
190.134402314134
 30
0.0
 11
413.489109957704
 21
187.844302314134
 31
0.0
  0
LINE
  5
18A4
330
1D
100
AcDbEntity
  8
0
100
AcDbLine
 10
415.689209957705
 20
190.134102314134
 30
0.0
 11
413.489109957704
 21
187.844202314134
 31
0.0
  0
LINE
  5
18A5
330
1D
100
AcDbEntity
  8
0
100
AcDbLine
 10
414.969809957704
 20
188.622802314134
 30
0.0
 11
413.246209957705
 21
186.939202314134
 31
0.0
  0
LINE
  5
18A6
330
1D
100
AcDbEntity
  8
0
100
AcDbLine
 10
414.969609957705
 20
188.622402314134
 30
0.0
 11
413.246209957705
 21
186.939202314134
 31
0.0
  0
LINE
  5
18A7
330
1D
100
AcDbEntity
  8
0
100
AcDbLine
 10
407.685509957705
 20
183.189402314134
 30
0.0
 11
406.762909957704
 21
182.878102314134
 31
0.0
  0
LINE
  5
18A8
330
1D
100
AcDbEntity
  8
0
100
AcDbLine
 10
407.685509957705
 20
183.189402314134
 30
0.0
 11
406.762909957704
 21
182.877902314134
 31
0.0
  0
LINE
  5
18A9
330
1D
100
AcDbEntity
  8
0
100
AcDbLine
 10
408.591909957705
 20
184.155502314134
 30
0.0
 11
407.071709957704
 21
183.492402314134
 31
0.0
  0
LINE
  5
18AA
330
1D
100
AcDbEntity
  8
0
100
AcDbLine
 10
408.591709957704
 20
184.155802314134
 30
0.0
 11
407.071309957704
 21
183.492402314134
 31
0.0
  0
LINE
  5
18AB
330
1D
100
AcDbEntity
  8
0
100
AcDbLine
 10
403.213
 20
182.87865
 30
0.0
 11
404.326
 21
182.66865
 31
0.0
  0
LINE
  5
18AC
330
1D
100
AcDbEntity
  8
0
100
AcDbLine
 10
402.906509957704
 20
183.492402314134
 30
0.0
 11
404.025309957705
 21
183.208802314134
 31
0.0
  0
LINE
  5
18AD
330
1D
100
AcDbEntity
  8
0
100
AcDbLine
 10
402.906109957705
 20
183.492402314134
 30
0.0
 11
404.025609957704
 21
183.208402314134
 31
0.0
  0
LINE
  5
18AE
330
1D
100
AcDbEntity
  8
0
100
AcDbLine
 10
403.214909957704
 20
182.877902314134
 30
0.0
 11
404.326309957704
 21
182.668502314134
 31
0.0
  0
LINE
  5
18AF
330
1D
100
AcDbEntity
  8
0
100
AcDbLine
 10
403.214909957704
 20
182.878102314134
 30
0.0
 11
404.326509957705
 21
182.668502314134
 31
0.0
  0
LINE
  5
18B0
330
1D
100
AcDbEntity
  8
0
100
AcDbLine
 10
401.385909957704
 20
184.155502314134
 30
0.0
 11
402.906109957705
 21
183.492402314134
 31
0.0
  0
LINE
  5
18B1
330
1D
100
AcDbEntity
  8
0
100
AcDbLine
 10
401.386109957704
 20
184.155802314134
 30
0.0
 11
402.906509957704
 21
183.492402314134
 31
0.0
  0
LINE
  5
18B2
330
1D
100
AcDbEntity
  8
0
100
AcDbLine
 10
402.292309957704
 20
183.189402314134
 30
0.0
 11
403.214909957704
 21
182.878102314134
 31
0.0
  0
LINE
  5
18B3
330
1D
100
AcDbEntity
  8
0
100
AcDbLine
 10
402.292309957704
 20
183.189402314134
 30
0.0
 11
403.214909957704
 21
182.877902314134
 31
0.0
  0
LINE
  5
18B4
330
1D
100
AcDbEntity
  8
0
100
AcDbLine
 10
401.153909957705
 20
183.716402314134
 30
0.0
 11
402.292309957704
 21
183.189402314134
 31
0.0
  0
LINE
  5
18B5
330
1D
100
AcDbEntity
  8
0
100
AcDbLine
 10
401.154109957704
 20
183.716102314134
 30
0.0
 11
402.292309957704
 21
183.189402314134
 31
0.0
  0
LINE
  5
18B6
330
1D
100
AcDbEntity
  8
0
100
AcDbLine
 10
404.326
 20
182.66865
 30
0.0
 11
404.99
 21
182.63665
 31
0.0
  0
LINE
  5
18B7
330
1D
100
AcDbEntity
  8
0
100
AcDbLine
 10
406.767
 20
182.87865
 30
0.0
 11
405.654
 21
182.66865
 31
0.0
  0
LINE
  5
18B8
330
1D
100
AcDbEntity
  8
0
100
AcDbLine
 10
405.654
 20
182.66865
 30
0.0
 11
404.99
 21
182.63665
 31
0.0
  0
LINE
  5
18B9
330
1D
100
AcDbEntity
  8
0
100
AcDbLine
 10
407.071309957704
 20
183.492402314134
 30
0.0
 11
405.952509957704
 21
183.208802314134
 31
0.0
  0
LINE
  5
18BA
330
1D
100
AcDbEntity
  8
0
100
AcDbLine
 10
407.071709957704
 20
183.492402314134
 30
0.0
 11
405.952209957704
 21
183.208402314134
 31
0.0
  0
LINE
  5
18BB
330
1D
100
AcDbEntity
  8
0
100
AcDbLine
 10
405.952209957704
 20
183.208402314134
 30
0.0
 11
404.989509957705
 21
183.134302314134
 31
0.0
  0
LINE
  5
18BC
330
1D
100
AcDbEntity
  8
0
100
AcDbLine
 10
405.952509957704
 20
183.208802314134
 30
0.0
 11
404.989209957704
 21
183.133902314134
 31
0.0
  0
LINE
  5
18BD
330
1D
100
AcDbEntity
  8
0
100
AcDbLine
 10
406.762909957704
 20
182.877902314134
 30
0.0
 11
405.651509957704
 21
182.668502314134
 31
0.0
  0
LINE
  5
18BE
330
1D
100
AcDbEntity
  8
0
100
AcDbLine
 10
406.762909957704
 20
182.878102314134
 30
0.0
 11
405.651309957704
 21
182.668502314134
 31
0.0
  0
LINE
  5
18BF
330
1D
100
AcDbEntity
  8
0
100
AcDbLine
 10
405.651509957704
 20
182.668502314134
 30
0.0
 11
404.988909957704
 21
182.636702314134
 31
0.0
  0
LINE
  5
18C0
330
1D
100
AcDbEntity
  8
0
100
AcDbLine
 10
405.651309957704
 20
182.668502314134
 30
0.0
 11
404.989009957705
 21
182.636602314134
 31
0.0
  0
LINE
  5
18C1
330
1D
100
AcDbEntity
  8
0
100
AcDbLine
 10
404.025609957704
 20
183.208402314134
 30
0.0
 11
404.988309957704
 21
183.134302314134
 31
0.0
  0
LINE
  5
18C2
330
1D
100
AcDbEntity
  8
0
100
AcDbLine
 10
404.025309957705
 20
183.208802314134
 30
0.0
 11
404.988609957705
 21
183.133902314134
 31
0.0
  0
LINE
  5
18C3
330
1D
100
AcDbEntity
  8
0
100
AcDbLine
 10
404.326309957704
 20
182.668502314134
 30
0.0
 11
404.988909957704
 21
182.636702314134
 31
0.0
  0
LINE
  5
18C4
330
1D
100
AcDbEntity
  8
0
100
AcDbLine
 10
404.326509957705
 20
182.668502314134
 30
0.0
 11
404.988809957704
 21
182.636602314134
 31
0.0
  0
LINE
  5
18C5
330
1D
100
AcDbEntity
  8
0
100
AcDbLine
 10
412.321409957705
 20
186.782602314134
 30
0.0
 11
410.250009957704
 21
185.169202314134
 31
0.0
  0
LINE
  5
18C6
330
1D
100
AcDbEntity
  8
0
100
AcDbLine
 10
412.321309957704
 20
186.782202314134
 30
0.0
 11
410.250009957704
 21
185.169402314134
 31
0.0
  0
LINE
  5
18C7
330
1D
100
AcDbEntity
  8
0
100
AcDbLine
 10
410.085509957705
 20
184.460502314134
 30
0.0
 11
408.823909957704
 21
183.716402314134
 31
0.0
  0
LINE
  5
18C8
330
1D
100
AcDbEntity
  8
0
100
AcDbLine
 10
410.085609957704
 20
184.460602314134
 30
0.0
 11
408.823709957705
 21
183.716102314134
 31
0.0
  0
LINE
  5
18C9
330
1D
100
AcDbEntity
  8
0
100
AcDbLine
 10
410.250009957704
 20
185.169202314134
 30
0.0
 11
408.591909957705
 21
184.155502314134
 31
0.0
  0
LINE
  5
18CA
330
1D
100
AcDbEntity
  8
0
100
AcDbLine
 10
410.250009957704
 20
185.169402314134
 30
0.0
 11
408.591709957704
 21
184.155802314134
 31
0.0
  0
LINE
  5
18CB
330
1D
100
AcDbEntity
  8
0
100
AcDbLine
 10
411.401309957704
 20
185.392902314134
 30
0.0
 11
410.085509957705
 21
184.460502314134
 31
0.0
  0
LINE
  5
18CC
330
1D
100
AcDbEntity
  8
0
100
AcDbLine
 10
411.401309957704
 20
185.392702314134
 30
0.0
 11
410.085609957704
 21
184.460602314134
 31
0.0
  0
LINE
  5
18CD
330
1D
100
AcDbEntity
  8
0
100
AcDbLine
 10
413.489109957704
 20
187.844202314134
 30
0.0
 11
412.321309957704
 21
186.782202314134
 31
0.0
  0
LINE
  5
18CE
330
1D
100
AcDbEntity
  8
0
100
AcDbLine
 10
413.246209957705
 20
186.939202314134
 30
0.0
 11
411.401309957704
 21
185.392702314134
 31
0.0
  0
LINE
  5
18CF
330
1D
100
AcDbEntity
  8
0
100
AcDbLine
 10
413.246209957705
 20
186.939202314134
 30
0.0
 11
411.401309957704
 21
185.392902314134
 31
0.0
  0
LINE
  5
18D0
330
1D
100
AcDbEntity
  8
0
100
AcDbLine
 10
413.489109957704
 20
187.844302314134
 30
0.0
 11
412.321409957705
 21
186.782602314134
 31
0.0
  0
LINE
  5
18D1
330
1D
100
AcDbEntity
  8
0
100
AcDbLine
 10
408.823909957704
 20
183.716402314134
 30
0.0
 11
407.685509957705
 21
183.189402314134
 31
0.0
  0
LINE
  5
18D2
330
1D
100
AcDbEntity
  8
0
100
AcDbLine
 10
408.823709957705
 20
183.716102314134
 30
0.0
 11
407.685509957705
 21
183.189402314134
 31
0.0
  0
LINE
  5
18D3
330
1D
100
AcDbEntity
  8
0
100
AcDbLine
 10
420.259709957704
 20
195.342702314134
 30
0.0
 11
419.097709957705
 21
193.634702314134
 31
0.0
  0
LINE
  5
18D4
330
1D
100
AcDbEntity
  8
0
100
AcDbLine
 10
422.814109957704
 20
194.943402314134
 30
0.0
 11
421.684909957704
 21
194.022202314134
 31
0.0
  0
LINE
  5
18D5
330
1D
100
AcDbEntity
  8
0
100
AcDbLine
 10
422.814109957704
 20
194.943702314134
 30
0.0
 11
421.685009957704
 21
194.022202314134
 31
0.0
  0
LINE
  5
18D6
330
1D
100
AcDbEntity
  8
0
100
AcDbLine
 10
419.618009957705
 20
195.265302314134
 30
0.0
 11
417.728909957704
 21
192.612402314134
 31
0.0
  0
LINE
  5
18D7
330
1D
100
AcDbEntity
  8
0
100
AcDbLine
 10
419.618009957705
 20
195.265302314134
 30
0.0
 11
417.729109957705
 21
192.612102314134
 31
0.0
  0
LINE
  5
18D8
330
1D
100
AcDbEntity
  8
0
100
AcDbLine
 10
421.685009957704
 20
194.022202314134
 30
0.0
 11
420.508109957705
 21
193.162102314134
 31
0.0
  0
LINE
  5
18D9
330
1D
100
AcDbEntity
  8
0
100
AcDbLine
 10
421.684909957704
 20
194.022202314134
 30
0.0
 11
420.508209957704
 21
193.162102314134
 31
0.0
  0
LINE
  5
18DA
330
1D
100
AcDbEntity
  8
0
100
AcDbLine
 10
420.508209957704
 20
193.162102314134
 30
0.0
 11
419.287209957704
 21
192.365902314134
 31
0.0
  0
LINE
  5
18DB
330
1D
100
AcDbEntity
  8
0
100
AcDbLine
 10
420.508109957705
 20
193.162102314134
 30
0.0
 11
419.287409957705
 21
192.365802314134
 31
0.0
  0
LINE
  5
18DC
330
1D
100
AcDbEntity
  8
0
100
AcDbLine
 10
416.060309957704
 20
189.806402314134
 30
0.0
 11
414.969609957705
 21
188.622402314134
 31
0.0
  0
LINE
  5
18DD
330
1D
100
AcDbEntity
  8
0
100
AcDbLine
 10
416.060309957704
 20
189.806402314134
 30
0.0
 11
414.969809957704
 21
188.622802314134
 31
0.0
  0
LINE
  5
18DE
330
1D
100
AcDbEntity
  8
0
100
AcDbLine
 10
418.025809957704
 20
191.635902314134
 30
0.0
 11
417.649106669493
 21
191.443967854773
 31
0.0
  0
LINE
  5
18DF
330
1D
100
AcDbEntity
  8
0
100
AcDbLine
 10
418.025909957704
 20
191.635902314134
 30
0.0
 11
417.649144943947
 21
191.444009754386
 31
0.0
  0
LINE
  5
18E0
330
1D
100
AcDbEntity
  8
0
100
AcDbLine
 10
417.729109957705
 20
192.612102314134
 30
0.0
 11
415.689309957704
 21
190.134402314134
 31
0.0
  0
LINE
  5
18E1
330
1D
100
AcDbEntity
  8
0
100
AcDbLine
 10
417.728909957704
 20
192.612402314134
 30
0.0
 11
415.689209957705
 21
190.134102314134
 31
0.0
  0
LINE
  5
18E2
330
1D
100
AcDbEntity
  8
0
100
AcDbLine
 10
417.622709957705
 20
191.671402314134
 30
0.0
 11
416.060309957704
 21
189.806402314134
 31
0.0
  0
LINE
  5
18E3
330
1D
100
AcDbEntity
  8
0
100
AcDbLine
 10
419.287409957705
 20
192.365802314134
 30
0.0
 11
418.025909957704
 21
191.635902314134
 31
0.0
  0
LINE
  5
18E4
330
1D
100
AcDbEntity
  8
0
100
AcDbLine
 10
419.287209957704
 20
192.365902314134
 30
0.0
 11
418.025809957704
 21
191.635902314134
 31
0.0
  0
LINE
  5
18E5
330
1D
100
AcDbEntity
  8
0
100
AcDbLine
 10
419.097609957704
 20
193.634502314134
 30
0.0
 11
417.622709957705
 21
191.671402314134
 31
0.0
  0
LINE
  5
18E6
330
1D
100
AcDbEntity
  8
0
100
AcDbLine
 10
421.351709957705
 20
198.095102314134
 30
0.0
 11
419.618009957705
 21
195.265302314134
 31
0.0
  0
LINE
  5
18E7
330
1D
100
AcDbEntity
  8
0
100
AcDbLine
 10
421.352209957705
 20
198.095502314134
 30
0.0
 11
419.618009957705
 21
195.265302314134
 31
0.0
  0
LINE
  5
18E8
330
1D
100
AcDbEntity
  8
0
100
AcDbLine
 10
423.638409957705
 20
202.742902314134
 30
0.0
 11
422.557609957704
 21
200.375302314134
 31
0.0
  0
LINE
  5
18E9
330
1D
100
AcDbEntity
  8
0
100
AcDbLine
 10
423.638409957705
 20
202.742702314134
 30
0.0
 11
422.557809957705
 21
200.375502314134
 31
0.0
  0
LINE
  5
18EA
330
1D
100
AcDbEntity
  8
0
100
AcDbLine
 10
424.095009957705
 20
202.551802314134
 30
0.0
 11
423.001809957704
 21
200.157302314134
 31
0.0
  0
LINE
  5
18EB
330
1D
100
AcDbEntity
  8
0
100
AcDbLine
 10
425.885509957704
 20
198.049602314134
 30
0.0
 11
424.917509957705
 21
196.960202314134
 31
0.0
  0
LINE
  5
18EC
330
1D
100
AcDbEntity
  8
0
100
AcDbLine
 10
425.885409957704
 20
198.049402314134
 30
0.0
 11
424.917609957704
 21
196.960302314134
 31
0.0
  0
LINE
  5
18ED
330
1D
100
AcDbEntity
  8
0
100
AcDbLine
 10
422.557809957705
 20
200.375502314134
 30
0.0
 11
421.351709957705
 21
198.095102314134
 31
0.0
  0
LINE
  5
18EE
330
1D
100
AcDbEntity
  8
0
100
AcDbLine
 10
422.557609957704
 20
200.375302314134
 30
0.0
 11
421.352209957705
 21
198.095502314134
 31
0.0
  0
LINE
  5
18EF
330
1D
100
AcDbEntity
  8
0
100
AcDbLine
 10
423.001809957704
 20
200.157302314134
 30
0.0
 11
421.782809957704
 21
197.852602314134
 31
0.0
  0
LINE
  5
18F0
330
1D
100
AcDbEntity
  8
0
100
AcDbLine
 10
423.001809957704
 20
200.157302314134
 30
0.0
 11
421.782809957704
 21
197.852802314134
 31
0.0
  0
LINE
  5
18F1
330
1D
100
AcDbEntity
  8
0
100
AcDbLine
 10
423.892609957705
 20
195.923702314134
 30
0.0
 11
422.814109957704
 21
194.943702314134
 31
0.0
  0
LINE
  5
18F2
330
1D
100
AcDbEntity
  8
0
100
AcDbLine
 10
423.892809957704
 20
195.924002314134
 30
0.0
 11
422.814109957704
 21
194.943402314134
 31
0.0
  0
LINE
  5
18F3
330
1D
100
AcDbEntity
  8
0
100
AcDbLine
 10
421.782809957704
 20
197.852802314134
 30
0.0
 11
420.259709957704
 21
195.342702314134
 31
0.0
  0
LINE
  5
18F4
330
1D
100
AcDbEntity
  8
0
100
AcDbLine
 10
421.782809957704
 20
197.852602314134
 30
0.0
 11
420.259709957704
 21
195.342702314134
 31
0.0
  0
LINE
  5
18F5
330
1D
100
AcDbEntity
  8
0
100
AcDbLine
 10
424.917609957704
 20
196.960302314134
 30
0.0
 11
423.892609957705
 21
195.923702314134
 31
0.0
  0
LINE
  5
18F6
330
1D
100
AcDbEntity
  8
0
100
AcDbLine
 10
424.917509957705
 20
196.960202314134
 30
0.0
 11
423.892809957704
 21
195.924002314134
 31
0.0
  0
LINE
  5
18F7
330
1D
100
AcDbEntity
  8
0
100
AcDbLine
 10
425.460909957705
 20
206.299802314134
 30
0.0
 11
424.936009957705
 21
204.720602314134
 31
0.0
  0
LINE
  5
18F8
330
1D
100
AcDbEntity
  8
0
100
AcDbLine
 10
424.988009957704
 20
206.446202314134
 30
0.0
 11
424.355109957704
 21
204.568902314134
 31
0.0
  0
LINE
  5
18F9
330
1D
100
AcDbEntity
  8
0
100
AcDbLine
 10
424.987909957704
 20
206.445902314134
 30
0.0
 11
424.355309957704
 21
204.569002314134
 31
0.0
  0
LINE
  5
18FA
330
1D
100
AcDbEntity
  8
0
100
AcDbLine
 10
424.355309957704
 20
204.569002314134
 30
0.0
 11
423.638409957705
 21
202.742902314134
 31
0.0
  0
LINE
  5
18FB
330
1D
100
AcDbEntity
  8
0
100
AcDbLine
 10
424.355109957704
 20
204.568902314134
 30
0.0
 11
423.638409957705
 21
202.742702314134
 31
0.0
  0
LINE
  5
18FC
330
1D
100
AcDbEntity
  8
0
100
AcDbLine
 10
424.936009957705
 20
204.720602314134
 30
0.0
 11
424.095009957705
 21
202.551802314134
 31
0.0
  0
LINE
  5
18FD
330
1D
100
AcDbEntity
  8
0
100
AcDbLine
 10
424.936209957704
 20
204.721002314134
 30
0.0
 11
424.095009957705
 21
202.551802314134
 31
0.0
  0
LINE
  5
18FE
330
1D
100
AcDbEntity
  8
0
100
AcDbLine
 10
431.106409957704
 20
207.638702314134
 30
0.0
 11
430.588209957705
 21
206.109102314134
 31
0.0
  0
LINE
  5
18FF
330
1D
100
AcDbEntity
  8
0
100
AcDbLine
 10
431.106509957704
 20
207.638802314134
 30
0.0
 11
430.588309957704
 21
206.109102314134
 31
0.0
  0
LINE
  5
1900
330
1D
100
AcDbEntity
  8
0
100
AcDbLine
 10
430.588209957705
 20
206.109102314134
 30
0.0
 11
429.979909957705
 21
204.612302314134
 31
0.0
  0
LINE
  5
1901
330
1D
100
AcDbEntity
  8
0
100
AcDbLine
 10
430.588309957704
 20
206.109102314134
 30
0.0
 11
429.980209957704
 21
204.612302314134
 31
0.0
  0
LINE
  5
1902
330
1D
100
AcDbEntity
  8
0
100
AcDbLine
 10
427.640809957705
 20
200.375002314134
 30
0.0
 11
426.794109957704
 21
199.188602314134
 31
0.0
  0
LINE
  5
1903
330
1D
100
AcDbEntity
  8
0
100
AcDbLine
 10
427.640809957705
 20
200.375002314134
 30
0.0
 11
426.794009957704
 21
199.188502314134
 31
0.0
  0
LINE
  5
1904
330
1D
100
AcDbEntity
  8
0
100
AcDbLine
 10
428.504009957705
 20
201.740602314134
 30
0.0
 11
427.640809957705
 21
200.375002314134
 31
0.0
  0
LINE
  5
1905
330
1D
100
AcDbEntity
  8
0
100
AcDbLine
 10
428.503809957704
 20
201.740602314134
 30
0.0
 11
427.640809957705
 21
200.375002314134
 31
0.0
  0
LINE
  5
1906
330
1D
100
AcDbEntity
  8
0
100
AcDbLine
 10
429.284509957704
 20
203.154602314134
 30
0.0
 11
428.504009957705
 21
201.740602314134
 31
0.0
  0
LINE
  5
1907
330
1D
100
AcDbEntity
  8
0
100
AcDbLine
 10
429.284509957704
 20
203.154602314134
 30
0.0
 11
428.503809957704
 21
201.740602314134
 31
0.0
  0
LINE
  5
1908
330
1D
100
AcDbEntity
  8
0
100
AcDbLine
 10
429.979909957705
 20
204.612302314134
 30
0.0
 11
429.284509957704
 21
203.154602314134
 31
0.0
  0
LINE
  5
1909
330
1D
100
AcDbEntity
  8
0
100
AcDbLine
 10
429.980209957704
 20
204.612302314134
 30
0.0
 11
429.284509957704
 21
203.154602314134
 31
0.0
  0
LINE
  5
190A
330
1D
100
AcDbEntity
  8
0
100
AcDbLine
 10
399.351109957704
 20
242.332802314134
 30
0.0
 11
402.048509957704
 21
242.761202314134
 31
0.0
  0
LINE
  5
190B
330
1D
100
AcDbEntity
  8
0
100
AcDbLine
 10
399.351209957704
 20
242.332702314134
 30
0.0
 11
402.048609957704
 21
242.761302314134
 31
0.0
  0
LINE
  5
190C
330
1D
100
AcDbEntity
  8
0
100
AcDbLine
 10
399.847909957704
 20
241.311502314134
 30
0.0
 11
402.178409957705
 21
241.759502314134
 31
0.0
  0
LINE
  5
190D
330
1D
100
AcDbEntity
  8
0
100
AcDbLine
 10
399.848309957704
 20
241.311602314134
 30
0.0
 11
402.178609957704
 21
241.759802314134
 31
0.0
  0
LINE
  5
190E
330
1D
100
AcDbEntity
  8
0
100
AcDbLine
 10
399.971009957704
 20
240.829202314134
 30
0.0
 11
402.244009957705
 21
241.266302314134
 31
0.0
  0
LINE
  5
190F
330
1D
100
AcDbEntity
  8
0
100
AcDbLine
 10
399.971109957704
 20
240.828802314134
 30
0.0
 11
402.244109957704
 21
241.266002314134
 31
0.0
  0
LINE
  5
1910
330
1D
100
AcDbEntity
  8
0
100
AcDbLine
 10
384.030109957704
 20
233.126202314134
 30
0.0
 11
384.993709957704
 21
234.218302314134
 31
0.0
  0
LINE
  5
1911
330
1D
100
AcDbEntity
  8
0
100
AcDbLine
 10
384.030009957704
 20
233.126102314134
 30
0.0
 11
384.993909957704
 21
234.218402314134
 31
0.0
  0
LINE
  5
1912
330
1D
100
AcDbEntity
  8
0
100
AcDbLine
 10
387.495709957704
 20
231.519602314134
 30
0.0
 11
389.089909957704
 21
233.724102314134
 31
0.0
  0
LINE
  5
1913
330
1D
100
AcDbEntity
  8
0
100
AcDbLine
 10
387.858809957704
 20
232.939202314134
 30
0.0
 11
388.702809957705
 21
234.038502314134
 31
0.0
  0
LINE
  5
1914
330
1D
100
AcDbEntity
  8
0
100
AcDbLine
 10
387.859109957705
 20
232.939302314134
 30
0.0
 11
388.702609957704
 21
234.038502314134
 31
0.0
  0
LINE
  5
1915
330
1D
100
AcDbEntity
  8
0
100
AcDbLine
 10
387.495509957704
 20
231.519702314134
 30
0.0
 11
389.089609957705
 21
233.724502314134
 31
0.0
  0
LINE
  5
1916
330
1D
100
AcDbEntity
  8
0
100
AcDbLine
 10
387.075209957704
 20
231.787302314134
 30
0.0
 11
387.859109957705
 21
232.939302314134
 31
0.0
  0
LINE
  5
1917
330
1D
100
AcDbEntity
  8
0
100
AcDbLine
 10
387.075109957705
 20
231.787402314134
 30
0.0
 11
387.858809957704
 21
232.939202314134
 31
0.0
  0
LINE
  5
1918
330
1D
100
AcDbEntity
  8
0
100
AcDbLine
 10
382.968209957705
 20
219.308402314134
 30
0.0
 11
383.181309957704
 21
221.172502314134
 31
0.0
  0
LINE
  5
1919
330
1D
100
AcDbEntity
  8
0
100
AcDbLine
 10
382.968209957705
 20
219.308402314134
 30
0.0
 11
383.180909957704
 21
221.172402314134
 31
0.0
  0
LINE
  5
191A
330
1D
100
AcDbEntity
  8
0
100
AcDbLine
 10
383.463609957705
 20
219.267402314134
 30
0.0
 11
383.673409957705
 21
221.100402314134
 31
0.0
  0
LINE
  5
191B
330
1D
100
AcDbEntity
  8
0
100
AcDbLine
 10
383.464109957705
 20
219.267302314134
 30
0.0
 11
383.673509957704
 21
221.100602314134
 31
0.0
  0
LINE
  5
191C
330
1D
100
AcDbEntity
  8
0
100
AcDbLine
 10
378.049909957704
 20
220.113902314134
 30
0.0
 11
378.324409957704
 21
221.528902314134
 31
0.0
  0
LINE
  5
191D
330
1D
100
AcDbEntity
  8
0
100
AcDbLine
 10
378.049709957705
 20
220.113802314134
 30
0.0
 11
378.324009957704
 21
221.528802314134
 31
0.0
  0
LINE
  5
191E
330
1D
100
AcDbEntity
  8
0
100
AcDbLine
 10
377.850409957705
 20
218.686402314134
 30
0.0
 11
378.049709957705
 21
220.113802314134
 31
0.0
  0
LINE
  5
191F
330
1D
100
AcDbEntity
  8
0
100
AcDbLine
 10
377.850709957704
 20
218.686602314134
 30
0.0
 11
378.049909957704
 21
220.113902314134
 31
0.0
  0
LINE
  5
1920
330
1D
100
AcDbEntity
  8
0
100
AcDbLine
 10
377.678209957704
 20
215.620502314134
 30
0.0
 11
377.727409957704
 21
213.984102314134
 31
0.0
  0
LINE
  5
1921
330
1D
100
AcDbEntity
  8
0
100
AcDbLine
 10
377.678209957704
 20
215.620502314134
 30
0.0
 11
377.727409957704
 21
213.984002314134
 31
0.0
  0
LINE
  5
1922
330
1D
100
AcDbEntity
  8
0
100
AcDbLine
 10
377.678209957704
 20
215.620502314134
 30
0.0
 11
377.727009957704
 21
217.250402314134
 31
0.0
  0
LINE
  5
1923
330
1D
100
AcDbEntity
  8
0
100
AcDbLine
 10
377.726709957704
 20
217.250202314134
 30
0.0
 11
377.850409957705
 21
218.686402314134
 31
0.0
  0
LINE
  5
1924
330
1D
100
AcDbEntity
  8
0
100
AcDbLine
 10
377.727009957704
 20
217.250402314134
 30
0.0
 11
377.850709957704
 21
218.686602314134
 31
0.0
  0
LINE
  5
1925
330
1D
100
AcDbEntity
  8
0
100
AcDbLine
 10
377.678309957705
 20
215.620502314134
 30
0.0
 11
377.726709957704
 21
217.250202314134
 31
0.0
  0
LINE
  5
1926
330
1D
100
AcDbEntity
  8
0
100
AcDbLine
 10
378.110909957705
 20
210.777602314134
 30
0.0
 11
378.444609957705
 21
209.196702314134
 31
0.0
  0
LINE
  5
1927
330
1D
100
AcDbEntity
  8
0
100
AcDbLine
 10
378.111009957704
 20
210.777602314134
 30
0.0
 11
378.444709957705
 21
209.196702314134
 31
0.0
  0
LINE
  5
1928
330
1D
100
AcDbEntity
  8
0
100
AcDbLine
 10
377.871809957704
 20
212.375002314134
 30
0.0
 11
378.111009957704
 21
210.777602314134
 31
0.0
  0
LINE
  5
1929
330
1D
100
AcDbEntity
  8
0
100
AcDbLine
 10
377.871709957705
 20
212.374902314134
 30
0.0
 11
378.110909957705
 21
210.777602314134
 31
0.0
  0
LINE
  5
192A
330
1D
100
AcDbEntity
  8
0
100
AcDbLine
 10
377.727409957704
 20
213.984002314134
 30
0.0
 11
377.871709957705
 21
212.374902314134
 31
0.0
  0
LINE
  5
192B
330
1D
100
AcDbEntity
  8
0
100
AcDbLine
 10
377.727409957704
 20
213.984102314134
 30
0.0
 11
377.871809957704
 21
212.375002314134
 31
0.0
  0
LINE
  5
192C
330
1D
100
AcDbEntity
  8
0
100
AcDbLine
 10
382.885209957704
 20
215.620802314134
 30
0.0
 11
382.979709957704
 21
214.051602314134
 31
0.0
  0
LINE
  5
192D
330
1D
100
AcDbEntity
  8
0
100
AcDbLine
 10
382.885309957705
 20
215.620602314134
 30
0.0
 11
382.979809957704
 21
214.051302314134
 31
0.0
  0
LINE
  5
192E
330
1D
100
AcDbEntity
  8
0
100
AcDbLine
 10
383.381309957705
 20
215.638602314134
 30
0.0
 11
383.640009957704
 21
212.548302314134
 31
0.0
  0
LINE
  5
192F
330
1D
100
AcDbEntity
  8
0
100
AcDbLine
 10
383.381309957705
 20
215.638202314134
 30
0.0
 11
383.640109957704
 21
212.548002314134
 31
0.0
  0
LINE
  5
1930
330
1D
100
AcDbEntity
  8
0
100
AcDbLine
 10
383.640009957704
 20
212.548302314134
 30
0.0
 11
384.183809957705
 21
209.475102314134
 31
0.0
  0
LINE
  5
1931
330
1D
100
AcDbEntity
  8
0
100
AcDbLine
 10
383.389909957705
 20
210.921702314134
 30
0.0
 11
383.700509957705
 21
209.367602314134
 31
0.0
  0
LINE
  5
1932
330
1D
100
AcDbEntity
  8
0
100
AcDbLine
 10
383.640109957704
 20
212.548002314134
 30
0.0
 11
384.183809957705
 21
209.474902314134
 31
0.0
  0
LINE
  5
1933
330
1D
100
AcDbEntity
  8
0
100
AcDbLine
 10
383.700509957705
 20
209.367602314134
 30
0.0
 11
384.077009957704
 21
207.826502314134
 31
0.0
  0
LINE
  5
1934
330
1D
100
AcDbEntity
  8
0
100
AcDbLine
 10
383.700409957704
 20
209.367802314134
 30
0.0
 11
384.077109957704
 21
207.826302314134
 31
0.0
  0
LINE
  5
1935
330
1D
100
AcDbEntity
  8
0
100
AcDbLine
 10
383.390009957704
 20
210.921402314134
 30
0.0
 11
383.700409957704
 21
209.367802314134
 31
0.0
  0
LINE
  5
1936
330
1D
100
AcDbEntity
  8
0
100
AcDbLine
 10
383.148809957704
 20
212.483802314134
 30
0.0
 11
383.390009957704
 21
210.921402314134
 31
0.0
  0
LINE
  5
1937
330
1D
100
AcDbEntity
  8
0
100
AcDbLine
 10
383.148609957704
 20
212.483902314134
 30
0.0
 11
383.389909957705
 21
210.921702314134
 31
0.0
  0
LINE
  5
1938
330
1D
100
AcDbEntity
  8
0
100
AcDbLine
 10
382.979809957704
 20
214.051302314134
 30
0.0
 11
383.148809957704
 21
212.483802314134
 31
0.0
  0
LINE
  5
1939
330
1D
100
AcDbEntity
  8
0
100
AcDbLine
 10
382.979709957704
 20
214.051602314134
 30
0.0
 11
383.148609957704
 21
212.483902314134
 31
0.0
  0
LINE
  5
193A
330
1D
100
AcDbEntity
  8
0
100
AcDbLine
 10
382.871309957705
 20
217.424902314134
 30
0.0
 11
382.885309957705
 21
215.620602314134
 31
0.0
  0
LINE
  5
193B
330
1D
100
AcDbEntity
  8
0
100
AcDbLine
 10
382.871309957705
 20
217.424902314134
 30
0.0
 11
382.968209957705
 21
219.308402314134
 31
0.0
  0
LINE
  5
193C
330
1D
100
AcDbEntity
  8
0
100
AcDbLine
 10
382.871509957704
 20
217.424902314134
 30
0.0
 11
382.885209957704
 21
215.620502314134
 31
0.0
  0
LINE
  5
193D
330
1D
100
AcDbEntity
  8
0
100
AcDbLine
 10
382.871509957704
 20
217.424902314134
 30
0.0
 11
382.968209957705
 21
219.308402314134
 31
0.0
  0
LINE
  5
193E
330
1D
100
AcDbEntity
  8
0
100
AcDbLine
 10
383.368309957704
 20
217.414602314134
 30
0.0
 11
383.464109957705
 21
219.267302314134
 31
0.0
  0
LINE
  5
193F
330
1D
100
AcDbEntity
  8
0
100
AcDbLine
 10
383.368309957704
 20
217.414602314134
 30
0.0
 11
383.381309957705
 21
215.638602314134
 31
0.0
  0
LINE
  5
1940
330
1D
100
AcDbEntity
  8
0
100
AcDbLine
 10
383.368009957704
 20
217.414502314134
 30
0.0
 11
383.381109957704
 21
215.638102314134
 31
0.0
  0
LINE
  5
1941
330
1D
100
AcDbEntity
  8
0
100
AcDbLine
 10
383.368009957704
 20
217.414502314134
 30
0.0
 11
383.463609957705
 21
219.267402314134
 31
0.0
  0
LINE
  5
1942
330
1D
100
AcDbEntity
  8
0
100
AcDbLine
 10
380.796209957704
 20
228.292602314134
 30
0.0
 11
381.506809957704
 21
229.564002314134
 31
0.0
  0
LINE
  5
1943
330
1D
100
AcDbEntity
  8
0
100
AcDbLine
 10
380.796509957705
 20
228.292702314134
 30
0.0
 11
381.506809957704
 21
229.564002314134
 31
0.0
  0
LINE
  5
1944
330
1D
100
AcDbEntity
  8
0
100
AcDbLine
 10
379.589509957705
 20
225.659302314134
 30
0.0
 11
380.155109957704
 21
226.985502314134
 31
0.0
  0
LINE
  5
1945
330
1D
100
AcDbEntity
  8
0
100
AcDbLine
 10
379.589509957705
 20
225.659302314134
 30
0.0
 11
380.154909957704
 21
226.985302314134
 31
0.0
  0
LINE
  5
1946
330
1D
100
AcDbEntity
  8
0
100
AcDbLine
 10
380.154909957704
 20
226.985302314134
 30
0.0
 11
380.796509957705
 21
228.292702314134
 31
0.0
  0
LINE
  5
1947
330
1D
100
AcDbEntity
  8
0
100
AcDbLine
 10
380.155109957704
 20
226.985502314134
 30
0.0
 11
380.796209957704
 21
228.292602314134
 31
0.0
  0
LINE
  5
1948
330
1D
100
AcDbEntity
  8
0
100
AcDbLine
 10
379.095309957704
 20
224.305502314134
 30
0.0
 11
379.589509957705
 21
225.659302314134
 31
0.0
  0
LINE
  5
1949
330
1D
100
AcDbEntity
  8
0
100
AcDbLine
 10
379.095109957704
 20
224.305402314134
 30
0.0
 11
379.589509957705
 21
225.659302314134
 31
0.0
  0
LINE
  5
194A
330
1D
100
AcDbEntity
  8
0
100
AcDbLine
 10
378.324009957704
 20
221.528802314134
 30
0.0
 11
378.672709957704
 21
222.927302314134
 31
0.0
  0
LINE
  5
194B
330
1D
100
AcDbEntity
  8
0
100
AcDbLine
 10
378.324409957704
 20
221.528902314134
 30
0.0
 11
378.673109957704
 21
222.927502314134
 31
0.0
  0
LINE
  5
194C
330
1D
100
AcDbEntity
  8
0
100
AcDbLine
 10
378.673109957704
 20
222.927502314134
 30
0.0
 11
379.095109957704
 21
224.305402314134
 31
0.0
  0
LINE
  5
194D
330
1D
100
AcDbEntity
  8
0
100
AcDbLine
 10
378.672709957704
 20
222.927302314134
 30
0.0
 11
379.095309957704
 21
224.305502314134
 31
0.0
  0
LINE
  5
194E
330
1D
100
AcDbEntity
  8
0
100
AcDbLine
 10
384.582709957705
 20
226.737702314134
 30
0.0
 11
385.106009957704
 21
228.058502314134
 31
0.0
  0
LINE
  5
194F
330
1D
100
AcDbEntity
  8
0
100
AcDbLine
 10
384.582509957704
 20
226.737702314134
 30
0.0
 11
385.106209957704
 21
228.058502314134
 31
0.0
  0
LINE
  5
1950
330
1D
100
AcDbEntity
  8
0
100
AcDbLine
 10
385.050609957705
 20
226.567202314134
 30
0.0
 11
386.144409957705
 21
229.123402314134
 31
0.0
  0
LINE
  5
1951
330
1D
100
AcDbEntity
  8
0
100
AcDbLine
 10
385.050409957704
 20
226.567002314134
 30
0.0
 11
386.144209957704
 21
229.123602314134
 31
0.0
  0
LINE
  5
1952
330
1D
100
AcDbEntity
  8
0
100
AcDbLine
 10
384.224809957704
 20
223.882402314134
 30
0.0
 11
385.050609957705
 21
226.567202314134
 31
0.0
  0
LINE
  5
1953
330
1D
100
AcDbEntity
  8
0
100
AcDbLine
 10
384.127709957704
 20
225.384802314134
 30
0.0
 11
384.582709957705
 21
226.737702314134
 31
0.0
  0
LINE
  5
1954
330
1D
100
AcDbEntity
  8
0
100
AcDbLine
 10
384.127509957704
 20
225.384802314134
 30
0.0
 11
384.582509957704
 21
226.737702314134
 31
0.0
  0
LINE
  5
1955
330
1D
100
AcDbEntity
  8
0
100
AcDbLine
 10
384.225009957705
 20
223.882402314134
 30
0.0
 11
385.050409957704
 21
226.567002314134
 31
0.0
  0
LINE
  5
1956
330
1D
100
AcDbEntity
  8
0
100
AcDbLine
 10
383.742009957704
 20
224.003602314134
 30
0.0
 11
384.127509957704
 21
225.384802314134
 31
0.0
  0
LINE
  5
1957
330
1D
100
AcDbEntity
  8
0
100
AcDbLine
 10
383.742209957705
 20
224.003802314134
 30
0.0
 11
384.127709957704
 21
225.384802314134
 31
0.0
  0
LINE
  5
1958
330
1D
100
AcDbEntity
  8
0
100
AcDbLine
 10
383.181309957704
 20
221.172502314134
 30
0.0
 11
383.426209957704
 21
222.598102314134
 31
0.0
  0
LINE
  5
1959
330
1D
100
AcDbEntity
  8
0
100
AcDbLine
 10
383.180909957704
 20
221.172402314134
 30
0.0
 11
383.426309957704
 21
222.598202314134
 31
0.0
  0
LINE
  5
195A
330
1D
100
AcDbEntity
  8
0
100
AcDbLine
 10
383.426209957704
 20
222.598102314134
 30
0.0
 11
383.742209957705
 21
224.003802314134
 31
0.0
  0
LINE
  5
195B
330
1D
100
AcDbEntity
  8
0
100
AcDbLine
 10
383.426309957704
 20
222.598202314134
 30
0.0
 11
383.742009957704
 21
224.003602314134
 31
0.0
  0
LINE
  5
195C
330
1D
100
AcDbEntity
  8
0
100
AcDbLine
 10
383.673409957705
 20
221.100402314134
 30
0.0
 11
384.224809957704
 21
223.882402314134
 31
0.0
  0
LINE
  5
195D
330
1D
100
AcDbEntity
  8
0
100
AcDbLine
 10
383.673509957704
 20
221.100602314134
 30
0.0
 11
384.225009957705
 21
223.882402314134
 31
0.0
  0
LINE
  5
195E
330
1D
100
AcDbEntity
  8
0
100
AcDbLine
 10
386.144409957705
 20
229.123402314134
 30
0.0
 11
387.495509957704
 21
231.519702314134
 31
0.0
  0
LINE
  5
195F
330
1D
100
AcDbEntity
  8
0
100
AcDbLine
 10
386.144209957704
 20
229.123602314134
 30
0.0
 11
387.495709957704
 21
231.519602314134
 31
0.0
  0
LINE
  5
1960
330
1D
100
AcDbEntity
  8
0
100
AcDbLine
 10
386.354009957705
 20
230.587402314134
 30
0.0
 11
387.075109957705
 21
231.787402314134
 31
0.0
  0
LINE
  5
1961
330
1D
100
AcDbEntity
  8
0
100
AcDbLine
 10
386.354009957705
 20
230.587402314134
 30
0.0
 11
387.075209957704
 21
231.787302314134
 31
0.0
  0
LINE
  5
1962
330
1D
100
AcDbEntity
  8
0
100
AcDbLine
 10
385.697209957704
 20
229.343202314134
 30
0.0
 11
386.354009957705
 21
230.587402314134
 31
0.0
  0
LINE
  5
1963
330
1D
100
AcDbEntity
  8
0
100
AcDbLine
 10
383.125809957705
 20
231.984202314134
 30
0.0
 11
384.030009957704
 21
233.126102314134
 31
0.0
  0
LINE
  5
1964
330
1D
100
AcDbEntity
  8
0
100
AcDbLine
 10
383.125609957704
 20
231.984002314134
 30
0.0
 11
384.030109957704
 21
233.126202314134
 31
0.0
  0
LINE
  5
1965
330
1D
100
AcDbEntity
  8
0
100
AcDbLine
 10
385.697409957705
 20
229.343102314134
 30
0.0
 11
386.354009957705
 21
230.587402314134
 31
0.0
  0
LINE
  5
1966
330
1D
100
AcDbEntity
  8
0
100
AcDbLine
 10
385.106209957704
 20
228.058502314134
 30
0.0
 11
385.697409957705
 21
229.343102314134
 31
0.0
  0
LINE
  5
1967
330
1D
100
AcDbEntity
  8
0
100
AcDbLine
 10
385.106009957704
 20
228.058502314134
 30
0.0
 11
385.697209957704
 21
229.343202314134
 31
0.0
  0
LINE
  5
1968
330
1D
100
AcDbEntity
  8
0
100
AcDbLine
 10
381.506809957704
 20
229.564002314134
 30
0.0
 11
382.283709957704
 21
230.795602314134
 31
0.0
  0
LINE
  5
1969
330
1D
100
AcDbEntity
  8
0
100
AcDbLine
 10
381.506809957704
 20
229.564002314134
 30
0.0
 11
382.284009957704
 21
230.795602314134
 31
0.0
  0
LINE
  5
196A
330
1D
100
AcDbEntity
  8
0
100
AcDbLine
 10
382.283709957704
 20
230.795602314134
 30
0.0
 11
383.125809957705
 21
231.984202314134
 31
0.0
  0
LINE
  5
196B
330
1D
100
AcDbEntity
  8
0
100
AcDbLine
 10
382.284009957704
 20
230.795602314134
 30
0.0
 11
383.125609957704
 21
231.984002314134
 31
0.0
  0
LINE
  5
196C
330
1D
100
AcDbEntity
  8
0
100
AcDbLine
 10
387.089009957704
 20
236.241302314134
 30
0.0
 11
388.214709957704
 21
237.166402314134
 31
0.0
  0
LINE
  5
196D
330
1D
100
AcDbEntity
  8
0
100
AcDbLine
 10
387.089309957704
 20
236.241402314134
 30
0.0
 11
388.214809957704
 21
237.166402314134
 31
0.0
  0
LINE
  5
196E
330
1D
100
AcDbEntity
  8
0
100
AcDbLine
 10
386.014209957704
 20
235.257802314134
 30
0.0
 11
387.089309957704
 21
236.241402314134
 31
0.0
  0
LINE
  5
196F
330
1D
100
AcDbEntity
  8
0
100
AcDbLine
 10
386.014609957704
 20
235.258002314134
 30
0.0
 11
387.089009957704
 21
236.241302314134
 31
0.0
  0
LINE
  5
1970
330
1D
100
AcDbEntity
  8
0
100
AcDbLine
 10
384.993709957704
 20
234.218302314134
 30
0.0
 11
386.014609957704
 21
235.258002314134
 31
0.0
  0
LINE
  5
1971
330
1D
100
AcDbEntity
  8
0
100
AcDbLine
 10
384.993909957704
 20
234.218402314134
 30
0.0
 11
386.014209957704
 21
235.257802314134
 31
0.0
  0
LINE
  5
1972
330
1D
100
AcDbEntity
  8
0
100
AcDbLine
 10
393.780109957704
 20
238.637002314134
 30
0.0
 11
395.451809957705
 21
239.620602314134
 31
0.0
  0
LINE
  5
1973
330
1D
100
AcDbEntity
  8
0
100
AcDbLine
 10
393.780109957704
 20
238.637002314134
 30
0.0
 11
395.451709957704
 21
239.620502314134
 31
0.0
  0
LINE
  5
1974
330
1D
100
AcDbEntity
  8
0
100
AcDbLine
 10
393.294109957704
 20
237.700102314134
 30
0.0
 11
394.465709957704
 21
238.482902314134
 31
0.0
  0
LINE
  5
1975
330
1D
100
AcDbEntity
  8
0
100
AcDbLine
 10
393.293809957705
 20
237.700202314134
 30
0.0
 11
394.465809957704
 21
238.483102314134
 31
0.0
  0
LINE
  5
1976
330
1D
100
AcDbEntity
  8
0
100
AcDbLine
 10
392.913409957705
 20
240.108602314134
 30
0.0
 11
394.153109957704
 21
240.681302314134
 31
0.0
  0
LINE
  5
1977
330
1D
100
AcDbEntity
  8
0
100
AcDbLine
 10
392.913609957704
 20
240.108702314134
 30
0.0
 11
394.153309957704
 21
240.681402314134
 31
0.0
  0
LINE
  5
1978
330
1D
100
AcDbEntity
  8
0
100
AcDbLine
 10
388.214709957704
 20
237.166402314134
 30
0.0
 11
389.388509957705
 21
238.030002314134
 31
0.0
  0
LINE
  5
1979
330
1D
100
AcDbEntity
  8
0
100
AcDbLine
 10
389.388509957705
 20
238.030002314134
 30
0.0
 11
390.528209957704
 21
238.781402314134
 31
0.0
  0
LINE
  5
197A
330
1D
100
AcDbEntity
  8
0
100
AcDbLine
 10
391.704509957704
 20
239.475002314134
 30
0.0
 11
392.913609957704
 21
240.108702314134
 31
0.0
  0
LINE
  5
197B
330
1D
100
AcDbEntity
  8
0
100
AcDbLine
 10
390.528309957704
 20
238.781502314134
 30
0.0
 11
391.704509957704
 21
239.475002314134
 31
0.0
  0
LINE
  5
197C
330
1D
100
AcDbEntity
  8
0
100
AcDbLine
 10
391.704209957705
 20
239.474802314134
 30
0.0
 11
392.913409957705
 21
240.108602314134
 31
0.0
  0
LINE
  5
197D
330
1D
100
AcDbEntity
  8
0
100
AcDbLine
 10
390.528209957704
 20
238.781402314134
 30
0.0
 11
391.704209957705
 21
239.474802314134
 31
0.0
  0
LINE
  5
197E
330
1D
100
AcDbEntity
  8
0
100
AcDbLine
 10
389.388609957704
 20
238.030002314134
 30
0.0
 11
390.528309957704
 21
238.781502314134
 31
0.0
  0
LINE
  5
197F
330
1D
100
AcDbEntity
  8
0
100
AcDbLine
 10
388.214809957704
 20
237.166402314134
 30
0.0
 11
389.388609957704
 21
238.030002314134
 31
0.0
  0
LINE
  5
1980
330
1D
100
AcDbEntity
  8
0
100
AcDbLine
 10
391.061309957704
 20
235.851902314134
 30
0.0
 11
392.149009957704
 21
236.816502314134
 31
0.0
  0
LINE
  5
1981
330
1D
100
AcDbEntity
  8
0
100
AcDbLine
 10
390.717909957704
 20
236.212902314134
 30
0.0
 11
392.198909957704
 21
237.497602314134
 31
0.0
  0
LINE
  5
1982
330
1D
100
AcDbEntity
  8
0
100
AcDbLine
 10
390.717909957704
 20
236.212902314134
 30
0.0
 11
392.198809957704
 21
237.497602314134
 31
0.0
  0
LINE
  5
1983
330
1D
100
AcDbEntity
  8
0
100
AcDbLine
 10
389.678209957704
 20
235.160902314134
 30
0.0
 11
390.717909957704
 21
236.212902314134
 31
0.0
  0
LINE
  5
1984
330
1D
100
AcDbEntity
  8
0
100
AcDbLine
 10
389.678309957705
 20
235.160902314134
 30
0.0
 11
390.717909957704
 21
236.212902314134
 31
0.0
  0
LINE
  5
1985
330
1D
100
AcDbEntity
  8
0
100
AcDbLine
 10
392.198809957704
 20
237.497602314134
 30
0.0
 11
393.780109957704
 21
238.637002314134
 31
0.0
  0
LINE
  5
1986
330
1D
100
AcDbEntity
  8
0
100
AcDbLine
 10
392.198909957704
 20
237.497602314134
 30
0.0
 11
393.780109957704
 21
238.637002314134
 31
0.0
  0
LINE
  5
1987
330
1D
100
AcDbEntity
  8
0
100
AcDbLine
 10
392.149009957704
 20
236.816502314134
 30
0.0
 11
393.293809957705
 21
237.700202314134
 31
0.0
  0
LINE
  5
1988
330
1D
100
AcDbEntity
  8
0
100
AcDbLine
 10
392.149009957704
 20
236.816102314134
 30
0.0
 11
393.294109957704
 21
237.700102314134
 31
0.0
  0
LINE
  5
1989
330
1D
100
AcDbEntity
  8
0
100
AcDbLine
 10
389.089609957705
 20
233.724502314134
 30
0.0
 11
391.061309957704
 21
235.851902314134
 31
0.0
  0
LINE
  5
198A
330
1D
100
AcDbEntity
  8
0
100
AcDbLine
 10
388.702809957705
 20
234.038502314134
 30
0.0
 11
389.678309957705
 21
235.160902314134
 31
0.0
  0
LINE
  5
198B
330
1D
100
AcDbEntity
  8
0
100
AcDbLine
 10
396.710909957705
 20
241.637202314134
 30
0.0
 11
398.022109957705
 21
242.018002314134
 31
0.0
  0
LINE
  5
198C
330
1D
100
AcDbEntity
  8
0
100
AcDbLine
 10
396.711009957705
 20
241.637202314134
 30
0.0
 11
398.022109957705
 21
242.018002314134
 31
0.0
  0
LINE
  5
198D
330
1D
100
AcDbEntity
  8
0
100
AcDbLine
 10
395.684409957704
 20
239.180302314134
 30
0.0
 11
397.778809957705
 21
240.131302314134
 31
0.0
  0
LINE
  5
198E
330
1D
100
AcDbEntity
  8
0
100
AcDbLine
 10
395.684609957705
 20
239.180402314134
 30
0.0
 11
397.778509957705
 21
240.131402314134
 31
0.0
  0
LINE
  5
198F
330
1D
100
AcDbEntity
  8
0
100
AcDbLine
 10
395.451709957704
 20
239.620502314134
 30
0.0
 11
397.599509957705
 21
240.595802314134
 31
0.0
  0
LINE
  5
1990
330
1D
100
AcDbEntity
  8
0
100
AcDbLine
 10
395.451809957705
 20
239.620602314134
 30
0.0
 11
397.599609957705
 21
240.595902314134
 31
0.0
  0
LINE
  5
1991
330
1D
100
AcDbEntity
  8
0
100
AcDbLine
 10
394.153109957704
 20
240.681302314134
 30
0.0
 11
395.420109957705
 21
241.191202314134
 31
0.0
  0
LINE
  5
1992
330
1D
100
AcDbEntity
  8
0
100
AcDbLine
 10
395.420109957705
 20
241.191202314134
 30
0.0
 11
396.710909957705
 21
241.637202314134
 31
0.0
  0
LINE
  5
1993
330
1D
100
AcDbEntity
  8
0
100
AcDbLine
 10
395.419909957704
 20
241.191302314134
 30
0.0
 11
396.711009957705
 21
241.637202314134
 31
0.0
  0
LINE
  5
1994
330
1D
100
AcDbEntity
  8
0
100
AcDbLine
 10
394.153309957704
 20
240.681402314134
 30
0.0
 11
395.419909957704
 21
241.191302314134
 31
0.0
  0
LINE
  5
1995
330
1D
100
AcDbEntity
  8
0
100
AcDbLine
 10
394.465809957704
 20
238.483102314134
 30
0.0
 11
395.684409957704
 21
239.180302314134
 31
0.0
  0
LINE
  5
1996
330
1D
100
AcDbEntity
  8
0
100
AcDbLine
 10
394.465709957704
 20
238.482902314134
 30
0.0
 11
395.684609957705
 21
239.180402314134
 31
0.0
  0
LINE
  5
1997
330
1D
100
AcDbEntity
  8
0
100
AcDbLine
 10
398.022109957705
 20
242.018002314134
 30
0.0
 11
399.351209957704
 21
242.332702314134
 31
0.0
  0
LINE
  5
1998
330
1D
100
AcDbEntity
  8
0
100
AcDbLine
 10
398.022109957705
 20
242.018002314134
 30
0.0
 11
399.351109957704
 21
242.332802314134
 31
0.0
  0
LINE
  5
1999
330
1D
100
AcDbEntity
  8
0
100
AcDbLine
 10
397.599509957705
 20
240.595802314134
 30
0.0
 11
399.847909957704
 21
241.311502314134
 31
0.0
  0
LINE
  5
199A
330
1D
100
AcDbEntity
  8
0
100
AcDbLine
 10
397.599609957705
 20
240.595902314134
 30
0.0
 11
399.848309957704
 21
241.311602314134
 31
0.0
  0
LINE
  5
199B
330
1D
100
AcDbEntity
  8
0
100
AcDbLine
 10
397.778809957705
 20
240.131302314134
 30
0.0
 11
399.971009957704
 21
240.829202314134
 31
0.0
  0
LINE
  5
199C
330
1D
100
AcDbEntity
  8
0
100
AcDbLine
 10
397.778509957705
 20
240.131402314134
 30
0.0
 11
399.971109957704
 21
240.828802314134
 31
0.0
  0
LINE
  5
199D
330
1D
100
AcDbEntity
  8
0
100
AcDbLine
 10
426.852009957704
 20
231.984202314134
 30
0.0
 11
425.947809957705
 21
233.126102314134
 31
0.0
  0
LINE
  5
199E
330
1D
100
AcDbEntity
  8
0
100
AcDbLine
 10
426.852209957705
 20
231.984002314134
 30
0.0
 11
425.947709957704
 21
233.126202314134
 31
0.0
  0
LINE
  5
199F
330
1D
100
AcDbEntity
  8
0
100
AcDbLine
 10
426.796509957705
 20
221.172502314134
 30
0.0
 11
426.551609957704
 21
222.598102314134
 31
0.0
  0
LINE
  5
19A0
330
1D
100
AcDbEntity
  8
0
100
AcDbLine
 10
426.796909957705
 20
221.172402314134
 30
0.0
 11
426.551509957705
 21
222.598202314134
 31
0.0
  0
LINE
  5
19A1
330
1D
100
AcDbEntity
  8
0
100
AcDbLine
 10
426.609509957705
 20
217.414602314134
 30
0.0
 11
426.513709957704
 21
219.267302314134
 31
0.0
  0
LINE
  5
19A2
330
1D
100
AcDbEntity
  8
0
100
AcDbLine
 10
426.609809957704
 20
217.414502314134
 30
0.0
 11
426.514209957704
 21
219.267402314134
 31
0.0
  0
LINE
  5
19A3
330
1D
100
AcDbEntity
  8
0
100
AcDbLine
 10
426.587909957704
 20
210.921702314134
 30
0.0
 11
426.277309957704
 21
209.367602314134
 31
0.0
  0
LINE
  5
19A4
330
1D
100
AcDbEntity
  8
0
100
AcDbLine
 10
426.587809957705
 20
210.921402314134
 30
0.0
 11
426.277409957704
 21
209.367802314134
 31
0.0
  0
LINE
  5
19A5
330
1D
100
AcDbEntity
  8
0
100
AcDbLine
 10
426.596509957704
 20
215.638602314134
 30
0.0
 11
426.337809957705
 21
212.548302314134
 31
0.0
  0
LINE
  5
19A6
330
1D
100
AcDbEntity
  8
0
100
AcDbLine
 10
426.596509957704
 20
215.638202314134
 30
0.0
 11
426.337709957705
 21
212.548002314134
 31
0.0
  0
LINE
  5
19A7
330
1D
100
AcDbEntity
  8
0
100
AcDbLine
 10
422.482109957704
 20
231.519602314134
 30
0.0
 11
420.887909957704
 21
233.724102314134
 31
0.0
  0
LINE
  5
19A8
330
1D
100
AcDbEntity
  8
0
100
AcDbLine
 10
422.119009957705
 20
232.939202314134
 30
0.0
 11
421.275009957704
 21
234.038502314134
 31
0.0
  0
LINE
  5
19A9
330
1D
100
AcDbEntity
  8
0
100
AcDbLine
 10
422.118709957704
 20
232.939302314134
 30
0.0
 11
421.275209957705
 21
234.038502314134
 31
0.0
  0
LINE
  5
19AA
330
1D
100
AcDbEntity
  8
0
100
AcDbLine
 10
422.482309957705
 20
231.519702314134
 30
0.0
 11
420.888209957704
 21
233.724502314134
 31
0.0
  0
LINE
  5
19AB
330
1D
100
AcDbEntity
  8
0
100
AcDbLine
 10
425.947709957704
 20
233.126202314134
 30
0.0
 11
424.984109957705
 21
234.218302314134
 31
0.0
  0
LINE
  5
19AC
330
1D
100
AcDbEntity
  8
0
100
AcDbLine
 10
425.947809957705
 20
233.126102314134
 30
0.0
 11
424.983909957704
 21
234.218402314134
 31
0.0
  0
LINE
  5
19AD
330
1D
100
AcDbEntity
  8
0
100
AcDbLine
 10
426.514209957704
 20
219.267402314134
 30
0.0
 11
426.304409957704
 21
221.100402314134
 31
0.0
  0
LINE
  5
19AE
330
1D
100
AcDbEntity
  8
0
100
AcDbLine
 10
426.513709957704
 20
219.267302314134
 30
0.0
 11
426.304309957705
 21
221.100602314134
 31
0.0
  0
LINE
  5
19AF
330
1D
100
AcDbEntity
  8
0
100
AcDbLine
 10
426.337809957705
 20
212.548302314134
 30
0.0
 11
425.794009957704
 21
209.475102314134
 31
0.0
  0
LINE
  5
19B0
330
1D
100
AcDbEntity
  8
0
100
AcDbLine
 10
426.337709957705
 20
212.548002314134
 30
0.0
 11
425.794009957704
 21
209.474902314134
 31
0.0
  0
LINE
  5
19B1
330
1D
100
AcDbEntity
  8
0
100
AcDbLine
 10
426.277309957704
 20
209.367602314134
 30
0.0
 11
425.900809957704
 21
207.826502314134
 31
0.0
  0
LINE
  5
19B2
330
1D
100
AcDbEntity
  8
0
100
AcDbLine
 10
426.277409957704
 20
209.367802314134
 30
0.0
 11
425.900709957705
 21
207.826302314134
 31
0.0
  0
LINE
  5
19B3
330
1D
100
AcDbEntity
  8
0
100
AcDbLine
 10
425.395109957704
 20
226.737702314134
 30
0.0
 11
424.871809957704
 21
228.058502314134
 31
0.0
  0
LINE
  5
19B4
330
1D
100
AcDbEntity
  8
0
100
AcDbLine
 10
425.395309957705
 20
226.737702314134
 30
0.0
 11
424.871609957704
 21
228.058502314134
 31
0.0
  0
LINE
  5
19B5
330
1D
100
AcDbEntity
  8
0
100
AcDbLine
 10
424.927209957704
 20
226.567202314134
 30
0.0
 11
423.833409957704
 21
229.123402314134
 31
0.0
  0
LINE
  5
19B6
330
1D
100
AcDbEntity
  8
0
100
AcDbLine
 10
424.927409957705
 20
226.567002314134
 30
0.0
 11
423.833609957705
 21
229.123602314134
 31
0.0
  0
LINE
  5
19B7
330
1D
100
AcDbEntity
  8
0
100
AcDbLine
 10
426.235809957705
 20
224.003602314134
 30
0.0
 11
425.850309957704
 21
225.384802314134
 31
0.0
  0
LINE
  5
19B8
330
1D
100
AcDbEntity
  8
0
100
AcDbLine
 10
426.235609957704
 20
224.003802314134
 30
0.0
 11
425.850109957704
 21
225.384802314134
 31
0.0
  0
LINE
  5
19B9
330
1D
100
AcDbEntity
  8
0
100
AcDbLine
 10
425.753009957705
 20
223.882402314134
 30
0.0
 11
424.927209957704
 21
226.567202314134
 31
0.0
  0
LINE
  5
19BA
330
1D
100
AcDbEntity
  8
0
100
AcDbLine
 10
425.850109957704
 20
225.384802314134
 30
0.0
 11
425.395109957704
 21
226.737702314134
 31
0.0
  0
LINE
  5
19BB
330
1D
100
AcDbEntity
  8
0
100
AcDbLine
 10
425.850309957704
 20
225.384802314134
 30
0.0
 11
425.395309957705
 21
226.737702314134
 31
0.0
  0
LINE
  5
19BC
330
1D
100
AcDbEntity
  8
0
100
AcDbLine
 10
425.752809957704
 20
223.882402314134
 30
0.0
 11
424.927409957705
 21
226.567002314134
 31
0.0
  0
LINE
  5
19BD
330
1D
100
AcDbEntity
  8
0
100
AcDbLine
 10
426.551609957704
 20
222.598102314134
 30
0.0
 11
426.235609957704
 21
224.003802314134
 31
0.0
  0
LINE
  5
19BE
330
1D
100
AcDbEntity
  8
0
100
AcDbLine
 10
426.551509957705
 20
222.598202314134
 30
0.0
 11
426.235809957705
 21
224.003602314134
 31
0.0
  0
LINE
  5
19BF
330
1D
100
AcDbEntity
  8
0
100
AcDbLine
 10
426.304409957704
 20
221.100402314134
 30
0.0
 11
425.753009957705
 21
223.882402314134
 31
0.0
  0
LINE
  5
19C0
330
1D
100
AcDbEntity
  8
0
100
AcDbLine
 10
426.304309957705
 20
221.100602314134
 30
0.0
 11
425.752809957704
 21
223.882402314134
 31
0.0
  0
LINE
  5
19C1
330
1D
100
AcDbEntity
  8
0
100
AcDbLine
 10
424.871609957704
 20
228.058502314134
 30
0.0
 11
424.280409957704
 21
229.343102314134
 31
0.0
  0
LINE
  5
19C2
330
1D
100
AcDbEntity
  8
0
100
AcDbLine
 10
424.871809957704
 20
228.058502314134
 30
0.0
 11
424.280609957705
 21
229.343202314134
 31
0.0
  0
LINE
  5
19C3
330
1D
100
AcDbEntity
  8
0
100
AcDbLine
 10
423.833409957704
 20
229.123402314134
 30
0.0
 11
422.482309957705
 21
231.519702314134
 31
0.0
  0
LINE
  5
19C4
330
1D
100
AcDbEntity
  8
0
100
AcDbLine
 10
423.833609957705
 20
229.123602314134
 30
0.0
 11
422.482109957704
 21
231.519602314134
 31
0.0
  0
LINE
  5
19C5
330
1D
100
AcDbEntity
  8
0
100
AcDbLine
 10
422.902609957704
 20
231.787302314134
 30
0.0
 11
422.118709957704
 21
232.939302314134
 31
0.0
  0
LINE
  5
19C6
330
1D
100
AcDbEntity
  8
0
100
AcDbLine
 10
422.902709957704
 20
231.787402314134
 30
0.0
 11
422.119009957705
 21
232.939202314134
 31
0.0
  0
LINE
  5
19C7
330
1D
100
AcDbEntity
  8
0
100
AcDbLine
 10
423.623809957704
 20
230.587402314134
 30
0.0
 11
422.902709957704
 21
231.787402314134
 31
0.0
  0
LINE
  5
19C8
330
1D
100
AcDbEntity
  8
0
100
AcDbLine
 10
423.623809957704
 20
230.587402314134
 30
0.0
 11
422.902609957704
 21
231.787302314134
 31
0.0
  0
LINE
  5
19C9
330
1D
100
AcDbEntity
  8
0
100
AcDbLine
 10
424.280609957705
 20
229.343202314134
 30
0.0
 11
423.623809957704
 21
230.587402314134
 31
0.0
  0
LINE
  5
19CA
330
1D
100
AcDbEntity
  8
0
100
AcDbLine
 10
424.280409957704
 20
229.343102314134
 30
0.0
 11
423.623809957704
 21
230.587402314134
 31
0.0
  0
LINE
  5
19CB
330
1D
100
AcDbEntity
  8
0
100
AcDbLine
 10
414.557709957704
 20
241.191202314134
 30
0.0
 11
413.266909957704
 21
241.637202314134
 31
0.0
  0
LINE
  5
19CC
330
1D
100
AcDbEntity
  8
0
100
AcDbLine
 10
414.557909957705
 20
241.191302314134
 30
0.0
 11
413.266809957704
 21
241.637202314134
 31
0.0
  0
LINE
  5
19CD
330
1D
100
AcDbEntity
  8
0
100
AcDbLine
 10
414.293409957705
 20
239.180302314134
 30
0.0
 11
412.199009957704
 21
240.131302314134
 31
0.0
  0
LINE
  5
19CE
330
1D
100
AcDbEntity
  8
0
100
AcDbLine
 10
414.293209957704
 20
239.180402314134
 30
0.0
 11
412.199309957704
 21
240.131402314134
 31
0.0
  0
LINE
  5
19CF
330
1D
100
AcDbEntity
  8
0
100
AcDbLine
 10
414.526109957705
 20
239.620502314134
 30
0.0
 11
412.378309957704
 21
240.595802314134
 31
0.0
  0
LINE
  5
19D0
330
1D
100
AcDbEntity
  8
0
100
AcDbLine
 10
414.526009957704
 20
239.620602314134
 30
0.0
 11
412.378209957704
 21
240.595902314134
 31
0.0
  0
LINE
  5
19D1
330
1D
100
AcDbEntity
  8
0
100
AcDbLine
 10
407.929309957705
 20
242.761202314134
 30
0.0
 11
405.202309957705
 21
242.918802314134
 31
0.0
  0
LINE
  5
19D2
330
1D
100
AcDbEntity
  8
0
100
AcDbLine
 10
407.929209957705
 20
242.761302314134
 30
0.0
 11
405.202509957704
 21
242.918602314134
 31
0.0
  0
LINE
  5
19D3
330
1D
100
AcDbEntity
  8
0
100
AcDbLine
 10
407.733709957704
 20
241.266002314134
 30
0.0
 11
404.989209957704
 21
241.444702314134
 31
0.0
  0
LINE
  5
19D4
330
1D
100
AcDbEntity
  8
0
100
AcDbLine
 10
407.733809957704
 20
241.266302314134
 30
0.0
 11
404.989009957705
 21
241.444602314134
 31
0.0
  0
LINE
  5
19D5
330
1D
100
AcDbEntity
  8
0
100
AcDbLine
 10
407.799409957704
 20
241.759502314134
 30
0.0
 11
405.406509957705
 21
241.938202314134
 31
0.0
  0
LINE
  5
19D6
330
1D
100
AcDbEntity
  8
0
100
AcDbLine
 10
407.799209957705
 20
241.759802314134
 30
0.0
 11
405.406609957705
 21
241.938302314134
 31
0.0
  0
LINE
  5
19D7
330
1D
100
AcDbEntity
  8
0
100
AcDbLine
 10
405.406609957705
 20
241.938302314134
 30
0.0
 11
404.988909957704
 21
241.942202314134
 31
0.0
  0
LINE
  5
19D8
330
1D
100
AcDbEntity
  8
0
100
AcDbLine
 10
405.202509957704
 20
242.918602314134
 30
0.0
 11
404.988909957704
 21
242.919402314134
 31
0.0
  0
LINE
  5
19D9
330
1D
100
AcDbEntity
  8
0
100
AcDbLine
 10
405.202309957705
 20
242.918802314134
 30
0.0
 11
404.989009957705
 21
242.919502314134
 31
0.0
  0
LINE
  5
19DA
330
1D
100
AcDbEntity
  8
0
100
AcDbLine
 10
405.406509957705
 20
241.938202314134
 30
0.0
 11
404.989009957705
 21
241.942202314134
 31
0.0
  0
LINE
  5
19DB
330
1D
100
AcDbEntity
  8
0
100
AcDbLine
 10
404.571209957704
 20
241.938302314134
 30
0.0
 11
404.988909957704
 21
241.942202314134
 31
0.0
  0
LINE
  5
19DC
330
1D
100
AcDbEntity
  8
0
100
AcDbLine
 10
404.775309957705
 20
242.918602314134
 30
0.0
 11
404.988909957704
 21
242.919402314134
 31
0.0
  0
LINE
  5
19DD
330
1D
100
AcDbEntity
  8
0
100
AcDbLine
 10
404.775509957704
 20
242.918802314134
 30
0.0
 11
404.988809957704
 21
242.919502314134
 31
0.0
  0
LINE
  5
19DE
330
1D
100
AcDbEntity
  8
0
100
AcDbLine
 10
404.571309957704
 20
241.938202314134
 30
0.0
 11
404.988809957704
 21
241.942202314134
 31
0.0
  0
LINE
  5
19DF
330
1D
100
AcDbEntity
  8
0
100
AcDbLine
 10
402.048509957704
 20
242.761202314134
 30
0.0
 11
404.775509957704
 21
242.918802314134
 31
0.0
  0
LINE
  5
19E0
330
1D
100
AcDbEntity
  8
0
100
AcDbLine
 10
402.048609957704
 20
242.761302314134
 30
0.0
 11
404.775309957705
 21
242.918602314134
 31
0.0
  0
LINE
  5
19E1
330
1D
100
AcDbEntity
  8
0
100
AcDbLine
 10
402.178409957705
 20
241.759502314134
 30
0.0
 11
404.571309957704
 21
241.938202314134
 31
0.0
  0
LINE
  5
19E2
330
1D
100
AcDbEntity
  8
0
100
AcDbLine
 10
402.178609957704
 20
241.759802314134
 30
0.0
 11
404.571209957704
 21
241.938302314134
 31
0.0
  0
LINE
  5
19E3
330
1D
100
AcDbEntity
  8
0
100
AcDbLine
 10
402.244109957704
 20
241.266002314134
 30
0.0
 11
404.988609957705
 21
241.444702314134
 31
0.0
  0
LINE
  5
19E4
330
1D
100
AcDbEntity
  8
0
100
AcDbLine
 10
402.244009957705
 20
241.266302314134
 30
0.0
 11
404.988809957704
 21
241.444602314134
 31
0.0
  0
LINE
  5
19E5
330
1D
100
AcDbEntity
  8
0
100
AcDbLine
 10
411.955709957704
 20
242.018002314134
 30
0.0
 11
410.626609957704
 21
242.332702314134
 31
0.0
  0
LINE
  5
19E6
330
1D
100
AcDbEntity
  8
0
100
AcDbLine
 10
411.955709957704
 20
242.018002314134
 30
0.0
 11
410.626709957705
 21
242.332802314134
 31
0.0
  0
LINE
  5
19E7
330
1D
100
AcDbEntity
  8
0
100
AcDbLine
 10
412.378309957704
 20
240.595802314134
 30
0.0
 11
410.129909957705
 21
241.311502314134
 31
0.0
  0
LINE
  5
19E8
330
1D
100
AcDbEntity
  8
0
100
AcDbLine
 10
412.378209957704
 20
240.595902314134
 30
0.0
 11
410.129509957704
 21
241.311602314134
 31
0.0
  0
LINE
  5
19E9
330
1D
100
AcDbEntity
  8
0
100
AcDbLine
 10
412.199009957704
 20
240.131302314134
 30
0.0
 11
410.006809957704
 21
240.829202314134
 31
0.0
  0
LINE
  5
19EA
330
1D
100
AcDbEntity
  8
0
100
AcDbLine
 10
412.199309957704
 20
240.131402314134
 30
0.0
 11
410.006709957705
 21
240.828802314134
 31
0.0
  0
LINE
  5
19EB
330
1D
100
AcDbEntity
  8
0
100
AcDbLine
 10
413.266909957704
 20
241.637202314134
 30
0.0
 11
411.955709957704
 21
242.018002314134
 31
0.0
  0
LINE
  5
19EC
330
1D
100
AcDbEntity
  8
0
100
AcDbLine
 10
413.266809957704
 20
241.637202314134
 30
0.0
 11
411.955709957704
 21
242.018002314134
 31
0.0
  0
LINE
  5
19ED
330
1D
100
AcDbEntity
  8
0
100
AcDbLine
 10
410.626709957705
 20
242.332802314134
 30
0.0
 11
407.929309957705
 21
242.761202314134
 31
0.0
  0
LINE
  5
19EE
330
1D
100
AcDbEntity
  8
0
100
AcDbLine
 10
410.626609957704
 20
242.332702314134
 30
0.0
 11
407.929209957705
 21
242.761302314134
 31
0.0
  0
LINE
  5
19EF
330
1D
100
AcDbEntity
  8
0
100
AcDbLine
 10
410.129909957705
 20
241.311502314134
 30
0.0
 11
407.799409957704
 21
241.759502314134
 31
0.0
  0
LINE
  5
19F0
330
1D
100
AcDbEntity
  8
0
100
AcDbLine
 10
410.129509957704
 20
241.311602314134
 30
0.0
 11
407.799209957705
 21
241.759802314134
 31
0.0
  0
LINE
  5
19F1
330
1D
100
AcDbEntity
  8
0
100
AcDbLine
 10
410.006809957704
 20
240.829202314134
 30
0.0
 11
407.733809957704
 21
241.266302314134
 31
0.0
  0
LINE
  5
19F2
330
1D
100
AcDbEntity
  8
0
100
AcDbLine
 10
410.006709957705
 20
240.828802314134
 30
0.0
 11
407.733709957704
 21
241.266002314134
 31
0.0
  0
LINE
  5
19F3
330
1D
100
AcDbEntity
  8
0
100
AcDbLine
 10
420.589309957704
 20
238.030002314134
 30
0.0
 11
419.449609957705
 21
238.781402314134
 31
0.0
  0
LINE
  5
19F4
330
1D
100
AcDbEntity
  8
0
100
AcDbLine
 10
420.589209957704
 20
238.030002314134
 30
0.0
 11
419.449509957704
 21
238.781502314134
 31
0.0
  0
LINE
  5
19F5
330
1D
100
AcDbEntity
  8
0
100
AcDbLine
 10
420.299609957704
 20
235.160902314134
 30
0.0
 11
419.259909957705
 21
236.212902314134
 31
0.0
  0
LINE
  5
19F6
330
1D
100
AcDbEntity
  8
0
100
AcDbLine
 10
420.299509957704
 20
235.160902314134
 30
0.0
 11
419.259909957705
 21
236.212902314134
 31
0.0
  0
LINE
  5
19F7
330
1D
100
AcDbEntity
  8
0
100
AcDbLine
 10
420.888209957704
 20
233.724502314134
 30
0.0
 11
418.916509957705
 21
235.851902314134
 31
0.0
  0
LINE
  5
19F8
330
1D
100
AcDbEntity
  8
0
100
AcDbLine
 10
417.064409957704
 20
240.108602314134
 30
0.0
 11
415.824709957704
 21
240.681302314134
 31
0.0
  0
LINE
  5
19F9
330
1D
100
AcDbEntity
  8
0
100
AcDbLine
 10
417.064209957705
 20
240.108702314134
 30
0.0
 11
415.824509957704
 21
240.681402314134
 31
0.0
  0
LINE
  5
19FA
330
1D
100
AcDbEntity
  8
0
100
AcDbLine
 10
416.197709957704
 20
238.637002314134
 30
0.0
 11
414.526009957704
 21
239.620602314134
 31
0.0
  0
LINE
  5
19FB
330
1D
100
AcDbEntity
  8
0
100
AcDbLine
 10
416.197709957704
 20
238.637002314134
 30
0.0
 11
414.526109957705
 21
239.620502314134
 31
0.0
  0
LINE
  5
19FC
330
1D
100
AcDbEntity
  8
0
100
AcDbLine
 10
415.512009957704
 20
238.483102314134
 30
0.0
 11
414.293409957705
 21
239.180302314134
 31
0.0
  0
LINE
  5
19FD
330
1D
100
AcDbEntity
  8
0
100
AcDbLine
 10
415.512109957705
 20
238.482902314134
 30
0.0
 11
414.293209957704
 21
239.180402314134
 31
0.0
  0
LINE
  5
19FE
330
1D
100
AcDbEntity
  8
0
100
AcDbLine
 10
417.828809957704
 20
236.816502314134
 30
0.0
 11
416.684009957704
 21
237.700202314134
 31
0.0
  0
LINE
  5
19FF
330
1D
100
AcDbEntity
  8
0
100
AcDbLine
 10
417.828809957704
 20
236.816102314134
 30
0.0
 11
416.683709957705
 21
237.700102314134
 31
0.0
  0
LINE
  5
1A00
330
1D
100
AcDbEntity
  8
0
100
AcDbLine
 10
418.273309957704
 20
239.475002314134
 30
0.0
 11
417.064209957705
 21
240.108702314134
 31
0.0
  0
LINE
  5
1A01
330
1D
100
AcDbEntity
  8
0
100
AcDbLine
 10
418.273609957704
 20
239.474802314134
 30
0.0
 11
417.064409957704
 21
240.108602314134
 31
0.0
  0
LINE
  5
1A02
330
1D
100
AcDbEntity
  8
0
100
AcDbLine
 10
416.683709957705
 20
237.700102314134
 30
0.0
 11
415.512109957705
 21
238.482902314134
 31
0.0
  0
LINE
  5
1A03
330
1D
100
AcDbEntity
  8
0
100
AcDbLine
 10
416.684009957704
 20
237.700202314134
 30
0.0
 11
415.512009957704
 21
238.483102314134
 31
0.0
  0
LINE
  5
1A04
330
1D
100
AcDbEntity
  8
0
100
AcDbLine
 10
417.779009957704
 20
237.497602314134
 30
0.0
 11
416.197709957704
 21
238.637002314134
 31
0.0
  0
LINE
  5
1A05
330
1D
100
AcDbEntity
  8
0
100
AcDbLine
 10
417.778909957705
 20
237.497602314134
 30
0.0
 11
416.197709957704
 21
238.637002314134
 31
0.0
  0
LINE
  5
1A06
330
1D
100
AcDbEntity
  8
0
100
AcDbLine
 10
419.449509957704
 20
238.781502314134
 30
0.0
 11
418.273309957704
 21
239.475002314134
 31
0.0
  0
LINE
  5
1A07
330
1D
100
AcDbEntity
  8
0
100
AcDbLine
 10
419.449609957705
 20
238.781402314134
 30
0.0
 11
418.273609957704
 21
239.474802314134
 31
0.0
  0
LINE
  5
1A08
330
1D
100
AcDbEntity
  8
0
100
AcDbLine
 10
418.916509957705
 20
235.851902314134
 30
0.0
 11
417.828809957704
 21
236.816502314134
 31
0.0
  0
LINE
  5
1A09
330
1D
100
AcDbEntity
  8
0
100
AcDbLine
 10
419.259909957705
 20
236.212902314134
 30
0.0
 11
417.778909957705
 21
237.497602314134
 31
0.0
  0
LINE
  5
1A0A
330
1D
100
AcDbEntity
  8
0
100
AcDbLine
 10
419.259909957705
 20
236.212902314134
 30
0.0
 11
417.779009957704
 21
237.497602314134
 31
0.0
  0
LINE
  5
1A0B
330
1D
100
AcDbEntity
  8
0
100
AcDbLine
 10
415.824709957704
 20
240.681302314134
 30
0.0
 11
414.557709957704
 21
241.191202314134
 31
0.0
  0
LINE
  5
1A0C
330
1D
100
AcDbEntity
  8
0
100
AcDbLine
 10
415.824509957704
 20
240.681402314134
 30
0.0
 11
414.557909957705
 21
241.191302314134
 31
0.0
  0
LINE
  5
1A0D
330
1D
100
AcDbEntity
  8
0
100
AcDbLine
 10
422.888809957704
 20
236.241302314134
 30
0.0
 11
421.763109957705
 21
237.166402314134
 31
0.0
  0
LINE
  5
1A0E
330
1D
100
AcDbEntity
  8
0
100
AcDbLine
 10
422.888509957705
 20
236.241402314134
 30
0.0
 11
421.763009957705
 21
237.166402314134
 31
0.0
  0
LINE
  5
1A0F
330
1D
100
AcDbEntity
  8
0
100
AcDbLine
 10
423.963609957705
 20
235.257802314134
 30
0.0
 11
422.888509957705
 21
236.241402314134
 31
0.0
  0
LINE
  5
1A10
330
1D
100
AcDbEntity
  8
0
100
AcDbLine
 10
423.963209957705
 20
235.258002314134
 30
0.0
 11
422.888809957704
 21
236.241302314134
 31
0.0
  0
LINE
  5
1A11
330
1D
100
AcDbEntity
  8
0
100
AcDbLine
 10
424.984109957705
 20
234.218302314134
 30
0.0
 11
423.963209957705
 21
235.258002314134
 31
0.0
  0
LINE
  5
1A12
330
1D
100
AcDbEntity
  8
0
100
AcDbLine
 10
424.983909957704
 20
234.218402314134
 30
0.0
 11
423.963609957705
 21
235.257802314134
 31
0.0
  0
LINE
  5
1A13
330
1D
100
AcDbEntity
  8
0
100
AcDbLine
 10
421.763109957705
 20
237.166402314134
 30
0.0
 11
420.589309957704
 21
238.030002314134
 31
0.0
  0
LINE
  5
1A14
330
1D
100
AcDbEntity
  8
0
100
AcDbLine
 10
421.763009957705
 20
237.166402314134
 30
0.0
 11
420.589209957704
 21
238.030002314134
 31
0.0
  0
LINE
  5
1A15
330
1D
100
AcDbEntity
  8
0
100
AcDbLine
 10
421.275009957704
 20
234.038502314134
 30
0.0
 11
420.299509957704
 21
235.160902314134
 31
0.0
  0
LINE
  5
1A16
330
1D
100
AcDbEntity
  8
0
100
AcDbLine
 10
431.927909957705
 20
220.113902314134
 30
0.0
 11
431.653409957705
 21
221.528902314134
 31
0.0
  0
LINE
  5
1A17
330
1D
100
AcDbEntity
  8
0
100
AcDbLine
 10
431.928109957704
 20
220.113802314134
 30
0.0
 11
431.653809957705
 21
221.528802314134
 31
0.0
  0
LINE
  5
1A18
330
1D
100
AcDbEntity
  8
0
100
AcDbLine
 10
427.009609957704
 20
219.308402314134
 30
0.0
 11
426.796509957705
 21
221.172502314134
 31
0.0
  0
LINE
  5
1A19
330
1D
100
AcDbEntity
  8
0
100
AcDbLine
 10
427.009609957704
 20
219.308402314134
 30
0.0
 11
426.796909957705
 21
221.172402314134
 31
0.0
  0
LINE
  5
1A1A
330
1D
100
AcDbEntity
  8
0
100
AcDbLine
 10
432.299609957704
 20
215.620502314134
 30
0.0
 11
432.250409957705
 21
213.984102314134
 31
0.0
  0
LINE
  5
1A1B
330
1D
100
AcDbEntity
  8
0
100
AcDbLine
 10
432.299609957704
 20
215.620502314134
 30
0.0
 11
432.250409957705
 21
213.984002314134
 31
0.0
  0
LINE
  5
1A1C
330
1D
100
AcDbEntity
  8
0
100
AcDbLine
 10
427.092509957704
 20
215.620602314134
 30
0.0
 11
426.998009957705
 21
214.051302314134
 31
0.0
  0
LINE
  5
1A1D
330
1D
100
AcDbEntity
  8
0
100
AcDbLine
 10
432.106009957704
 20
212.375002314134
 30
0.0
 11
431.866809957705
 21
210.777602314134
 31
0.0
  0
LINE
  5
1A1E
330
1D
100
AcDbEntity
  8
0
100
AcDbLine
 10
432.106109957704
 20
212.374902314134
 30
0.0
 11
431.866909957704
 21
210.777602314134
 31
0.0
  0
LINE
  5
1A1F
330
1D
100
AcDbEntity
  8
0
100
AcDbLine
 10
431.866909957704
 20
210.777602314134
 30
0.0
 11
431.533209957704
 21
209.196702314134
 31
0.0
  0
LINE
  5
1A20
330
1D
100
AcDbEntity
  8
0
100
AcDbLine
 10
431.866809957705
 20
210.777602314134
 30
0.0
 11
431.533109957704
 21
209.196702314134
 31
0.0
  0
LINE
  5
1A21
330
1D
100
AcDbEntity
  8
0
100
AcDbLine
 10
432.250409957705
 20
213.984002314134
 30
0.0
 11
432.106109957704
 21
212.374902314134
 31
0.0
  0
LINE
  5
1A22
330
1D
100
AcDbEntity
  8
0
100
AcDbLine
 10
432.250409957705
 20
213.984102314134
 30
0.0
 11
432.106009957704
 21
212.375002314134
 31
0.0
  0
LINE
  5
1A23
330
1D
100
AcDbEntity
  8
0
100
AcDbLine
 10
426.829009957704
 20
212.483802314134
 30
0.0
 11
426.587809957705
 21
210.921402314134
 31
0.0
  0
LINE
  5
1A24
330
1D
100
AcDbEntity
  8
0
100
AcDbLine
 10
426.829209957705
 20
212.483902314134
 30
0.0
 11
426.587909957704
 21
210.921702314134
 31
0.0
  0
LINE
  5
1A25
330
1D
100
AcDbEntity
  8
0
100
AcDbLine
 10
426.998009957705
 20
214.051302314134
 30
0.0
 11
426.829009957704
 21
212.483802314134
 31
0.0
  0
LINE
  5
1A26
330
1D
100
AcDbEntity
  8
0
100
AcDbLine
 10
426.998109957705
 20
214.051602314134
 30
0.0
 11
426.829209957705
 21
212.483902314134
 31
0.0
  0
LINE
  5
1A27
330
1D
100
AcDbEntity
  8
0
100
AcDbLine
 10
432.127409957704
 20
218.686402314134
 30
0.0
 11
431.928109957704
 21
220.113802314134
 31
0.0
  0
LINE
  5
1A28
330
1D
100
AcDbEntity
  8
0
100
AcDbLine
 10
432.127109957705
 20
218.686602314134
 30
0.0
 11
431.927909957705
 21
220.113902314134
 31
0.0
  0
LINE
  5
1A29
330
1D
100
AcDbEntity
  8
0
100
AcDbLine
 10
432.299609957704
 20
215.620502314134
 30
0.0
 11
432.250809957705
 21
217.250402314134
 31
0.0
  0
LINE
  5
1A2A
330
1D
100
AcDbEntity
  8
0
100
AcDbLine
 10
432.299509957704
 20
215.620502314134
 30
0.0
 11
432.251109957704
 21
217.250202314134
 31
0.0
  0
LINE
  5
1A2B
330
1D
100
AcDbEntity
  8
0
100
AcDbLine
 10
432.251109957704
 20
217.250202314134
 30
0.0
 11
432.127409957704
 21
218.686402314134
 31
0.0
  0
LINE
  5
1A2C
330
1D
100
AcDbEntity
  8
0
100
AcDbLine
 10
432.250809957705
 20
217.250402314134
 30
0.0
 11
432.127109957705
 21
218.686602314134
 31
0.0
  0
LINE
  5
1A2D
330
1D
100
AcDbEntity
  8
0
100
AcDbLine
 10
427.106509957704
 20
217.424902314134
 30
0.0
 11
427.009609957704
 21
219.308402314134
 31
0.0
  0
LINE
  5
1A2E
330
1D
100
AcDbEntity
  8
0
100
AcDbLine
 10
427.106309957705
 20
217.424902314134
 30
0.0
 11
427.009609957704
 21
219.308402314134
 31
0.0
  0
LINE
  5
1A2F
330
1D
100
AcDbEntity
  8
0
100
AcDbLine
 10
427.106309957705
 20
217.424902314134
 30
0.0
 11
427.092609957704
 21
215.620502314134
 31
0.0
  0
LINE
  5
1A30
330
1D
100
AcDbEntity
  8
0
100
AcDbLine
 10
426.609509957705
 20
217.414602314134
 30
0.0
 11
426.596509957704
 21
215.638602314134
 31
0.0
  0
LINE
  5
1A31
330
1D
100
AcDbEntity
  8
0
100
AcDbLine
 10
426.609809957704
 20
217.414502314134
 30
0.0
 11
426.596709957704
 21
215.638102314134
 31
0.0
  0
LINE
  5
1A32
330
1D
100
AcDbEntity
  8
0
100
AcDbLine
 10
430.388309957704
 20
225.659302314134
 30
0.0
 11
429.822709957704
 21
226.985502314134
 31
0.0
  0
LINE
  5
1A33
330
1D
100
AcDbEntity
  8
0
100
AcDbLine
 10
430.388309957704
 20
225.659302314134
 30
0.0
 11
429.822909957704
 21
226.985302314134
 31
0.0
  0
LINE
  5
1A34
330
1D
100
AcDbEntity
  8
0
100
AcDbLine
 10
429.822909957704
 20
226.985302314134
 30
0.0
 11
429.181309957704
 21
228.292702314134
 31
0.0
  0
LINE
  5
1A35
330
1D
100
AcDbEntity
  8
0
100
AcDbLine
 10
429.822709957704
 20
226.985502314134
 30
0.0
 11
429.181609957704
 21
228.292602314134
 31
0.0
  0
LINE
  5
1A36
330
1D
100
AcDbEntity
  8
0
100
AcDbLine
 10
430.882509957705
 20
224.305502314134
 30
0.0
 11
430.388309957704
 21
225.659302314134
 31
0.0
  0
LINE
  5
1A37
330
1D
100
AcDbEntity
  8
0
100
AcDbLine
 10
430.882709957704
 20
224.305402314134
 30
0.0
 11
430.388309957704
 21
225.659302314134
 31
0.0
  0
LINE
  5
1A38
330
1D
100
AcDbEntity
  8
0
100
AcDbLine
 10
427.694109957705
 20
230.795602314134
 30
0.0
 11
426.852009957704
 21
231.984202314134
 31
0.0
  0
LINE
  5
1A39
330
1D
100
AcDbEntity
  8
0
100
AcDbLine
 10
427.693809957705
 20
230.795602314134
 30
0.0
 11
426.852209957705
 21
231.984002314134
 31
0.0
  0
LINE
  5
1A3A
330
1D
100
AcDbEntity
  8
0
100
AcDbLine
 10
428.471009957704
 20
229.564002314134
 30
0.0
 11
427.694109957705
 21
230.795602314134
 31
0.0
  0
LINE
  5
1A3B
330
1D
100
AcDbEntity
  8
0
100
AcDbLine
 10
428.471009957704
 20
229.564002314134
 30
0.0
 11
427.693809957705
 21
230.795602314134
 31
0.0
  0
LINE
  5
1A3C
330
1D
100
AcDbEntity
  8
0
100
AcDbLine
 10
429.181609957704
 20
228.292602314134
 30
0.0
 11
428.471009957704
 21
229.564002314134
 31
0.0
  0
LINE
  5
1A3D
330
1D
100
AcDbEntity
  8
0
100
AcDbLine
 10
429.181309957704
 20
228.292702314134
 30
0.0
 11
428.471009957704
 21
229.564002314134
 31
0.0
  0
LINE
  5
1A3E
330
1D
100
AcDbEntity
  8
0
100
AcDbLine
 10
431.653809957705
 20
221.528802314134
 30
0.0
 11
431.305109957705
 21
222.927302314134
 31
0.0
  0
LINE
  5
1A3F
330
1D
100
AcDbEntity
  8
0
100
AcDbLine
 10
431.653409957705
 20
221.528902314134
 30
0.0
 11
431.304709957705
 21
222.927502314134
 31
0.0
  0
LINE
  5
1A40
330
1D
100
AcDbEntity
  8
0
100
AcDbLine
 10
431.304709957705
 20
222.927502314134
 30
0.0
 11
430.882709957704
 21
224.305402314134
 31
0.0
  0
LINE
  5
1A41
330
1D
100
AcDbEntity
  8
0
100
AcDbLine
 10
431.305109957705
 20
222.927302314134
 30
0.0
 11
430.882509957705
 21
224.305502314134
 31
0.0
  0
LINE
  5
1A42
330
1D
100
AcDbEntity
  8
0
100
AcDbLine
 10
217.1709
 20
208.76365
 30
0.0
 11
216.4186
 21
205.64065
 31
0.0
  0
LINE
  5
1A43
330
1D
100
AcDbEntity
  8
0
100
AcDbLine
 10
217.1705
 20
208.76365
 30
0.0
 11
216.4186
 21
205.64165
 31
0.0
  0
LINE
  5
1A44
330
1D
100
AcDbEntity
  8
0
100
AcDbLine
 10
219.9276
 20
212.36765
 30
0.0
 11
219.1586
 21
207.43365
 31
0.0
  0
LINE
  5
1A45
330
1D
100
AcDbEntity
  8
0
100
AcDbLine
 10
212.5934
 20
208.54365
 30
0.0
 11
211.6306
 21
205.26465
 31
0.0
  0
LINE
  5
1A46
330
1D
100
AcDbEntity
  8
0
100
AcDbLine
 10
201.0063
 20
184.00365
 30
0.0
 11
201.0063
 21
209.82265
 31
0.0
  0
LINE
  5
1A47
330
1D
100
AcDbEntity
  8
0
100
AcDbLine
 10
201.0063
 20
209.82265
 30
0.0
 11
201.0063
 21
184.00365
 31
0.0
  0
LINE
  5
1A48
330
1D
100
AcDbEntity
  8
0
100
AcDbLine
 10
210.5008
 20
194.32165
 30
0.0
 11
208.3652
 21
191.92165
 31
0.0
  0
LINE
  5
1A49
330
1D
100
AcDbEntity
  8
0
100
AcDbLine
 10
210.2808
 20
202.12565
 30
0.0
 11
208.5615
 21
199.17165
 31
0.0
  0
LINE
  5
1A4A
330
1D
100
AcDbEntity
  8
0
100
AcDbLine
 10
210.5005
 20
194.32165
 30
0.0
 11
208.3644
 21
191.92165
 31
0.0
  0
LINE
  5
1A4B
330
1D
100
AcDbEntity
  8
0
100
AcDbLine
 10
209.7661
 20
190.10765
 30
0.0
 11
208.395571772314
 21
188.832217816293
 31
0.0
  0
LINE
  5
1A4C
330
1D
100
AcDbEntity
  8
0
100
AcDbLine
 10
212.3904
 20
196.91865
 30
0.0
 11
210.5008
 21
194.32165
 31
0.0
  0
LINE
  5
1A4D
330
1D
100
AcDbEntity
  8
0
100
AcDbLine
 10
212.3903
 20
196.91865
 30
0.0
 11
210.5005
 21
194.32165
 31
0.0
  0
LINE
  5
1A4E
330
1D
100
AcDbEntity
  8
0
100
AcDbLine
 10
214.0031
 20
195.20465
 30
0.0
 11
212.0362
 21
192.54965
 31
0.0
  0
LINE
  5
1A4F
330
1D
100
AcDbEntity
  8
0
100
AcDbLine
 10
212.0362
 20
192.54965
 30
0.0
 11
209.7661
 21
190.10765
 31
0.0
  0
LINE
  5
1A50
330
1D
100
AcDbEntity
  8
0
100
AcDbLine
 10
215.6836
 20
198.11365
 30
0.0
 11
214.0031
 21
195.20465
 31
0.0
  0
LINE
  5
1A51
330
1D
100
AcDbEntity
  8
0
100
AcDbLine
 10
216.4186
 20
205.64065
 30
0.0
 11
215.3641
 21
202.60565
 31
0.0
  0
LINE
  5
1A52
330
1D
100
AcDbEntity
  8
0
100
AcDbLine
 10
216.4186
 20
205.64165
 30
0.0
 11
215.3635
 21
202.60565
 31
0.0
  0
LINE
  5
1A53
330
1D
100
AcDbEntity
  8
0
100
AcDbLine
 10
218.3185
 20
204.21665
 30
0.0
 11
217.1365
 21
201.10565
 31
0.0
  0
LINE
  5
1A54
330
1D
100
AcDbEntity
  8
0
100
AcDbLine
 10
217.1365
 20
201.10565
 30
0.0
 11
215.6836
 21
198.11365
 31
0.0
  0
LINE
  5
1A55
330
1D
100
AcDbEntity
  8
0
100
AcDbLine
 10
219.1586
 20
207.43365
 30
0.0
 11
218.3185
 21
204.21665
 31
0.0
  0
LINE
  5
1A56
330
1D
100
AcDbEntity
  8
0
100
AcDbLine
 10
215.3641
 20
202.60565
 30
0.0
 11
214.0169
 21
199.68865
 31
0.0
  0
LINE
  5
1A57
330
1D
100
AcDbEntity
  8
0
100
AcDbLine
 10
215.3635
 20
202.60565
 30
0.0
 11
214.0168
 21
199.68965
 31
0.0
  0
LINE
  5
1A58
330
1D
100
AcDbEntity
  8
0
100
AcDbLine
 10
214.0169
 20
199.68865
 30
0.0
 11
212.3904
 21
196.91865
 31
0.0
  0
LINE
  5
1A59
330
1D
100
AcDbEntity
  8
0
100
AcDbLine
 10
214.0168
 20
199.68965
 30
0.0
 11
212.3903
 21
196.91865
 31
0.0
  0
LINE
  5
1A5A
330
1D
100
AcDbEntity
  8
0
100
AcDbLine
 10
211.6306
 20
205.26465
 30
0.0
 11
210.2808
 21
202.12565
 31
0.0
  0
LINE
  5
1A5B
330
1D
100
AcDbEntity
  8
0
100
AcDbLine
 10
200.9984
 20
182.77465
 30
0.0
 11
200.970600160789
 21
172.174596505211
 31
0.0
  0
LINE
  5
1A5C
330
1D
100
AcDbEntity
  8
0
100
AcDbLine
 10
194.3656
 20
181.45065
 30
0.0
 11
190.5521
 21
183.00365
 31
0.0
  0
LINE
  5
1A5D
330
1D
100
AcDbEntity
  8
0
100
AcDbLine
 10
197.2509
 20
179.41365
 30
0.0
 11
194.3656
 21
181.45065
 31
0.0
  0
LINE
  5
1A5E
330
1D
100
AcDbEntity
  8
0
100
AcDbLine
 10
199.1853
 20
177.14765
 30
0.0
 11
197.2509
 21
179.41365
 31
0.0
  0
LINE
  5
1A5F
330
1D
100
AcDbEntity
  8
0
100
AcDbLine
 10
196.3202
 20
192.67065
 30
0.0
 11
194.411
 21
193.91965
 31
0.0
  0
LINE
  5
1A60
330
1D
100
AcDbEntity
  8
0
100
AcDbLine
 10
206.4994
 20
196.44665
 30
0.0
 11
204.1229
 21
193.99065
 31
0.0
  0
LINE
  5
1A61
330
1D
100
AcDbEntity
  8
0
100
AcDbLine
 10
204.6065
 20
185.85865
 30
0.0
 11
201.7589
 21
184.18865
 31
0.0
  0
LINE
  5
1A62
330
1D
100
AcDbEntity
  8
0
100
AcDbLine
 10
203.4412
 20
187.80565
 30
0.0
 11
201.0063
 21
186.315493332603
 31
0.0
  0
LINE
  5
1A63
330
1D
100
AcDbEntity
  8
0
100
AcDbLine
 10
204.1229
 20
193.99065
 30
0.0
 11
201.4684
 21
191.83865
 31
0.0
  0
LINE
  5
1A64
330
1D
100
AcDbEntity
  8
0
100
AcDbLine
 10
203.4413
 20
187.80565
 30
0.0
 11
201.0063
 21
186.315432132691
 31
0.0
  0
LINE
  5
1A65
330
1D
100
AcDbEntity
  8
0
100
AcDbLine
 10
207.3247
 20
187.83565
 30
0.0
 11
204.6065
 21
185.85865
 31
0.0
  0
LINE
  5
1A66
330
1D
100
AcDbEntity
  8
0
100
AcDbLine
 10
206.0041
 20
189.74165
 30
0.0
 11
203.4413
 21
187.80565
 31
0.0
  0
LINE
  5
1A67
330
1D
100
AcDbEntity
  8
0
100
AcDbLine
 10
206.0041
 20
189.74165
 30
0.0
 11
203.4412
 21
187.80565
 31
0.0
  0
LINE
  5
1A68
330
1D
100
AcDbEntity
  8
0
100
AcDbLine
 10
208.395571772314
 20
188.832217816293
 30
0.0
 11
207.3247
 21
187.83565
 31
0.0
  0
LINE
  5
1A69
330
1D
100
AcDbEntity
  8
0
100
AcDbLine
 10
208.3652
 20
191.92165
 30
0.0
 11
206.0041
 21
189.74165
 31
0.0
  0
LINE
  5
1A6A
330
1D
100
AcDbEntity
  8
0
100
AcDbLine
 10
208.3644
 20
191.92165
 30
0.0
 11
206.0041
 21
189.74165
 31
0.0
  0
LINE
  5
1A6B
330
1D
100
AcDbEntity
  8
0
100
AcDbLine
 10
200.2231
 20
187.79065
 30
0.0
 11
199.2626
 21
189.56765
 31
0.0
  0
LINE
  5
1A6C
330
1D
100
AcDbEntity
  8
0
100
AcDbLine
 10
200.929527978756
 20
184.75147502401
 30
0.0
 11
200.8095
 21
185.92065
 31
0.0
  0
LINE
  5
1A6D
330
1D
100
AcDbEntity
  8
0
100
AcDbLine
 10
201.0153
 20
182.77665
 30
0.0
 11
200.9657
 21
184.58465
 31
0.0
  0
LINE
  5
1A6E
330
1D
100
AcDbEntity
  8
0
100
AcDbLine
 10
201.0153
 20
182.77665
 30
0.0
 11
200.99579114176
 21
182.668756902157
 31
0.0
  0
LINE
  5
1A6F
330
1D
100
AcDbEntity
  8
0
100
AcDbLine
 10
201.0063
 20
184.00365
 30
0.0
 11
200.986839348712
 21
183.814086643708
 31
0.0
  0
LINE
  5
1A70
330
1D
100
AcDbEntity
  8
0
100
AcDbLine
 10
201.7614
 20
184.19065
 30
0.0
 11
200.986873246395
 21
183.812851018518
 31
0.0
  0
LINE
  5
1A71
330
1D
100
AcDbEntity
  8
0
100
AcDbLine
 10
200.8095
 20
185.92065
 30
0.0
 11
200.2231
 21
187.79065
 31
0.0
  0
LINE
  5
1A72
330
1D
100
AcDbEntity
  8
0
100
AcDbLine
 10
201.4684
 20
191.83865
 30
0.0
 11
201.0063
 21
191.548580318524
 31
0.0
  0
LINE
  5
1A73
330
1D
100
AcDbEntity
  8
0
100
AcDbLine
 10
199.2626
 20
189.56765
 30
0.0
 11
197.9506
 21
191.20765
 31
0.0
  0
LINE
  5
1A74
330
1D
100
AcDbEntity
  8
0
100
AcDbLine
 10
197.9506
 20
191.20765
 30
0.0
 11
196.3202
 21
192.67065
 31
0.0
  0
LINE
  5
1A75
330
1D
100
AcDbEntity
  8
0
100
AcDbLine
 10
208.5615
 20
199.17165
 30
0.0
 11
206.4994
 21
196.44665
 31
0.0
  0
LINE
  5
1A76
330
1D
100
AcDbEntity
  8
0
100
AcDbLine
 10
194.411
 20
193.91965
 30
0.0
 11
192.2703
 21
194.92465
 31
0.0
  0
LINE
  5
1A77
330
1D
100
AcDbEntity
  8
0
100
AcDbLine
 10
190.5521
 20
183.00365
 30
0.0
 11
186.7267
 21
183.69765
 31
0.0
  0
LINE
  5
1A78
330
1D
100
AcDbEntity
  8
0
100
AcDbLine
 10
192.2703
 20
194.92465
 30
0.0
 11
189.9505
 21
195.66065
 31
0.0
  0
LINE
  5
1A79
330
1D
100
AcDbEntity
  8
0
100
AcDbLine
 10
189.9505
 20
195.66065
 30
0.0
 11
187.509
 21
196.10965
 31
0.0
  0
LINE
  5
1A7A
330
1D
100
AcDbEntity
  8
0
100
AcDbLine
 10
210.1218
 20
235.85465
 30
0.0
 11
207.9425
 21
238.21465
 31
0.0
  0
LINE
  5
1A7B
330
1D
100
AcDbEntity
  8
0
100
AcDbLine
 10
210.1214
 20
235.85565
 30
0.0
 11
207.9423
 21
238.21565
 31
0.0
  0
LINE
  5
1A7C
330
1D
100
AcDbEntity
  8
0
100
AcDbLine
 10
210.9343
 20
238.43765
 30
0.0
 11
207.6285
 21
241.58965
 31
0.0
  0
LINE
  5
1A7D
330
1D
100
AcDbEntity
  8
0
100
AcDbLine
 10
209.8421
 20
228.42465
 30
0.0
 11
208.0252
 21
231.31965
 31
0.0
  0
LINE
  5
1A7E
330
1D
100
AcDbEntity
  8
0
100
AcDbLine
 10
214.8745
 20
233.07065
 30
0.0
 11
213.0279
 21
235.84265
 31
0.0
  0
LINE
  5
1A7F
330
1D
100
AcDbEntity
  8
0
100
AcDbLine
 10
212.0586
 20
233.29265
 30
0.0
 11
210.1218
 21
235.85465
 31
0.0
  0
LINE
  5
1A80
330
1D
100
AcDbEntity
  8
0
100
AcDbLine
 10
212.0582
 20
233.29265
 30
0.0
 11
210.1214
 21
235.85565
 31
0.0
  0
LINE
  5
1A81
330
1D
100
AcDbEntity
  8
0
100
AcDbLine
 10
219.7682
 20
219.01765
 30
0.0
 11
218.4184
 21
225.20865
 31
0.0
  0
LINE
  5
1A82
330
1D
100
AcDbEntity
  8
0
100
AcDbLine
 10
217.5545
 20
218.36365
 30
0.0
 11
217.0542
 21
221.53565
 31
0.0
  0
LINE
  5
1A83
330
1D
100
AcDbEntity
  8
0
100
AcDbLine
 10
217.5542
 20
218.36365
 30
0.0
 11
217.054
 21
221.53665
 31
0.0
  0
LINE
  5
1A84
330
1D
100
AcDbEntity
  8
0
100
AcDbLine
 10
213.039
 20
218.73665
 30
0.0
 11
212.3671
 21
222.08765
 31
0.0
  0
LINE
  5
1A85
330
1D
100
AcDbEntity
  8
0
100
AcDbLine
 10
217.6129
 20
211.94565
 30
0.0
 11
217.1705
 21
208.76365
 31
0.0
  0
LINE
  5
1A86
330
1D
100
AcDbEntity
  8
0
100
AcDbLine
 10
217.6129
 20
211.94565
 30
0.0
 11
217.1709
 21
208.76365
 31
0.0
  0
LINE
  5
1A87
330
1D
100
AcDbEntity
  8
0
100
AcDbLine
 10
217.7414
 20
215.15565
 30
0.0
 11
217.6129
 21
211.94565
 31
0.0
  0
LINE
  5
1A88
330
1D
100
AcDbEntity
  8
0
100
AcDbLine
 10
217.7414
 20
215.15565
 30
0.0
 11
217.5545
 21
218.36365
 31
0.0
  0
LINE
  5
1A89
330
1D
100
AcDbEntity
  8
0
100
AcDbLine
 10
217.741
 20
215.15665
 30
0.0
 11
217.5542
 21
218.36365
 31
0.0
  0
LINE
  5
1A8A
330
1D
100
AcDbEntity
  8
0
100
AcDbLine
 10
217.741
 20
215.15665
 30
0.0
 11
217.6129
 21
211.94565
 31
0.0
  0
LINE
  5
1A8B
330
1D
100
AcDbEntity
  8
0
100
AcDbLine
 10
219.9276
 20
212.36765
 30
0.0
 11
219.7682
 21
219.01765
 31
0.0
  0
LINE
  5
1A8C
330
1D
100
AcDbEntity
  8
0
100
AcDbLine
 10
213.153
 20
211.91465
 30
0.0
 11
212.5934
 21
208.54365
 31
0.0
  0
LINE
  5
1A8D
330
1D
100
AcDbEntity
  8
0
100
AcDbLine
 10
213.3023
 20
215.32965
 30
0.0
 11
213.039
 21
218.73665
 31
0.0
  0
LINE
  5
1A8E
330
1D
100
AcDbEntity
  8
0
100
AcDbLine
 10
213.3023
 20
215.32965
 30
0.0
 11
213.153
 21
211.91465
 31
0.0
  0
LINE
  5
1A8F
330
1D
100
AcDbEntity
  8
0
100
AcDbLine
 10
216.245
 20
224.64465
 30
0.0
 11
215.135
 21
227.66065
 31
0.0
  0
LINE
  5
1A90
330
1D
100
AcDbEntity
  8
0
100
AcDbLine
 10
216.2451
 20
224.64565
 30
0.0
 11
215.1352
 21
227.66065
 31
0.0
  0
LINE
  5
1A91
330
1D
100
AcDbEntity
  8
0
100
AcDbLine
 10
216.4703
 20
230.14965
 30
0.0
 11
214.8745
 21
233.07065
 31
0.0
  0
LINE
  5
1A92
330
1D
100
AcDbEntity
  8
0
100
AcDbLine
 10
217.0542
 20
221.53565
 30
0.0
 11
216.245
 21
224.64465
 31
0.0
  0
LINE
  5
1A93
330
1D
100
AcDbEntity
  8
0
100
AcDbLine
 10
217.054
 20
221.53665
 30
0.0
 11
216.2451
 21
224.64565
 31
0.0
  0
LINE
  5
1A94
330
1D
100
AcDbEntity
  8
0
100
AcDbLine
 10
218.4184
 20
225.20865
 30
0.0
 11
217.1671
 21
228.66565
 31
0.0
  0
LINE
  5
1A95
330
1D
100
AcDbEntity
  8
0
100
AcDbLine
 10
217.1671
 20
228.66565
 30
0.0
 11
216.4703
 21
230.14965
 31
0.0
  0
LINE
  5
1A96
330
1D
100
AcDbEntity
  8
0
100
AcDbLine
 10
215.135
 20
227.66065
 30
0.0
 11
213.7354
 21
230.55165
 31
0.0
  0
LINE
  5
1A97
330
1D
100
AcDbEntity
  8
0
100
AcDbLine
 10
215.1352
 20
227.66065
 30
0.0
 11
213.7347
 21
230.55165
 31
0.0
  0
LINE
  5
1A98
330
1D
100
AcDbEntity
  8
0
100
AcDbLine
 10
213.7354
 20
230.55165
 30
0.0
 11
212.0586
 21
233.29265
 31
0.0
  0
LINE
  5
1A99
330
1D
100
AcDbEntity
  8
0
100
AcDbLine
 10
213.7347
 20
230.55165
 30
0.0
 11
212.0582
 21
233.29265
 31
0.0
  0
LINE
  5
1A9A
330
1D
100
AcDbEntity
  8
0
100
AcDbLine
 10
211.2964
 20
225.33265
 30
0.0
 11
209.8421
 21
228.42465
 31
0.0
  0
LINE
  5
1A9B
330
1D
100
AcDbEntity
  8
0
100
AcDbLine
 10
212.3671
 20
222.08765
 30
0.0
 11
211.2964
 21
225.33265
 31
0.0
  0
LINE
  5
1A9C
330
1D
100
AcDbEntity
  8
0
100
AcDbLine
 10
213.0279
 20
235.84265
 30
0.0
 11
210.9343
 21
238.43765
 31
0.0
  0
LINE
  5
1A9D
330
1D
100
AcDbEntity
  8
0
100
AcDbLine
 10
208.0252
 20
231.31965
 30
0.0
 11
205.8733
 21
233.97365
 31
0.0
  0
LINE
  5
1A9E
330
1D
100
AcDbEntity
  8
0
100
AcDbLine
 10
196.5638
 20
224.26565
 30
0.0
 11
195.3025
 21
225.80965
 31
0.0
  0
LINE
  5
1A9F
330
1D
100
AcDbEntity
  8
0
100
AcDbLine
 10
196.5643
 20
224.26565
 30
0.0
 11
195.3021
 21
225.80965
 31
0.0
  0
LINE
  5
1AA0
330
1D
100
AcDbEntity
  8
0
100
AcDbLine
 10
198.6975
 20
220.63165
 30
0.0
 11
197.662555459479
 21
222.501511631519
 31
0.0
  0
LINE
  5
1AA1
330
1D
100
AcDbEntity
  8
0
100
AcDbLine
 10
200.9155
 20
212.04465
 30
0.0
 11
200.2219
 21
216.58565
 31
0.0
  0
LINE
  5
1AA2
330
1D
100
AcDbEntity
  8
0
100
AcDbLine
 10
201.0063
 20
209.82265
 30
0.0
 11
200.9965
 21
210.56165
 31
0.0
  0
LINE
  5
1AA3
330
1D
100
AcDbEntity
  8
0
100
AcDbLine
 10
200.9965
 20
210.56165
 30
0.0
 11
200.9155
 21
212.04465
 31
0.0
  0
LINE
  5
1AA4
330
1D
100
AcDbEntity
  8
0
100
AcDbLine
 10
200.2219
 20
216.58565
 30
0.0
 11
198.6977
 21
220.63165
 31
0.0
  0
LINE
  5
1AA5
330
1D
100
AcDbEntity
  8
0
100
AcDbLine
 10
197.662555459479
 20
222.501511631519
 30
0.0
 11
196.5638
 21
224.26565
 31
0.0
  0
LINE
  5
1AA6
330
1D
100
AcDbEntity
  8
0
100
AcDbLine
 10
195.3021
 20
225.80965
 30
0.0
 11
193.8792
 21
227.20365
 31
0.0
  0
LINE
  5
1AA7
330
1D
100
AcDbEntity
  8
0
100
AcDbLine
 10
195.3025
 20
225.80965
 30
0.0
 11
193.8791
 21
227.20365
 31
0.0
  0
LINE
  5
1AA8
330
1D
100
AcDbEntity
  8
0
100
AcDbLine
 10
193.8791
 20
227.20365
 30
0.0
 11
192.3377
 21
228.38765
 31
0.0
  0
LINE
  5
1AA9
330
1D
100
AcDbEntity
  8
0
100
AcDbLine
 10
192.3377
 20
228.38765
 30
0.0
 11
191.434838150679
 21
228.912066762779
 31
0.0
  0
LINE
  5
1AAA
330
1D
100
AcDbEntity
  8
0
100
AcDbLine
 10
188.879
 20
230.08765
 30
0.0
 11
188.04734334055
 21
230.30088192936
 31
0.0
  0
LINE
  5
1AAB
330
1D
100
AcDbEntity
  8
0
100
AcDbLine
 10
190.6677
 20
229.35765
 30
0.0
 11
188.879
 21
230.08765
 31
0.0
  0
LINE
  5
1AAC
330
1D
100
AcDbEntity
  8
0
100
AcDbLine
 10
191.425010031165
 20
228.91777531124
 30
0.0
 11
190.6677
 21
229.35765
 31
0.0
  0
LINE
  5
1AAD
330
1D
100
AcDbEntity
  8
0
100
AcDbLine
 10
188.038718675446
 20
230.303093243319
 30
0.0
 11
187.2838
 21
230.49665
 31
0.0
  0
LINE
  5
1AAE
330
1D
100
AcDbEntity
  8
0
100
AcDbLine
 10
197.7379
 20
240.13165
 30
0.0
 11
194.5989
 21
241.48165
 31
0.0
  0
LINE
  5
1AAF
330
1D
100
AcDbEntity
  8
0
100
AcDbLine
 10
197.2575
 20
245.21465
 30
0.0
 11
194.2232
 21
246.26965
 31
0.0
  0
LINE
  5
1AB0
330
1D
100
AcDbEntity
  8
0
100
AcDbLine
 10
197.2573
 20
245.21465
 30
0.0
 11
194.2232
 21
246.26865
 31
0.0
  0
LINE
  5
1AB1
330
1D
100
AcDbEntity
  8
0
100
AcDbLine
 10
197.2097
 20
247.69165
 30
0.0
 11
194.0603
 21
248.67365
 31
0.0
  0
LINE
  5
1AB2
330
1D
100
AcDbEntity
  8
0
100
AcDbLine
 10
200.2708
 20
246.29665
 30
0.0
 11
197.2097
 21
247.69165
 31
0.0
  0
LINE
  5
1AB3
330
1D
100
AcDbEntity
  8
0
100
AcDbLine
 10
203.4166
 20
236.35065
 30
0.0
 11
200.6921
 21
238.41265
 31
0.0
  0
LINE
  5
1AB4
330
1D
100
AcDbEntity
  8
0
100
AcDbLine
 10
202.9447
 20
242.24165
 30
0.0
 11
200.1742
 21
243.86765
 31
0.0
  0
LINE
  5
1AB5
330
1D
100
AcDbEntity
  8
0
100
AcDbLine
 10
202.9441
 20
242.24165
 30
0.0
 11
200.1742
 21
243.86765
 31
0.0
  0
LINE
  5
1AB6
330
1D
100
AcDbEntity
  8
0
100
AcDbLine
 10
203.2573
 20
244.75665
 30
0.0
 11
200.2708
 21
246.29665
 31
0.0
  0
LINE
  5
1AB7
330
1D
100
AcDbEntity
  8
0
100
AcDbLine
 10
207.9425
 20
238.21465
 30
0.0
 11
205.5422
 21
240.35065
 31
0.0
  0
LINE
  5
1AB8
330
1D
100
AcDbEntity
  8
0
100
AcDbLine
 10
205.8733
 20
233.97365
 30
0.0
 11
203.4166
 21
236.35065
 31
0.0
  0
LINE
  5
1AB9
330
1D
100
AcDbEntity
  8
0
100
AcDbLine
 10
207.9423
 20
238.21565
 30
0.0
 11
205.5421
 21
240.35065
 31
0.0
  0
LINE
  5
1ABA
330
1D
100
AcDbEntity
  8
0
100
AcDbLine
 10
205.5422
 20
240.35065
 30
0.0
 11
202.9447
 21
242.24165
 31
0.0
  0
LINE
  5
1ABB
330
1D
100
AcDbEntity
  8
0
100
AcDbLine
 10
205.5421
 20
240.35065
 30
0.0
 11
202.9441
 21
242.24165
 31
0.0
  0
LINE
  5
1ABC
330
1D
100
AcDbEntity
  8
0
100
AcDbLine
 10
207.6285
 20
241.58965
 30
0.0
 11
206.003
 21
242.91865
 31
0.0
  0
LINE
  5
1ABD
330
1D
100
AcDbEntity
  8
0
100
AcDbLine
 10
206.003
 20
242.91865
 30
0.0
 11
203.2573
 21
244.75665
 31
0.0
  0
LINE
  5
1ABE
330
1D
100
AcDbEntity
  8
0
100
AcDbLine
 10
200.6921
 20
238.41265
 30
0.0
 11
197.7379
 21
240.13165
 31
0.0
  0
LINE
  5
1ABF
330
1D
100
AcDbEntity
  8
0
100
AcDbLine
 10
200.1742
 20
243.86765
 30
0.0
 11
197.2573
 21
245.21465
 31
0.0
  0
LINE
  5
1AC0
330
1D
100
AcDbEntity
  8
0
100
AcDbLine
 10
200.1742
 20
243.86765
 30
0.0
 11
197.2575
 21
245.21465
 31
0.0
  0
LINE
  5
1AC1
330
1D
100
AcDbEntity
  8
0
100
AcDbLine
 10
194.2232
 20
246.26965
 30
0.0
 11
191.0995
 21
247.02065
 31
0.0
  0
LINE
  5
1AC2
330
1D
100
AcDbEntity
  8
0
100
AcDbLine
 10
194.2232
 20
246.26865
 30
0.0
 11
191.0992
 21
247.02065
 31
0.0
  0
LINE
  5
1AC3
330
1D
100
AcDbEntity
  8
0
100
AcDbLine
 10
191.3201
 20
242.44465
 30
0.0
 11
187.9488
 21
243.00365
 31
0.0
  0
LINE
  5
1AC4
330
1D
100
AcDbEntity
  8
0
100
AcDbLine
 10
194.5989
 20
241.48165
 30
0.0
 11
191.3201
 21
242.44465
 31
0.0
  0
LINE
  5
1AC5
330
1D
100
AcDbEntity
  8
0
100
AcDbLine
 10
191.0995
 20
247.02065
 30
0.0
 11
187.9182
 21
247.46365
 31
0.0
  0
LINE
  5
1AC6
330
1D
100
AcDbEntity
  8
0
100
AcDbLine
 10
191.0992
 20
247.02065
 30
0.0
 11
187.9174
 21
247.46365
 31
0.0
  0
LINE
  5
1AC7
330
1D
100
AcDbEntity
  8
0
100
AcDbLine
 10
192.442
 20
249.08165
 30
0.0
 11
190.0355
 21
249.52265
 31
0.0
  0
LINE
  5
1AC8
330
1D
100
AcDbEntity
  8
0
100
AcDbLine
 10
194.0603
 20
248.67365
 30
0.0
 11
192.442
 21
249.08165
 31
0.0
  0
LINE
  5
1AC9
330
1D
100
AcDbEntity
  8
0
100
AcDbLine
 10
181.928
 20
177.72765
 30
0.0
 11
183.911060222639
 21
178.034403706968
 31
0.0
  0
LINE
  5
1ACA
330
1D
100
AcDbEntity
  8
0
100
AcDbLine
 10
183.911060222639
 20
178.034403706968
 30
0.0
 11
185.450918119073
 21
178.034403706968
 31
0.0
  0
LINE
  5
1ACB
330
1D
100
AcDbEntity
  8
0
100
AcDbLine
 10
185.450918119073
 20
178.034403706968
 30
0.0
 11
187.375740489616
 21
177.64943923286
 31
0.0
  0
LINE
  5
1ACC
330
1D
100
AcDbEntity
  8
0
100
AcDbLine
 10
187.375740489616
 20
177.64943923286
 30
0.0
 11
190.350448365177
 21
176.844984391422
 31
0.0
  0
LINE
  5
1ACD
330
1D
100
AcDbEntity
  8
0
100
AcDbLine
 10
190.350448365177
 20
176.844984391422
 30
0.0
 11
192.339103913621
 21
176.026126224415
 31
0.0
  0
LINE
  5
1ACE
330
1D
100
AcDbEntity
  8
0
100
AcDbLine
 10
192.339103913621
 20
176.026126224415
 30
0.0
 11
193.448
 21
175.42365
 31
0.0
  0
LINE
  5
1ACF
330
1D
100
AcDbEntity
  8
0
100
AcDbLine
 10
183.2533
 20
183.69765
 30
0.0
 11
184.961635072432
 21
183.861186900671
 31
0.0
  0
LINE
  5
1AD0
330
1D
100
AcDbEntity
  8
0
100
AcDbLine
 10
184.961635072432
 20
183.861186900671
 30
0.0
 11
186.7267
 21
183.69765
 31
0.0
  0
LINE
  5
1AD1
330
1D
100
AcDbEntity
  8
0
100
AcDbLine
 10
182.471
 20
196.10965
 30
0.0
 11
185.039749273005
 21
196.303060903033
 31
0.0
  0
LINE
  5
1AD2
330
1D
100
AcDbEntity
  8
0
100
AcDbLine
 10
185.039749273005
 20
196.303060903033
 30
0.0
 11
187.509
 21
196.10965
 31
0.0
  0
LINE
  5
1AD3
330
1D
100
AcDbEntity
  8
0
100
AcDbLine
 10
182.6962
 20
230.49665
 30
0.0
 11
185.096188258384
 21
230.739801774585
 31
0.0
  0
LINE
  5
1AD4
330
1D
100
AcDbEntity
  8
0
100
AcDbLine
 10
185.096188258384
 20
230.739801774585
 30
0.0
 11
187.2838
 21
230.49665
 31
0.0
  0
LINE
  5
1AD5
330
1D
100
AcDbEntity
  8
0
100
AcDbLine
 10
182.0312
 20
243.00365
 30
0.0
 11
185.216996496178
 21
243.282295742755
 31
0.0
  0
LINE
  5
1AD6
330
1D
100
AcDbEntity
  8
0
100
AcDbLine
 10
185.216996496178
 20
243.282295742755
 30
0.0
 11
187.9488
 21
243.00365
 31
0.0
  0
LINE
  5
1AD7
330
1D
100
AcDbEntity
  8
0
100
AcDbLine
 10
182.0626
 20
247.46365
 30
0.0
 11
185.031450571759
 21
247.673020017464
 31
0.0
  0
LINE
  5
1AD8
330
1D
100
AcDbEntity
  8
0
100
AcDbLine
 10
185.031450571759
 20
247.673020017464
 30
0.0
 11
187.9182
 21
247.46365
 31
0.0
  0
LINE
  5
1AD9
330
1D
100
AcDbEntity
  8
0
100
AcDbLine
 10
179.9445
 20
249.52265
 30
0.0
 11
184.557768244975
 21
249.786010121667
 31
0.0
  0
LINE
  5
1ADA
330
1D
100
AcDbEntity
  8
0
100
AcDbLine
 10
184.557768244975
 20
249.786010121667
 30
0.0
 11
190.0355
 21
249.52265
 31
0.0
  0
LINE
  5
1ADB
330
1D
100
AcDbEntity
  8
0
100
AcDbLine
 10
200.008
 20
175.70565
 30
0.0
 11
199.1853
 21
177.14765
 31
0.0
  0
LINE
  5
1ADC
330
1D
100
AcDbEntity
  8
0
100
AcDbLine
 10
492.827
 20
28.42075
 30
0.0
 11
494.278174124792
 21
20.759749534634
 31
0.0
  0
LINE
  5
1ADD
330
1D
100
AcDbEntity
  8
0
100
AcDbLine
 10
494.278174124792
 20
20.759749534634
 30
0.0
 11
495.235152584209
 21
18.34279255437
 31
0.0
  0
LINE
  5
1ADE
330
1D
100
AcDbEntity
  8
0
100
AcDbLine
 10
495.235152584209
 20
18.34279255437
 30
0.0
 11
496.2078046367
 21
16.647598977172
 31
0.0
  0
LINE
  5
1ADF
330
1D
100
AcDbEntity
  8
0
100
AcDbLine
 10
496.2078046367
 20
16.647598977172
 30
0.0
 11
497.152666630548
 21
15.397046338255
 31
0.0
  0
LINE
  5
1AE0
330
1D
100
AcDbEntity
  8
0
100
AcDbLine
 10
497.152666630548
 20
15.397046338255
 30
0.0
 11
498.375429210822
 21
14.202073816623
 31
0.0
  0
LINE
  5
1AE1
330
1D
100
AcDbEntity
  8
0
100
AcDbLine
 10
498.375429210822
 20
14.202073816623
 30
0.0
 11
499.205
 21
13.58035
 31
0.0
  0
LINE
  5
1AE2
330
1D
100
AcDbEntity
  8
0
100
AcDbLine
 10
529.356
 20
22.64875
 30
0.0
 11
529.397
 21
40.22975
 31
0.0
  0
LINE
  5
1AE3
330
1D
100
AcDbEntity
  8
0
100
AcDbLine
 10
487.782895922551
 20
71.715353824067
 30
0.0
 11
485.468
 21
91.56085
 31
0.0
  0
LINE
  5
1AE4
330
1D
100
AcDbEntity
  8
0
100
AcDbLine
 10
537.618920214956
 20
188.109809570063
 30
0.0
 11
540.91048562764
 21
191.698772826463
 31
0.0
  0
LINE
  5
1AE5
330
1D
100
AcDbEntity
  8
0
100
AcDbLine
 10
540.91048562764
 20
191.698772826463
 30
0.0
 11
543.499626615491
 21
195.274253238257
 31
0.0
  0
LINE
  5
1AE6
330
1D
100
AcDbEntity
  8
0
100
AcDbLine
 10
543.499626615491
 20
195.274253238257
 30
0.0
 11
545.903828961353
 21
199.92854239499
 31
0.0
  0
LINE
  5
1AE7
330
1D
100
AcDbEntity
  8
0
100
AcDbLine
 10
545.903828961353
 20
199.92854239499
 30
0.0
 11
548.284233308477
 21
206.213424779995
 31
0.0
  0
LINE
  5
1AE8
330
1D
100
AcDbEntity
  8
0
100
AcDbLine
 10
548.284233308477
 20
206.213424779995
 30
0.0
 11
549.558494441422
 21
210.860730088384
 31
0.0
  0
LINE
  5
1AE9
330
1D
100
AcDbEntity
  8
0
100
AcDbLine
 10
549.558494441422
 20
210.860730088384
 30
0.0
 11
549.933277127582
 21
213.684092990792
 31
0.0
  0
LINE
  5
1AEA
330
1D
100
AcDbEntity
  8
0
100
AcDbLine
 10
549.933277127582
 20
213.684092990792
 30
0.0
 11
549.98
 21
215.58865
 31
0.0
  0
LINE
  5
1AEB
330
1D
100
AcDbEntity
  8
0
100
AcDbLine
 10
536.273
 20
198.67165
 30
0.0
 11
538.675563821654
 21
199.311195350155
 31
0.0
  0
LINE
  5
1AEC
330
1D
100
AcDbEntity
  8
0
100
AcDbLine
 10
538.675563821654
 20
199.311195350155
 30
0.0
 11
539.836104686114
 21
199.725410396822
 31
0.0
  0
LINE
  5
1AED
330
1D
100
AcDbEntity
  8
0
100
AcDbLine
 10
497.328
 20
218.06065
 30
0.0
 11
503.305
 21
222.887688056749
 31
0.0
  0
LINE
  5
1AEE
330
1D
100
AcDbEntity
  8
0
100
AcDbLine
 10
503.305
 20
222.887688056749
 30
0.0
 11
507.569
 21
225.97165
 31
0.0
  0
LINE
  5
1AEF
330
1D
100
AcDbEntity
  8
0
100
AcDbLine
 10
511.667
 20
227.24165
 30
0.0
 11
512.966030675639
 21
229.706342427051
 31
0.0
  0
LINE
  5
1AF0
330
1D
100
AcDbEntity
  8
0
100
AcDbLine
 10
512.966030675639
 20
229.706342427051
 30
0.0
 11
513.453060143808
 21
230.718431136151
 31
0.0
  0
LINE
  5
1AF1
330
1D
100
AcDbEntity
  8
0
100
AcDbLine
 10
512.253345365555
 20
238.562144624831
 30
0.0
 11
512.493
 21
236.44665
 31
0.0
  0
LINE
  5
1AF2
330
1D
100
AcDbEntity
  8
0
100
AcDbLine
 10
541.984
 20
237.04165
 30
0.0
 11
540.809963868225
 21
238.333613868226
 31
0.0
  0
LINE
  5
1AF3
330
1D
100
AcDbEntity
  8
0
100
AcDbLine
 10
543.12485585587
 20
235.516505855837
 30
0.0
 11
541.984
 21
237.04165
 31
0.0
  0
ENDSEC
  0
SECTION
  2
OBJECTS
  0
DICTIONARY
  5
C
330
0
100
AcDbDictionary
281
     1
  3
ACAD_GROUP
350
D
  3
ACAD_LAYOUT
350
1A
  3
ACAD_MLEADERSTYLE
350
1AF6
  3
ACAD_MLINESTYLE
350
17
  3
ACAD_PLOTSETTINGS
350
19
  3
ACAD_PLOTSTYLENAME
350
E
  3
ACAD_SCALELIST
350
CC1
  3
AcDbVariableDictionary
350
1AF4
  3
DWGPROPS
350
1AF9
  0
DICTIONARY
  5
D
102
{ACAD_REACTORS
330
C
102
}
330
C
100
AcDbDictionary
281
     1
  0
DICTIONARY
  5
1A
102
{ACAD_REACTORS
330
C
102
}
330
C
100
AcDbDictionary
281
     1
  3
Layout1
350
1C
  3
Model
350
1E
  0
DICTIONARY
  5
1AF6
102
{ACAD_REACTORS
330
C
102
}
330
C
100
AcDbDictionary
281
     1
  0
DICTIONARY
  5
17
102
{ACAD_REACTORS
330
C
102
}
330
C
100
AcDbDictionary
281
     1
  3
Standard
350
18
  0
DICTIONARY
  5
19
102
{ACAD_REACTORS
330
C
102
}
330
C
100
AcDbDictionary
281
     1
  0
ACDBDICTIONARYWDFLT
  5
E
102
{ACAD_REACTORS
330
C
102
}
330
C
100
AcDbDictionary
281
     1
  3
Normal
350
F
100
AcDbDictionaryWithDefault
340
F
  0
DICTIONARY
  5
CC1
102
{ACAD_REACTORS
330
C
102
}
330
C
100
AcDbDictionary
281
     1
  3
A0
350
CC2
  3
A1
350
CC3
  3
A2
350
CC4
  3
A3
350
CC5
  3
A4
350
CC6
  3
A5
350
CC7
  3
A6
350
CC8
  3
A7
350
CC9
  3
A8
350
CCA
  3
A9
350
CCB
  3
B0
350
CCC
  3
B1
350
CCD
  3
B2
350
CCE
  3
B3
350
CCF
  3
B4
350
CD0
  3
B5
350
CD1
  3
B6
350
CD2
  3
B7
350
CD3
  3
B8
350
CD4
  3
B9
350
CD5
  3
C0
350
CD6
  3
C1
350
CD7
  3
C2
350
CD8
  3
C3
350
CD9
  3
C4
350
CDA
  3
C5
350
CDB
  3
C6
350
CDC
  3
C7
350
CDD
  3
C8
350
CDE
  3
C9
350
CDF
  3
D0
350
CE0
  3
D1
350
CE1
  3
D2
350
CE2
  0
DICTIONARY
  5
1AF4
102
{ACAD_REACTORS
330
C
102
}
330
C
100
AcDbDictionary
281
     1
  3
CANNOSCALE
350
1AF7
  0
XRECORD
  5
1AF9
102
{ACAD_REACTORS
330
C
102
}
330
C
100
AcDbXrecord
280
     1
  1
DWGPROPS COOKIE
  2

  3

  4

  6

  7

  8
MARTIN
  9

300
=
301
=
302
=
303
=
304
=
305
=
306
=
307
=
308
=
309
=
 40
0.0
 41
2456184.831501806
 42
2456184.83252412
  1

 90
        0
  0
LAYOUT
  5
1C
102
{ACAD_REACTORS
330
1A
102
}
330
1A
100
AcDbPlotSettings
  1

  2
none_device
  4

  6

 40
0.0
 41
0.0
 42
0.0
 43
0.0
 44
0.0
 45
0.0
 46
0.0
 47
0.0
 48
0.0
 49
0.0
140
0.0
141
0.0
142
1.0
143
1.0
 70
   688
 72
     0
 73
     0
 74
     5
  7

 75
    16
147
1.0
148
0.0
149
0.0
100
AcDbLayout
  1
Layout1
 70
     1
 71
     1
 10
0.0
 20
0.0
 11
12.0
 21
9.0
 12
0.0
 22
0.0
 32
0.0
 14
1.000000000000E+20
 24
1.000000000000E+20
 34
1.000000000000E+20
 15
-1.000000000000E+20
 25
-1.000000000000E+20
 35
-1.000000000000E+20
146
0.0
 13
0.0
 23
0.0
 33
0.0
 16
1.0
 26
0.0
 36
0.0
 17
0.0
 27
1.0
 37
0.0
 76
     0
330
1B
  0
LAYOUT
  5
1E
102
{ACAD_REACTORS
330
1A
102
}
330
1A
100
AcDbPlotSettings
  1

  2
none_device
  4

  6

 40
0.0
 41
0.0
 42
0.0
 43
0.0
 44
0.0
 45
0.0
 46
0.0
 47
0.0
 48
0.0
 49
0.0
140
0.0
141
0.0
142
1.0
143
1.0
 70
  1712
 72
     0
 73
     0
 74
     0
  7

 75
     0
147
1.0
148
0.0
149
0.0
100
AcDbLayout
  1
Model
 70
     1
 71
     0
 10
0.0
 20
0.0
 11
12.0
 21
9.0
 12
0.0
 22
0.0
 32
0.0
 14
0.0
 24
0.24735
 34
0.0
 15
700.0
 25
299.75265
 35
0.0
146
0.0
 13
0.0
 23
0.0
 33
0.0
 16
1.0
 26
0.0
 36
0.0
 17
0.0
 27
1.0
 37
0.0
 76
     0
330
1D
331
CBC
  0
MLINESTYLE
  5
18
102
{ACAD_REACTORS
330
17
102
}
330
17
100
AcDbMlineStyle
  2
Standard
 70
     0
  3

 62
   256
 51
90.0
 52
90.0
 71
     2
 49
0.5
 62
   256
  6
BYLAYER
 49
-0.5
 62
   256
  6
BYLAYER
  0
ACDBPLACEHOLDER
  5
F
102
{ACAD_REACTORS
330
E
102
}
330
E
  0
SCALE
  5
CC2
102
{ACAD_REACTORS
330
CC1
102
}
330
CC1
100
AcDbScale
 70
     0
300
1:1
140
1.0
141
1.0
290
     1
  0
SCALE
  5
CC3
102
{ACAD_REACTORS
330
CC1
102
}
330
CC1
100
AcDbScale
 70
     0
300
1:2
140
1.0
141
2.0
290
     0
  0
SCALE
  5
CC4
102
{ACAD_REACTORS
330
CC1
102
}
330
CC1
100
AcDbScale
 70
     0
300
1:4
140
1.0
141
4.0
290
     0
  0
SCALE
  5
CC5
102
{ACAD_REACTORS
330
CC1
102
}
330
CC1
100
AcDbScale
 70
     0
300
1:5
140
1.0
141
5.0
290
     0
  0
SCALE
  5
CC6
102
{ACAD_REACTORS
330
CC1
102
}
330
CC1
100
AcDbScale
 70
     0
300
1:8
140
1.0
141
8.0
290
     0
  0
SCALE
  5
CC7
102
{ACAD_REACTORS
330
CC1
102
}
330
CC1
100
AcDbScale
 70
     0
300
1:10
140
1.0
141
10.0
290
     0
  0
SCALE
  5
CC8
102
{ACAD_REACTORS
330
CC1
102
}
330
CC1
100
AcDbScale
 70
     0
300
1:16
140
1.0
141
16.0
290
     0
  0
SCALE
  5
CC9
102
{ACAD_REACTORS
330
CC1
102
}
330
CC1
100
AcDbScale
 70
     0
300
1:20
140
1.0
141
20.0
290
     0
  0
SCALE
  5
CCA
102
{ACAD_REACTORS
330
CC1
102
}
330
CC1
100
AcDbScale
 70
     0
300
1:30
140
1.0
141
30.0
290
     0
  0
SCALE
  5
CCB
102
{ACAD_REACTORS
330
CC1
102
}
330
CC1
100
AcDbScale
 70
     0
300
1:40
140
1.0
141
40.0
290
     0
  0
SCALE
  5
CCC
102
{ACAD_REACTORS
330
CC1
102
}
330
CC1
100
AcDbScale
 70
     0
300
1:50
140
1.0
141
50.0
290
     0
  0
SCALE
  5
CCD
102
{ACAD_REACTORS
330
CC1
102
}
330
CC1
100
AcDbScale
 70
     0
300
1:100
140
1.0
141
100.0
290
     0
  0
SCALE
  5
CCE
102
{ACAD_REACTORS
330
CC1
102
}
330
CC1
100
AcDbScale
 70
     0
300
2:1
140
2.0
141
1.0
290
     0
  0
SCALE
  5
CCF
102
{ACAD_REACTORS
330
CC1
102
}
330
CC1
100
AcDbScale
 70
     0
300
4:1
140
4.0
141
1.0
290
     0
  0
SCALE
  5
CD0
102
{ACAD_REACTORS
330
CC1
102
}
330
CC1
100
AcDbScale
 70
     0
300
8:1
140
8.0
141
1.0
290
     0
  0
SCALE
  5
CD1
102
{ACAD_REACTORS
330
CC1
102
}
330
CC1
100
AcDbScale
 70
     0
300
10:1
140
10.0
141
1.0
290
     0
  0
SCALE
  5
CD2
102
{ACAD_REACTORS
330
CC1
102
}
330
CC1
100
AcDbScale
 70
     0
300
100:1
140
100.0
141
1.0
290
     0
  0
SCALE
  5
CD3
102
{ACAD_REACTORS
330
CC1
102
}
330
CC1
100
AcDbScale
 70
     0
300
1/128" = 1'-0"
140
0.0078125
141
12.0
290
     0
  0
SCALE
  5
CD4
102
{ACAD_REACTORS
330
CC1
102
}
330
CC1
100
AcDbScale
 70
     0
300
1/64" = 1'-0"
140
0.015625
141
12.0
290
     0
  0
SCALE
  5
CD5
102
{ACAD_REACTORS
330
CC1
102
}
330
CC1
100
AcDbScale
 70
     0
300
1/32" = 1'-0"
140
0.03125
141
12.0
290
     0
  0
SCALE
  5
CD6
102
{ACAD_REACTORS
330
CC1
102
}
330
CC1
100
AcDbScale
 70
     0
300
1/16" = 1'-0"
140
0.0625
141
12.0
290
     0
  0
SCALE
  5
CD7
102
{ACAD_REACTORS
330
CC1
102
}
330
CC1
100
AcDbScale
 70
     0
300
3/32" = 1'-0"
140
0.09375
141
12.0
290
     0
  0
SCALE
  5
CD8
102
{ACAD_REACTORS
330
CC1
102
}
330
CC1
100
AcDbScale
 70
     0
300
1/8" = 1'-0"
140
0.125
141
12.0
290
     0
  0
SCALE
  5
CD9
102
{ACAD_REACTORS
330
CC1
102
}
330
CC1
100
AcDbScale
 70
     0
300
3/16" = 1'-0"
140
0.1875
141
12.0
290
     0
  0
SCALE
  5
CDA
102
{ACAD_REACTORS
330
CC1
102
}
330
CC1
100
AcDbScale
 70
     0
300
1/4" = 1'-0"
140
0.25
141
12.0
290
     0
  0
SCALE
  5
CDB
102
{ACAD_REACTORS
330
CC1
102
}
330
CC1
100
AcDbScale
 70
     0
300
3/8" = 1'-0"
140
0.375
141
12.0
290
     0
  0
SCALE
  5
CDC
102
{ACAD_REACTORS
330
CC1
102
}
330
CC1
100
AcDbScale
 70
     0
300
1/2" = 1'-0"
140
0.5
141
12.0
290
     0
  0
SCALE
  5
CDD
102
{ACAD_REACTORS
330
CC1
102
}
330
CC1
100
AcDbScale
 70
     0
300
3/4" = 1'-0"
140
0.75
141
12.0
290
     0
  0
SCALE
  5
CDE
102
{ACAD_REACTORS
330
CC1
102
}
330
CC1
100
AcDbScale
 70
     0
300
1" = 1'-0"
140
1.0
141
12.0
290
     0
  0
SCALE
  5
CDF
102
{ACAD_REACTORS
330
CC1
102
}
330
CC1
100
AcDbScale
 70
     0
300
1-1/2" = 1'-0"
140
1.5
141
12.0
290
     0
  0
SCALE
  5
CE0
102
{ACAD_REACTORS
330
CC1
102
}
330
CC1
100
AcDbScale
 70
     0
300
3" = 1'-0"
140
3.0
141
12.0
290
     0
  0
SCALE
  5
CE1
102
{ACAD_REACTORS
330
CC1
102
}
330
CC1
100
AcDbScale
 70
     0
300
6" = 1'-0"
140
6.0
141
12.0
290
     0
  0
SCALE
  5
CE2
102
{ACAD_REACTORS
330
CC1
102
}
330
CC1
100
AcDbScale
 70
     0
300
1'-0" = 1'-0"
140
12.0
141
12.0
290
     0
  0
DICTIONARYVAR
  5
1AF7
102
{ACAD_REACTORS
330
1AF4
102
}
330
1AF4
100
DictionaryVariables
280
     0
  1
1:1
  0
ENDSEC
  0
SECTION
  2
THUMBNAILIMAGE
 90
    16364
310
28000000B40000005500000001000800000000000000000000000000000000000000000000000000FFFFFF000000FF0000FFFF0000FF0000FFFF0000FF000000FF00FF000000000080808000C0C0C0000000FF007F7FFF000000A5005252A50000007F003F3F7F0000004C0026264C000000260013132600003FFF007F9FFF
310
000029A5005267A500001F7F003F4F7F0000134C00262F4C000009260013172600007FFF007FBFFF000052A500527CA500003F7F003F5F7F0000264C0026394C0000132600131C260000BFFF007FDFFF00007CA5005291A500005F7F003F6F7F0000394C0026424C00001C26001321260000FFFF007FFFFF0000A5A50052A5
310
A500007F7F003F7F7F00004C4C00264C4C00002626001326260000FFBF007FFFDF0000A57C0052A59100007F5F003F7F6F00004C3900264C420000261C001326210000FF7F007FFFBF0000A5520052A57C00007F3F003F7F5F00004C2600264C39000026130013261C0000FF3F007FFF9F0000A5290052A56700007F1F003F
310
7F4F00004C1300264C2F00002609001326170000FF00007FFF7F0000A5000052A55200007F00003F7F3F00004C0000264C260000260000132613003FFF00009FFF7F0029A5000067A552001F7F00004F7F3F00134C00002F4C260009260000172613007FFF0000BFFF7F0052A500007CA552003F7F00005F7F3F00264C0000
310
394C2600132600001C261300BFFF0000DFFF7F007CA5000091A552005F7F00006F7F3F00394C0000424C26001C26000021261300FFFF0000FFFF7F00A5A50000A5A552007F7F00007F7F3F004C4C00004C4C26002626000026261300FFBF0000FFDF7F00A57C0000A59152007F5F00007F6F3F004C3900004C422600261C00
310
0026211300FF7F0000FFBF7F00A5520000A57C52007F3F00007F5F3F004C2600004C39260026130000261C1300FF3F0000FF9F7F00A5290000A56752007F1F00007F4F3F004C1300004C2F26002609000026171300FF000000FF7F7F00A5000000A55252007F0000007F3F3F004C0000004C2626002600000026131300FF00
310
3F00FF7F9F00A5002900A55267007F001F007F3F4F004C0013004C262F002600090026131700FF007F00FF7FBF00A5005200A5527C007F003F007F3F5F004C0026004C2639002600130026131C00FF00BF00FF7FDF00A5007C00A55291007F005F007F3F6F004C0039004C26420026001C0026132100FF00FF00FF7FFF00A5
310
00A500A552A5007F007F007F3F7F004C004C004C264C002600260026132600BF00FF00DF7FFF007C00A5009152A5005F007F006F3F7F0039004C0042264C001C002600211326007F00FF00BF7FFF005200A5007C52A5003F007F005F3F7F0026004C0039264C00130026001C1326003F00FF009F7FFF002900A5006752A500
310
1F007F004F3F7F0013004C002F264C000900260017132600000000002D2D2D005B5B5B0089898900B7B7B700B3B3B30000000000000000000000000000000000000000000000000000000000000000000000000000000000000000000000000000000000000000000000000000000000000000000000000000000000000000
310
00000000000000000000000000000000000000000000000000000000000000000000000000000000000000000000000000000000000000000000000000000000000000000000000000000000000000000000000000000000000000000000000000000000000000000000000000000000000000000000000000000000000000
310
00000000000000000000000000000000000000000000000000000000000000000000000000000000000000000000000000000000000000000000000000000000000000000000000000000000000000000000000000000000000000000000000000000000000000000000000000000000000000000000000000000000000000
310
00000000000000000000000000000000000000000000000000000000000000000000000000000000000000000000000000000000000000000000000000000000000000000000000000000000000000000000000000000000000000000000000000000000000000000000000000000000000000000000000000000000000000
310
00000000000000000000000000000000000000000000000000000000000000000000000000000000000000000000000000000000000000000000000000000000000000000000000000000000000000000000000000000000000000000000000000000000000000000000000000000000000000000000000000000000000000
310
00000000000000000000000000000000000000000000000000000000000000000000000000000000000000000000000000000000000000000000000000000000000000000000000000000000000000000000000000000000000000000000000000000000000000000000000000000000000000000000000000000000000000
310
00000000000000000000000000000000000000000000000000000000000000000000000000000000000000000000000000000000000000000000000000000000000000000000000000000000000000000000000000000000000000000000000000000000000000000000000000000000000000000000000000000000000000
310
00000000000000000000000000000000000000000000000000000000000000000000000000000000000000000000000000000000000000000000000000000000000000000000000000000000000000000000000000000000000000000000000000000000000000000000000000000000000000000000000000000000000000
310
00000000000000000000000000000000000000000000000000000000000000000000000000000000000000000000000000000000000000000000000000000000000000000000000000000000000000000000000000000000000000000000000000000000000000000000000000000000000000000000000000000000000000
310
00000000000000000000000000000000000000000000000000000000000000000000000000000000000000000000000000000000000000000000000000000000000000000000000000000000000000000000000000000000000000000000000000000000000000000000000000000000000000000000000000000000000000
310
00000000000000000000000000000000000000000000000000000000000000000000000000000000000000000000000000000000000000000000000000000000000000000000000000000000000000000000000000000000000000000000000000000000000000000000000000000000000000000000000000000000000000
310
00000000000000000000000000000000000000000000000000000000000000000000000000000000000000000000000000000000000000000000000000000000000000000000000000000000000000000000000000000000000000000000000000000000000000000000000000000000000000000000000000000000000000
310
00000000000000000000000000000000070707070000000000000000000000000000000000000000000000000000000000000000000000000000000000000000000000000000000000000000000000000000000000000000000000000000000000000000000000000000000000000000000000000000000000000000000000
310
00000000000000000000000000000000000000000000000000000000000000000000000000000000000000000000000000000000000000000000000000000000000007070700000000070707000000000000000000000000000000000000000000000000000000000000000000000000000000000000000000000000000000
310
00000000000000000000000000000000000000000000000000000000000000000000000000000000000000000000000000000000000000000000000000000000000000000000000000000000000000000000000000000000000000000000000000000000000000000000000000000000000000000007070000000707070700
310
00000707000000000000000000000000000000000000000000000000000000000000000000000000000000000000000000000000000000000000000000000000000000000000000000000000000000000000000000000000000000000000000000000000000000000000000000000000000000000000000000000000000000
310
00000000000000000000000000000000000000000000000000000000000000000000000000000000000007000007070707070707070707000007000000000000000000000000000000000000000000000000000000000000000000000000000000000000000000000000000000000000000000000000000707070707070700
310
00000000000000000000000000000000000000000000000000000000000000000000000000000000000000000000000000000000000000000000000000000000000000000000000000000000000000000000000000000000000000000000070007070000000000000000000007070007000000000000000000000000000000
310
00000000000000000000000000000000000000000000000000000000000000000000000000000000000000000707000000000007000000000000000000000000000000000000000000000000000000000000000000000000000000000000000000000000000000000000000000000000000000000000000000000000000000
310
00000000000000000000000000000000000000070007070000000000000000000000000707000700000000000000000000000000000000000000000000000000000000000000000000000000000000000000000000000000000000000000000000070000000000000007000000000000000000000000000000000000000000
310
00000000000000000000000000000000000000000000000000000000000000000000000000000000000000000000000000000000000000000000000000000000000000000000000700070000000000000000000000000000000007070000000000000000000000000000000000000000000000000000000000000000000000
310
00000000000000000000000000000000000000000000000700000000000000070000000000000000000000000000000000000000000000000000000000000000000000000000000000000000000000000000000000000000000000000000000000000000000000000000000000000000000000000000000000000000070700
310
00000000000000000000000000000000070707000000000000000000000000000000000000000000000000000000000000000000000000000000000000000000000000000000000000000000070000000000000007000000000000000000000000000000000000000000000000000000000000000000000000000000000000
310
00000000000000000000000000000000000000000000000000000000000000000000000000000000000000000000000000000707000000000000000000000000000000000000070700000000000000000000000000000000000000000000000000000000000000000000000000000000000000000000000000000000000000
310
00070000000000000000070000000000000000000000000000000000000000000000000000000000000000000000000000000000000000000000000000000000000000000000000000000000000000000000000000000000000000000000000000000000000007070000000000000000000000000000000000000000070000
310
00000000000000000000000000000000000000000000000000000000000000000000000000000000000000000000000000000000000007000000000000000000000000000000000000000000000000000000000000000000000000000000000000000000000000000000000000000000000000000000000000000000000000
310
00000000000000000000000000000000000000000000000000000000070700000000000000000000000000000000000000000707000000000000000000000000000000000000000000000000000000000000000000000000000000000000000000000000000000000000000700000000000000000700000000000000000000
310
00000000000000000000000000000000000000000000000000000000000000000000000000000000000000000000000000000000000000000000000000000000000000000000000000000000000000000007070000000000000000000000000000000000000000070700000000000000000000000000000000000000000000
310
00000000000000000000000000000000000000000000000000000000000000000007000000000000000007000000000000000000000000000000000000000000000000000000000000000000000000000000000000000000000000000000000000000000000000000000000000000000000000000000000000000000000000
310
00000000000000070700000000000000000000000000000000000000000007000000000000000000000000000000000000000000000000000000000000000000000000000000000000000000000000000000000000000700000000000000000700000000000000000000000000000000000000000000000000000000000000
310
00000000000000000000000000000000000000000000000000000000000000000000000000000000000000000000000000000000000000000000000007070000000000000000000000000000000000000000070000000000000000000000000000000000000000000000000000000000000000000000000000000000000000
310
00000000000000000000000007000000000000000007000000000000000000000000000000000000000000000000000000000000000000000000000000000000000000000000000000000000000000000000000000000000000000000000000000000000000000000000000000000000000707000000000000000000000000
310
00000000000000000700000000000000000000000000000000000000000000000000000000000000000000000000000000000000000000000000000000000000000700000000000000000700000000000000000000000000000000000000000000000000000000000000000000000000000000000000000000000000000000
310
00000000000000000000000000000000000000000000000000000000000000000000000000000000070000000000000000000000000000000000000000070000000000000000000000000000000000000000000000000000000000000000000000000000000000000000000000000000000000000000070000000000000000
310
07000000000000000000000000000000000000000000000000000000000000000000000000000000000000000000000000000000000000000000000000000000000000000000000000000000000000000000000000000000000000000007000000000000000000000000000000000000000007000000000000000000000000
310
00000000000000000000000000000000000000000000000000000000000000000000000000000000000000000700000000000000000700000000000000000000000000000000000000000000000000000000000000000000000000000000000000000000000000000000000000000000000000000000000000000000000000
310
00000000000000000000000000000000000000000700000000000000000000000000000000000007000000000000000000000000000000000000000000000000000000000000000000000000000000000000000000000000000000000000000000070000000000000000070000000000000000000000000000000000000000
310
00000000000000000000000000000000000000000000000000000000000000000000000000000000000000000000000000000000000000000000000000000000000000000000000000000700000000000000000000000000000000070000000000000000000000000000000000000000000000000000000000000000000000
310
00000000000000000000000000000000000000000000000700000000000000000700000000000000000000000000000000000000000000000000000000000000000000000000000000000000000000000000000000000000000000000000000000000000000000000000000000000000000000000000000000000000000000
310
00070000000000000000000000000000070000000000000000000000000000000000000000000000000000000000000000000000000000000000000000000000000000000000000000000007000000000000000000070000000000000000000000000000000000000000000000000000000000000000000000000000000000
310
00000000000000000000000000000000000000000000000000000000000000000000000000000000000000000000000000000000000000070000000000000000000000000700000000000000000000000000000000000000000000000000000000000000000000000000000000000000000000000000000000000000000000
310
00070000000000000000000700000000000000000000000000000000000000000000000000000000000000000000000000000000000000000000000000000000000000000000000000000000000000000000000000000000000000000000000000000000000000000000000000070000000000000000000007000000000000
310
00000000000000000000000000000000000000000000000000000000000000000000000000000000000000000000000000000000000000000000000000000000070000000000000000000000000000000000000000000000000000000000000000000000000000000000000000000000000000000000000000000000000007
310
07070707070707070707070707070707070707070707070707070707070707070707070707070707070707070707070707070707070707070707070707070707070707070707070707070707070707070707070707070707070707070707070707070707070707070707070700000000000000000007070707070707070707
310
07070707070707070707070707070707070707070707070707070707070000000000000000000000000000000000000000000000070007070700000000000000000000000000000000000000000000000000000000000000000000000700000700000000000000000000000000000000000000000000000000000000000000
310
00000000000000000000000000000000000000000000000000000000000000000007000000000000000000070000000000000000000000000000000000000000000000000000000000000000000707070007000000000000000000000000000000000000000000000007000000000707070000000000000000000000000000
310
00000000000000000000000000000000000707000007070000000000000000000000000000000000000000000000000000000000000000000000000000000000000000000000000000000000000000000000000000000700000000000000000007000000000000000000000000000000000000000000000000000000000000
310
07070700000000070000000000000000000000000000000000000000000000070000000000000007070700000000000000000000000000000000000000000000000000000000070707070707000000000000000000000000000000000000000000000000000000000000000000000000000000000000000000000000000000
310
00000000000000000000000007000000000000000000070000000000000000000000000000000000000000000000000000000707070000000000000007000000000000000000000000000000000000000000000007000000000000000000000707070000000000000000000000000000000000000000000000000007000700
310
00070000000000000000000000000000000000000000000000000000000000000000000000000000000000000000000000000000000000000000000000000000000700000000000000000007000000000000000000000000000000000000000000000000070707000000000000000000000700000000000000000000000000
310
00000000000000000000070000000000000000000000000007070000000000000000000000000000000000000000000000070000000007000000000000000000000000000000000000000000000000000000000000000000000000000000000000000000000000000000000000000000000000000007000000000000000000
310
00070000000000000000000000000000000000000000000007070000000000000000000000000007000000000000000000000000000000000000000000000007000000000000000000000000000000070707000000000000000000000000000000000000000007000000000700000000000000000000000000000000000000
310
00000000000000000000000000000000000000000000000000000000000000000000000000000000000000070000000000000000000007000000000000000000000000000000000000000707070000000000000000000000000000000700000000000000000000000000000000000000000000000700000000000000000000
310
00000000000000000707070000000000000000000000000000000000070000000007000000000000000000000000000000000000000000000000000000000000000000000000000000000000000000000000000000000000000000000000000007000000000000000000000700000000000000000000000000000000070707
310
00000000000000000000000000000000000007000000000000000000000000000000000000000000000007000000000000000000000000000000000000000000070707000000000000000000000000000007000000000700000000000000000000000000000000000000000000000000000000000000000000000000000000
310
00000000000000000000000000000000000000000000070000000000000000000007000000000000000000000000000707070000000000000000000000000000000000000000000700000000000000000000000000000000000000000000000700000000000000000000000000000000000000000000000007070700000000
310
00000000000000070000000007000000000000000000000000000000000000000000000000000000000000000000000000000000000000000000000000000000000000000000000000000007000000000000000000000700000000000000000000070707000000000000000000000000000000000000000000000000070000
310
00000000000000000000000000000000000000000007000000000000000000000000000000070707070707070707070707070707070707070707070707000000000707070707070707070707070707070707070707070707070707070707070707070707070707070707070707070707070707070707070707070707070707
310
07070000000000000000000007070707070707070707070707070707070707070707070000000000000000000000000000000700000000000000000000000000000000000000000000000700000000000000000000000000000007000000000000000000000000000000000000000000000700000000070000000000000000
310
00000000000000000000000000000000000000000000000000000000000000000000000000000000000000000000000000000000000007000000000000000000000700000000000000000000000000000000000000000007000000000000000000000000000000070000000000000000000000000000000000000000000000
310
07000000000000000000000000000000070000000000000000000000000000000000000000000007000000000700000000000000000000000000000000000000000000000000000000000000000000000000000000000000000000000000000000000000000000000000070000000000000000000000070000000000000000
310
00000000000000000000000000070000000000000000000000000000000700000000000000000000000000000000000000000000000700000000000000000000000000000007000000000000000000000000000000000000000000000700000000070000000000000000000000000000000000000000000000000000000000
310
00000000000000000000000000000000000000000000000000000000000000000700000000000000000000000700000000000000000000000000000000000000000007000000000000000000000000000000070000000000000000000000000000000000000000000000070000000000000000000000000000000700000000
310
00000000000000000000000000000000000007000000000700000000000000000000000000000000000000000000000000000000000000000000000000000000000000000000000000000000000000000000000000070000000000000000000000070000000000000000000000000000000000000000000700000000000000
310
00000000000000000700000000000000000000000000000000000000000000000700000000000000000000000000000007000000000000000000000000000000000000000000070700000000070700000000000000000000000000000000000000000000000000000000000000000000000000000000000000000000000000
310
00000000000000000000000700000000000000000000000700000000000000000000000000000000000000000007000000000000000000000000000000070000000000000000000000000000000000000000000000070000000000000000000000000000000700000000000000000000000000000000000000000007070000
310
00000707000000000000000000000000000000000000000000000000000000000000000000000000000000000000000000000000000000000000000000000000070000000000000000000000070000000000000000000000000000000000000000000700000000000000000000000000000007000000000000000000000000
310
00000000000000000000000700000000000000000000000000000007000000000000000000000000000000000000000000070707000007070700000000000000000000000000000000000000000000000000000000000000000000000000000000000000000000000000000000000000000000000007000000000000000000
310
00000700000000000000000000000000000000000000000007000000000000000000000000000000070000000000000000000000000000000000000000000000070000000000000000000000000000000700000000000000000000000000000000000000000007070007070007070000000000000000000000000000000000
310
00070707000000000000000000000000000000000000000000000707070000000000000000000000000000070000000000000000000000070000000000000000000000000000000000000000000700000000000000000000000000000007000000000000000000000000000000000000000000000007000000000000000000
310
00000000000007000000000000000000000000000000000000000007070007070007000707000000000000000000000000000000000707070707070707000000000000000000000000000000000707070707070707000000000000000000000000070000000000070707070007070000000000000000000000000000000000
310
00000007000000000000000000000000000000070000000000000000000000000000000000000000000000070000000000000000000000000000000700000000000000000000000000000000000000070707000000000000070707000000000000000000000000000707070700000707000007000000000000000000000000
310
00070700070700000707000700000000000000000000000700000007070000000707070707000000000000000000000000000000000000000700000000000000000000000000000007000000000000000000000000000000000000000000000007000000000000000000000000000000070000000000000000000000000000
310
00000000070707070707000007070707070000000000000000000000000700070700000000000707070000000000000000000000000700070700000000000707070000000000000000000000070000070000000000000000070700000000000000000000000000000000000000070000000000000000000000000000000700
310
00000000000000000000000000000000000000000000070000000000000000000000000000000700000000000000000000000000000000000007070707000707000700070707070000000000000000000000070707070000000000070707070000000000000000000000070707070000000000070707070000000000000000
310
00000700070700000000000007070707070000000000000000000000000000000000000700000000000000000000000000000007000000000000000000000000000000000000000000000007000000000000000000000000000000070000000000000000000000000000000000070707000700000000000007000707070000
310
00000000000000070707070000000000000007070007000000000000000000070007070000000000000007070707000000000000000000070707000000000007070000000007000000000000000000000000000000000000070000000000000000000000000000000700000000000000000000000000000000000000000000
310
00070000000000000000000000000000000700000000000000000000000000000000000707070007000000000000070007070700000000000000000007070707000000000000000707070700000000000000000007070707000000000000000707070700000000000000000007070700000000000700000000000707000000
310
00000000000000000000000000000700000000000000000000000000000007000000000000000000000000000000000000000000000007000000000000000000000000000000070000000000000000000000000000000000070700000700000000000007000007070000000000000000070007070000000000000000070707
310
07000000000000000007000707070000000000000000070707000000000000000000070007070000000700000000000000070000000000000000000000000000000000070000000000000000000000000000000700000000000000000000000000000000000000000000000700000000000000000000000000000007000000
310
00000000000000000000000000000707000007000000000000070000070700000000000000000700070700000000000000000007070700000000000000000700070700000000000000000007070700000000000000000007000707000000070000000000000007000000000000000000000000000000000007000000000000
310
00000000000000000007000000000000000000000000000000000000000000000007000000000000000000000000000000070000000000000000000000000000000000070700000700000000000700000007070000000000000000070007070000000000000000000707070000000000000000070007070000000000000000
310
00070707000000000000000000070007000700070000000000000000070000000000000000000000000000000000070000000000000000000000000000000700000000000000000000000000000000000000000000000700000000000000000000000000000007000000000000000000000000000000000007070700000700
310
00000007000007070700000000000000000007070700000000000000000707070700000000000000000007070707000000000000000007070700000000000000000007000700000707070000000000000707000000000000000000000000000000000007000000000000000000000000000000070000000000000000000000
310
00000000000000000000000007000000000000000000000000000000070000000000000000000000000000000000070707000007070707070000000707070000000000000000000707070700000000000000070700070000000000000000000700070700000000000000070707070000000000000000000707000700000007
310
00000000000707070000000000000000000000000000000000070000000000000000000000000000000700000000000000000000000000000000000000000000000700000000000000000000000000000007000000000000000000000000000000000000070707000000000000000007070700000000000000000000000707
310
07000000000000070707070000000000000000000000070707070000000000000707070000000000000000000000070007070000070707000007070700000000000000000000000000000000000007000000000000000000000000000000070000000000000000000000000000000000000000000000070000000000000000
310
00000000000000070000000000000000000000000000000000000707070707000000000707070707000000000000000000000007000707070000070707070700000000000000000000000007000707070700000707070700000000000000000000000007070007070707070707070007070000000000000000000000000000
310
00000000070000000000000000000000000000000700000000000000000000000000000000000000000000000700000000000000000000000000000007000000000000000000000000000000000000000707070707070007070707000000000000000000000000000007000707070707070000070000000000000000000000
310
00000707000707070707070007000000000000000000000000000707070007070707000007000000000000000000000000000000000000000007000000000000000000000000000000070000000000000000000000000000000000000000000000070000000000000000000000000000000700000000000000000000000000
310
00000000000000070707070700070707000000000000000000000000000000000707000000000707070000000000000000000000000000000007070000000707070000000000000000000000000000000007070707070707070000000000000000000000000000000000000000000700000000000000000000000000000007
310
00000000000000000000000000000000000000000000000700000000000000000000000000000007000000000000000000000000000000000000000000000007070700000000000000000000000000000000000000000007070707000000000000000000000000000000000000000000070707000000000000000000000000
310
00000000000000000007070700000000000000000000000000000000000000000000000007000000000000000000000000000000070000000000000000000000000000000000000000000000070000000000000000000000000000000700000000000000000000000000000000000000000000000000000000000000000000
310
00000000000000000000000000000000000000000000000000000000000000000000000000000000000000000000000000000000000000000000000000000007070000000000000000000000000000000000000000000000000700000000000000000000000000000007000000000000000000000000000000000000000000
310
00000700000000000000000000000000000007000000000000000000000000000000000000000000000000000000000000000000000000000000000000000000000000000000000000000000000000000000000000000000000000000000000000000000000000000000000000000000000000000000000000000000000000
310
00000000000000000000000000000007000000000000000000000000000000070000000000000000000000000000000000000000000000070000000000000000000000000000000700000000000000000000000000000000000000000000000000000000000000000000000000000000000000000000000000000000000000
310
00000000000000000000000000000000000000000000000000000000000000000000000000000000000000000000000000000000000000000000000000000000000000000700000000000000000000000000000007000000000000000000000000000000000000000000000007000000000000000000000000000000070000
310
00000000000000000000000000000000000000000000000000000000000000000000000000000000000000000000000000000000000000000000000000000000000000000000000000000000000000000000000000000000000000000000000000000000000000000000000000000000000000000000000000070000000000
310
00000000000000000000070000000000000000000000000000000000000000000000070000000000000000000000000000070700000000000000000000000000000000000000000000000000000000000000000000000000000000000000000000000000000000000000000000000000000000000000000000000000000000
310
00000000000000000000000000000000000000000000000000000000000000000000000000000000000000000000000707000000000000000000000000000007000000000000000000000000000000000000000000000007000000000000000000000000070700070000000000000000000000000000000000000000000000
310
00000000000000000000000000000000000000000000000000000000000000000000000000000000000000000000000000000000000000000000000000000000000000000000000000000000000000000000000000000000000000000000000000000000070007070000000000000000000000000700000000000000000000
310
00000000000000000000000000070000000000000000000707070000000700000000000000000000000000000000000000000000000000000000000000000000000000000000000000000000000000000000000000000000000000000000000000000000000000000000000000000000000000000000000000000000000000
310
00000000000000000000000000000000000000000000000000000700000007070700000000000000000007000000000000000000000000000000000000000000000007000000000000070707000000000000070707070707070707070707070707070707070707070707070707070707070707070707070707070707070707
310
07070707070707070707070707070707070707070707070707070707070707070707070707070707070707070707070707070707070707070707070707070707070707070707070707070707070707070000000000000707070000000000000700000000000000000000000000000000000000000000000700000000070700
310
00000000000000000000000007070000000000070000000000000000000000000000000000000000000000000000000000000000000000000000000000000000000000000000000000000000000000000000000000000000000000000000000000000000000000000000000000000000000000000000000000070000000000
310
07070000000000000000000000000007070000000007000000000000000000000000000000000000000000000007000707070000000000000000000000000000000707070707070707070707070707070707070707070707070707070707070707070707070707070707070707070707070707070707070707070707070707
310
07070707070707070707070707070707070707070707070707070707070707070707070707070707070707070707070707070707070700000000000000000000000000000000070707000700000000000000000000000000000000000000000000000707070707070707070707070707070707070707070707070707070707
310
07070707070707070707070707070707070707070707070707070707070707070707070707070707070707070707070707070707070707070707070707070707070707070707070707070707070707070707070707070707070707070707070707070707070707070707070707070707070707070707070707070707070707
310
07000000000000000000000000000000000000000000000000000000000000000000000000000000000000000000000000000000000000000000000000000000000000000000000000000000000000000000000000000000000000000000000000000000000000000000000000000000000000000000000000000000000000
310
00000000000000000000000000000000000000000000000000000000000000000000000000000000000000000000000000000000000000000000000000000000000000000000000000000000000000000000000000000000000000000000000000000000000000000000000000000000000000000000000000000000000000
310
00000000000000000000000000000000000000000000000000000000000000000000000000000000000000000000000000000000000000000000000000000000000000000000000000000000000000000000000000000000000000000000000000000000000000000000000000000000000000000000000000000000000000
310
00000000000000000000000000000000000000000000000000000000000000000000000000000000000000000000000000000000000000000000000000000000000000000000000000000000000000000000000000000000000000000000000000000000000000000000000000000000000000000000000000000000000000
310
00000000000000000000000000000000000000000000000000000000000000000000000000000000000000000000000000000000000000000000000000000000000000000000000000000000000000000000000000000000000000000000000000000000000000000000000000000000000000000000000000000000000000
310
00000000000000000000000000000000000000000000000000000000000000000000000000000000000000000000000000000000000000000000000000000000000000000000000000000000000000000000000000000000000000000000000000000000000000000000000000000000000000000000000000000000000000
310
00000000000000000000000000000000000000000000000000000000000000000000000000000000000000000000000000000000000000000000000000000000000000000000000000000000000000000000000000000000000000000000000000000000000000000000000000000000000000000000000000000000000000
310
00000000000000000000000000000000000000000000000000000000000000000000000000000000000000000000000000000000000000000000000000000000000000000000000000000000000000000000000000000000000000000000000000000000000000000000000000000000000000000000000000000000000000
310
00000000000000000000000000000000000000000000000000000000000000000000000000000000000000000000000000000000000000000000000000000000000000000000000000000000000000000000000000000000000000000000000000000000000000000000000000000000000000000000000000000000000000
310
00000000000000000000000000000000000000000000000000000000000000000000000000000000000000000000000000000000000000000000000000000000000000000000000000000000000000000000000000000000000000000000000000000000000000000000000000000000000000000000000000000000000000
310
00000000000000000000000000000000000000000000000000000000000000000000000000000000000000000000000000000000000000000000000000000000000000000000000000000000000000000000000000000000000000000000000000000000000000000000000000000000000000000000000000000000000000
310
00000000000000000000000000000000000000000000000000000000000000000000000000000000000000000000000000000000000000000000000000000000000000000000000000000000000000000000000000000000000000000000000000000000000000000000000000000000000000000000000000000000000000
310
000000000000000000000000000000000000000000000000000000000000000000000000000000000000000000000000000000000000000000000000000000000000000000000000000000000000000000000000000000000000000000000000000000000000000000000000
  0
ENDSEC
  0
EOF
