  0
SECTION
  2
HEADER
  9
$ACADVER
  1
AC1015
  9
$ACADMAINTVER
 70
     6
  9
$DWGCODEPAGE
  3
ANSI_1252
  9
$INSBASE
 10
0.0
 20
0.0
 30
0.0
  9
$EXTMIN
 10
0.24735
 20
0.024
 30
0.0
  9
$EXTMAX
 10
299.75265
 20
913.036980524523
 30
0.0
  9
$LIMMIN
 10
0.0
 20
0.0
  9
$LIMMAX
 10
12.0
 20
9.0
  9
$ORTHOMODE
 70
     0
  9
$REGENMODE
 70
     1
  9
$FILLMODE
 70
     1
  9
$QTEXTMODE
 70
     0
  9
$MIRRTEXT
 70
     1
  9
$LTSCALE
 40
1.0
  9
$ATTMODE
 70
     1
  9
$TEXTSIZE
 40
0.2
  9
$TRACEWID
 40
0.05
  9
$TEXTSTYLE
  7
Standard
  9
$CLAYER
  8
0
  9
$CELTYPE
  6
ByBlock
  9
$CECOLOR
 62
   256
  9
$CELTSCALE
 40
1.0
  9
$DISPSILH
 70
     0
  9
$DIMSCALE
 40
1.0
  9
$DIMASZ
 40
0.18
  9
$DIMEXO
 40
0.0625
  9
$DIMDLI
 40
0.38
  9
$DIMRND
 40
0.0
  9
$DIMDLE
 40
0.0
  9
$DIMEXE
 40
0.18
  9
$DIMTP
 40
0.0
  9
$DIMTM
 40
0.0
  9
$DIMTXT
 40
0.18
  9
$DIMCEN
 40
0.09
  9
$DIMTSZ
 40
0.0
  9
$DIMTOL
 70
     0
  9
$DIMLIM
 70
     0
  9
$DIMTIH
 70
     1
  9
$DIMTOH
 70
     1
  9
$DIMSE1
 70
     0
  9
$DIMSE2
 70
     0
  9
$DIMTAD
 70
     0
  9
$DIMZIN
 70
     0
  9
$DIMBLK
  1

  9
$DIMASO
 70
     1
  9
$DIMSHO
 70
     1
  9
$DIMPOST
  1

  9
$DIMAPOST
  1

  9
$DIMALT
 70
     0
  9
$DIMALTD
 70
     2
  9
$DIMALTF
 40
25.4
  9
$DIMLFAC
 40
1.0
  9
$DIMTOFL
 70
     0
  9
$DIMTVP
 40
0.0
  9
$DIMTIX
 70
     0
  9
$DIMSOXD
 70
     0
  9
$DIMSAH
 70
     0
  9
$DIMBLK1
  1

  9
$DIMBLK2
  1

  9
$DIMSTYLE
  2
Standard
  9
$DIMCLRD
 70
     0
  9
$DIMCLRE
 70
     0
  9
$DIMCLRT
 70
     0
  9
$DIMTFAC
 40
1.0
  9
$DIMGAP
 40
0.09
  9
$DIMJUST
 70
     0
  9
$DIMSD1
 70
     0
  9
$DIMSD2
 70
     0
  9
$DIMTOLJ
 70
     1
  9
$DIMTZIN
 70
     0
  9
$DIMALTZ
 70
     0
  9
$DIMALTTZ
 70
     0
  9
$DIMUPT
 70
     0
  9
$DIMDEC
 70
     4
  9
$DIMTDEC
 70
     4
  9
$DIMALTU
 70
     2
  9
$DIMALTTD
 70
     2
  9
$DIMTXSTY
  7
Standard
  9
$DIMAUNIT
 70
     0
  9
$DIMADEC
 70
     0
  9
$DIMALTRND
 40
0.0
  9
$DIMAZIN
 70
     0
  9
$DIMDSEP
 70
    46
  9
$DIMATFIT
 70
     3
  9
$DIMFRAC
 70
     0
  9
$DIMLDRBLK
  1

  9
$DIMLUNIT
 70
     2
  9
$DIMLWD
 70
    -2
  9
$DIMLWE
 70
    -2
  9
$DIMTMOVE
 70
     2
  9
$LUNITS
 70
     2
  9
$LUPREC
 70
     4
  9
$SKETCHINC
 40
0.1
  9
$FILLETRAD
 40
0.5
  9
$AUNITS
 70
     0
  9
$AUPREC
 70
     0
  9
$MENU
  1
.
  9
$ELEVATION
 40
0.0
  9
$PELEVATION
 40
0.0
  9
$THICKNESS
 40
0.0
  9
$LIMCHECK
 70
     0
  9
$CHAMFERA
 40
0.5
  9
$CHAMFERB
 40
0.5
  9
$CHAMFERC
 40
1.0
  9
$CHAMFERD
 40
0.0
  9
$SKPOLY
 70
     0
  9
$TDCREATE
 40
2456184.899302558
  9
$TDUCREATE
 40
2456184.815969225
  9
$TDUPDATE
 40
2456184.900086157
  9
$TDUUPDATE
 40
2456184.816752824
  9
$TDINDWG
 40
0.0007832523
  9
$TDUSRTIMER
 40
0.0007832523
  9
$USRTIMER
 70
     1
  9
$ANGBASE
 50
0.0
  9
$ANGDIR
 70
     0
  9
$PDMODE
 70
     0
  9
$PDSIZE
 40
0.0
  9
$PLINEWID
 40
0.0
  9
$SPLFRAME
 70
     0
  9
$SPLINETYPE
 70
     6
  9
$SPLINESEGS
 70
     8
  9
$HANDSEED
  5
1187
  9
$SURFTAB1
 70
     6
  9
$SURFTAB2
 70
     6
  9
$SURFTYPE
 70
     6
  9
$SURFU
 70
     6
  9
$SURFV
 70
     6
  9
$UCSBASE
  2

  9
$UCSNAME
  2

  9
$UCSORG
 10
0.0
 20
0.0
 30
0.0
  9
$UCSXDIR
 10
1.0
 20
0.0
 30
0.0
  9
$UCSYDIR
 10
0.0
 20
1.0
 30
0.0
  9
$UCSORTHOREF
  2

  9
$UCSORTHOVIEW
 70
     0
  9
$UCSORGTOP
 10
0.0
 20
0.0
 30
0.0
  9
$UCSORGBOTTOM
 10
0.0
 20
0.0
 30
0.0
  9
$UCSORGLEFT
 10
0.0
 20
0.0
 30
0.0
  9
$UCSORGRIGHT
 10
0.0
 20
0.0
 30
0.0
  9
$UCSORGFRONT
 10
0.0
 20
0.0
 30
0.0
  9
$UCSORGBACK
 10
0.0
 20
0.0
 30
0.0
  9
$PUCSBASE
  2

  9
$PUCSNAME
  2

  9
$PUCSORG
 10
0.0
 20
0.0
 30
0.0
  9
$PUCSXDIR
 10
1.0
 20
0.0
 30
0.0
  9
$PUCSYDIR
 10
0.0
 20
1.0
 30
0.0
  9
$PUCSORTHOREF
  2

  9
$PUCSORTHOVIEW
 70
     0
  9
$PUCSORGTOP
 10
0.0
 20
0.0
 30
0.0
  9
$PUCSORGBOTTOM
 10
0.0
 20
0.0
 30
0.0
  9
$PUCSORGLEFT
 10
0.0
 20
0.0
 30
0.0
  9
$PUCSORGRIGHT
 10
0.0
 20
0.0
 30
0.0
  9
$PUCSORGFRONT
 10
0.0
 20
0.0
 30
0.0
  9
$PUCSORGBACK
 10
0.0
 20
0.0
 30
0.0
  9
$USERI1
 70
     0
  9
$USERI2
 70
     0
  9
$USERI3
 70
     0
  9
$USERI4
 70
     0
  9
$USERI5
 70
     0
  9
$USERR1
 40
0.0
  9
$USERR2
 40
0.0
  9
$USERR3
 40
0.0
  9
$USERR4
 40
0.0
  9
$USERR5
 40
0.0
  9
$WORLDVIEW
 70
     1
  9
$SHADEDGE
 70
     3
  9
$SHADEDIF
 70
    70
  9
$TILEMODE
 70
     1
  9
$MAXACTVP
 70
    64
  9
$PINSBASE
 10
0.0
 20
0.0
 30
0.0
  9
$PLIMCHECK
 70
     0
  9
$PEXTMIN
 10
1.000000000000E+20
 20
1.000000000000E+20
 30
1.000000000000E+20
  9
$PEXTMAX
 10
-1.000000000000E+20
 20
-1.000000000000E+20
 30
-1.000000000000E+20
  9
$PLIMMIN
 10
0.0
 20
0.0
  9
$PLIMMAX
 10
12.0
 20
9.0
  9
$UNITMODE
 70
     0
  9
$VISRETAIN
 70
     1
  9
$PLINEGEN
 70
     0
  9
$PSLTSCALE
 70
     1
  9
$TREEDEPTH
 70
  3020
  9
$CMLSTYLE
  2
Standard
  9
$CMLJUST
 70
     0
  9
$CMLSCALE
 40
1.0
  9
$PROXYGRAPHICS
 70
     1
  9
$MEASUREMENT
 70
     0
  9
$CELWEIGHT
370
    -1
  9
$ENDCAPS
280
     0
  9
$JOINSTYLE
280
     0
  9
$LWDISPLAY
290
     0
  9
$INSUNITS
 70
     0
  9
$HYPERLINKBASE
  1

  9
$STYLESHEET
  1

  9
$XEDIT
290
     1
  9
$CEPSNTYPE
380
     0
  9
$PSTYLEMODE
290
     1
  9
$FINGERPRINTGUID
  2
{CD2DF5E0-1A3F-4C10-A1F5-A24463B89DF7}
  9
$VERSIONGUID
  2
{FAEB1C32-E019-11D5-929B-00C0DF256EC4}
  9
$EXTNAMES
290
     1
  9
$PSVPSCALE
 40
0.0
  9
$OLESTARTUP
290
     0
  0
ENDSEC
  0
SECTION
  2
CLASSES
  0
CLASS
  1
ACDBDICTIONARYWDFLT
  2
AcDbDictionaryWithDefault
  3
ObjectDBX Classes
 90
        0
280
     0
281
     0
  0
CLASS
  1
SCALE
  2
AcDbScale
  3
ObjectDBX Classes
 90
     1153
280
     0
281
     0
  0
CLASS
  1
DICTIONARYVAR
  2
AcDbDictionaryVar
  3
ObjectDBX Classes
 90
        0
280
     0
281
     0
  0
CLASS
  1
ACDBPLACEHOLDER
  2
AcDbPlaceHolder
  3
ObjectDBX Classes
 90
        0
280
     0
281
     0
  0
CLASS
  1
LAYOUT
  2
AcDbLayout
  3
ObjectDBX Classes
 90
        0
280
     0
281
     0
  0
ENDSEC
  0
SECTION
  2
TABLES
  0
TABLE
  2
VPORT
  5
8
330
0
100
AcDbSymbolTable
 70
     1
  0
VPORT
  5
9A5
330
8
100
AcDbSymbolTableRecord
100
AcDbViewportTableRecord
  2
*Active
 70
     0
 10
0.0
 20
0.0
 11
1.0
 21
1.0
 12
149.876325
 22
456.518490262261
 13
0.0
 23
0.0
 14
0.5
 24
0.5
 15
0.5
 25
0.5
 16
0.0
 26
0.0
 36
1.0
 17
0.0
 27
0.0
 37
0.0
 40
931.297720135013
 41
1.863448275862
 42
50.0
 43
0.0
 44
0.0
 50
0.0
 51
0.0
 71
    16
 72
   100
 73
     1
 74
     3
 75
     0
 76
     0
 77
     0
 78
     0
281
     0
 65
     1
110
0.0
120
0.0
130
0.0
111
1.0
121
0.0
131
0.0
112
0.0
122
1.0
132
0.0
 79
     0
146
0.0
  0
ENDTAB
  0
TABLE
  2
LTYPE
  5
5
330
0
100
AcDbSymbolTable
 70
     1
  0
LTYPE
  5
14
330
5
100
AcDbSymbolTableRecord
100
AcDbLinetypeTableRecord
  2
ByBlock
 70
     0
  3

 72
    65
 73
     0
 40
0.0
  0
LTYPE
  5
15
330
5
100
AcDbSymbolTableRecord
100
AcDbLinetypeTableRecord
  2
ByLayer
 70
     0
  3

 72
    65
 73
     0
 40
0.0
  0
LTYPE
  5
16
330
5
100
AcDbSymbolTableRecord
100
AcDbLinetypeTableRecord
  2
Continuous
 70
     0
  3
Solid line
 72
    65
 73
     0
 40
0.0
  0
ENDTAB
  0
TABLE
  2
LAYER
  5
2
330
0
100
AcDbSymbolTable
 70
     1
  0
LAYER
  5
10
330
2
100
AcDbSymbolTableRecord
100
AcDbLayerTableRecord
  2
0
 70
     0
 62
     7
  6
Continuous
370
    -3
390
F
  0
ENDTAB
  0
TABLE
  2
STYLE
  5
3
330
0
100
AcDbSymbolTable
 70
     1
  0
STYLE
  5
11
330
3
100
AcDbSymbolTableRecord
100
AcDbTextStyleTableRecord
  2
Standard
 70
     0
 40
0.0
 41
1.0
 50
0.0
 71
     0
 42
0.2
  3
txt
  4

  0
ENDTAB
  0
TABLE
  2
VIEW
  5
6
330
0
100
AcDbSymbolTable
 70
     0
  0
ENDTAB
  0
TABLE
  2
UCS
  5
7
330
0
100
AcDbSymbolTable
 70
     0
  0
ENDTAB
  0
TABLE
  2
APPID
  5
9
330
0
100
AcDbSymbolTable
 70
     1
  0
APPID
  5
12
330
9
100
AcDbSymbolTableRecord
100
AcDbRegAppTableRecord
  2
ACAD
 70
     0
  0
ENDTAB
  0
TABLE
  2
DIMSTYLE
  5
A
330
0
100
AcDbSymbolTable
 70
     1
100
AcDbDimStyleTable
  0
DIMSTYLE
105
20
330
A
100
AcDbSymbolTableRecord
100
AcDbDimStyleTableRecord
  2
Standard
 70
     0
340
11
  0
ENDTAB
  0
TABLE
  2
BLOCK_RECORD
  5
1
330
0
100
AcDbSymbolTable
 70
     1
  0
BLOCK_RECORD
  5
1D
330
1
100
AcDbSymbolTableRecord
100
AcDbBlockTableRecord
  2
*Model_Space
340
1E
  0
BLOCK_RECORD
  5
1B
330
1
100
AcDbSymbolTableRecord
100
AcDbBlockTableRecord
  2
*Paper_Space
340
1C
  0
ENDTAB
  0
ENDSEC
  0
SECTION
  2
BLOCKS
  0
BLOCK
  5
9A8
330
1D
100
AcDbEntity
  8
0
100
AcDbBlockBegin
  2
*Model_Space
 70
     0
 10
0.0
 20
0.0
 30
0.0
  3
*Model_Space
  1
*Model_Space
  0
ENDBLK
  5
9A9
330
1D
100
AcDbEntity
  8
0
100
AcDbBlockEnd
  0
BLOCK
  5
9A6
330
1B
100
AcDbEntity
 67
     1
  8
0
100
AcDbBlockBegin
  2
*Paper_Space
 70
     0
 10
0.0
 20
0.0
 30
0.0
  3
*Paper_Space
  1
*Paper_Space
  0
ENDBLK
  5
9A7
330
1B
100
AcDbEntity
 67
     1
  8
0
100
AcDbBlockEnd
  0
ENDSEC
  0
SECTION
  2
ENTITIES
  0
LINE
  5
21
330
1D
100
AcDbEntity
  8
0
100
AcDbLine
 10
142.25265
 20
580.024
 30
0.0
 11
142.25265
 21
595.024
 31
0.0
  0
LINE
  5
22
330
1D
100
AcDbEntity
  8
0
100
AcDbLine
 10
142.25265
 20
580.024
 30
0.0
 11
144.25265
 21
580.024
 31
0.0
  0
LINE
  5
23
330
1D
100
AcDbEntity
  8
0
100
AcDbLine
 10
142.25265
 20
580.024
 30
0.0
 11
184.75265
 21
580.024
 31
0.0
  0
LINE
  5
24
330
1D
100
AcDbEntity
  8
0
100
AcDbLine
 10
142.25265
 20
580.024
 30
0.0
 11
287.25265
 21
580.024
 31
0.0
  0
LINE
  5
25
330
1D
100
AcDbEntity
  8
0
100
AcDbLine
 10
144.25265
 20
580.024
 30
0.0
 11
184.75265
 21
580.024
 31
0.0
  0
LINE
  5
26
330
1D
100
AcDbEntity
  8
0
100
AcDbLine
 10
144.25265
 20
580.024
 30
0.0
 11
285.25265
 21
580.024
 31
0.0
  0
LINE
  5
27
330
1D
100
AcDbEntity
  8
0
100
AcDbLine
 10
142.25265
 20
595.024
 30
0.0
 11
287.25265
 21
595.024
 31
0.0
  0
LINE
  5
28
330
1D
100
AcDbEntity
  8
0
100
AcDbLine
 10
142.25265
 20
595.024
 30
0.0
 11
142.25265
 21
580.024
 31
0.0
  0
LINE
  5
29
330
1D
100
AcDbEntity
  8
0
100
AcDbLine
 10
149.75265
 20
550.024
 30
0.0
 11
149.75265
 21
250.024
 31
0.0
  0
LINE
  5
2A
330
1D
100
AcDbEntity
  8
0
100
AcDbLine
 10
149.75265
 20
550.024
 30
0.0
 11
249.75265
 21
550.024
 31
0.0
  0
LINE
  5
2B
330
1D
100
AcDbEntity
  8
0
100
AcDbLine
 10
149.75265
 20
450.024
 30
0.0
 11
149.75265
 21
250.024
 31
0.0
  0
LINE
  5
2C
330
1D
100
AcDbEntity
  8
0
100
AcDbLine
 10
149.75265
 20
250.024
 30
0.0
 11
149.75265
 21
450.024
 31
0.0
  0
LINE
  5
2D
330
1D
100
AcDbEntity
  8
0
100
AcDbLine
 10
149.75265
 20
250.024
 30
0.0
 11
149.75265
 21
550.024
 31
0.0
  0
LINE
  5
2E
330
1D
100
AcDbEntity
  8
0
100
AcDbLine
 10
149.75265
 20
250.024
 30
0.0
 11
249.75265
 21
250.024
 31
0.0
  0
LINE
  5
2F
330
1D
100
AcDbEntity
  8
0
100
AcDbLine
 10
99.75265
 20
50.024
 30
0.0
 11
99.75265
 21
0.024
 31
0.0
  0
LINE
  5
30
330
1D
100
AcDbEntity
  8
0
100
AcDbLine
 10
99.75265
 20
50.024
 30
0.0
 11
299.75265
 21
50.024
 31
0.0
  0
LINE
  5
31
330
1D
100
AcDbEntity
  8
0
100
AcDbLine
 10
99.75265
 20
50.024
 30
0.0
 11
149.75265
 21
250.024
 31
0.0
  0
LINE
  5
32
330
1D
100
AcDbEntity
  8
0
100
AcDbLine
 10
99.75265
 20
0.024
 30
0.0
 11
299.75265
 21
0.024
 31
0.0
  0
LINE
  5
33
330
1D
100
AcDbEntity
  8
0
100
AcDbLine
 10
99.75265
 20
0.024
 30
0.0
 11
99.75265
 21
50.024
 31
0.0
  0
LINE
  5
4BC
330
1D
100
AcDbEntity
  8
0
100
AcDbLine
 10
179.75265
 20
603.024
 30
0.0
 11
179.83165
 21
603.024
 31
0.0
  0
LINE
  5
4BE
330
1D
100
AcDbEntity
  8
0
100
AcDbLine
 10
179.75265
 20
603.024
 30
0.0
 11
179.99165
 21
603.024
 31
0.0
  0
LINE
  5
4BF
330
1D
100
AcDbEntity
  8
0
100
AcDbLine
 10
179.75265
 20
603.024
 30
0.0
 11
179.99065
 21
603.024
 31
0.0
  0
LINE
  5
4C0
330
1D
100
AcDbEntity
  8
0
100
AcDbLine
 10
179.83165
 20
603.024
 30
0.0
 11
180.22565
 21
603.024
 31
0.0
  0
LINE
  5
4C1
330
1D
100
AcDbEntity
  8
0
100
AcDbLine
 10
179.77365
 20
603.024
 30
0.0
 11
179.85165
 21
603.024
 31
0.0
  0
LINE
  5
4C3
330
1D
100
AcDbEntity
  8
0
100
AcDbLine
 10
179.77365
 20
603.024
 30
0.0
 11
180.01165
 21
603.024
 31
0.0
  0
LINE
  5
4C4
330
1D
100
AcDbEntity
  8
0
100
AcDbLine
 10
179.77365
 20
603.024
 30
0.0
 11
179.85265
 21
603.024
 31
0.0
  0
LINE
  5
4C5
330
1D
100
AcDbEntity
  8
0
100
AcDbLine
 10
179.99065
 20
603.024
 30
0.0
 11
180.54465
 21
603.024
 31
0.0
  0
LINE
  5
4C6
330
1D
100
AcDbEntity
  8
0
100
AcDbLine
 10
179.99165
 20
603.024
 30
0.0
 11
180.54365
 21
603.024
 31
0.0
  0
LINE
  5
4C7
330
1D
100
AcDbEntity
  8
0
100
AcDbLine
 10
180.22565
 20
603.024
 30
0.0
 11
180.93365
 21
603.024
 31
0.0
  0
LINE
  5
4C8
330
1D
100
AcDbEntity
  8
0
100
AcDbLine
 10
179.85265
 20
603.024
 30
0.0
 11
180.24665
 21
603.024
 31
0.0
  0
LINE
  5
4C9
330
1D
100
AcDbEntity
  8
0
100
AcDbLine
 10
180.01165
 20
603.024
 30
0.0
 11
180.56465
 21
603.024
 31
0.0
  0
LINE
  5
4CA
330
1D
100
AcDbEntity
  8
0
100
AcDbLine
 10
179.85165
 20
603.024
 30
0.0
 11
180.24665
 21
603.024
 31
0.0
  0
LINE
  5
4CB
330
1D
100
AcDbEntity
  8
0
100
AcDbLine
 10
180.24665
 20
603.024
 30
0.0
 11
180.95465
 21
603.024
 31
0.0
  0
LINE
  5
4CC
330
1D
100
AcDbEntity
  8
0
100
AcDbLine
 10
180.54365
 20
603.024
 30
0.0
 11
181.40765
 21
603.024
 31
0.0
  0
LINE
  5
4CD
330
1D
100
AcDbEntity
  8
0
100
AcDbLine
 10
180.54465
 20
603.024
 30
0.0
 11
181.40665
 21
603.024
 31
0.0
  0
LINE
  5
4CE
330
1D
100
AcDbEntity
  8
0
100
AcDbLine
 10
180.56465
 20
603.024
 30
0.0
 11
181.42765
 21
603.024
 31
0.0
  0
LINE
  5
4CF
330
1D
100
AcDbEntity
  8
0
100
AcDbLine
 10
180.88665
 20
603.024
 30
0.0
 11
180.96265
 21
603.024
 31
0.0
  0
LINE
  5
4D0
330
1D
100
AcDbEntity
  8
0
100
AcDbLine
 10
180.88665
 20
603.024
 30
0.0
 11
181.11765
 21
603.024
 31
0.0
  0
LINE
  5
4D1
330
1D
100
AcDbEntity
  8
0
100
AcDbLine
 10
180.90665
 20
603.024
 30
0.0
 11
181.13765
 21
603.024
 31
0.0
  0
LINE
  5
4D2
330
1D
100
AcDbEntity
  8
0
100
AcDbLine
 10
180.90665
 20
603.024
 30
0.0
 11
180.98265
 21
603.024
 31
0.0
  0
LINE
  5
4D3
330
1D
100
AcDbEntity
  8
0
100
AcDbLine
 10
181.11765
 20
603.024
 30
0.0
 11
181.65265
 21
603.024
 31
0.0
  0
LINE
  5
4D4
330
1D
100
AcDbEntity
  8
0
100
AcDbLine
 10
180.96265
 20
603.024
 30
0.0
 11
181.34465
 21
603.024
 31
0.0
  0
LINE
  5
4D5
330
1D
100
AcDbEntity
  8
0
100
AcDbLine
 10
180.93365
 20
603.024
 30
0.0
 11
181.94765
 21
603.024
 31
0.0
  0
LINE
  5
4D6
330
1D
100
AcDbEntity
  8
0
100
AcDbLine
 10
181.34465
 20
603.024
 30
0.0
 11
182.02965
 21
603.024
 31
0.0
  0
LINE
  5
4D7
330
1D
100
AcDbEntity
  8
0
100
AcDbLine
 10
181.13765
 20
603.024
 30
0.0
 11
181.67265
 21
603.024
 31
0.0
  0
LINE
  5
4D8
330
1D
100
AcDbEntity
  8
0
100
AcDbLine
 10
180.98265
 20
603.024
 30
0.0
 11
181.36565
 21
603.024
 31
0.0
  0
LINE
  5
4D9
330
1D
100
AcDbEntity
  8
0
100
AcDbLine
 10
180.98265
 20
603.024
 30
0.0
 11
181.36465
 21
603.024
 31
0.0
  0
LINE
  5
4DA
330
1D
100
AcDbEntity
  8
0
100
AcDbLine
 10
180.90765
 20
603.024
 30
0.0
 11
180.98265
 21
603.024
 31
0.0
  0
LINE
  5
4DB
330
1D
100
AcDbEntity
  8
0
100
AcDbLine
 10
180.90765
 20
603.024
 30
0.0
 11
181.13765
 21
603.024
 31
0.0
  0
LINE
  5
4DC
330
1D
100
AcDbEntity
  8
0
100
AcDbLine
 10
180.95465
 20
603.024
 30
0.0
 11
181.96765
 21
603.024
 31
0.0
  0
LINE
  5
4DF
330
1D
100
AcDbEntity
  8
0
100
AcDbLine
 10
181.40665
 20
603.024
 30
0.0
 11
182.57165
 21
603.024
 31
0.0
  0
LINE
  5
4E0
330
1D
100
AcDbEntity
  8
0
100
AcDbLine
 10
181.40765
 20
603.024
 30
0.0
 11
182.57165
 21
603.024
 31
0.0
  0
LINE
  5
4E1
330
1D
100
AcDbEntity
  8
0
100
AcDbLine
 10
181.36465
 20
603.024
 30
0.0
 11
182.04965
 21
603.024
 31
0.0
  0
LINE
  5
4E2
330
1D
100
AcDbEntity
  8
0
100
AcDbLine
 10
181.36565
 20
603.024
 30
0.0
 11
182.04965
 21
603.024
 31
0.0
  0
LINE
  5
4E3
330
1D
100
AcDbEntity
  8
0
100
AcDbLine
 10
181.65265
 20
603.024
 30
0.0
 11
182.48665
 21
603.024
 31
0.0
  0
LINE
  5
4E4
330
1D
100
AcDbEntity
  8
0
100
AcDbLine
 10
182.02965
 20
603.024
 30
0.0
 11
183.00965
 21
603.024
 31
0.0
  0
LINE
  5
4E5
330
1D
100
AcDbEntity
  8
0
100
AcDbLine
 10
181.94765
 20
603.024
 30
0.0
 11
183.25765
 21
603.024
 31
0.0
  0
LINE
  5
4E6
330
1D
100
AcDbEntity
  8
0
100
AcDbLine
 10
182.48665
 20
603.024
 30
0.0
 11
183.52065
 21
603.024
 31
0.0
  0
LINE
  5
4E7
330
1D
100
AcDbEntity
  8
0
100
AcDbLine
 10
182.04965
 20
603.024
 30
0.0
 11
183.03065
 21
603.024
 31
0.0
  0
LINE
  5
4E8
330
1D
100
AcDbEntity
  8
0
100
AcDbLine
 10
182.04965
 20
603.024
 30
0.0
 11
183.02965
 21
603.024
 31
0.0
  0
LINE
  5
4E9
330
1D
100
AcDbEntity
  8
0
100
AcDbLine
 10
181.67265
 20
603.024
 30
0.0
 11
182.50765
 21
603.024
 31
0.0
  0
LINE
  5
4EA
330
1D
100
AcDbEntity
  8
0
100
AcDbLine
 10
181.67265
 20
603.024
 30
0.0
 11
182.50665
 21
603.024
 31
0.0
  0
LINE
  5
4EB
330
1D
100
AcDbEntity
  8
0
100
AcDbLine
 10
182.57165
 20
603.024
 30
0.0
 11
183.52065
 21
603.024
 31
0.0
  0
LINE
  5
4EC
330
1D
100
AcDbEntity
  8
0
100
AcDbLine
 10
182.50765
 20
603.024
 30
0.0
 11
183.52065
 21
603.024
 31
0.0
  0
LINE
  5
4ED
330
1D
100
AcDbEntity
  8
0
100
AcDbLine
 10
182.50665
 20
603.024
 30
0.0
 11
183.52065
 21
603.024
 31
0.0
  0
LINE
  5
4EE
330
1D
100
AcDbEntity
  8
0
100
AcDbLine
 10
181.42765
 20
603.024
 30
0.0
 11
182.59165
 21
603.024
 31
0.0
  0
LINE
  5
4EF
330
1D
100
AcDbEntity
  8
0
100
AcDbLine
 10
181.42765
 20
603.024
 30
0.0
 11
182.59265
 21
603.024
 31
0.0
  0
LINE
  5
4F0
330
1D
100
AcDbEntity
  8
0
100
AcDbLine
 10
181.96765
 20
603.024
 30
0.0
 11
183.27865
 21
603.024
 31
0.0
  0
LINE
  5
4F1
330
1D
100
AcDbEntity
  8
0
100
AcDbLine
 10
181.96765
 20
603.024
 30
0.0
 11
183.27765
 21
603.024
 31
0.0
  0
LINE
  5
4F2
330
1D
100
AcDbEntity
  8
0
100
AcDbLine
 10
182.75265
 20
600.198
 30
0.0
 11
182.75265
 21
602.85
 31
0.0
  0
LINE
  5
4F3
330
1D
100
AcDbEntity
  8
0
100
AcDbLine
 10
182.75265
 20
600.198
 30
0.0
 11
183.90465
 21
600.198
 31
0.0
  0
LINE
  5
4F4
330
1D
100
AcDbEntity
  8
0
100
AcDbLine
 10
182.75265
 20
600.198
 30
0.0
 11
183.52065
 21
600.024
 31
0.0
  0
LINE
  5
4F5
330
1D
100
AcDbEntity
  8
0
100
AcDbLine
 10
182.75265
 20
602.85
 30
0.0
 11
182.75265
 21
600.198
 31
0.0
  0
LINE
  5
4F6
330
1D
100
AcDbEntity
  8
0
100
AcDbLine
 10
182.75265
 20
602.85
 30
0.0
 11
183.428950747299
 21
603.00322438806
 31
0.0
  0
LINE
  5
4F8
330
1D
100
AcDbEntity
  8
0
100
AcDbLine
 10
182.75265
 20
602.85
 30
0.0
 11
183.90465
 21
602.85
 31
0.0
  0
LINE
  5
4F9
330
1D
100
AcDbEntity
  8
0
100
AcDbLine
 10
183.00965
 20
603.024
 30
0.0
 11
183.52065
 21
603.024
 31
0.0
  0
LINE
  5
4FA
330
1D
100
AcDbEntity
  8
0
100
AcDbLine
 10
183.02965
 20
603.024
 30
0.0
 11
184.29765
 21
603.024
 31
0.0
  0
LINE
  5
4FB
330
1D
100
AcDbEntity
  8
0
100
AcDbLine
 10
183.25765
 20
603.024
 30
0.0
 11
183.52065
 21
603.024
 31
0.0
  0
LINE
  5
4FC
330
1D
100
AcDbEntity
  8
0
100
AcDbLine
 10
183.27765
 20
603.024
 30
0.0
 11
184.87265
 21
603.024
 31
0.0
  0
LINE
  5
4FD
330
1D
100
AcDbEntity
  8
0
100
AcDbLine
 10
183.03065
 20
603.024
 30
0.0
 11
184.29865
 21
603.024
 31
0.0
  0
LINE
  5
4FE
330
1D
100
AcDbEntity
  8
0
100
AcDbLine
 10
182.59265
 20
603.024
 30
0.0
 11
183.52065
 21
603.024
 31
0.0
  0
LINE
  5
4FF
330
1D
100
AcDbEntity
  8
0
100
AcDbLine
 10
183.52065
 20
603.024
 30
0.0
 11
184.67265
 21
603.024
 31
0.0
  0
LINE
  5
500
330
1D
100
AcDbEntity
  8
0
100
AcDbLine
 10
184.75265
 20
550.024
 30
0.0
 11
184.75265
 21
580.024
 31
0.0
  0
LINE
  5
501
330
1D
100
AcDbEntity
  8
0
100
AcDbLine
 10
184.75265
 20
580.024
 30
0.0
 11
184.75265
 21
550.024
 31
0.0
  0
LINE
  5
502
330
1D
100
AcDbEntity
  8
0
100
AcDbLine
 10
183.90465
 20
602.85
 30
0.0
 11
186.97665
 21
602.85
 31
0.0
  0
LINE
  5
503
330
1D
100
AcDbEntity
  8
0
100
AcDbLine
 10
184.67265
 20
603.024
 30
0.0
 11
187.74465
 21
603.024
 31
0.0
  0
LINE
  5
504
330
1D
100
AcDbEntity
  8
0
100
AcDbLine
 10
183.90465
 20
600.198
 30
0.0
 11
186.97665
 21
600.198
 31
0.0
  0
LINE
  5
505
330
1D
100
AcDbEntity
  8
0
100
AcDbLine
 10
184.67265
 20
600.024
 30
0.0
 11
187.74465
 21
600.024
 31
0.0
  0
LINE
  5
506
330
1D
100
AcDbEntity
  8
0
100
AcDbLine
 10
183.52065
 20
600.024
 30
0.0
 11
184.67265
 21
600.024
 31
0.0
  0
LINE
  5
507
330
1D
100
AcDbEntity
  8
0
100
AcDbLine
 10
184.29765
 20
603.024
 30
0.0
 11
185.84165
 21
603.024
 31
0.0
  0
LINE
  5
508
330
1D
100
AcDbEntity
  8
0
100
AcDbLine
 10
186.73965
 20
603.024
 30
0.0
 11
188.86065
 21
603.024
 31
0.0
  0
LINE
  5
509
330
1D
100
AcDbEntity
  8
0
100
AcDbLine
 10
184.87265
 20
603.024
 30
0.0
 11
186.73965
 21
603.024
 31
0.0
  0
LINE
  5
50A
330
1D
100
AcDbEntity
  8
0
100
AcDbLine
 10
184.29865
 20
603.024
 30
0.0
 11
185.84165
 21
603.024
 31
0.0
  0
LINE
  5
50B
330
1D
100
AcDbEntity
  8
0
100
AcDbLine
 10
183.27865
 20
603.024
 30
0.0
 11
184.87365
 21
603.024
 31
0.0
  0
LINE
  5
50C
330
1D
100
AcDbEntity
  8
0
100
AcDbLine
 10
184.87365
 20
603.024
 30
0.0
 11
186.74065
 21
603.024
 31
0.0
  0
LINE
  5
50D
330
1D
100
AcDbEntity
  8
0
100
AcDbLine
 10
188.75265
 20
595.024
 30
0.0
 11
188.75265
 21
600.024
 31
0.0
  0
LINE
  5
50E
330
1D
100
AcDbEntity
  8
0
100
AcDbLine
 10
189.68865
 20
600.024
 30
0.0
 11
192.18465
 21
600.024
 31
0.0
  0
LINE
  5
50F
330
1D
100
AcDbEntity
  8
0
100
AcDbLine
 10
188.75265
 20
600.024
 30
0.0
 11
188.75265
 21
595.024
 31
0.0
  0
LINE
  5
510
330
1D
100
AcDbEntity
  8
0
100
AcDbLine
 10
188.75265
 20
600.024
 30
0.0
 11
189.68865
 21
600.024
 31
0.0
  0
LINE
  5
511
330
1D
100
AcDbEntity
  8
0
100
AcDbLine
 10
186.97665
 20
602.85
 30
0.0
 11
192.09665
 21
602.85
 31
0.0
  0
LINE
  5
512
330
1D
100
AcDbEntity
  8
0
100
AcDbLine
 10
187.74465
 20
603.024
 30
0.0
 11
192.73665
 21
603.024
 31
0.0
  0
LINE
  5
513
330
1D
100
AcDbEntity
  8
0
100
AcDbLine
 10
186.97665
 20
600.198
 30
0.0
 11
192.09665
 21
600.198
 31
0.0
  0
LINE
  5
514
330
1D
100
AcDbEntity
  8
0
100
AcDbLine
 10
187.74465
 20
600.024
 30
0.0
 11
188.75265
 21
600.024
 31
0.0
  0
LINE
  5
515
330
1D
100
AcDbEntity
  8
0
100
AcDbLine
 10
187.74465
 20
600.024
 30
0.0
 11
192.73665
 21
600.024
 31
0.0
  0
LINE
  5
516
330
1D
100
AcDbEntity
  8
0
100
AcDbLine
 10
189.69865
 20
603.024
 30
0.0
 11
191.97765
 21
603.024
 31
0.0
  0
LINE
  5
517
330
1D
100
AcDbEntity
  8
0
100
AcDbLine
 10
187.64865
 20
603.024
 30
0.0
 11
189.69865
 21
603.024
 31
0.0
  0
LINE
  5
518
330
1D
100
AcDbEntity
  8
0
100
AcDbLine
 10
187.64865
 20
603.024
 30
0.0
 11
189.69965
 21
603.024
 31
0.0
  0
LINE
  5
519
330
1D
100
AcDbEntity
  8
0
100
AcDbLine
 10
189.69965
 20
603.024
 30
0.0
 11
191.97765
 21
603.024
 31
0.0
  0
LINE
  5
51A
330
1D
100
AcDbEntity
  8
0
100
AcDbLine
 10
188.86065
 20
603.024
 30
0.0
 11
191.21465
 21
603.024
 31
0.0
  0
LINE
  5
51B
330
1D
100
AcDbEntity
  8
0
100
AcDbLine
 10
186.74065
 20
603.024
 30
0.0
 11
188.85965
 21
603.024
 31
0.0
  0
LINE
  5
51C
330
1D
100
AcDbEntity
  8
0
100
AcDbLine
 10
188.85965
 20
603.024
 30
0.0
 11
191.21465
 21
603.024
 31
0.0
  0
LINE
  5
51D
330
1D
100
AcDbEntity
  8
0
100
AcDbLine
 10
192.18465
 20
600.024
 30
0.0
 11
196.34465
 21
600.024
 31
0.0
  0
LINE
  5
51E
330
1D
100
AcDbEntity
  8
0
100
AcDbLine
 10
192.73665
 20
600.024
 30
0.0
 11
199.26465
 21
600.024
 31
0.0
  0
LINE
  5
51F
330
1D
100
AcDbEntity
  8
0
100
AcDbLine
 10
192.73665
 20
603.024
 30
0.0
 11
199.26465
 21
603.024
 31
0.0
  0
LINE
  5
520
330
1D
100
AcDbEntity
  8
0
100
AcDbLine
 10
192.09665
 20
602.85
 30
0.0
 11
198.88065
 21
602.85
 31
0.0
  0
LINE
  5
521
330
1D
100
AcDbEntity
  8
0
100
AcDbLine
 10
192.09665
 20
600.198
 30
0.0
 11
198.88065
 21
600.198
 31
0.0
  0
LINE
  5
522
330
1D
100
AcDbEntity
  8
0
100
AcDbLine
 10
196.34465
 20
600.024
 30
0.0
 11
201.85665
 21
600.024
 31
0.0
  0
LINE
  5
523
330
1D
100
AcDbEntity
  8
0
100
AcDbLine
 10
194.46265
 20
603.024
 30
0.0
 11
197.13065
 21
603.024
 31
0.0
  0
LINE
  5
524
330
1D
100
AcDbEntity
  8
0
100
AcDbLine
 10
191.97765
 20
603.024
 30
0.0
 11
194.46265
 21
603.024
 31
0.0
  0
LINE
  5
525
330
1D
100
AcDbEntity
  8
0
100
AcDbLine
 10
191.21465
 20
603.024
 30
0.0
 11
193.78265
 21
603.024
 31
0.0
  0
LINE
  5
526
330
1D
100
AcDbEntity
  8
0
100
AcDbLine
 10
193.78265
 20
603.024
 30
0.0
 11
196.54065
 21
603.024
 31
0.0
  0
LINE
  5
527
330
1D
100
AcDbEntity
  8
0
100
AcDbLine
 10
193.78265
 20
603.024
 30
0.0
 11
196.54165
 21
603.024
 31
0.0
  0
LINE
  5
528
330
1D
100
AcDbEntity
  8
0
100
AcDbLine
 10
199.26465
 20
600.024
 30
0.0
 11
206.68865
 21
600.024
 31
0.0
  0
LINE
  5
529
330
1D
100
AcDbEntity
  8
0
100
AcDbLine
 10
199.26465
 20
603.024
 30
0.0
 11
206.68865
 21
603.024
 31
0.0
  0
LINE
  5
52A
330
1D
100
AcDbEntity
  8
0
100
AcDbLine
 10
198.88065
 20
602.85
 30
0.0
 11
206.56065
 21
602.85
 31
0.0
  0
LINE
  5
52B
330
1D
100
AcDbEntity
  8
0
100
AcDbLine
 10
198.88065
 20
600.198
 30
0.0
 11
206.56065
 21
600.198
 31
0.0
  0
LINE
  5
52C
330
1D
100
AcDbEntity
  8
0
100
AcDbLine
 10
201.85665
 20
600.024
 30
0.0
 11
208.09665
 21
600.024
 31
0.0
  0
LINE
  5
52D
330
1D
100
AcDbEntity
  8
0
100
AcDbLine
 10
199.95865
 20
603.024
 30
0.0
 11
202.92165
 21
603.024
 31
0.0
  0
LINE
  5
52E
330
1D
100
AcDbEntity
  8
0
100
AcDbLine
 10
199.95965
 20
603.024
 30
0.0
 11
202.92165
 21
603.024
 31
0.0
  0
LINE
  5
52F
330
1D
100
AcDbEntity
  8
0
100
AcDbLine
 10
197.13065
 20
603.024
 30
0.0
 11
199.95965
 21
603.024
 31
0.0
  0
LINE
  5
530
330
1D
100
AcDbEntity
  8
0
100
AcDbLine
 10
197.13065
 20
603.024
 30
0.0
 11
199.95865
 21
603.024
 31
0.0
  0
LINE
  5
531
330
1D
100
AcDbEntity
  8
0
100
AcDbLine
 10
196.54165
 20
603.024
 30
0.0
 11
199.46365
 21
603.024
 31
0.0
  0
LINE
  5
532
330
1D
100
AcDbEntity
  8
0
100
AcDbLine
 10
196.54065
 20
603.024
 30
0.0
 11
199.46365
 21
603.024
 31
0.0
  0
LINE
  5
533
330
1D
100
AcDbEntity
  8
0
100
AcDbLine
 10
199.46365
 20
603.024
 30
0.0
 11
202.52565
 21
603.024
 31
0.0
  0
LINE
  5
534
330
1D
100
AcDbEntity
  8
0
100
AcDbLine
 10
205.99065
 20
603.024
 30
0.0
 11
209.13965
 21
603.024
 31
0.0
  0
LINE
  5
535
330
1D
100
AcDbEntity
  8
0
100
AcDbLine
 10
208.09665
 20
600.024
 30
0.0
 11
214.75265
 21
600.024
 31
0.0
  0
LINE
  5
536
330
1D
100
AcDbEntity
  8
0
100
AcDbLine
 10
206.68865
 20
600.024
 30
0.0
 11
214.75265
 21
600.024
 31
0.0
  0
LINE
  5
537
330
1D
100
AcDbEntity
  8
0
100
AcDbLine
 10
206.68865
 20
603.024
 30
0.0
 11
214.75265
 21
603.024
 31
0.0
  0
LINE
  5
538
330
1D
100
AcDbEntity
  8
0
100
AcDbLine
 10
206.56065
 20
602.85
 30
0.0
 11
214.75265
 21
602.85
 31
0.0
  0
LINE
  5
539
330
1D
100
AcDbEntity
  8
0
100
AcDbLine
 10
206.56065
 20
600.198
 30
0.0
 11
214.75265
 21
600.198
 31
0.0
  0
LINE
  5
53A
330
1D
100
AcDbEntity
  8
0
100
AcDbLine
 10
205.99165
 20
603.024
 30
0.0
 11
209.14065
 21
603.024
 31
0.0
  0
LINE
  5
53B
330
1D
100
AcDbEntity
  8
0
100
AcDbLine
 10
202.92165
 20
603.024
 30
0.0
 11
205.99165
 21
603.024
 31
0.0
  0
LINE
  5
53C
330
1D
100
AcDbEntity
  8
0
100
AcDbLine
 10
202.92165
 20
603.024
 30
0.0
 11
205.99065
 21
603.024
 31
0.0
  0
LINE
  5
53D
330
1D
100
AcDbEntity
  8
0
100
AcDbLine
 10
202.52565
 20
603.024
 30
0.0
 11
205.69765
 21
603.024
 31
0.0
  0
LINE
  5
53E
330
1D
100
AcDbEntity
  8
0
100
AcDbLine
 10
205.69765
 20
603.024
 30
0.0
 11
208.95165
 21
603.024
 31
0.0
  0
LINE
  5
53F
330
1D
100
AcDbEntity
  8
0
100
AcDbLine
 10
205.69765
 20
603.024
 30
0.0
 11
208.95265
 21
603.024
 31
0.0
  0
LINE
  5
540
330
1D
100
AcDbEntity
  8
0
100
AcDbLine
 10
209.13965
 20
603.024
 30
0.0
 11
212.34065
 21
603.024
 31
0.0
  0
LINE
  5
541
330
1D
100
AcDbEntity
  8
0
100
AcDbLine
 10
211.81965
 20
578.877
 30
0.0
 11
211.91065
 21
578.877
 31
0.0
  0
LINE
  5
542
330
1D
100
AcDbEntity
  8
0
100
AcDbLine
 10
211.81965
 20
578.877
 30
0.0
 11
211.91365
 21
578.877
 31
0.0
  0
LINE
  5
543
330
1D
100
AcDbEntity
  8
0
100
AcDbLine
 10
211.81965
 20
578.877
 30
0.0
 11
211.81965
 21
580.024
 31
0.0
  0
LINE
  5
544
330
1D
100
AcDbEntity
  8
0
100
AcDbLine
 10
211.91065
 20
578.877
 30
0.0
 11
212.20965
 21
578.877
 31
0.0
  0
LINE
  5
545
330
1D
100
AcDbEntity
  8
0
100
AcDbLine
 10
212.20965
 20
578.877
 30
0.0
 11
212.69965
 21
578.877
 31
0.0
  0
LINE
  5
546
330
1D
100
AcDbEntity
  8
0
100
AcDbLine
 10
211.91365
 20
578.877
 30
0.0
 11
212.21665
 21
578.877
 31
0.0
  0
LINE
  5
547
330
1D
100
AcDbEntity
  8
0
100
AcDbLine
 10
212.21665
 20
578.877
 30
0.0
 11
212.68165
 21
578.877
 31
0.0
  0
LINE
  5
548
330
1D
100
AcDbEntity
  8
0
100
AcDbLine
 10
214.03465
 20
578.877
 30
0.0
 11
214.80465
 21
578.877
 31
0.0
  0
LINE
  5
549
330
1D
100
AcDbEntity
  8
0
100
AcDbLine
 10
212.69965
 20
578.877
 30
0.0
 11
213.32065
 21
578.877
 31
0.0
  0
LINE
  5
54A
330
1D
100
AcDbEntity
  8
0
100
AcDbLine
 10
213.32065
 20
578.877
 30
0.0
 11
214.03465
 21
578.877
 31
0.0
  0
LINE
  5
54B
330
1D
100
AcDbEntity
  8
0
100
AcDbLine
 10
212.68165
 20
578.877
 30
0.0
 11
213.30965
 21
578.877
 31
0.0
  0
LINE
  5
54C
330
1D
100
AcDbEntity
  8
0
100
AcDbLine
 10
211.81965
 20
580.024
 30
0.0
 11
211.81965
 21
578.877
 31
0.0
  0
LINE
  5
54D
330
1D
100
AcDbEntity
  8
0
100
AcDbLine
 10
213.30965
 20
578.877
 30
0.0
 11
214.04765
 21
578.877
 31
0.0
  0
LINE
  5
54E
330
1D
100
AcDbEntity
  8
0
100
AcDbLine
 10
214.04765
 20
578.877
 30
0.0
 11
214.81765
 21
578.877
 31
0.0
  0
LINE
  5
54F
330
1D
100
AcDbEntity
  8
0
100
AcDbLine
 10
214.75265
 20
600.024
 30
0.0
 11
222.81665
 21
600.024
 31
0.0
  0
LINE
  5
550
330
1D
100
AcDbEntity
  8
0
100
AcDbLine
 10
214.75265
 20
600.024
 30
0.0
 11
221.40865
 21
600.024
 31
0.0
  0
LINE
  5
551
330
1D
100
AcDbEntity
  8
0
100
AcDbLine
 10
214.80465
 20
578.877
 30
0.0
 11
215.57465
 21
578.877
 31
0.0
  0
LINE
  5
552
330
1D
100
AcDbEntity
  8
0
100
AcDbLine
 10
214.81765
 20
578.877
 30
0.0
 11
215.58765
 21
578.877
 31
0.0
  0
LINE
  5
553
330
1D
100
AcDbEntity
  8
0
100
AcDbLine
 10
214.75265
 20
600.198
 30
0.0
 11
222.94465
 21
600.198
 31
0.0
  0
LINE
  5
554
330
1D
100
AcDbEntity
  8
0
100
AcDbLine
 10
214.75265
 20
603.024
 30
0.0
 11
222.81665
 21
603.024
 31
0.0
  0
LINE
  5
555
330
1D
100
AcDbEntity
  8
0
100
AcDbLine
 10
214.75265
 20
602.85
 30
0.0
 11
222.94465
 21
602.85
 31
0.0
  0
LINE
  5
556
330
1D
100
AcDbEntity
  8
0
100
AcDbLine
 10
215.58765
 20
578.877
 30
0.0
 11
216.30165
 21
578.877
 31
0.0
  0
LINE
  5
557
330
1D
100
AcDbEntity
  8
0
100
AcDbLine
 10
215.57465
 20
578.877
 30
0.0
 11
216.31365
 21
578.877
 31
0.0
  0
LINE
  5
558
330
1D
100
AcDbEntity
  8
0
100
AcDbLine
 10
215.56265
 20
603.024
 30
0.0
 11
218.77665
 21
603.024
 31
0.0
  0
LINE
  5
559
330
1D
100
AcDbEntity
  8
0
100
AcDbLine
 10
215.56265
 20
603.024
 30
0.0
 11
218.77765
 21
603.024
 31
0.0
  0
LINE
  5
55A
330
1D
100
AcDbEntity
  8
0
100
AcDbLine
 10
212.34065
 20
603.024
 30
0.0
 11
215.56265
 21
603.024
 31
0.0
  0
LINE
  5
55B
330
1D
100
AcDbEntity
  8
0
100
AcDbLine
 10
209.14065
 20
603.024
 30
0.0
 11
212.34065
 21
603.024
 31
0.0
  0
LINE
  5
55C
330
1D
100
AcDbEntity
  8
0
100
AcDbLine
 10
208.95265
 20
603.024
 30
0.0
 11
212.25965
 21
603.024
 31
0.0
  0
LINE
  5
55D
330
1D
100
AcDbEntity
  8
0
100
AcDbLine
 10
208.95165
 20
603.024
 30
0.0
 11
212.25965
 21
603.024
 31
0.0
  0
LINE
  5
55E
330
1D
100
AcDbEntity
  8
0
100
AcDbLine
 10
212.25965
 20
603.024
 30
0.0
 11
215.58865
 21
603.024
 31
0.0
  0
LINE
  5
55F
330
1D
100
AcDbEntity
  8
0
100
AcDbLine
 10
216.92265
 20
578.877
 30
0.0
 11
217.41265
 21
578.877
 31
0.0
  0
LINE
  5
560
330
1D
100
AcDbEntity
  8
0
100
AcDbLine
 10
216.30165
 20
578.877
 30
0.0
 11
216.92265
 21
578.877
 31
0.0
  0
LINE
  5
561
330
1D
100
AcDbEntity
  8
0
100
AcDbLine
 10
217.80365
 20
578.877
 30
0.0
 11
217.80365
 21
580.024
 31
0.0
  0
LINE
  5
562
330
1D
100
AcDbEntity
  8
0
100
AcDbLine
 10
217.70965
 20
578.877
 30
0.0
 11
217.80365
 21
578.877
 31
0.0
  0
LINE
  5
563
330
1D
100
AcDbEntity
  8
0
100
AcDbLine
 10
217.71165
 20
578.877
 30
0.0
 11
217.80365
 21
578.877
 31
0.0
  0
LINE
  5
564
330
1D
100
AcDbEntity
  8
0
100
AcDbLine
 10
217.41265
 20
578.877
 30
0.0
 11
217.71165
 21
578.877
 31
0.0
  0
LINE
  5
565
330
1D
100
AcDbEntity
  8
0
100
AcDbLine
 10
217.40565
 20
578.877
 30
0.0
 11
217.70965
 21
578.877
 31
0.0
  0
LINE
  5
566
330
1D
100
AcDbEntity
  8
0
100
AcDbLine
 10
216.94165
 20
578.877
 30
0.0
 11
217.40565
 21
578.877
 31
0.0
  0
LINE
  5
567
330
1D
100
AcDbEntity
  8
0
100
AcDbLine
 10
217.80365
 20
580.024
 30
0.0
 11
217.80365
 21
578.877
 31
0.0
  0
LINE
  5
568
330
1D
100
AcDbEntity
  8
0
100
AcDbLine
 10
216.31365
 20
578.877
 30
0.0
 11
216.94165
 21
578.877
 31
0.0
  0
LINE
  5
569
330
1D
100
AcDbEntity
  8
0
100
AcDbLine
 10
221.40865
 20
600.024
 30
0.0
 11
227.64865
 21
600.024
 31
0.0
  0
LINE
  5
56A
330
1D
100
AcDbEntity
  8
0
100
AcDbLine
 10
218.77765
 20
603.024
 30
0.0
 11
221.95565
 21
603.024
 31
0.0
  0
LINE
  5
56B
330
1D
100
AcDbEntity
  8
0
100
AcDbLine
 10
222.19565
 20
603.024
 30
0.0
 11
225.41265
 21
603.024
 31
0.0
  0
LINE
  5
56C
330
1D
100
AcDbEntity
  8
0
100
AcDbLine
 10
218.77665
 20
603.024
 30
0.0
 11
221.95565
 21
603.024
 31
0.0
  0
LINE
  5
56D
330
1D
100
AcDbEntity
  8
0
100
AcDbLine
 10
218.91065
 20
603.024
 30
0.0
 11
222.19565
 21
603.024
 31
0.0
  0
LINE
  5
56E
330
1D
100
AcDbEntity
  8
0
100
AcDbLine
 10
215.58865
 20
603.024
 30
0.0
 11
218.91165
 21
603.024
 31
0.0
  0
LINE
  5
56F
330
1D
100
AcDbEntity
  8
0
100
AcDbLine
 10
215.58865
 20
603.024
 30
0.0
 11
218.91065
 21
603.024
 31
0.0
  0
LINE
  5
570
330
1D
100
AcDbEntity
  8
0
100
AcDbLine
 10
218.91165
 20
603.024
 30
0.0
 11
222.19665
 21
603.024
 31
0.0
  0
LINE
  5
571
330
1D
100
AcDbEntity
  8
0
100
AcDbLine
 10
222.81665
 20
600.024
 30
0.0
 11
230.24065
 21
600.024
 31
0.0
  0
LINE
  5
572
330
1D
100
AcDbEntity
  8
0
100
AcDbLine
 10
222.94465
 20
600.198
 30
0.0
 11
230.62465
 21
600.198
 31
0.0
  0
LINE
  5
573
330
1D
100
AcDbEntity
  8
0
100
AcDbLine
 10
222.81665
 20
603.024
 30
0.0
 11
230.24065
 21
603.024
 31
0.0
  0
LINE
  5
574
330
1D
100
AcDbEntity
  8
0
100
AcDbLine
 10
222.94465
 20
602.85
 30
0.0
 11
230.62465
 21
602.85
 31
0.0
  0
LINE
  5
575
330
1D
100
AcDbEntity
  8
0
100
AcDbLine
 10
227.64865
 20
600.024
 30
0.0
 11
233.16065
 21
600.024
 31
0.0
  0
LINE
  5
576
330
1D
100
AcDbEntity
  8
0
100
AcDbLine
 10
228.08865
 20
603.024
 30
0.0
 11
230.98665
 21
603.024
 31
0.0
  0
LINE
  5
577
330
1D
100
AcDbEntity
  8
0
100
AcDbLine
 10
228.08765
 20
603.024
 30
0.0
 11
230.98665
 21
603.024
 31
0.0
  0
LINE
  5
578
330
1D
100
AcDbEntity
  8
0
100
AcDbLine
 10
225.06865
 20
603.024
 30
0.0
 11
228.08765
 21
603.024
 31
0.0
  0
LINE
  5
579
330
1D
100
AcDbEntity
  8
0
100
AcDbLine
 10
225.06865
 20
603.024
 30
0.0
 11
228.08865
 21
603.024
 31
0.0
  0
LINE
  5
57A
330
1D
100
AcDbEntity
  8
0
100
AcDbLine
 10
225.41265
 20
603.024
 30
0.0
 11
228.53465
 21
603.024
 31
0.0
  0
LINE
  5
57B
330
1D
100
AcDbEntity
  8
0
100
AcDbLine
 10
222.19665
 20
603.024
 30
0.0
 11
225.41365
 21
603.024
 31
0.0
  0
LINE
  5
57C
330
1D
100
AcDbEntity
  8
0
100
AcDbLine
 10
225.41365
 20
603.024
 30
0.0
 11
228.53465
 21
603.024
 31
0.0
  0
LINE
  5
57D
330
1D
100
AcDbEntity
  8
0
100
AcDbLine
 10
230.24065
 20
600.024
 30
0.0
 11
236.76865
 21
600.024
 31
0.0
  0
LINE
  5
57E
330
1D
100
AcDbEntity
  8
0
100
AcDbLine
 10
233.16065
 20
600.024
 30
0.0
 11
237.32065
 21
600.024
 31
0.0
  0
LINE
  5
57F
330
1D
100
AcDbEntity
  8
0
100
AcDbLine
 10
230.62465
 20
600.198
 30
0.0
 11
237.40865
 21
600.198
 31
0.0
  0
LINE
  5
580
330
1D
100
AcDbEntity
  8
0
100
AcDbLine
 10
230.24065
 20
603.024
 30
0.0
 11
236.76865
 21
603.024
 31
0.0
  0
LINE
  5
581
330
1D
100
AcDbEntity
  8
0
100
AcDbLine
 10
230.62465
 20
602.85
 30
0.0
 11
237.40865
 21
602.85
 31
0.0
  0
LINE
  5
582
330
1D
100
AcDbEntity
  8
0
100
AcDbLine
 10
233.73965
 20
603.024
 30
0.0
 11
236.31965
 21
603.024
 31
0.0
  0
LINE
  5
583
330
1D
100
AcDbEntity
  8
0
100
AcDbLine
 10
230.98665
 20
603.024
 30
0.0
 11
233.73965
 21
603.024
 31
0.0
  0
LINE
  5
584
330
1D
100
AcDbEntity
  8
0
100
AcDbLine
 10
228.53465
 20
603.024
 30
0.0
 11
231.53065
 21
603.024
 31
0.0
  0
LINE
  5
585
330
1D
100
AcDbEntity
  8
0
100
AcDbLine
 10
231.53065
 20
603.024
 30
0.0
 11
234.37465
 21
603.024
 31
0.0
  0
LINE
  5
586
330
1D
100
AcDbEntity
  8
0
100
AcDbLine
 10
231.53065
 20
603.024
 30
0.0
 11
234.37565
 21
603.024
 31
0.0
  0
LINE
  5
587
330
1D
100
AcDbEntity
  8
0
100
AcDbLine
 10
237.32065
 20
600.024
 30
0.0
 11
239.81665
 21
600.024
 31
0.0
  0
LINE
  5
588
330
1D
100
AcDbEntity
  8
0
100
AcDbLine
 10
236.76865
 20
600.024
 30
0.0
 11
241.76065
 21
600.024
 31
0.0
  0
LINE
  5
589
330
1D
100
AcDbEntity
  8
0
100
AcDbLine
 10
237.40865
 20
600.198
 30
0.0
 11
242.52865
 21
600.198
 31
0.0
  0
LINE
  5
58A
330
1D
100
AcDbEntity
  8
0
100
AcDbLine
 10
236.76865
 20
603.024
 30
0.0
 11
241.76065
 21
603.024
 31
0.0
  0
LINE
  5
58B
330
1D
100
AcDbEntity
  8
0
100
AcDbLine
 10
237.40865
 20
602.85
 30
0.0
 11
242.52865
 21
602.85
 31
0.0
  0
LINE
  5
58C
330
1D
100
AcDbEntity
  8
0
100
AcDbLine
 10
238.70565
 20
603.024
 30
0.0
 11
240.87265
 21
603.024
 31
0.0
  0
LINE
  5
58D
330
1D
100
AcDbEntity
  8
0
100
AcDbLine
 10
238.70565
 20
603.024
 30
0.0
 11
240.87365
 21
603.024
 31
0.0
  0
LINE
  5
58E
330
1D
100
AcDbEntity
  8
0
100
AcDbLine
 10
234.37565
 20
603.024
 30
0.0
 11
237.04165
 21
603.024
 31
0.0
  0
LINE
  5
58F
330
1D
100
AcDbEntity
  8
0
100
AcDbLine
 10
234.37465
 20
603.024
 30
0.0
 11
237.04165
 21
603.024
 31
0.0
  0
LINE
  5
590
330
1D
100
AcDbEntity
  8
0
100
AcDbLine
 10
237.04165
 20
603.024
 30
0.0
 11
239.50665
 21
603.024
 31
0.0
  0
LINE
  5
591
330
1D
100
AcDbEntity
  8
0
100
AcDbLine
 10
237.04165
 20
603.024
 30
0.0
 11
239.50765
 21
603.024
 31
0.0
  0
LINE
  5
592
330
1D
100
AcDbEntity
  8
0
100
AcDbLine
 10
240.75265
 20
595.024
 30
0.0
 11
240.75265
 21
600.024
 31
0.0
  0
LINE
  5
593
330
1D
100
AcDbEntity
  8
0
100
AcDbLine
 10
239.81665
 20
600.024
 30
0.0
 11
240.75265
 21
600.024
 31
0.0
  0
LINE
  5
594
330
1D
100
AcDbEntity
  8
0
100
AcDbLine
 10
240.75265
 20
600.024
 30
0.0
 11
241.76065
 21
600.024
 31
0.0
  0
LINE
  5
595
330
1D
100
AcDbEntity
  8
0
100
AcDbLine
 10
240.75265
 20
600.024
 30
0.0
 11
240.75265
 21
595.024
 31
0.0
  0
LINE
  5
596
330
1D
100
AcDbEntity
  8
0
100
AcDbLine
 10
241.76065
 20
603.024
 30
0.0
 11
244.83265
 21
603.024
 31
0.0
  0
LINE
  5
597
330
1D
100
AcDbEntity
  8
0
100
AcDbLine
 10
242.52865
 20
600.198
 30
0.0
 11
245.60065
 21
600.198
 31
0.0
  0
LINE
  5
598
330
1D
100
AcDbEntity
  8
0
100
AcDbLine
 10
242.52865
 20
602.85
 30
0.0
 11
245.60065
 21
602.85
 31
0.0
  0
LINE
  5
599
330
1D
100
AcDbEntity
  8
0
100
AcDbLine
 10
241.76065
 20
600.024
 30
0.0
 11
244.83265
 21
600.024
 31
0.0
  0
LINE
  5
59A
330
1D
100
AcDbEntity
  8
0
100
AcDbLine
 10
240.87365
 20
603.024
 30
0.0
 11
242.80465
 21
603.024
 31
0.0
  0
LINE
  5
59B
330
1D
100
AcDbEntity
  8
0
100
AcDbLine
 10
240.87265
 20
603.024
 30
0.0
 11
242.80565
 21
603.024
 31
0.0
  0
LINE
  5
59C
330
1D
100
AcDbEntity
  8
0
100
AcDbLine
 10
239.50765
 20
603.024
 30
0.0
 11
241.74765
 21
603.024
 31
0.0
  0
LINE
  5
59D
330
1D
100
AcDbEntity
  8
0
100
AcDbLine
 10
239.50665
 20
603.024
 30
0.0
 11
241.74765
 21
603.024
 31
0.0
  0
LINE
  5
59E
330
1D
100
AcDbEntity
  8
0
100
AcDbLine
 10
241.74765
 20
603.024
 30
0.0
 11
243.74365
 21
603.024
 31
0.0
  0
LINE
  5
59F
330
1D
100
AcDbEntity
  8
0
100
AcDbLine
 10
241.74765
 20
603.024
 30
0.0
 11
243.74465
 21
603.024
 31
0.0
  0
LINE
  5
5A0
330
1D
100
AcDbEntity
  8
0
100
AcDbLine
 10
242.80565
 20
603.024
 30
0.0
 11
244.48365
 21
603.024
 31
0.0
  0
LINE
  5
5A1
330
1D
100
AcDbEntity
  8
0
100
AcDbLine
 10
244.75265
 20
550.024
 30
0.0
 11
244.75265
 21
580.024
 31
0.0
  0
LINE
  5
5A2
330
1D
100
AcDbEntity
  8
0
100
AcDbLine
 10
244.75265
 20
580.024
 30
0.0
 11
244.75265
 21
550.024
 31
0.0
  0
LINE
  5
5A3
330
1D
100
AcDbEntity
  8
0
100
AcDbLine
 10
244.75265
 20
580.024
 30
0.0
 11
287.25265
 21
580.024
 31
0.0
  0
LINE
  5
5A4
330
1D
100
AcDbEntity
  8
0
100
AcDbLine
 10
244.75265
 20
580.024
 30
0.0
 11
285.25265
 21
580.024
 31
0.0
  0
LINE
  5
5A5
330
1D
100
AcDbEntity
  8
0
100
AcDbLine
 10
245.60065
 20
600.198
 30
0.0
 11
246.75265
 21
600.198
 31
0.0
  0
LINE
  5
5A6
330
1D
100
AcDbEntity
  8
0
100
AcDbLine
 10
244.83265
 20
603.024
 30
0.0
 11
245.98465
 21
603.024
 31
0.0
  0
LINE
  5
5A7
330
1D
100
AcDbEntity
  8
0
100
AcDbLine
 10
245.60065
 20
602.85
 30
0.0
 11
246.75265
 21
602.85
 31
0.0
  0
LINE
  5
5A8
330
1D
100
AcDbEntity
  8
0
100
AcDbLine
 10
244.83265
 20
600.024
 30
0.0
 11
245.98465
 21
600.024
 31
0.0
  0
LINE
  5
5A9
330
1D
100
AcDbEntity
  8
0
100
AcDbLine
 10
245.98465
 20
600.024
 30
0.0
 11
246.75265
 21
600.198
 31
0.0
  0
LINE
  5
5AA
330
1D
100
AcDbEntity
  8
0
100
AcDbLine
 10
245.89265
 20
603.024
 30
0.0
 11
247.01865
 21
603.024
 31
0.0
  0
LINE
  5
5AB
330
1D
100
AcDbEntity
  8
0
100
AcDbLine
 10
245.89165
 20
603.024
 30
0.0
 11
247.01965
 21
603.024
 31
0.0
  0
LINE
  5
5AC
330
1D
100
AcDbEntity
  8
0
100
AcDbLine
 10
243.74465
 20
603.024
 30
0.0
 11
245.47865
 21
603.024
 31
0.0
  0
LINE
  5
5AD
330
1D
100
AcDbEntity
  8
0
100
AcDbLine
 10
244.48365
 20
603.024
 30
0.0
 11
245.89265
 21
603.024
 31
0.0
  0
LINE
  5
5AE
330
1D
100
AcDbEntity
  8
0
100
AcDbLine
 10
244.48365
 20
603.024
 30
0.0
 11
245.89165
 21
603.024
 31
0.0
  0
LINE
  5
5AF
330
1D
100
AcDbEntity
  8
0
100
AcDbLine
 10
242.80465
 20
603.024
 30
0.0
 11
244.48365
 21
603.024
 31
0.0
  0
LINE
  5
5B0
330
1D
100
AcDbEntity
  8
0
100
AcDbLine
 10
245.47865
 20
603.024
 30
0.0
 11
246.93465
 21
603.024
 31
0.0
  0
LINE
  5
5B1
330
1D
100
AcDbEntity
  8
0
100
AcDbLine
 10
245.47865
 20
603.024
 30
0.0
 11
246.93365
 21
603.024
 31
0.0
  0
LINE
  5
5B2
330
1D
100
AcDbEntity
  8
0
100
AcDbLine
 10
182.59165
 20
603.024
 30
0.0
 11
183.52065
 21
603.024
 31
0.0
  0
LINE
  5
5B3
330
1D
100
AcDbEntity
  8
0
100
AcDbLine
 10
243.74365
 20
603.024
 30
0.0
 11
245.47865
 21
603.024
 31
0.0
  0
LINE
  5
5B4
330
1D
100
AcDbEntity
  8
0
100
AcDbLine
 10
246.05765
 20
603.024
 30
0.0
 11
247.35665
 21
603.024
 31
0.0
  0
LINE
  5
5B5
330
1D
100
AcDbEntity
  8
0
100
AcDbLine
 10
182.35765
 20
603.024
 30
0.0
 11
183.52065
 21
603.024
 31
0.0
  0
LINE
  5
5B7
330
1D
100
AcDbEntity
  8
0
100
AcDbLine
 10
181.35365
 20
603.024
 30
0.0
 11
182.35765
 21
603.024
 31
0.0
  0
LINE
  5
5B8
330
1D
100
AcDbEntity
  8
0
100
AcDbLine
 10
180.65265
 20
603.024
 30
0.0
 11
181.35365
 21
603.024
 31
0.0
  0
LINE
  5
5B9
330
1D
100
AcDbEntity
  8
0
100
AcDbLine
 10
180.26165
 20
603.024
 30
0.0
 11
180.65265
 21
603.024
 31
0.0
  0
LINE
  5
5BB
330
1D
100
AcDbEntity
  8
0
100
AcDbLine
 10
180.18365
 20
603.024
 30
0.0
 11
180.26165
 21
603.024
 31
0.0
  0
LINE
  5
5BC
330
1D
100
AcDbEntity
  8
0
100
AcDbLine
 10
246.47565
 20
603.024
 30
0.0
 11
247.45665
 21
603.024
 31
0.0
  0
LINE
  5
5BD
330
1D
100
AcDbEntity
  8
0
100
AcDbLine
 10
246.22865
 20
603.024
 30
0.0
 11
247.53865
 21
603.024
 31
0.0
  0
LINE
  5
5BE
330
1D
100
AcDbEntity
  8
0
100
AcDbLine
 10
246.22765
 20
603.024
 30
0.0
 11
247.53865
 21
603.024
 31
0.0
  0
LINE
  5
5BF
330
1D
100
AcDbEntity
  8
0
100
AcDbLine
 10
246.24865
 20
603.024
 30
0.0
 11
247.55865
 21
603.024
 31
0.0
  0
LINE
  5
5C0
330
1D
100
AcDbEntity
  8
0
100
AcDbLine
 10
246.49665
 20
603.024
 30
0.0
 11
247.47665
 21
603.024
 31
0.0
  0
LINE
  5
5C1
330
1D
100
AcDbEntity
  8
0
100
AcDbLine
 10
246.49565
 20
603.024
 30
0.0
 11
247.47665
 21
603.024
 31
0.0
  0
LINE
  5
5C2
330
1D
100
AcDbEntity
  8
0
100
AcDbLine
 10
246.24765
 20
603.024
 30
0.0
 11
247.55865
 21
603.024
 31
0.0
  0
LINE
  5
5C3
330
1D
100
AcDbEntity
  8
0
100
AcDbLine
 10
246.05865
 20
603.024
 30
0.0
 11
247.35665
 21
603.024
 31
0.0
  0
LINE
  5
5C4
330
1D
100
AcDbEntity
  8
0
100
AcDbLine
 10
246.43465
 20
603.024
 30
0.0
 11
247.41065
 21
603.024
 31
0.0
  0
LINE
  5
5C5
330
1D
100
AcDbEntity
  8
0
100
AcDbLine
 10
246.75265
 20
602.85
 30
0.0
 11
246.75265
 21
600.198
 31
0.0
  0
LINE
  5
5C6
330
1D
100
AcDbEntity
  8
0
100
AcDbLine
 10
246.75265
 20
600.198
 30
0.0
 11
246.75265
 21
602.85
 31
0.0
  0
LINE
  5
5C7
330
1D
100
AcDbEntity
  8
0
100
AcDbLine
 10
246.91365
 20
603.024
 30
0.0
 11
248.07865
 21
603.024
 31
0.0
  0
LINE
  5
5C8
330
1D
100
AcDbEntity
  8
0
100
AcDbLine
 10
246.91465
 20
603.024
 30
0.0
 11
248.07865
 21
603.024
 31
0.0
  0
LINE
  5
5C9
330
1D
100
AcDbEntity
  8
0
100
AcDbLine
 10
246.99965
 20
603.024
 30
0.0
 11
247.83365
 21
603.024
 31
0.0
  0
LINE
  5
5CA
330
1D
100
AcDbEntity
  8
0
100
AcDbLine
 10
247.01865
 20
603.024
 30
0.0
 11
247.85365
 21
603.024
 31
0.0
  0
LINE
  5
5CB
330
1D
100
AcDbEntity
  8
0
100
AcDbLine
 10
247.01965
 20
603.024
 30
0.0
 11
247.85365
 21
603.024
 31
0.0
  0
LINE
  5
5CC
330
1D
100
AcDbEntity
  8
0
100
AcDbLine
 10
246.93365
 20
603.024
 30
0.0
 11
248.09865
 21
603.024
 31
0.0
  0
LINE
  5
5CD
330
1D
100
AcDbEntity
  8
0
100
AcDbLine
 10
246.93465
 20
603.024
 30
0.0
 11
248.09865
 21
603.024
 31
0.0
  0
LINE
  5
5CE
330
1D
100
AcDbEntity
  8
0
100
AcDbLine
 10
246.73865
 20
603.024
 30
0.0
 11
247.89265
 21
603.024
 31
0.0
  0
LINE
  5
5CF
330
1D
100
AcDbEntity
  8
0
100
AcDbLine
 10
246.95565
 20
603.024
 30
0.0
 11
247.78565
 21
603.024
 31
0.0
  0
LINE
  5
5D0
330
1D
100
AcDbEntity
  8
0
100
AcDbLine
 10
246.73765
 20
603.024
 30
0.0
 11
247.89165
 21
603.024
 31
0.0
  0
LINE
  5
6F9
330
1D
100
AcDbEntity
  8
0
100
AcDbLine
 10
245.98465
 20
603.024
 30
0.0
 11
246.73765
 21
603.024
 31
0.0
  0
LINE
  5
6FA
330
1D
100
AcDbEntity
  8
0
100
AcDbLine
 10
245.98465
 20
603.024
 30
0.0
 11
246.95565
 21
603.024
 31
0.0
  0
LINE
  5
6FB
330
1D
100
AcDbEntity
  8
0
100
AcDbLine
 10
245.98465
 20
603.024
 30
0.0
 11
246.43465
 21
603.024
 31
0.0
  0
LINE
  5
6FC
330
1D
100
AcDbEntity
  8
0
100
AcDbLine
 10
245.98465
 20
603.024
 30
0.0
 11
246.05865
 21
603.024
 31
0.0
  0
LINE
  5
6FD
330
1D
100
AcDbEntity
  8
0
100
AcDbLine
 10
245.98465
 20
603.024
 30
0.0
 11
246.05765
 21
603.024
 31
0.0
  0
LINE
  5
6FE
330
1D
100
AcDbEntity
  8
0
100
AcDbLine
 10
245.98465
 20
603.024
 30
0.0
 11
246.73865
 21
603.024
 31
0.0
  0
LINE
  5
6FF
330
1D
100
AcDbEntity
  8
0
100
AcDbLine
 10
245.98465
 20
603.024
 30
0.0
 11
246.24765
 21
603.024
 31
0.0
  0
LINE
  5
700
330
1D
100
AcDbEntity
  8
0
100
AcDbLine
 10
245.98465
 20
603.024
 30
0.0
 11
246.49565
 21
603.024
 31
0.0
  0
LINE
  5
701
330
1D
100
AcDbEntity
  8
0
100
AcDbLine
 10
245.98465
 20
603.024
 30
0.0
 11
246.49665
 21
603.024
 31
0.0
  0
LINE
  5
702
330
1D
100
AcDbEntity
  8
0
100
AcDbLine
 10
245.98465
 20
603.024
 30
0.0
 11
246.24865
 21
603.024
 31
0.0
  0
LINE
  5
703
330
1D
100
AcDbEntity
  8
0
100
AcDbLine
 10
245.98465
 20
603.024
 30
0.0
 11
246.91465
 21
603.024
 31
0.0
  0
LINE
  5
704
330
1D
100
AcDbEntity
  8
0
100
AcDbLine
 10
245.98465
 20
603.024
 30
0.0
 11
246.22765
 21
603.024
 31
0.0
  0
LINE
  5
705
330
1D
100
AcDbEntity
  8
0
100
AcDbLine
 10
245.98465
 20
603.024
 30
0.0
 11
246.91365
 21
603.024
 31
0.0
  0
LINE
  5
706
330
1D
100
AcDbEntity
  8
0
100
AcDbLine
 10
245.98465
 20
603.024
 30
0.0
 11
246.99965
 21
603.024
 31
0.0
  0
LINE
  5
707
330
1D
100
AcDbEntity
  8
0
100
AcDbLine
 10
245.98465
 20
603.024
 30
0.0
 11
246.22865
 21
603.024
 31
0.0
  0
LINE
  5
708
330
1D
100
AcDbEntity
  8
0
100
AcDbLine
 10
245.98465
 20
603.024
 30
0.0
 11
246.47565
 21
603.024
 31
0.0
  0
LINE
  5
709
330
1D
100
AcDbEntity
  8
0
100
AcDbLine
 10
245.98465
 20
603.024
 30
0.0
 11
246.75265
 21
602.85
 31
0.0
  0
LINE
  5
70A
330
1D
100
AcDbEntity
  8
0
100
AcDbLine
 10
247.45665
 20
603.024
 30
0.0
 11
248.14065
 21
603.024
 31
0.0
  0
LINE
  5
70B
330
1D
100
AcDbEntity
  8
0
100
AcDbLine
 10
247.53865
 20
603.024
 30
0.0
 11
248.55165
 21
603.024
 31
0.0
  0
LINE
  5
70C
330
1D
100
AcDbEntity
  8
0
100
AcDbLine
 10
247.47665
 20
603.024
 30
0.0
 11
248.16165
 21
603.024
 31
0.0
  0
LINE
  5
70D
330
1D
100
AcDbEntity
  8
0
100
AcDbLine
 10
247.47665
 20
603.024
 30
0.0
 11
248.16065
 21
603.024
 31
0.0
  0
LINE
  5
70E
330
1D
100
AcDbEntity
  8
0
100
AcDbLine
 10
247.83365
 20
603.024
 30
0.0
 11
248.36765
 21
603.024
 31
0.0
  0
LINE
  5
70F
330
1D
100
AcDbEntity
  8
0
100
AcDbLine
 10
248.14065
 20
603.024
 30
0.0
 11
248.52265
 21
603.024
 31
0.0
  0
LINE
  5
710
330
1D
100
AcDbEntity
  8
0
100
AcDbLine
 10
248.07865
 20
603.024
 30
0.0
 11
248.94165
 21
603.024
 31
0.0
  0
LINE
  5
711
330
1D
100
AcDbEntity
  8
0
100
AcDbLine
 10
248.16065
 20
603.024
 30
0.0
 11
248.54365
 21
603.024
 31
0.0
  0
LINE
  5
712
330
1D
100
AcDbEntity
  8
0
100
AcDbLine
 10
248.16165
 20
603.024
 30
0.0
 11
248.54365
 21
603.024
 31
0.0
  0
LINE
  5
713
330
1D
100
AcDbEntity
  8
0
100
AcDbLine
 10
247.85365
 20
603.024
 30
0.0
 11
248.38865
 21
603.024
 31
0.0
  0
LINE
  5
714
330
1D
100
AcDbEntity
  8
0
100
AcDbLine
 10
248.09865
 20
603.024
 30
0.0
 11
248.96165
 21
603.024
 31
0.0
  0
LINE
  5
715
330
1D
100
AcDbEntity
  8
0
100
AcDbLine
 10
247.55865
 20
603.024
 30
0.0
 11
248.57165
 21
603.024
 31
0.0
  0
LINE
  5
716
330
1D
100
AcDbEntity
  8
0
100
AcDbLine
 10
247.89265
 20
603.024
 30
0.0
 11
248.74765
 21
603.024
 31
0.0
  0
LINE
  5
717
330
1D
100
AcDbEntity
  8
0
100
AcDbLine
 10
247.41065
 20
603.024
 30
0.0
 11
248.09165
 21
603.024
 31
0.0
  0
LINE
  5
718
330
1D
100
AcDbEntity
  8
0
100
AcDbLine
 10
248.09165
 20
603.024
 30
0.0
 11
248.47165
 21
603.024
 31
0.0
  0
LINE
  5
719
330
1D
100
AcDbEntity
  8
0
100
AcDbLine
 10
248.36765
 20
603.024
 30
0.0
 11
248.59865
 21
603.024
 31
0.0
  0
LINE
  5
71A
330
1D
100
AcDbEntity
  8
0
100
AcDbLine
 10
248.52265
 20
603.024
 30
0.0
 11
248.59865
 21
603.024
 31
0.0
  0
LINE
  5
71B
330
1D
100
AcDbEntity
  8
0
100
AcDbLine
 10
248.55165
 20
603.024
 30
0.0
 11
249.25965
 21
603.024
 31
0.0
  0
LINE
  5
71C
330
1D
100
AcDbEntity
  8
0
100
AcDbLine
 10
248.38865
 20
603.024
 30
0.0
 11
248.61965
 21
603.024
 31
0.0
  0
LINE
  5
71D
330
1D
100
AcDbEntity
  8
0
100
AcDbLine
 10
248.38865
 20
603.024
 30
0.0
 11
248.61865
 21
603.024
 31
0.0
  0
LINE
  5
71E
330
1D
100
AcDbEntity
  8
0
100
AcDbLine
 10
248.54365
 20
603.024
 30
0.0
 11
248.61865
 21
603.024
 31
0.0
  0
LINE
  5
71F
330
1D
100
AcDbEntity
  8
0
100
AcDbLine
 10
248.54365
 20
603.024
 30
0.0
 11
248.61965
 21
603.024
 31
0.0
  0
LINE
  5
720
330
1D
100
AcDbEntity
  8
0
100
AcDbLine
 10
248.57165
 20
603.024
 30
0.0
 11
249.27965
 21
603.024
 31
0.0
  0
LINE
  5
722
330
1D
100
AcDbEntity
  8
0
100
AcDbLine
 10
248.36065
 20
603.024
 30
0.0
 11
249.06265
 21
603.024
 31
0.0
  0
LINE
  5
723
330
1D
100
AcDbEntity
  8
0
100
AcDbLine
 10
248.47165
 20
603.024
 30
0.0
 11
248.54665
 21
603.024
 31
0.0
  0
LINE
  5
724
330
1D
100
AcDbEntity
  8
0
100
AcDbLine
 10
248.31865
 20
603.024
 30
0.0
 11
248.54665
 21
603.024
 31
0.0
  0
LINE
  5
725
330
1D
100
AcDbEntity
  8
0
100
AcDbLine
 10
247.78565
 20
603.024
 30
0.0
 11
248.31865
 21
603.024
 31
0.0
  0
LINE
  5
726
330
1D
100
AcDbEntity
  8
0
100
AcDbLine
 10
248.94165
 20
603.024
 30
0.0
 11
249.49465
 21
603.024
 31
0.0
  0
LINE
  5
727
330
1D
100
AcDbEntity
  8
0
100
AcDbLine
 10
248.96165
 20
603.024
 30
0.0
 11
249.51465
 21
603.024
 31
0.0
  0
LINE
  5
728
330
1D
100
AcDbEntity
  8
0
100
AcDbLine
 10
248.74765
 20
603.024
 30
0.0
 11
249.29565
 21
603.024
 31
0.0
  0
LINE
  5
729
330
1D
100
AcDbEntity
  8
0
100
AcDbLine
 10
249.25965
 20
603.024
 30
0.0
 11
249.65465
 21
603.024
 31
0.0
  0
LINE
  5
72A
330
1D
100
AcDbEntity
  8
0
100
AcDbLine
 10
249.25965
 20
603.024
 30
0.0
 11
249.65365
 21
603.024
 31
0.0
  0
LINE
  5
72B
330
1D
100
AcDbEntity
  8
0
100
AcDbLine
 10
249.27965
 20
603.024
 30
0.0
 11
249.67465
 21
603.024
 31
0.0
  0
LINE
  5
72C
330
1D
100
AcDbEntity
  8
0
100
AcDbLine
 10
249.27965
 20
603.024
 30
0.0
 11
249.67365
 21
603.024
 31
0.0
  0
LINE
  5
72D
330
1D
100
AcDbEntity
  8
0
100
AcDbLine
 10
249.29565
 20
603.024
 30
0.0
 11
249.53065
 21
603.024
 31
0.0
  0
LINE
  5
72F
330
1D
100
AcDbEntity
  8
0
100
AcDbLine
 10
249.06265
 20
603.024
 30
0.0
 11
249.45265
 21
603.024
 31
0.0
  0
LINE
  5
730
330
1D
100
AcDbEntity
  8
0
100
AcDbLine
 10
249.65365
 20
603.024
 30
0.0
 11
249.73265
 21
603.024
 31
0.0
  0
LINE
  5
731
330
1D
100
AcDbEntity
  8
0
100
AcDbLine
 10
249.49465
 20
603.024
 30
0.0
 11
249.73265
 21
603.024
 31
0.0
  0
LINE
  5
732
330
1D
100
AcDbEntity
  8
0
100
AcDbLine
 10
249.65465
 20
603.024
 30
0.0
 11
249.73265
 21
603.024
 31
0.0
  0
LINE
  5
733
330
1D
100
AcDbEntity
  8
0
100
AcDbLine
 10
249.75265
 20
250.024
 30
0.0
 11
249.75265
 21
550.024
 31
0.0
  0
LINE
  5
734
330
1D
100
AcDbEntity
  8
0
100
AcDbLine
 10
249.75265
 20
250.024
 30
0.0
 11
299.75265
 21
50.024
 31
0.0
  0
LINE
  5
735
330
1D
100
AcDbEntity
  8
0
100
AcDbLine
 10
249.75265
 20
250.024
 30
0.0
 11
299.75265
 21
50.024
 31
0.0
  0
LINE
  5
736
330
1D
100
AcDbEntity
  8
0
100
AcDbLine
 10
249.67365
 20
603.024
 30
0.0
 11
249.75265
 21
603.024
 31
0.0
  0
LINE
  5
737
330
1D
100
AcDbEntity
  8
0
100
AcDbLine
 10
249.51465
 20
603.024
 30
0.0
 11
249.75265
 21
603.024
 31
0.0
  0
LINE
  5
738
330
1D
100
AcDbEntity
  8
0
100
AcDbLine
 10
297.25265
 20
60.024
 30
0.0
 11
297.25265
 21
580.024
 31
0.0
  0
LINE
  5
739
330
1D
100
AcDbEntity
  8
0
100
AcDbLine
 10
287.25265
 20
0.024
 30
0.0
 11
297.25265
 21
0.024
 31
0.0
  0
LINE
  5
73A
330
1D
100
AcDbEntity
  8
0
100
AcDbLine
 10
286.25265
 20
325.024
 30
0.0
 11
286.25265
 21
300.024
 31
0.0
  0
LINE
  5
73B
330
1D
100
AcDbEntity
  8
0
100
AcDbLine
 10
286.25265
 20
325.024
 30
0.0
 11
287.25265
 21
325.024
 31
0.0
  0
LINE
  5
73C
330
1D
100
AcDbEntity
  8
0
100
AcDbLine
 10
286.25265
 20
300.024
 30
0.0
 11
286.25265
 21
325.024
 31
0.0
  0
LINE
  5
73D
330
1D
100
AcDbEntity
  8
0
100
AcDbLine
 10
286.25265
 20
300.024
 30
0.0
 11
287.25265
 21
300.024
 31
0.0
  0
LINE
  5
73E
330
1D
100
AcDbEntity
  8
0
100
AcDbLine
 10
287.25265
 20
100.024
 30
0.0
 11
287.25265
 21
300.024
 31
0.0
  0
LINE
  5
73F
330
1D
100
AcDbEntity
  8
0
100
AcDbLine
 10
287.25265
 20
100.024
 30
0.0
 11
287.25265
 21
580.024
 31
0.0
  0
LINE
  5
740
330
1D
100
AcDbEntity
  8
0
100
AcDbLine
 10
287.25265
 20
325.024
 30
0.0
 11
287.25265
 21
580.024
 31
0.0
  0
LINE
  5
741
330
1D
100
AcDbEntity
  8
0
100
AcDbLine
 10
297.25265
 20
580.024
 30
0.0
 11
297.25265
 21
60.024
 31
0.0
  0
LINE
  5
742
330
1D
100
AcDbEntity
  8
0
100
AcDbLine
 10
287.25265
 20
400.024
 30
0.0
 11
287.25265
 21
580.024
 31
0.0
  0
LINE
  5
743
330
1D
100
AcDbEntity
  8
0
100
AcDbLine
 10
287.25265
 20
325.024
 30
0.0
 11
287.25265
 21
580.024
 31
0.0
  0
LINE
  5
744
330
1D
100
AcDbEntity
  8
0
100
AcDbLine
 10
287.25265
 20
100.024
 30
0.0
 11
287.25265
 21
300.024
 31
0.0
  0
LINE
  5
745
330
1D
100
AcDbEntity
  8
0
100
AcDbLine
 10
287.25265
 20
100.024
 30
0.0
 11
287.25265
 21
580.024
 31
0.0
  0
LINE
  5
746
330
1D
100
AcDbEntity
  8
0
100
AcDbLine
 10
285.25265
 20
580.024
 30
0.0
 11
287.25265
 21
580.024
 31
0.0
  0
LINE
  5
747
330
1D
100
AcDbEntity
  8
0
100
AcDbLine
 10
287.25265
 20
595.024
 30
0.0
 11
287.25265
 21
580.024
 31
0.0
  0
LINE
  5
748
330
1D
100
AcDbEntity
  8
0
100
AcDbLine
 10
287.25265
 20
580.024
 30
0.0
 11
287.25265
 21
595.024
 31
0.0
  0
LINE
  5
749
330
1D
100
AcDbEntity
  8
0
100
AcDbLine
 10
287.25265
 20
580.024
 30
0.0
 11
287.25265
 21
400.024
 31
0.0
  0
LINE
  5
74A
330
1D
100
AcDbEntity
  8
0
100
AcDbLine
 10
287.25265
 20
580.024
 30
0.0
 11
297.25265
 21
580.024
 31
0.0
  0
LINE
  5
74B
330
1D
100
AcDbEntity
  8
0
100
AcDbLine
 10
299.75265
 20
50.024
 30
0.0
 11
299.75265
 21
0.024
 31
0.0
  0
LINE
  5
74C
330
1D
100
AcDbEntity
  8
0
100
AcDbLine
 10
299.75265
 20
0.024
 30
0.0
 11
299.75265
 21
50.024
 31
0.0
  0
LINE
  5
74E
330
1D
100
AcDbEntity
  8
0
100
AcDbLine
 10
249.67465
 20
603.024
 30
0.0
 11
249.75265
 21
603.024
 31
0.0
  0
LINE
  5
74F
330
1D
100
AcDbEntity
  8
0
100
AcDbLine
 10
249.45265
 20
603.024
 30
0.0
 11
249.53165
 21
603.024
 31
0.0
  0
LINE
  5
750
330
1D
100
AcDbEntity
  8
0
100
AcDbLine
 10
249.45265
 20
603.024
 30
0.0
 11
249.53065
 21
603.024
 31
0.0
  0
LINE
  5
751
330
1D
100
AcDbEntity
  8
0
100
AcDbLine
 10
249.29465
 20
603.024
 30
0.0
 11
249.53165
 21
603.024
 31
0.0
  0
LINE
  5
752
330
1D
100
AcDbEntity
  8
0
100
AcDbLine
 10
248.74665
 20
603.024
 30
0.0
 11
249.29465
 21
603.024
 31
0.0
  0
LINE
  5
761
330
1D
100
AcDbEntity
  8
0
100
AcDbLine
 10
247.89165
 20
603.024
 30
0.0
 11
248.74665
 21
603.024
 31
0.0
  0
LINE
  5
762
330
1D
100
AcDbEntity
  8
0
100
AcDbLine
 10
247.35665
 20
603.024
 30
0.0
 11
248.36165
 21
603.024
 31
0.0
  0
LINE
  5
763
330
1D
100
AcDbEntity
  8
0
100
AcDbLine
 10
247.35665
 20
603.024
 30
0.0
 11
248.36065
 21
603.024
 31
0.0
  0
LINE
  5
DA8
330
1D
100
AcDbEntity
  8
0
100
AcDbLine
 10
179.75265
 20
603.024
 30
0.0
 11
179.75265
 21
611.024
 31
0.0
  0
LINE
  5
DA9
330
1D
100
AcDbEntity
  8
0
100
AcDbLine
 10
179.75265
 20
611.024
 30
0.0
 11
179.75265
 21
603.024
 31
0.0
  0
LINE
  5
DAA
330
1D
100
AcDbEntity
  8
0
100
AcDbLine
 10
249.75265
 20
603.024
 30
0.0
 11
249.75265
 21
611.024
 31
0.0
  0
LINE
  5
DAB
330
1D
100
AcDbEntity
  8
0
100
AcDbLine
 10
249.75265
 20
611.024
 30
0.0
 11
249.75265
 21
603.024
 31
0.0
  0
LINE
  5
DAC
330
1D
100
AcDbEntity
  8
0
100
AcDbLine
 10
179.81065
 20
603.024
 30
0.0
 11
180.20465
 21
603.024
 31
0.0
  0
LINE
  5
DAD
330
1D
100
AcDbEntity
  8
0
100
AcDbLine
 10
179.96965
 20
603.024
 30
0.0
 11
180.52365
 21
603.024
 31
0.0
  0
LINE
  5
DAE
330
1D
100
AcDbEntity
  8
0
100
AcDbLine
 10
179.97065
 20
603.024
 30
0.0
 11
180.52265
 21
603.024
 31
0.0
  0
LINE
  5
DAF
330
1D
100
AcDbEntity
  8
0
100
AcDbLine
 10
179.83165
 20
603.024
 30
0.0
 11
180.22565
 21
603.024
 31
0.0
  0
LINE
  5
DB0
330
1D
100
AcDbEntity
  8
0
100
AcDbLine
 10
179.99065
 20
603.024
 30
0.0
 11
180.54365
 21
603.024
 31
0.0
  0
LINE
  5
DB1
330
1D
100
AcDbEntity
  8
0
100
AcDbLine
 10
179.83065
 20
603.024
 30
0.0
 11
180.22565
 21
603.024
 31
0.0
  0
LINE
  5
DB2
330
1D
100
AcDbEntity
  8
0
100
AcDbLine
 10
179.75265
 20
603.024
 30
0.0
 11
249.75265
 21
603.024
 31
0.0
  0
LINE
  5
DB6
330
1D
100
AcDbEntity
  8
0
100
AcDbLine
 10
179.75265
 20
603.024
 30
0.0
 11
179.83065
 21
603.024
 31
0.0
  0
LINE
  5
DB7
330
1D
100
AcDbEntity
  8
0
100
AcDbLine
 10
179.75265
 20
603.024
 30
0.0
 11
179.99065
 21
603.024
 31
0.0
  0
LINE
  5
DB8
330
1D
100
AcDbEntity
  8
0
100
AcDbLine
 10
179.75265
 20
603.024
 30
0.0
 11
179.83165
 21
603.024
 31
0.0
  0
LINE
  5
DB9
330
1D
100
AcDbEntity
  8
0
100
AcDbLine
 10
180.20465
 20
603.024
 30
0.0
 11
180.91265
 21
603.024
 31
0.0
  0
LINE
  5
DBA
330
1D
100
AcDbEntity
  8
0
100
AcDbLine
 10
180.22565
 20
603.024
 30
0.0
 11
180.93365
 21
603.024
 31
0.0
  0
LINE
  5
DBB
330
1D
100
AcDbEntity
  8
0
100
AcDbLine
 10
180.52265
 20
603.024
 30
0.0
 11
181.38665
 21
603.024
 31
0.0
  0
LINE
  5
DBC
330
1D
100
AcDbEntity
  8
0
100
AcDbLine
 10
180.52365
 20
603.024
 30
0.0
 11
181.38565
 21
603.024
 31
0.0
  0
LINE
  5
DBD
330
1D
100
AcDbEntity
  8
0
100
AcDbLine
 10
180.54365
 20
603.024
 30
0.0
 11
181.40665
 21
603.024
 31
0.0
  0
LINE
  5
DBE
330
1D
100
AcDbEntity
  8
0
100
AcDbLine
 10
180.86565
 20
603.024
 30
0.0
 11
180.94165
 21
603.024
 31
0.0
  0
LINE
  5
DBF
330
1D
100
AcDbEntity
  8
0
100
AcDbLine
 10
180.86565
 20
603.024
 30
0.0
 11
181.09665
 21
603.024
 31
0.0
  0
LINE
  5
DC0
330
1D
100
AcDbEntity
  8
0
100
AcDbLine
 10
180.88565
 20
603.024
 30
0.0
 11
181.11665
 21
603.024
 31
0.0
  0
LINE
  5
DC1
330
1D
100
AcDbEntity
  8
0
100
AcDbLine
 10
180.88565
 20
603.024
 30
0.0
 11
180.96165
 21
603.024
 31
0.0
  0
LINE
  5
DC2
330
1D
100
AcDbEntity
  8
0
100
AcDbLine
 10
181.09665
 20
603.024
 30
0.0
 11
181.63165
 21
603.024
 31
0.0
  0
LINE
  5
DC3
330
1D
100
AcDbEntity
  8
0
100
AcDbLine
 10
180.94165
 20
603.024
 30
0.0
 11
181.32365
 21
603.024
 31
0.0
  0
LINE
  5
DC4
330
1D
100
AcDbEntity
  8
0
100
AcDbLine
 10
180.91265
 20
603.024
 30
0.0
 11
181.92665
 21
603.024
 31
0.0
  0
LINE
  5
DC5
330
1D
100
AcDbEntity
  8
0
100
AcDbLine
 10
181.32365
 20
603.024
 30
0.0
 11
182.00865
 21
603.024
 31
0.0
  0
LINE
  5
DC6
330
1D
100
AcDbEntity
  8
0
100
AcDbLine
 10
181.11665
 20
603.024
 30
0.0
 11
181.65165
 21
603.024
 31
0.0
  0
LINE
  5
DC7
330
1D
100
AcDbEntity
  8
0
100
AcDbLine
 10
180.96165
 20
603.024
 30
0.0
 11
181.34465
 21
603.024
 31
0.0
  0
LINE
  5
DC8
330
1D
100
AcDbEntity
  8
0
100
AcDbLine
 10
180.96165
 20
603.024
 30
0.0
 11
181.34365
 21
603.024
 31
0.0
  0
LINE
  5
DC9
330
1D
100
AcDbEntity
  8
0
100
AcDbLine
 10
180.88665
 20
603.024
 30
0.0
 11
180.96165
 21
603.024
 31
0.0
  0
LINE
  5
DCA
330
1D
100
AcDbEntity
  8
0
100
AcDbLine
 10
180.88665
 20
603.024
 30
0.0
 11
181.11665
 21
603.024
 31
0.0
  0
LINE
  5
DCB
330
1D
100
AcDbEntity
  8
0
100
AcDbLine
 10
180.93365
 20
603.024
 30
0.0
 11
181.94665
 21
603.024
 31
0.0
  0
LINE
  5
DCC
330
1D
100
AcDbEntity
  8
0
100
AcDbLine
 10
181.38565
 20
603.024
 30
0.0
 11
182.55065
 21
603.024
 31
0.0
  0
LINE
  5
DCD
330
1D
100
AcDbEntity
  8
0
100
AcDbLine
 10
181.38665
 20
603.024
 30
0.0
 11
182.55065
 21
603.024
 31
0.0
  0
LINE
  5
DCE
330
1D
100
AcDbEntity
  8
0
100
AcDbLine
 10
181.34365
 20
603.024
 30
0.0
 11
182.02865
 21
603.024
 31
0.0
  0
LINE
  5
DCF
330
1D
100
AcDbEntity
  8
0
100
AcDbLine
 10
181.34465
 20
603.024
 30
0.0
 11
182.02865
 21
603.024
 31
0.0
  0
LINE
  5
DD0
330
1D
100
AcDbEntity
  8
0
100
AcDbLine
 10
181.63165
 20
603.024
 30
0.0
 11
182.46565
 21
603.024
 31
0.0
  0
LINE
  5
DD1
330
1D
100
AcDbEntity
  8
0
100
AcDbLine
 10
182.00865
 20
603.024
 30
0.0
 11
182.98865
 21
603.024
 31
0.0
  0
LINE
  5
DD2
330
1D
100
AcDbEntity
  8
0
100
AcDbLine
 10
181.92665
 20
603.024
 30
0.0
 11
183.23665
 21
603.024
 31
0.0
  0
LINE
  5
DD3
330
1D
100
AcDbEntity
  8
0
100
AcDbLine
 10
182.46565
 20
603.024
 30
0.0
 11
183.49965
 21
603.024
 31
0.0
  0
LINE
  5
DD4
330
1D
100
AcDbEntity
  8
0
100
AcDbLine
 10
182.02865
 20
603.024
 30
0.0
 11
183.00965
 21
603.024
 31
0.0
  0
LINE
  5
DD5
330
1D
100
AcDbEntity
  8
0
100
AcDbLine
 10
182.02865
 20
603.024
 30
0.0
 11
183.00865
 21
603.024
 31
0.0
  0
LINE
  5
DD6
330
1D
100
AcDbEntity
  8
0
100
AcDbLine
 10
181.65165
 20
603.024
 30
0.0
 11
182.48665
 21
603.024
 31
0.0
  0
LINE
  5
DD7
330
1D
100
AcDbEntity
  8
0
100
AcDbLine
 10
181.65165
 20
603.024
 30
0.0
 11
182.48565
 21
603.024
 31
0.0
  0
LINE
  5
DD8
330
1D
100
AcDbEntity
  8
0
100
AcDbLine
 10
182.55065
 20
603.024
 30
0.0
 11
183.49965
 21
603.024
 31
0.0
  0
LINE
  5
DD9
330
1D
100
AcDbEntity
  8
0
100
AcDbLine
 10
182.48665
 20
603.024
 30
0.0
 11
183.49965
 21
603.024
 31
0.0
  0
LINE
  5
DDA
330
1D
100
AcDbEntity
  8
0
100
AcDbLine
 10
182.48565
 20
603.024
 30
0.0
 11
183.49965
 21
603.024
 31
0.0
  0
LINE
  5
DDB
330
1D
100
AcDbEntity
  8
0
100
AcDbLine
 10
181.40665
 20
603.024
 30
0.0
 11
182.57065
 21
603.024
 31
0.0
  0
LINE
  5
DDC
330
1D
100
AcDbEntity
  8
0
100
AcDbLine
 10
181.40665
 20
603.024
 30
0.0
 11
182.57165
 21
603.024
 31
0.0
  0
LINE
  5
DDD
330
1D
100
AcDbEntity
  8
0
100
AcDbLine
 10
181.94665
 20
603.024
 30
0.0
 11
183.25765
 21
603.024
 31
0.0
  0
LINE
  5
DDE
330
1D
100
AcDbEntity
  8
0
100
AcDbLine
 10
181.94665
 20
603.024
 30
0.0
 11
183.25665
 21
603.024
 31
0.0
  0
LINE
  5
DDF
330
1D
100
AcDbEntity
  8
0
100
AcDbLine
 10
182.98865
 20
603.024
 30
0.0
 11
183.49965
 21
603.024
 31
0.0
  0
LINE
  5
DE0
330
1D
100
AcDbEntity
  8
0
100
AcDbLine
 10
183.00865
 20
603.024
 30
0.0
 11
184.27665
 21
603.024
 31
0.0
  0
LINE
  5
DE1
330
1D
100
AcDbEntity
  8
0
100
AcDbLine
 10
183.23665
 20
603.024
 30
0.0
 11
183.49965
 21
603.024
 31
0.0
  0
LINE
  5
DE2
330
1D
100
AcDbEntity
  8
0
100
AcDbLine
 10
183.25665
 20
603.024
 30
0.0
 11
184.85165
 21
603.024
 31
0.0
  0
LINE
  5
DE3
330
1D
100
AcDbEntity
  8
0
100
AcDbLine
 10
183.00965
 20
603.024
 30
0.0
 11
184.27765
 21
603.024
 31
0.0
  0
LINE
  5
DE4
330
1D
100
AcDbEntity
  8
0
100
AcDbLine
 10
182.57165
 20
603.024
 30
0.0
 11
183.49965
 21
603.024
 31
0.0
  0
LINE
  5
DE5
330
1D
100
AcDbEntity
  8
0
100
AcDbLine
 10
183.49965
 20
603.024
 30
0.0
 11
184.65165
 21
603.024
 31
0.0
  0
LINE
  5
DE6
330
1D
100
AcDbEntity
  8
0
100
AcDbLine
 10
184.65165
 20
603.024
 30
0.0
 11
187.72365
 21
603.024
 31
0.0
  0
LINE
  5
DE7
330
1D
100
AcDbEntity
  8
0
100
AcDbLine
 10
184.27665
 20
603.024
 30
0.0
 11
185.82065
 21
603.024
 31
0.0
  0
LINE
  5
DE8
330
1D
100
AcDbEntity
  8
0
100
AcDbLine
 10
186.71865
 20
603.024
 30
0.0
 11
188.83965
 21
603.024
 31
0.0
  0
LINE
  5
DE9
330
1D
100
AcDbEntity
  8
0
100
AcDbLine
 10
184.85165
 20
603.024
 30
0.0
 11
186.71865
 21
603.024
 31
0.0
  0
LINE
  5
DEA
330
1D
100
AcDbEntity
  8
0
100
AcDbLine
 10
184.27765
 20
603.024
 30
0.0
 11
185.82065
 21
603.024
 31
0.0
  0
LINE
  5
DEB
330
1D
100
AcDbEntity
  8
0
100
AcDbLine
 10
183.25765
 20
603.024
 30
0.0
 11
184.85265
 21
603.024
 31
0.0
  0
LINE
  5
DEC
330
1D
100
AcDbEntity
  8
0
100
AcDbLine
 10
184.85265
 20
603.024
 30
0.0
 11
186.71965
 21
603.024
 31
0.0
  0
LINE
  5
DED
330
1D
100
AcDbEntity
  8
0
100
AcDbLine
 10
187.72365
 20
603.024
 30
0.0
 11
192.71565
 21
603.024
 31
0.0
  0
LINE
  5
DEE
330
1D
100
AcDbEntity
  8
0
100
AcDbLine
 10
189.67765
 20
603.024
 30
0.0
 11
191.95665
 21
603.024
 31
0.0
  0
LINE
  5
DEF
330
1D
100
AcDbEntity
  8
0
100
AcDbLine
 10
187.62765
 20
603.024
 30
0.0
 11
189.67765
 21
603.024
 31
0.0
  0
LINE
  5
DF0
330
1D
100
AcDbEntity
  8
0
100
AcDbLine
 10
187.62765
 20
603.024
 30
0.0
 11
189.67865
 21
603.024
 31
0.0
  0
LINE
  5
DF1
330
1D
100
AcDbEntity
  8
0
100
AcDbLine
 10
189.67865
 20
603.024
 30
0.0
 11
191.95665
 21
603.024
 31
0.0
  0
LINE
  5
DF2
330
1D
100
AcDbEntity
  8
0
100
AcDbLine
 10
188.83965
 20
603.024
 30
0.0
 11
191.19365
 21
603.024
 31
0.0
  0
LINE
  5
DF3
330
1D
100
AcDbEntity
  8
0
100
AcDbLine
 10
186.71965
 20
603.024
 30
0.0
 11
188.83865
 21
603.024
 31
0.0
  0
LINE
  5
DF4
330
1D
100
AcDbEntity
  8
0
100
AcDbLine
 10
188.83865
 20
603.024
 30
0.0
 11
191.19365
 21
603.024
 31
0.0
  0
LINE
  5
DF5
330
1D
100
AcDbEntity
  8
0
100
AcDbLine
 10
192.71565
 20
603.024
 30
0.0
 11
199.24365
 21
603.024
 31
0.0
  0
LINE
  5
DF6
330
1D
100
AcDbEntity
  8
0
100
AcDbLine
 10
194.44165
 20
603.024
 30
0.0
 11
197.10965
 21
603.024
 31
0.0
  0
LINE
  5
DF7
330
1D
100
AcDbEntity
  8
0
100
AcDbLine
 10
191.95665
 20
603.024
 30
0.0
 11
194.44165
 21
603.024
 31
0.0
  0
LINE
  5
DF8
330
1D
100
AcDbEntity
  8
0
100
AcDbLine
 10
191.19365
 20
603.024
 30
0.0
 11
193.76165
 21
603.024
 31
0.0
  0
LINE
  5
DF9
330
1D
100
AcDbEntity
  8
0
100
AcDbLine
 10
193.76165
 20
603.024
 30
0.0
 11
196.51965
 21
603.024
 31
0.0
  0
LINE
  5
DFA
330
1D
100
AcDbEntity
  8
0
100
AcDbLine
 10
193.76165
 20
603.024
 30
0.0
 11
196.52065
 21
603.024
 31
0.0
  0
LINE
  5
DFB
330
1D
100
AcDbEntity
  8
0
100
AcDbLine
 10
199.24365
 20
603.024
 30
0.0
 11
206.66765
 21
603.024
 31
0.0
  0
LINE
  5
DFC
330
1D
100
AcDbEntity
  8
0
100
AcDbLine
 10
199.93765
 20
603.024
 30
0.0
 11
202.90065
 21
603.024
 31
0.0
  0
LINE
  5
DFD
330
1D
100
AcDbEntity
  8
0
100
AcDbLine
 10
199.93865
 20
603.024
 30
0.0
 11
202.90065
 21
603.024
 31
0.0
  0
LINE
  5
DFE
330
1D
100
AcDbEntity
  8
0
100
AcDbLine
 10
197.10965
 20
603.024
 30
0.0
 11
199.93865
 21
603.024
 31
0.0
  0
LINE
  5
DFF
330
1D
100
AcDbEntity
  8
0
100
AcDbLine
 10
197.10965
 20
603.024
 30
0.0
 11
199.93765
 21
603.024
 31
0.0
  0
LINE
  5
E00
330
1D
100
AcDbEntity
  8
0
100
AcDbLine
 10
196.52065
 20
603.024
 30
0.0
 11
199.44265
 21
603.024
 31
0.0
  0
LINE
  5
E01
330
1D
100
AcDbEntity
  8
0
100
AcDbLine
 10
196.51965
 20
603.024
 30
0.0
 11
199.44265
 21
603.024
 31
0.0
  0
LINE
  5
E02
330
1D
100
AcDbEntity
  8
0
100
AcDbLine
 10
199.44265
 20
603.024
 30
0.0
 11
202.50465
 21
603.024
 31
0.0
  0
LINE
  5
E03
330
1D
100
AcDbEntity
  8
0
100
AcDbLine
 10
205.96965
 20
603.024
 30
0.0
 11
209.11865
 21
603.024
 31
0.0
  0
LINE
  5
E04
330
1D
100
AcDbEntity
  8
0
100
AcDbLine
 10
206.66765
 20
603.024
 30
0.0
 11
214.73165
 21
603.024
 31
0.0
  0
LINE
  5
E05
330
1D
100
AcDbEntity
  8
0
100
AcDbLine
 10
205.97065
 20
603.024
 30
0.0
 11
209.11965
 21
603.024
 31
0.0
  0
LINE
  5
E06
330
1D
100
AcDbEntity
  8
0
100
AcDbLine
 10
202.90065
 20
603.024
 30
0.0
 11
205.97065
 21
603.024
 31
0.0
  0
LINE
  5
E07
330
1D
100
AcDbEntity
  8
0
100
AcDbLine
 10
202.90065
 20
603.024
 30
0.0
 11
205.96965
 21
603.024
 31
0.0
  0
LINE
  5
E08
330
1D
100
AcDbEntity
  8
0
100
AcDbLine
 10
202.50465
 20
603.024
 30
0.0
 11
205.67665
 21
603.024
 31
0.0
  0
LINE
  5
E09
330
1D
100
AcDbEntity
  8
0
100
AcDbLine
 10
205.67665
 20
603.024
 30
0.0
 11
208.93065
 21
603.024
 31
0.0
  0
LINE
  5
E0A
330
1D
100
AcDbEntity
  8
0
100
AcDbLine
 10
205.67665
 20
603.024
 30
0.0
 11
208.93165
 21
603.024
 31
0.0
  0
LINE
  5
E0B
330
1D
100
AcDbEntity
  8
0
100
AcDbLine
 10
209.11865
 20
603.024
 30
0.0
 11
212.31965
 21
603.024
 31
0.0
  0
LINE
  5
E0C
330
1D
100
AcDbEntity
  8
0
100
AcDbLine
 10
214.73165
 20
603.024
 30
0.0
 11
222.79565
 21
603.024
 31
0.0
  0
LINE
  5
E0D
330
1D
100
AcDbEntity
  8
0
100
AcDbLine
 10
215.54165
 20
603.024
 30
0.0
 11
218.75565
 21
603.024
 31
0.0
  0
LINE
  5
E0E
330
1D
100
AcDbEntity
  8
0
100
AcDbLine
 10
215.54165
 20
603.024
 30
0.0
 11
218.75665
 21
603.024
 31
0.0
  0
LINE
  5
E0F
330
1D
100
AcDbEntity
  8
0
100
AcDbLine
 10
212.31965
 20
603.024
 30
0.0
 11
215.54165
 21
603.024
 31
0.0
  0
LINE
  5
E10
330
1D
100
AcDbEntity
  8
0
100
AcDbLine
 10
209.11965
 20
603.024
 30
0.0
 11
212.31965
 21
603.024
 31
0.0
  0
LINE
  5
E11
330
1D
100
AcDbEntity
  8
0
100
AcDbLine
 10
208.93165
 20
603.024
 30
0.0
 11
212.23865
 21
603.024
 31
0.0
  0
LINE
  5
E12
330
1D
100
AcDbEntity
  8
0
100
AcDbLine
 10
208.93065
 20
603.024
 30
0.0
 11
212.23865
 21
603.024
 31
0.0
  0
LINE
  5
E13
330
1D
100
AcDbEntity
  8
0
100
AcDbLine
 10
212.23865
 20
603.024
 30
0.0
 11
215.56765
 21
603.024
 31
0.0
  0
LINE
  5
E14
330
1D
100
AcDbEntity
  8
0
100
AcDbLine
 10
218.75665
 20
603.024
 30
0.0
 11
221.93465
 21
603.024
 31
0.0
  0
LINE
  5
E15
330
1D
100
AcDbEntity
  8
0
100
AcDbLine
 10
222.17465
 20
603.024
 30
0.0
 11
225.39165
 21
603.024
 31
0.0
  0
LINE
  5
E16
330
1D
100
AcDbEntity
  8
0
100
AcDbLine
 10
218.75565
 20
603.024
 30
0.0
 11
221.93465
 21
603.024
 31
0.0
  0
LINE
  5
E17
330
1D
100
AcDbEntity
  8
0
100
AcDbLine
 10
218.88965
 20
603.024
 30
0.0
 11
222.17465
 21
603.024
 31
0.0
  0
LINE
  5
E18
330
1D
100
AcDbEntity
  8
0
100
AcDbLine
 10
215.56765
 20
603.024
 30
0.0
 11
218.89065
 21
603.024
 31
0.0
  0
LINE
  5
E19
330
1D
100
AcDbEntity
  8
0
100
AcDbLine
 10
215.56765
 20
603.024
 30
0.0
 11
218.88965
 21
603.024
 31
0.0
  0
LINE
  5
E1A
330
1D
100
AcDbEntity
  8
0
100
AcDbLine
 10
218.89065
 20
603.024
 30
0.0
 11
222.17565
 21
603.024
 31
0.0
  0
LINE
  5
E1B
330
1D
100
AcDbEntity
  8
0
100
AcDbLine
 10
222.79565
 20
603.024
 30
0.0
 11
230.21965
 21
603.024
 31
0.0
  0
LINE
  5
E1C
330
1D
100
AcDbEntity
  8
0
100
AcDbLine
 10
228.06765
 20
603.024
 30
0.0
 11
230.96565
 21
603.024
 31
0.0
  0
LINE
  5
E1D
330
1D
100
AcDbEntity
  8
0
100
AcDbLine
 10
228.06665
 20
603.024
 30
0.0
 11
230.96565
 21
603.024
 31
0.0
  0
LINE
  5
E1E
330
1D
100
AcDbEntity
  8
0
100
AcDbLine
 10
225.04765
 20
603.024
 30
0.0
 11
228.06665
 21
603.024
 31
0.0
  0
LINE
  5
E1F
330
1D
100
AcDbEntity
  8
0
100
AcDbLine
 10
225.04765
 20
603.024
 30
0.0
 11
228.06765
 21
603.024
 31
0.0
  0
LINE
  5
E20
330
1D
100
AcDbEntity
  8
0
100
AcDbLine
 10
225.39165
 20
603.024
 30
0.0
 11
228.51365
 21
603.024
 31
0.0
  0
LINE
  5
E21
330
1D
100
AcDbEntity
  8
0
100
AcDbLine
 10
222.17565
 20
603.024
 30
0.0
 11
225.39265
 21
603.024
 31
0.0
  0
LINE
  5
E22
330
1D
100
AcDbEntity
  8
0
100
AcDbLine
 10
225.39265
 20
603.024
 30
0.0
 11
228.51365
 21
603.024
 31
0.0
  0
LINE
  5
E23
330
1D
100
AcDbEntity
  8
0
100
AcDbLine
 10
230.21965
 20
603.024
 30
0.0
 11
236.74765
 21
603.024
 31
0.0
  0
LINE
  5
E24
330
1D
100
AcDbEntity
  8
0
100
AcDbLine
 10
233.71865
 20
603.024
 30
0.0
 11
236.29865
 21
603.024
 31
0.0
  0
LINE
  5
E25
330
1D
100
AcDbEntity
  8
0
100
AcDbLine
 10
230.96565
 20
603.024
 30
0.0
 11
233.71865
 21
603.024
 31
0.0
  0
LINE
  5
E26
330
1D
100
AcDbEntity
  8
0
100
AcDbLine
 10
228.51365
 20
603.024
 30
0.0
 11
231.50965
 21
603.024
 31
0.0
  0
LINE
  5
E27
330
1D
100
AcDbEntity
  8
0
100
AcDbLine
 10
231.50965
 20
603.024
 30
0.0
 11
234.35365
 21
603.024
 31
0.0
  0
LINE
  5
E28
330
1D
100
AcDbEntity
  8
0
100
AcDbLine
 10
231.50965
 20
603.024
 30
0.0
 11
234.35465
 21
603.024
 31
0.0
  0
LINE
  5
E29
330
1D
100
AcDbEntity
  8
0
100
AcDbLine
 10
236.74765
 20
603.024
 30
0.0
 11
241.73965
 21
603.024
 31
0.0
  0
LINE
  5
E2A
330
1D
100
AcDbEntity
  8
0
100
AcDbLine
 10
238.68465
 20
603.024
 30
0.0
 11
240.85165
 21
603.024
 31
0.0
  0
LINE
  5
E2B
330
1D
100
AcDbEntity
  8
0
100
AcDbLine
 10
238.68465
 20
603.024
 30
0.0
 11
240.85265
 21
603.024
 31
0.0
  0
LINE
  5
E2C
330
1D
100
AcDbEntity
  8
0
100
AcDbLine
 10
234.35465
 20
603.024
 30
0.0
 11
237.02065
 21
603.024
 31
0.0
  0
LINE
  5
E2D
330
1D
100
AcDbEntity
  8
0
100
AcDbLine
 10
234.35365
 20
603.024
 30
0.0
 11
237.02065
 21
603.024
 31
0.0
  0
LINE
  5
E2E
330
1D
100
AcDbEntity
  8
0
100
AcDbLine
 10
237.02065
 20
603.024
 30
0.0
 11
239.48565
 21
603.024
 31
0.0
  0
LINE
  5
E2F
330
1D
100
AcDbEntity
  8
0
100
AcDbLine
 10
237.02065
 20
603.024
 30
0.0
 11
239.48665
 21
603.024
 31
0.0
  0
LINE
  5
E30
330
1D
100
AcDbEntity
  8
0
100
AcDbLine
 10
241.73965
 20
603.024
 30
0.0
 11
244.81165
 21
603.024
 31
0.0
  0
LINE
  5
E31
330
1D
100
AcDbEntity
  8
0
100
AcDbLine
 10
240.85265
 20
603.024
 30
0.0
 11
242.78365
 21
603.024
 31
0.0
  0
LINE
  5
E32
330
1D
100
AcDbEntity
  8
0
100
AcDbLine
 10
240.85165
 20
603.024
 30
0.0
 11
242.78465
 21
603.024
 31
0.0
  0
LINE
  5
E33
330
1D
100
AcDbEntity
  8
0
100
AcDbLine
 10
239.48665
 20
603.024
 30
0.0
 11
241.72665
 21
603.024
 31
0.0
  0
LINE
  5
E34
330
1D
100
AcDbEntity
  8
0
100
AcDbLine
 10
239.48565
 20
603.024
 30
0.0
 11
241.72665
 21
603.024
 31
0.0
  0
LINE
  5
E35
330
1D
100
AcDbEntity
  8
0
100
AcDbLine
 10
241.72665
 20
603.024
 30
0.0
 11
243.72265
 21
603.024
 31
0.0
  0
LINE
  5
E36
330
1D
100
AcDbEntity
  8
0
100
AcDbLine
 10
241.72665
 20
603.024
 30
0.0
 11
243.72365
 21
603.024
 31
0.0
  0
LINE
  5
E37
330
1D
100
AcDbEntity
  8
0
100
AcDbLine
 10
242.78465
 20
603.024
 30
0.0
 11
244.46265
 21
603.024
 31
0.0
  0
LINE
  5
E38
330
1D
100
AcDbEntity
  8
0
100
AcDbLine
 10
244.81165
 20
603.024
 30
0.0
 11
245.96365
 21
603.024
 31
0.0
  0
LINE
  5
E39
330
1D
100
AcDbEntity
  8
0
100
AcDbLine
 10
245.87165
 20
603.024
 30
0.0
 11
246.99765
 21
603.024
 31
0.0
  0
LINE
  5
E3A
330
1D
100
AcDbEntity
  8
0
100
AcDbLine
 10
245.87065
 20
603.024
 30
0.0
 11
246.99865
 21
603.024
 31
0.0
  0
LINE
  5
E3B
330
1D
100
AcDbEntity
  8
0
100
AcDbLine
 10
243.72365
 20
603.024
 30
0.0
 11
245.45765
 21
603.024
 31
0.0
  0
LINE
  5
E3C
330
1D
100
AcDbEntity
  8
0
100
AcDbLine
 10
244.46265
 20
603.024
 30
0.0
 11
245.87165
 21
603.024
 31
0.0
  0
LINE
  5
E3D
330
1D
100
AcDbEntity
  8
0
100
AcDbLine
 10
244.46265
 20
603.024
 30
0.0
 11
245.87065
 21
603.024
 31
0.0
  0
LINE
  5
E3E
330
1D
100
AcDbEntity
  8
0
100
AcDbLine
 10
242.78365
 20
603.024
 30
0.0
 11
244.46265
 21
603.024
 31
0.0
  0
LINE
  5
E3F
330
1D
100
AcDbEntity
  8
0
100
AcDbLine
 10
245.45765
 20
603.024
 30
0.0
 11
246.91365
 21
603.024
 31
0.0
  0
LINE
  5
E40
330
1D
100
AcDbEntity
  8
0
100
AcDbLine
 10
245.45765
 20
603.024
 30
0.0
 11
246.91265
 21
603.024
 31
0.0
  0
LINE
  5
E41
330
1D
100
AcDbEntity
  8
0
100
AcDbLine
 10
182.57065
 20
603.024
 30
0.0
 11
183.49965
 21
603.024
 31
0.0
  0
LINE
  5
E42
330
1D
100
AcDbEntity
  8
0
100
AcDbLine
 10
243.72265
 20
603.024
 30
0.0
 11
245.45765
 21
603.024
 31
0.0
  0
LINE
  5
E43
330
1D
100
AcDbEntity
  8
0
100
AcDbLine
 10
246.03665
 20
603.024
 30
0.0
 11
247.33565
 21
603.024
 31
0.0
  0
LINE
  5
E44
330
1D
100
AcDbEntity
  8
0
100
AcDbLine
 10
182.33665
 20
603.024
 30
0.0
 11
183.49965
 21
603.024
 31
0.0
  0
LINE
  5
E45
330
1D
100
AcDbEntity
  8
0
100
AcDbLine
 10
181.33265
 20
603.024
 30
0.0
 11
182.33665
 21
603.024
 31
0.0
  0
LINE
  5
E46
330
1D
100
AcDbEntity
  8
0
100
AcDbLine
 10
180.63165
 20
603.024
 30
0.0
 11
181.33265
 21
603.024
 31
0.0
  0
LINE
  5
E47
330
1D
100
AcDbEntity
  8
0
100
AcDbLine
 10
180.24065
 20
603.024
 30
0.0
 11
180.63165
 21
603.024
 31
0.0
  0
LINE
  5
E48
330
1D
100
AcDbEntity
  8
0
100
AcDbLine
 10
180.16265
 20
603.024
 30
0.0
 11
180.24065
 21
603.024
 31
0.0
  0
LINE
  5
E49
330
1D
100
AcDbEntity
  8
0
100
AcDbLine
 10
246.45465
 20
603.024
 30
0.0
 11
247.43565
 21
603.024
 31
0.0
  0
LINE
  5
E4A
330
1D
100
AcDbEntity
  8
0
100
AcDbLine
 10
246.20765
 20
603.024
 30
0.0
 11
247.51765
 21
603.024
 31
0.0
  0
LINE
  5
E4B
330
1D
100
AcDbEntity
  8
0
100
AcDbLine
 10
246.20665
 20
603.024
 30
0.0
 11
247.51765
 21
603.024
 31
0.0
  0
LINE
  5
E4C
330
1D
100
AcDbEntity
  8
0
100
AcDbLine
 10
246.22765
 20
603.024
 30
0.0
 11
247.53765
 21
603.024
 31
0.0
  0
LINE
  5
E4D
330
1D
100
AcDbEntity
  8
0
100
AcDbLine
 10
246.47565
 20
603.024
 30
0.0
 11
247.45565
 21
603.024
 31
0.0
  0
LINE
  5
E4E
330
1D
100
AcDbEntity
  8
0
100
AcDbLine
 10
246.47465
 20
603.024
 30
0.0
 11
247.45565
 21
603.024
 31
0.0
  0
LINE
  5
E4F
330
1D
100
AcDbEntity
  8
0
100
AcDbLine
 10
246.22665
 20
603.024
 30
0.0
 11
247.53765
 21
603.024
 31
0.0
  0
LINE
  5
E50
330
1D
100
AcDbEntity
  8
0
100
AcDbLine
 10
246.03765
 20
603.024
 30
0.0
 11
247.33565
 21
603.024
 31
0.0
  0
LINE
  5
E51
330
1D
100
AcDbEntity
  8
0
100
AcDbLine
 10
246.41365
 20
603.024
 30
0.0
 11
247.38965
 21
603.024
 31
0.0
  0
LINE
  5
E52
330
1D
100
AcDbEntity
  8
0
100
AcDbLine
 10
246.89265
 20
603.024
 30
0.0
 11
248.05765
 21
603.024
 31
0.0
  0
LINE
  5
E53
330
1D
100
AcDbEntity
  8
0
100
AcDbLine
 10
246.89365
 20
603.024
 30
0.0
 11
248.05765
 21
603.024
 31
0.0
  0
LINE
  5
E54
330
1D
100
AcDbEntity
  8
0
100
AcDbLine
 10
246.97865
 20
603.024
 30
0.0
 11
247.81265
 21
603.024
 31
0.0
  0
LINE
  5
E55
330
1D
100
AcDbEntity
  8
0
100
AcDbLine
 10
246.99765
 20
603.024
 30
0.0
 11
247.83265
 21
603.024
 31
0.0
  0
LINE
  5
E56
330
1D
100
AcDbEntity
  8
0
100
AcDbLine
 10
246.99865
 20
603.024
 30
0.0
 11
247.83265
 21
603.024
 31
0.0
  0
LINE
  5
E57
330
1D
100
AcDbEntity
  8
0
100
AcDbLine
 10
246.91265
 20
603.024
 30
0.0
 11
248.07765
 21
603.024
 31
0.0
  0
LINE
  5
E58
330
1D
100
AcDbEntity
  8
0
100
AcDbLine
 10
246.91365
 20
603.024
 30
0.0
 11
248.07765
 21
603.024
 31
0.0
  0
LINE
  5
E59
330
1D
100
AcDbEntity
  8
0
100
AcDbLine
 10
246.71765
 20
603.024
 30
0.0
 11
247.87165
 21
603.024
 31
0.0
  0
LINE
  5
E5A
330
1D
100
AcDbEntity
  8
0
100
AcDbLine
 10
246.93465
 20
603.024
 30
0.0
 11
247.76465
 21
603.024
 31
0.0
  0
LINE
  5
E5B
330
1D
100
AcDbEntity
  8
0
100
AcDbLine
 10
246.71665
 20
603.024
 30
0.0
 11
247.87065
 21
603.024
 31
0.0
  0
LINE
  5
E5C
330
1D
100
AcDbEntity
  8
0
100
AcDbLine
 10
245.96365
 20
603.024
 30
0.0
 11
246.71665
 21
603.024
 31
0.0
  0
LINE
  5
E5D
330
1D
100
AcDbEntity
  8
0
100
AcDbLine
 10
245.96365
 20
603.024
 30
0.0
 11
246.93465
 21
603.024
 31
0.0
  0
LINE
  5
E5E
330
1D
100
AcDbEntity
  8
0
100
AcDbLine
 10
245.96365
 20
603.024
 30
0.0
 11
246.41365
 21
603.024
 31
0.0
  0
LINE
  5
E5F
330
1D
100
AcDbEntity
  8
0
100
AcDbLine
 10
245.96365
 20
603.024
 30
0.0
 11
246.03765
 21
603.024
 31
0.0
  0
LINE
  5
E60
330
1D
100
AcDbEntity
  8
0
100
AcDbLine
 10
245.96365
 20
603.024
 30
0.0
 11
246.03665
 21
603.024
 31
0.0
  0
LINE
  5
E61
330
1D
100
AcDbEntity
  8
0
100
AcDbLine
 10
245.96365
 20
603.024
 30
0.0
 11
246.71765
 21
603.024
 31
0.0
  0
LINE
  5
E62
330
1D
100
AcDbEntity
  8
0
100
AcDbLine
 10
245.96365
 20
603.024
 30
0.0
 11
246.22665
 21
603.024
 31
0.0
  0
LINE
  5
E63
330
1D
100
AcDbEntity
  8
0
100
AcDbLine
 10
245.96365
 20
603.024
 30
0.0
 11
246.47465
 21
603.024
 31
0.0
  0
LINE
  5
E64
330
1D
100
AcDbEntity
  8
0
100
AcDbLine
 10
245.96365
 20
603.024
 30
0.0
 11
246.47565
 21
603.024
 31
0.0
  0
LINE
  5
E65
330
1D
100
AcDbEntity
  8
0
100
AcDbLine
 10
245.96365
 20
603.024
 30
0.0
 11
246.22765
 21
603.024
 31
0.0
  0
LINE
  5
E66
330
1D
100
AcDbEntity
  8
0
100
AcDbLine
 10
245.96365
 20
603.024
 30
0.0
 11
246.89365
 21
603.024
 31
0.0
  0
LINE
  5
E67
330
1D
100
AcDbEntity
  8
0
100
AcDbLine
 10
245.96365
 20
603.024
 30
0.0
 11
246.20665
 21
603.024
 31
0.0
  0
LINE
  5
E68
330
1D
100
AcDbEntity
  8
0
100
AcDbLine
 10
245.96365
 20
603.024
 30
0.0
 11
246.89265
 21
603.024
 31
0.0
  0
LINE
  5
E69
330
1D
100
AcDbEntity
  8
0
100
AcDbLine
 10
245.96365
 20
603.024
 30
0.0
 11
246.97865
 21
603.024
 31
0.0
  0
LINE
  5
E6A
330
1D
100
AcDbEntity
  8
0
100
AcDbLine
 10
245.96365
 20
603.024
 30
0.0
 11
246.20765
 21
603.024
 31
0.0
  0
LINE
  5
E6B
330
1D
100
AcDbEntity
  8
0
100
AcDbLine
 10
245.96365
 20
603.024
 30
0.0
 11
246.45465
 21
603.024
 31
0.0
  0
LINE
  5
E6C
330
1D
100
AcDbEntity
  8
0
100
AcDbLine
 10
247.43565
 20
603.024
 30
0.0
 11
248.11965
 21
603.024
 31
0.0
  0
LINE
  5
E6D
330
1D
100
AcDbEntity
  8
0
100
AcDbLine
 10
247.51765
 20
603.024
 30
0.0
 11
248.53065
 21
603.024
 31
0.0
  0
LINE
  5
E6E
330
1D
100
AcDbEntity
  8
0
100
AcDbLine
 10
247.45565
 20
603.024
 30
0.0
 11
248.14065
 21
603.024
 31
0.0
  0
LINE
  5
E6F
330
1D
100
AcDbEntity
  8
0
100
AcDbLine
 10
247.45565
 20
603.024
 30
0.0
 11
248.13965
 21
603.024
 31
0.0
  0
LINE
  5
E70
330
1D
100
AcDbEntity
  8
0
100
AcDbLine
 10
247.81265
 20
603.024
 30
0.0
 11
248.34665
 21
603.024
 31
0.0
  0
LINE
  5
E71
330
1D
100
AcDbEntity
  8
0
100
AcDbLine
 10
248.11965
 20
603.024
 30
0.0
 11
248.50165
 21
603.024
 31
0.0
  0
LINE
  5
E72
330
1D
100
AcDbEntity
  8
0
100
AcDbLine
 10
248.05765
 20
603.024
 30
0.0
 11
248.92065
 21
603.024
 31
0.0
  0
LINE
  5
E73
330
1D
100
AcDbEntity
  8
0
100
AcDbLine
 10
248.13965
 20
603.024
 30
0.0
 11
248.52265
 21
603.024
 31
0.0
  0
LINE
  5
E74
330
1D
100
AcDbEntity
  8
0
100
AcDbLine
 10
248.14065
 20
603.024
 30
0.0
 11
248.52265
 21
603.024
 31
0.0
  0
LINE
  5
E75
330
1D
100
AcDbEntity
  8
0
100
AcDbLine
 10
247.83265
 20
603.024
 30
0.0
 11
248.36765
 21
603.024
 31
0.0
  0
LINE
  5
E76
330
1D
100
AcDbEntity
  8
0
100
AcDbLine
 10
248.07765
 20
603.024
 30
0.0
 11
248.94065
 21
603.024
 31
0.0
  0
LINE
  5
E77
330
1D
100
AcDbEntity
  8
0
100
AcDbLine
 10
247.53765
 20
603.024
 30
0.0
 11
248.55065
 21
603.024
 31
0.0
  0
LINE
  5
E78
330
1D
100
AcDbEntity
  8
0
100
AcDbLine
 10
247.87165
 20
603.024
 30
0.0
 11
248.72665
 21
603.024
 31
0.0
  0
LINE
  5
E79
330
1D
100
AcDbEntity
  8
0
100
AcDbLine
 10
247.38965
 20
603.024
 30
0.0
 11
248.07065
 21
603.024
 31
0.0
  0
LINE
  5
E7A
330
1D
100
AcDbEntity
  8
0
100
AcDbLine
 10
248.07065
 20
603.024
 30
0.0
 11
248.45065
 21
603.024
 31
0.0
  0
LINE
  5
E7B
330
1D
100
AcDbEntity
  8
0
100
AcDbLine
 10
248.34665
 20
603.024
 30
0.0
 11
248.57765
 21
603.024
 31
0.0
  0
LINE
  5
E7C
330
1D
100
AcDbEntity
  8
0
100
AcDbLine
 10
248.50165
 20
603.024
 30
0.0
 11
248.57765
 21
603.024
 31
0.0
  0
LINE
  5
E7D
330
1D
100
AcDbEntity
  8
0
100
AcDbLine
 10
248.53065
 20
603.024
 30
0.0
 11
249.23865
 21
603.024
 31
0.0
  0
LINE
  5
E7E
330
1D
100
AcDbEntity
  8
0
100
AcDbLine
 10
248.36765
 20
603.024
 30
0.0
 11
248.59865
 21
603.024
 31
0.0
  0
LINE
  5
E7F
330
1D
100
AcDbEntity
  8
0
100
AcDbLine
 10
248.36765
 20
603.024
 30
0.0
 11
248.59765
 21
603.024
 31
0.0
  0
LINE
  5
E80
330
1D
100
AcDbEntity
  8
0
100
AcDbLine
 10
248.52265
 20
603.024
 30
0.0
 11
248.59765
 21
603.024
 31
0.0
  0
LINE
  5
E81
330
1D
100
AcDbEntity
  8
0
100
AcDbLine
 10
248.52265
 20
603.024
 30
0.0
 11
248.59865
 21
603.024
 31
0.0
  0
LINE
  5
E82
330
1D
100
AcDbEntity
  8
0
100
AcDbLine
 10
248.55065
 20
603.024
 30
0.0
 11
249.25865
 21
603.024
 31
0.0
  0
LINE
  5
E83
330
1D
100
AcDbEntity
  8
0
100
AcDbLine
 10
248.33965
 20
603.024
 30
0.0
 11
249.04165
 21
603.024
 31
0.0
  0
LINE
  5
E84
330
1D
100
AcDbEntity
  8
0
100
AcDbLine
 10
248.45065
 20
603.024
 30
0.0
 11
248.52565
 21
603.024
 31
0.0
  0
LINE
  5
E85
330
1D
100
AcDbEntity
  8
0
100
AcDbLine
 10
248.29765
 20
603.024
 30
0.0
 11
248.52565
 21
603.024
 31
0.0
  0
LINE
  5
E86
330
1D
100
AcDbEntity
  8
0
100
AcDbLine
 10
247.76465
 20
603.024
 30
0.0
 11
248.29765
 21
603.024
 31
0.0
  0
LINE
  5
E87
330
1D
100
AcDbEntity
  8
0
100
AcDbLine
 10
248.92065
 20
603.024
 30
0.0
 11
249.47365
 21
603.024
 31
0.0
  0
LINE
  5
E88
330
1D
100
AcDbEntity
  8
0
100
AcDbLine
 10
248.94065
 20
603.024
 30
0.0
 11
249.49365
 21
603.024
 31
0.0
  0
LINE
  5
E89
330
1D
100
AcDbEntity
  8
0
100
AcDbLine
 10
248.72665
 20
603.024
 30
0.0
 11
249.27465
 21
603.024
 31
0.0
  0
LINE
  5
E8A
330
1D
100
AcDbEntity
  8
0
100
AcDbLine
 10
249.23865
 20
603.024
 30
0.0
 11
249.63365
 21
603.024
 31
0.0
  0
LINE
  5
E8B
330
1D
100
AcDbEntity
  8
0
100
AcDbLine
 10
249.23865
 20
603.024
 30
0.0
 11
249.63265
 21
603.024
 31
0.0
  0
LINE
  5
E8C
330
1D
100
AcDbEntity
  8
0
100
AcDbLine
 10
249.25865
 20
603.024
 30
0.0
 11
249.65365
 21
603.024
 31
0.0
  0
LINE
  5
E8D
330
1D
100
AcDbEntity
  8
0
100
AcDbLine
 10
249.25865
 20
603.024
 30
0.0
 11
249.65265
 21
603.024
 31
0.0
  0
LINE
  5
E8E
330
1D
100
AcDbEntity
  8
0
100
AcDbLine
 10
249.27465
 20
603.024
 30
0.0
 11
249.50965
 21
603.024
 31
0.0
  0
LINE
  5
E8F
330
1D
100
AcDbEntity
  8
0
100
AcDbLine
 10
249.04165
 20
603.024
 30
0.0
 11
249.43165
 21
603.024
 31
0.0
  0
LINE
  5
E90
330
1D
100
AcDbEntity
  8
0
100
AcDbLine
 10
249.63265
 20
603.024
 30
0.0
 11
249.71165
 21
603.024
 31
0.0
  0
LINE
  5
E91
330
1D
100
AcDbEntity
  8
0
100
AcDbLine
 10
249.47365
 20
603.024
 30
0.0
 11
249.71165
 21
603.024
 31
0.0
  0
LINE
  5
E92
330
1D
100
AcDbEntity
  8
0
100
AcDbLine
 10
249.63365
 20
603.024
 30
0.0
 11
249.71165
 21
603.024
 31
0.0
  0
LINE
  5
E93
330
1D
100
AcDbEntity
  8
0
100
AcDbLine
 10
249.65265
 20
603.024
 30
0.0
 11
249.73165
 21
603.024
 31
0.0
  0
LINE
  5
E94
330
1D
100
AcDbEntity
  8
0
100
AcDbLine
 10
249.49365
 20
603.024
 30
0.0
 11
249.73165
 21
603.024
 31
0.0
  0
LINE
  5
E95
330
1D
100
AcDbEntity
  8
0
100
AcDbLine
 10
249.65365
 20
603.024
 30
0.0
 11
249.73165
 21
603.024
 31
0.0
  0
LINE
  5
E96
330
1D
100
AcDbEntity
  8
0
100
AcDbLine
 10
249.43165
 20
603.024
 30
0.0
 11
249.51065
 21
603.024
 31
0.0
  0
LINE
  5
E97
330
1D
100
AcDbEntity
  8
0
100
AcDbLine
 10
249.43165
 20
603.024
 30
0.0
 11
249.50965
 21
603.024
 31
0.0
  0
LINE
  5
E98
330
1D
100
AcDbEntity
  8
0
100
AcDbLine
 10
249.27365
 20
603.024
 30
0.0
 11
249.51065
 21
603.024
 31
0.0
  0
LINE
  5
E99
330
1D
100
AcDbEntity
  8
0
100
AcDbLine
 10
248.72565
 20
603.024
 30
0.0
 11
249.27365
 21
603.024
 31
0.0
  0
LINE
  5
E9A
330
1D
100
AcDbEntity
  8
0
100
AcDbLine
 10
247.87065
 20
603.024
 30
0.0
 11
248.72565
 21
603.024
 31
0.0
  0
LINE
  5
E9B
330
1D
100
AcDbEntity
  8
0
100
AcDbLine
 10
247.33565
 20
603.024
 30
0.0
 11
248.34065
 21
603.024
 31
0.0
  0
LINE
  5
E9C
330
1D
100
AcDbEntity
  8
0
100
AcDbLine
 10
247.33565
 20
603.024
 30
0.0
 11
248.33965
 21
603.024
 31
0.0
  0
LINE
  5
E9D
330
1D
100
AcDbEntity
  8
0
100
AcDbLine
 10
171.74665
 20
637.7097
 30
0.0
 11
187.250976368536
 21
619.259236401331
 31
0.0
  0
LINE
  5
E9E
330
1D
100
AcDbEntity
  8
0
100
AcDbLine
 10
171.74665
 20
637.7097
 30
0.0
 11
187.250976368536
 21
619.259236401331
 31
0.0
  0
LINE
  5
E9F
330
1D
100
AcDbEntity
  8
0
100
AcDbLine
 10
179.88665
 20
611.79072
 30
0.0
 11
180.37965
 21
612.43955
 31
0.0
  0
LINE
  5
EA0
330
1D
100
AcDbEntity
  8
0
100
AcDbLine
 10
178.34065
 20
788.231
 30
0.0
 11
180.42665
 21
788.165
 31
0.0
  0
LINE
  5
EA1
330
1D
100
AcDbEntity
  8
0
100
AcDbLine
 10
177.17665
 20
864.646
 30
0.0
 11
184.87165
 21
879.289
 31
0.0
  0
LINE
  5
EA2
330
1D
100
AcDbEntity
  8
0
100
AcDbLine
 10
160.20865
 20
655.9265
 30
0.0
 11
181.56665
 21
673.859
 31
0.0
  0
LINE
  5
EA3
330
1D
100
AcDbEntity
  8
0
100
AcDbLine
 10
183.69765
 20
673.1944
 30
0.0
 11
159.17865
 21
652.6238
 31
0.0
  0
LINE
  5
EA4
330
1D
100
AcDbEntity
  8
0
100
AcDbLine
 10
183.79165
 20
648.4694
 30
0.0
 11
171.74665
 21
637.7097
 31
0.0
  0
LINE
  5
EA5
330
1D
100
AcDbEntity
  8
0
100
AcDbLine
 10
159.21865
 20
652.6525
 30
0.0
 11
171.24265
 21
638.3304
 31
0.0
  0
LINE
  5
EA6
330
1D
100
AcDbEntity
  8
0
100
AcDbLine
 10
158.82765
 20
654.6804
 30
0.0
 11
159.26365
 21
655.1348
 31
0.0
  0
LINE
  5
EA7
330
1D
100
AcDbEntity
  8
0
100
AcDbLine
 10
158.78065
 20
653.8313
 30
0.0
 11
159.17865
 21
652.6238
 31
0.0
  0
LINE
  5
EA8
330
1D
100
AcDbEntity
  8
0
100
AcDbLine
 10
158.78065
 20
653.8313
 30
0.0
 11
158.82765
 21
654.6804
 31
0.0
  0
LINE
  5
EA9
330
1D
100
AcDbEntity
  8
0
100
AcDbLine
 10
159.26365
 20
655.1348
 30
0.0
 11
160.20865
 21
655.9265
 31
0.0
  0
LINE
  5
EAA
330
1D
100
AcDbEntity
  8
0
100
AcDbLine
 10
159.73365
 20
656.4009
 30
0.0
 11
160.10965
 21
656.7554
 31
0.0
  0
LINE
  5
EAB
330
1D
100
AcDbEntity
  8
0
100
AcDbLine
 10
159.73365
 20
656.4009
 30
0.0
 11
160.676978535095
 21
656.315937959753
 31
0.0
  0
LINE
  5
EAC
330
1D
100
AcDbEntity
  8
0
100
AcDbLine
 10
160.10965
 20
656.7554
 30
0.0
 11
160.98965
 21
657.5095
 31
0.0
  0
LINE
  5
EAD
330
1D
100
AcDbEntity
  8
0
100
AcDbLine
 10
160.98965
 20
657.5095
 30
0.0
 11
162.41365
 21
658.7512
 31
0.0
  0
LINE
  5
EAE
330
1D
100
AcDbEntity
  8
0
100
AcDbLine
 10
162.41365
 20
658.7512
 30
0.0
 11
164.30365
 21
660.3042
 31
0.0
  0
LINE
  5
EAF
330
1D
100
AcDbEntity
  8
0
100
AcDbLine
 10
164.30365
 20
660.3042
 30
0.0
 11
166.56965
 21
662.2117
 31
0.0
  0
LINE
  5
EB0
330
1D
100
AcDbEntity
  8
0
100
AcDbLine
 10
166.56965
 20
662.2117
 30
0.0
 11
168.87365
 21
664.2075
 31
0.0
  0
LINE
  5
EB1
330
1D
100
AcDbEntity
  8
0
100
AcDbLine
 10
168.87365
 20
664.2075
 30
0.0
 11
171.26765
 21
666.16
 31
0.0
  0
LINE
  5
EB2
330
1D
100
AcDbEntity
  8
0
100
AcDbLine
 10
171.26765
 20
666.16
 30
0.0
 11
173.49365
 21
667.9793
 31
0.0
  0
LINE
  5
EB3
330
1D
100
AcDbEntity
  8
0
100
AcDbLine
 10
173.49365
 20
667.9793
 30
0.0
 11
175.42365
 21
669.6205
 31
0.0
  0
LINE
  5
EB4
330
1D
100
AcDbEntity
  8
0
100
AcDbLine
 10
10.10515
 20
712.555
 30
0.0
 11
10.22775
 21
712.777
 31
0.0
  0
LINE
  5
EB5
330
1D
100
AcDbEntity
  8
0
100
AcDbLine
 10
10.26385
 20
711.348
 30
0.0
 11
10.326540378548
 21
711.285422712935
 31
0.0
  0
LINE
  5
EB6
330
1D
100
AcDbEntity
  8
0
100
AcDbLine
 10
10.22775
 20
712.777
 30
0.0
 11
20.25405
 21
721.593
 31
0.0
  0
LINE
  5
EB7
330
1D
100
AcDbEntity
  8
0
100
AcDbLine
 10
10.22775
 20
712.777
 30
0.0
 11
20.25415
 21
721.592
 31
0.0
  0
LINE
  5
EB8
330
1D
100
AcDbEntity
  8
0
100
AcDbLine
 10
10.10525
 20
712.555
 30
0.0
 11
10.26395
 21
711.348
 31
0.0
  0
LINE
  5
EB9
330
1D
100
AcDbEntity
  8
0
100
AcDbLine
 10
0.48615
 20
784.248
 30
0.0
 11
0.94885
 21
784.031
 31
0.0
  0
LINE
  5
EBA
330
1D
100
AcDbEntity
  8
0
100
AcDbLine
 10
3.44285
 20
781.765
 30
0.0
 11
3.831685549431
 21
782.599073415899
 31
0.0
  0
LINE
  5
EBB
330
1D
100
AcDbEntity
  8
0
100
AcDbLine
 10
3.44285
 20
781.765
 30
0.0
 11
4.10425
 21
781.456
 31
0.0
  0
LINE
  5
EBC
330
1D
100
AcDbEntity
  8
0
100
AcDbLine
 10
2.470761357031
 20
783.321770805118
 30
0.0
 11
3.818523894138
 21
782.570840948973
 31
0.0
  0
LINE
  5
EBD
330
1D
100
AcDbEntity
  8
0
100
AcDbLine
 10
2.470761357031
 20
783.321770805118
 30
0.0
 11
3.818523894138
 21
782.570840948973
 31
0.0
  0
LINE
  5
EBE
330
1D
100
AcDbEntity
  8
0
100
AcDbLine
 10
2.07375
 20
783.507
 30
0.0
 11
3.99205
 21
782.612
 31
0.0
  0
LINE
  5
EBF
330
1D
100
AcDbEntity
  8
0
100
AcDbLine
 10
2.07375
 20
783.507
 30
0.0
 11
2.470761357031
 21
783.321770805118
 31
0.0
  0
LINE
  5
EC0
330
1D
100
AcDbEntity
  8
0
100
AcDbLine
 10
0.94885
 20
784.031
 30
0.0
 11
2.07375
 21
783.507
 31
0.0
  0
LINE
  5
EC1
330
1D
100
AcDbEntity
  8
0
100
AcDbLine
 10
6.476661253825
 20
780.35012000005
 30
0.0
 11
6.64201
 21
780.273
 31
0.0
  0
LINE
  5
EC2
330
1D
100
AcDbEntity
  8
0
100
AcDbLine
 10
6.64201
 20
780.273
 30
0.0
 11
6.707204439913
 21
780.242686617815
 31
0.0
  0
LINE
  5
EC3
330
1D
100
AcDbEntity
  8
0
100
AcDbLine
 10
6.64201
 20
780.273
 30
0.0
 11
6.707204439913
 21
780.242686617815
 31
0.0
  0
LINE
  5
EC4
330
1D
100
AcDbEntity
  8
0
100
AcDbLine
 10
7.01781280501
 20
780.098263410964
 30
0.0
 11
7.30442
 21
779.965
 31
0.0
  0
LINE
  5
EC5
330
1D
100
AcDbEntity
  8
0
100
AcDbLine
 10
7.017926120695
 20
780.098506467772
 30
0.0
 11
7.30442
 21
779.965
 31
0.0
  0
LINE
  5
EC6
330
1D
100
AcDbEntity
  8
0
100
AcDbLine
 10
7.01769
 20
780.098
 30
0.0
 11
7.379830890922
 21
780.874775158821
 31
0.0
  0
LINE
  5
EC7
330
1D
100
AcDbEntity
  8
0
100
AcDbLine
 10
5.87177
 20
780.632
 30
0.0
 11
6.275887185364
 21
781.498802078751
 31
0.0
  0
LINE
  5
EC8
330
1D
100
AcDbEntity
  8
0
100
AcDbLine
 10
5.87177
 20
780.632
 30
0.0
 11
7.01769
 21
780.098
 31
0.0
  0
LINE
  5
EC9
330
1D
100
AcDbEntity
  8
0
100
AcDbLine
 10
7.30442
 20
779.965
 30
0.0
 11
7.550116889824
 21
780.491717576501
 31
0.0
  0
LINE
  5
ECA
330
1D
100
AcDbEntity
  8
0
100
AcDbLine
 10
7.273181431456
 20
780.646017090093
 30
0.0
 11
8.782966563531
 21
779.804813464955
 31
0.0
  0
LINE
  5
ECB
330
1D
100
AcDbEntity
  8
0
100
AcDbLine
 10
4.496779238498
 20
781.273076147486
 30
0.0
 11
4.66615
 21
781.194
 31
0.0
  0
LINE
  5
ECC
330
1D
100
AcDbEntity
  8
0
100
AcDbLine
 10
4.496779238498
 20
781.273076147485
 30
0.0
 11
4.66615
 21
781.194
 31
0.0
  0
LINE
  5
ECD
330
1D
100
AcDbEntity
  8
0
100
AcDbLine
 10
4.66615
 20
781.194
 30
0.0
 11
5.056696815622
 21
781.012147100034
 31
0.0
  0
LINE
  5
ECE
330
1D
100
AcDbEntity
  8
0
100
AcDbLine
 10
4.10425
 20
781.456
 30
0.0
 11
4.473999108888
 21
782.24912257831
 31
0.0
  0
LINE
  5
ECF
330
1D
100
AcDbEntity
  8
0
100
AcDbLine
 10
4.10425
 20
781.456
 30
0.0
 11
5.25014
 21
780.922
 31
0.0
  0
LINE
  5
ED0
330
1D
100
AcDbEntity
  8
0
100
AcDbLine
 10
5.49709
 20
780.807
 30
0.0
 11
5.557206606631
 21
780.77896112572
 31
0.0
  0
LINE
  5
ED1
330
1D
100
AcDbEntity
  8
0
100
AcDbLine
 10
5.49709
 20
780.807
 30
0.0
 11
5.557206606631
 21
780.77896112572
 31
0.0
  0
LINE
  5
ED2
330
1D
100
AcDbEntity
  8
0
100
AcDbLine
 10
5.250167912894
 20
780.922059871842
 30
0.0
 11
5.32761
 21
780.886
 31
0.0
  0
LINE
  5
ED3
330
1D
100
AcDbEntity
  8
0
100
AcDbLine
 10
5.250178241592
 20
780.922082026414
 30
0.0
 11
5.32761
 21
780.886
 31
0.0
  0
LINE
  5
ED4
330
1D
100
AcDbEntity
  8
0
100
AcDbLine
 10
5.21037
 20
780.941
 30
0.0
 11
5.581036570541
 21
781.735623806043
 31
0.0
  0
LINE
  5
ED5
330
1D
100
AcDbEntity
  8
0
100
AcDbLine
 10
5.21037
 20
780.941
 30
0.0
 11
5.87177
 21
780.632
 31
0.0
  0
LINE
  5
ED6
330
1D
100
AcDbEntity
  8
0
100
AcDbLine
 10
7.273181431456
 20
780.646017090093
 30
0.0
 11
8.782966563531
 21
779.804813464955
 31
0.0
  0
LINE
  5
ED7
330
1D
100
AcDbEntity
  8
0
100
AcDbLine
 10
9.24154
 20
779.061
 30
0.0
 11
9.615968531552
 21
779.864131569381
 31
0.0
  0
LINE
  5
ED8
330
1D
100
AcDbEntity
  8
0
100
AcDbLine
 10
9.24154
 20
779.061
 30
0.0
 11
10.38746
 21
778.527
 31
0.0
  0
LINE
  5
ED9
330
1D
100
AcDbEntity
  8
0
100
AcDbLine
 10
8.58014
 20
779.37
 30
0.0
 11
8.970191007124
 21
780.206179576107
 31
0.0
  0
LINE
  5
EDA
330
1D
100
AcDbEntity
  8
0
100
AcDbLine
 10
8.58014
 20
779.37
 30
0.0
 11
9.24154
 21
779.061
 31
0.0
  0
LINE
  5
EDB
330
1D
100
AcDbEntity
  8
0
100
AcDbLine
 10
8.58014
 20
779.37
 30
0.0
 11
9.72506
 21
778.835
 31
0.0
  0
LINE
  5
EDC
330
1D
100
AcDbEntity
  8
0
100
AcDbLine
 10
8.58014
 20
779.37
 30
0.0
 11
8.782966563531
 21
779.804813464955
 31
0.0
  0
LINE
  5
EDD
330
1D
100
AcDbEntity
  8
0
100
AcDbLine
 10
8.054633472644
 20
780.718282662244
 30
0.0
 11
8.16029
 21
780.669
 31
0.0
  0
LINE
  5
EDE
330
1D
100
AcDbEntity
  8
0
100
AcDbLine
 10
8.054633472643
 20
780.718282662244
 30
0.0
 11
9.002884305409
 21
780.276266482184
 31
0.0
  0
LINE
  5
EDF
330
1D
100
AcDbEntity
  8
0
100
AcDbLine
 10
8.054633472644
 20
780.718282662244
 30
0.0
 11
9.002884305409
 21
780.276266482184
 31
0.0
  0
LINE
  5
EE0
330
1D
100
AcDbEntity
  8
0
100
AcDbLine
 10
8.16029
 20
780.669
 30
0.0
 11
11.33544
 21
779.188
 31
0.0
  0
LINE
  5
EE1
330
1D
100
AcDbEntity
  8
0
100
AcDbLine
 10
8.054633472643
 20
780.718282662244
 30
0.0
 11
8.16029
 21
780.669
 31
0.0
  0
LINE
  5
EE2
330
1D
100
AcDbEntity
  8
0
100
AcDbLine
 10
6.43984
 20
781.471
 30
0.0
 11
9.74787
 21
779.929
 31
0.0
  0
LINE
  5
EE3
330
1D
100
AcDbEntity
  8
0
100
AcDbLine
 10
3.99205
 20
782.612
 30
0.0
 11
6.43984
 21
781.471
 31
0.0
  0
LINE
  5
EE4
330
1D
100
AcDbEntity
  8
0
100
AcDbLine
 10
6.33293
 20
782.624
 30
0.0
 11
9.64097
 21
781.082
 31
0.0
  0
LINE
  5
EE5
330
1D
100
AcDbEntity
  8
0
100
AcDbLine
 10
3.75325
 20
783.827
 30
0.0
 11
6.33293
 21
782.624
 31
0.0
  0
LINE
  5
EE6
330
1D
100
AcDbEntity
  8
0
100
AcDbLine
 10
1.90095
 20
784.691
 30
0.0
 11
3.75325
 21
783.827
 31
0.0
  0
LINE
  5
EE7
330
1D
100
AcDbEntity
  8
0
100
AcDbLine
 10
0.71005
 20
785.246
 30
0.0
 11
1.90095
 21
784.691
 31
0.0
  0
LINE
  5
EE8
330
1D
100
AcDbEntity
  8
0
100
AcDbLine
 10
0.24735
 20
785.463
 30
0.0
 11
0.71005
 21
785.246
 31
0.0
  0
LINE
  5
EE9
330
1D
100
AcDbEntity
  8
0
100
AcDbLine
 10
0.24735
 20
785.463
 30
0.0
 11
9.12242
 21
804.495
 31
0.0
  0
LINE
  5
EEA
330
1D
100
AcDbEntity
  8
0
100
AcDbLine
 10
0.24735
 20
785.463
 30
0.0
 11
0.48615
 21
784.248
 31
0.0
  0
LINE
  5
EEB
330
1D
100
AcDbEntity
  8
0
100
AcDbLine
 10
9.72506
 20
778.835
 30
0.0
 11
10.38746
 21
778.527
 31
0.0
  0
LINE
  5
EEC
330
1D
100
AcDbEntity
  8
0
100
AcDbLine
 10
9.74787
 20
779.929
 30
0.0
 11
13.58443
 21
778.139
 31
0.0
  0
LINE
  5
EED
330
1D
100
AcDbEntity
  8
0
100
AcDbLine
 10
9.64097
 20
781.082
 30
0.0
 11
13.54442
 21
779.262
 31
0.0
  0
LINE
  5
EEE
330
1D
100
AcDbEntity
  8
0
100
AcDbLine
 10
9.58497
 20
804.279
 30
0.0
 11
10.7759
 21
803.724
 31
0.0
  0
LINE
  5
EEF
330
1D
100
AcDbEntity
  8
0
100
AcDbLine
 10
9.12242
 20
804.495
 30
0.0
 11
9.58497
 21
804.279
 31
0.0
  0
LINE
  5
EF0
330
1D
100
AcDbEntity
  8
0
100
AcDbLine
 10
9.12242
 20
804.495
 30
0.0
 11
10.20645
 21
805.092
 31
0.0
  0
LINE
  5
EF1
330
1D
100
AcDbEntity
  8
0
100
AcDbLine
 10
10.38746
 20
778.527
 30
0.0
 11
10.724971293772
 21
779.250945832673
 31
0.0
  0
LINE
  5
EF2
330
1D
100
AcDbEntity
  8
0
100
AcDbLine
 10
10.529511917203
 20
778.831694673571
 30
0.0
 11
12.365084225527
 21
777.808972931807
 31
0.0
  0
LINE
  5
EF3
330
1D
100
AcDbEntity
  8
0
100
AcDbLine
 10
11.19859
 20
777.597
 30
0.0
 11
11.525683657403
 21
778.2986004932
 31
0.0
  0
LINE
  5
EF4
330
1D
100
AcDbEntity
  8
0
100
AcDbLine
 10
11.19859
 20
777.597
 30
0.0
 11
11.85999
 21
777.289
 31
0.0
  0
LINE
  5
EF5
330
1D
100
AcDbEntity
  8
0
100
AcDbLine
 10
11.19859
 20
777.597
 30
0.0
 11
12.075701838029
 21
777.188261336835
 31
0.0
  0
LINE
  5
EF6
330
1D
100
AcDbEntity
  8
0
100
AcDbLine
 10
10.529511917203
 20
778.831694673571
 30
0.0
 11
12.365084225527
 21
777.808972931807
 31
0.0
  0
LINE
  5
EF7
330
1D
100
AcDbEntity
  8
0
100
AcDbLine
 10
10.810046023373
 20
779.433427121735
 30
0.0
 11
11.832377470235
 21
778.956444280366
 31
0.0
  0
LINE
  5
EF8
330
1D
100
AcDbEntity
  8
0
100
AcDbLine
 10
11.33544
 20
779.188
 30
0.0
 11
15.04012
 21
777.46
 31
0.0
  0
LINE
  5
EF9
330
1D
100
AcDbEntity
  8
0
100
AcDbLine
 10
10.7759
 20
803.724
 30
0.0
 11
12.62824
 21
802.86
 31
0.0
  0
LINE
  5
EFA
330
1D
100
AcDbEntity
  8
0
100
AcDbLine
 10
11.85999
 20
777.289
 30
0.0
 11
12.168387249125
 21
777.950132714277
 31
0.0
  0
LINE
  5
EFB
330
1D
100
AcDbEntity
  8
0
100
AcDbLine
 10
11.85999
 20
777.289
 30
0.0
 11
12.075712735508
 21
777.188284711414
 31
0.0
  0
LINE
  5
EFC
330
1D
100
AcDbEntity
  8
0
100
AcDbLine
 10
12.73699
 20
776.879
 30
0.0
 11
12.948458177995
 21
777.33258928435
 31
0.0
  0
LINE
  5
EFD
330
1D
100
AcDbEntity
  8
0
100
AcDbLine
 10
12.73699
 20
776.879
 30
0.0
 11
13.881908
 21
776.345
 31
0.0
  0
LINE
  5
EFE
330
1D
100
AcDbEntity
  8
0
100
AcDbLine
 10
12.07558
 20
777.188
 30
0.0
 11
12.404816892809
 21
777.894197632226
 31
0.0
  0
LINE
  5
EFF
330
1D
100
AcDbEntity
  8
0
100
AcDbLine
 10
12.07558
 20
777.188
 30
0.0
 11
12.73699
 21
776.879
 31
0.0
  0
LINE
  5
F00
330
1D
100
AcDbEntity
  8
0
100
AcDbLine
 10
12.93257
 20
777.34
 30
0.0
 11
13.354982162408
 21
778.246052054259
 31
0.0
  0
LINE
  5
F01
330
1D
100
AcDbEntity
  8
0
100
AcDbLine
 10
12.93257
 20
777.34
 30
0.0
 11
14.255385
 21
776.723
 31
0.0
  0
LINE
  5
F02
330
1D
100
AcDbEntity
  8
0
100
AcDbLine
 10
12.93257
 20
777.34
 30
0.0
 11
13.287177416876
 21
778.100614411964
 31
0.0
  0
LINE
  5
F03
330
1D
100
AcDbEntity
  8
0
100
AcDbLine
 10
13.882373154277
 20
776.345997732841
 30
0.0
 11
14.191598
 21
776.202
 31
0.0
  0
LINE
  5
F04
330
1D
100
AcDbEntity
  8
0
100
AcDbLine
 10
14.191598
 20
776.202
 30
0.0
 11
14.409781073914
 21
776.669733735031
 31
0.0
  0
LINE
  5
F05
330
1D
100
AcDbEntity
  8
0
100
AcDbLine
 10
13.882412083434
 20
776.346081233951
 30
0.0
 11
14.191598
 21
776.202
 31
0.0
  0
LINE
  5
F06
330
1D
100
AcDbEntity
  8
0
100
AcDbLine
 10
13.881908
 20
776.345
 30
0.0
 11
14.093367352622
 21
776.798569817724
 31
0.0
  0
LINE
  5
F07
330
1D
100
AcDbEntity
  8
0
100
AcDbLine
 10
14.255385
 20
776.723
 30
0.0
 11
14.67789893823
 21
777.62927143029
 31
0.0
  0
LINE
  5
F08
330
1D
100
AcDbEntity
  8
0
100
AcDbLine
 10
14.267508175378
 20
776.749003609575
 30
0.0
 11
14.617499
 21
776.554
 31
0.0
  0
LINE
  5
F09
330
1D
100
AcDbEntity
  8
0
100
AcDbLine
 10
14.617499
 20
776.554
 30
0.0
 11
15.435639180579
 21
776.122592240622
 31
0.0
  0
LINE
  5
F0A
330
1D
100
AcDbEntity
  8
0
100
AcDbLine
 10
14.617499
 20
776.554
 30
0.0
 11
15.435639180579
 21
776.122592240622
 31
0.0
  0
LINE
  5
F0B
330
1D
100
AcDbEntity
  8
0
100
AcDbLine
 10
14.267508175378
 20
776.749003609575
 30
0.0
 11
14.617499
 21
776.554
 31
0.0
  0
LINE
  5
F0C
330
1D
100
AcDbEntity
  8
0
100
AcDbLine
 10
14.825319054361
 20
777.560550461349
 30
0.0
 11
15.877148168054
 21
777.070232601411
 31
0.0
  0
LINE
  5
F0D
330
1D
100
AcDbEntity
  8
0
100
AcDbLine
 10
14.825319054361
 20
777.560550461349
 30
0.0
 11
15.877148168054
 21
777.070232601411
 31
0.0
  0
LINE
  5
F0E
330
1D
100
AcDbEntity
  8
0
100
AcDbLine
 10
15.04012
 20
777.46
 30
0.0
 11
19.20734
 21
775.517
 31
0.0
  0
LINE
  5
F0F
330
1D
100
AcDbEntity
  8
0
100
AcDbLine
 10
13.58443
 20
778.139
 30
0.0
 11
18.01641
 21
776.073
 31
0.0
  0
LINE
  5
F10
330
1D
100
AcDbEntity
  8
0
100
AcDbLine
 10
13.54442
 20
779.262
 30
0.0
 11
18.04238
 21
777.164
 31
0.0
  0
LINE
  5
F11
330
1D
100
AcDbEntity
  8
0
100
AcDbLine
 10
15.90473
 20
775.403
 30
0.0
 11
16.269612158192
 21
776.185223357441
 31
0.0
  0
LINE
  5
F12
330
1D
100
AcDbEntity
  8
0
100
AcDbLine
 10
15.90473
 20
775.403
 30
0.0
 11
17.05073
 21
774.868
 31
0.0
  0
LINE
  5
F13
330
1D
100
AcDbEntity
  8
0
100
AcDbLine
 10
15.243411
 20
775.71
 30
0.0
 11
15.578727040696
 21
776.429711314598
 31
0.0
  0
LINE
  5
F14
330
1D
100
AcDbEntity
  8
0
100
AcDbLine
 10
15.243411
 20
775.71
 30
0.0
 11
15.90473
 21
775.403
 31
0.0
  0
LINE
  5
F15
330
1D
100
AcDbEntity
  8
0
100
AcDbLine
 10
15.243411
 20
775.71
 30
0.0
 11
16.38933
 21
775.176
 31
0.0
  0
LINE
  5
F16
330
1D
100
AcDbEntity
  8
0
100
AcDbLine
 10
15.243411
 20
775.71
 30
0.0
 11
15.435639180579
 21
776.122592240622
 31
0.0
  0
LINE
  5
F17
330
1D
100
AcDbEntity
  8
0
100
AcDbLine
 10
15.207877
 20
801.657
 30
0.0
 11
18.51591
 21
800.115
 31
0.0
  0
LINE
  5
F18
330
1D
100
AcDbEntity
  8
0
100
AcDbLine
 10
12.62824
 20
802.86
 30
0.0
 11
15.207877
 21
801.657
 31
0.0
  0
LINE
  5
F19
330
1D
100
AcDbEntity
  8
0
100
AcDbLine
 10
16.38933
 20
775.176
 30
0.0
 11
17.05073
 21
774.868
 31
0.0
  0
LINE
  5
F1A
330
1D
100
AcDbEntity
  8
0
100
AcDbLine
 10
17.05073
 20
774.868
 30
0.0
 11
17.316097050705
 21
775.436885873689
 31
0.0
  0
LINE
  5
F1B
330
1D
100
AcDbEntity
  8
0
100
AcDbLine
 10
17.2015870003
 20
775.191402683905
 30
0.0
 11
19.878545290366
 21
773.779834586796
 31
0.0
  0
LINE
  5
F1C
330
1D
100
AcDbEntity
  8
0
100
AcDbLine
 10
17.684908166684
 20
776.227532012246
 30
0.0
 11
18.01641
 21
776.073
 31
0.0
  0
LINE
  5
F1D
330
1D
100
AcDbEntity
  8
0
100
AcDbLine
 10
18.01641
 20
776.073
 30
0.0
 11
22.91201
 21
773.79
 31
0.0
  0
LINE
  5
F1E
330
1D
100
AcDbEntity
  8
0
100
AcDbLine
 10
18.01641
 20
776.073
 30
0.0
 11
19.461637214691
 21
775.399036904335
 31
0.0
  0
LINE
  5
F1F
330
1D
100
AcDbEntity
  8
0
100
AcDbLine
 10
18.04238
 20
777.164
 30
0.0
 11
23.00389
 21
774.851
 31
0.0
  0
LINE
  5
F20
330
1D
100
AcDbEntity
  8
0
100
AcDbLine
 10
19.63357
 20
773.112
 30
0.0
 11
20.014449999977
 21
772.934634916326
 31
0.0
  0
LINE
  5
F21
330
1D
100
AcDbEntity
  8
0
100
AcDbLine
 10
19.63357
 20
773.112
 30
0.0
 11
20.014449999977
 21
772.934634916326
 31
0.0
  0
LINE
  5
F22
330
1D
100
AcDbEntity
  8
0
100
AcDbLine
 10
19.63357
 20
773.112
 30
0.0
 11
20.120503540378
 21
772.885088426276
 31
0.0
  0
LINE
  5
F23
330
1D
100
AcDbEntity
  8
0
100
AcDbLine
 10
19.63357
 20
773.112
 30
0.0
 11
20.120503540379
 21
772.885088426276
 31
0.0
  0
LINE
  5
F24
330
1D
100
AcDbEntity
  8
0
100
AcDbLine
 10
20.24056
 20
772.829
 30
0.0
 11
20.451854780221
 21
773.282217354291
 31
0.0
  0
LINE
  5
F25
330
1D
100
AcDbEntity
  8
0
100
AcDbLine
 10
20.24056
 20
772.829
 30
0.0
 11
21.38648
 21
772.295
 31
0.0
  0
LINE
  5
F26
330
1D
100
AcDbEntity
  8
0
100
AcDbLine
 10
19.57915
 20
773.138
 30
0.0
 11
19.898918884692
 21
773.823510883372
 31
0.0
  0
LINE
  5
F27
330
1D
100
AcDbEntity
  8
0
100
AcDbLine
 10
19.57915
 20
773.138
 30
0.0
 11
20.24056
 21
772.829
 31
0.0
  0
LINE
  5
F28
330
1D
100
AcDbEntity
  8
0
100
AcDbLine
 10
19.039
 20
774.493
 30
0.0
 11
19.447296712398
 21
775.36829416836
 31
0.0
  0
LINE
  5
F29
330
1D
100
AcDbEntity
  8
0
100
AcDbLine
 10
19.039
 20
774.493
 30
0.0
 11
20.36281
 21
773.876
 31
0.0
  0
LINE
  5
F2A
330
1D
100
AcDbEntity
  8
0
100
AcDbLine
 10
19.20734
 20
775.517
 30
0.0
 11
23.90408
 21
773.327
 31
0.0
  0
LINE
  5
F2B
330
1D
100
AcDbEntity
  8
0
100
AcDbLine
 10
18.51591
 20
800.115
 30
0.0
 11
22.41945
 21
798.294
 31
0.0
  0
LINE
  5
F2C
330
1D
100
AcDbEntity
  8
0
100
AcDbLine
 10
19.46805
 20
800.774
 30
0.0
 11
23.30461
 21
798.985
 31
0.0
  0
LINE
  5
F2D
330
1D
100
AcDbEntity
  8
0
100
AcDbLine
 10
16.16002
 20
802.317
 30
0.0
 11
19.46805
 21
800.774
 31
0.0
  0
LINE
  5
F2E
330
1D
100
AcDbEntity
  8
0
100
AcDbLine
 10
13.71226
 20
803.458
 30
0.0
 11
16.16002
 21
802.317
 31
0.0
  0
LINE
  5
F2F
330
1D
100
AcDbEntity
  8
0
100
AcDbLine
 10
11.79403
 20
804.352
 30
0.0
 11
13.71226
 21
803.458
 31
0.0
  0
LINE
  5
F30
330
1D
100
AcDbEntity
  8
0
100
AcDbLine
 10
10.66899
 20
804.877
 30
0.0
 11
11.79403
 21
804.352
 31
0.0
  0
LINE
  5
F31
330
1D
100
AcDbEntity
  8
0
100
AcDbLine
 10
10.20645
 20
805.092
 30
0.0
 11
10.66899
 21
804.877
 31
0.0
  0
LINE
  5
F32
330
1D
100
AcDbEntity
  8
0
100
AcDbLine
 10
10.20645
 20
805.092
 30
0.0
 11
55.70545
 21
786.082
 31
0.0
  0
LINE
  5
F33
330
1D
100
AcDbEntity
  8
0
100
AcDbLine
 10
10.20645
 20
805.092
 30
0.0
 11
55.70545
 21
786.082
 31
0.0
  0
LINE
  5
F34
330
1D
100
AcDbEntity
  8
0
100
AcDbLine
 10
20.475489999964
 20
772.719522357598
 30
0.0
 11
20.72507
 21
772.603
 31
0.0
  0
LINE
  5
F35
330
1D
100
AcDbEntity
  8
0
100
AcDbLine
 10
20.475489999964
 20
772.719522357598
 30
0.0
 11
20.72507
 21
772.603
 31
0.0
  0
LINE
  5
F36
330
1D
100
AcDbEntity
  8
0
100
AcDbLine
 10
20.3001
 20
773.353
 30
0.0
 11
20.652808858192
 21
774.109543892743
 31
0.0
  0
LINE
  5
F37
330
1D
100
AcDbEntity
  8
0
100
AcDbLine
 10
20.3001
 20
773.353
 30
0.0
 11
21.62292
 21
772.736
 31
0.0
  0
LINE
  5
F38
330
1D
100
AcDbEntity
  8
0
100
AcDbLine
 10
20.3001
 20
773.353
 30
0.0
 11
20.611138517665
 21
774.020162974453
 31
0.0
  0
LINE
  5
F39
330
1D
100
AcDbEntity
  8
0
100
AcDbLine
 10
20.36281
 20
773.876
 30
0.0
 11
20.724026165499
 21
774.650364312958
 31
0.0
  0
LINE
  5
F3A
330
1D
100
AcDbEntity
  8
0
100
AcDbLine
 10
20.25405
 20
721.593
 30
0.0
 11
26.86375
 21
727.134
 31
0.0
  0
LINE
  5
F3B
330
1D
100
AcDbEntity
  8
0
100
AcDbLine
 10
20.25415
 20
721.592
 30
0.0
 11
26.86375
 21
727.134
 31
0.0
  0
LINE
  5
F3C
330
1D
100
AcDbEntity
  8
0
100
AcDbLine
 10
20.72507
 20
772.603
 30
0.0
 11
21.38648
 21
772.295
 31
0.0
  0
LINE
  5
F3D
330
1D
100
AcDbEntity
  8
0
100
AcDbLine
 10
21.386609370982
 20
772.295277341605
 30
0.0
 11
21.44089
 21
772.27
 31
0.0
  0
LINE
  5
F3E
330
1D
100
AcDbEntity
  8
0
100
AcDbLine
 10
21.44089
 20
772.27
 30
0.0
 11
21.699037842544
 21
772.823409553132
 31
0.0
  0
LINE
  5
F3F
330
1D
100
AcDbEntity
  8
0
100
AcDbLine
 10
21.386616158114
 20
772.295291891655
 30
0.0
 11
21.44089
 21
772.27
 31
0.0
  0
LINE
  5
F40
330
1D
100
AcDbEntity
  8
0
100
AcDbLine
 10
21.38648
 20
772.295
 30
0.0
 11
21.59768323804
 21
772.747771126933
 31
0.0
  0
LINE
  5
F41
330
1D
100
AcDbEntity
  8
0
100
AcDbLine
 10
21.62292
 20
772.736
 30
0.0
 11
21.91266209347
 21
773.357483147344
 31
0.0
  0
LINE
  5
F42
330
1D
100
AcDbEntity
  8
0
100
AcDbLine
 10
21.9066
 20
772.052
 30
0.0
 11
22.237221778451
 21
772.761168146718
 31
0.0
  0
LINE
  5
F43
330
1D
100
AcDbEntity
  8
0
100
AcDbLine
 10
21.9066
 20
772.052
 30
0.0
 11
22.568
 21
771.744
 31
0.0
  0
LINE
  5
F44
330
1D
100
AcDbEntity
  8
0
100
AcDbLine
 10
21.9066
 20
772.052
 30
0.0
 11
23.05251
 21
771.518
 31
0.0
  0
LINE
  5
F45
330
1D
100
AcDbEntity
  8
0
100
AcDbLine
 10
21.9066
 20
772.052
 30
0.0
 11
22.152996793503
 21
772.580509519924
 31
0.0
  0
LINE
  5
F46
330
1D
100
AcDbEntity
  8
0
100
AcDbLine
 10
21.669330448762
 20
772.835548227256
 30
0.0
 11
22.152996793503
 21
772.580509519924
 31
0.0
  0
LINE
  5
F47
330
1D
100
AcDbEntity
  8
0
100
AcDbLine
 10
21.669330448762
 20
772.835548227256
 30
0.0
 11
22.152996793503
 21
772.580509519924
 31
0.0
  0
LINE
  5
F48
330
1D
100
AcDbEntity
  8
0
100
AcDbLine
 10
22.286080605881
 20
774.081894110379
 30
0.0
 11
22.751722516443
 21
773.864748003301
 31
0.0
  0
LINE
  5
F49
330
1D
100
AcDbEntity
  8
0
100
AcDbLine
 10
22.568
 20
771.744
 30
0.0
 11
22.882045423971
 21
772.417233136038
 31
0.0
  0
LINE
  5
F4A
330
1D
100
AcDbEntity
  8
0
100
AcDbLine
 10
22.568
 20
771.744
 30
0.0
 11
23.71392
 21
771.21
 31
0.0
  0
LINE
  5
F4B
330
1D
100
AcDbEntity
  8
0
100
AcDbLine
 10
23.05251
 20
771.518
 30
0.0
 11
23.71392
 21
771.21
 31
0.0
  0
LINE
  5
F4C
330
1D
100
AcDbEntity
  8
0
100
AcDbLine
 10
23.71392
 20
771.21
 30
0.0
 11
23.999122436632
 21
771.821408375346
 31
0.0
  0
LINE
  5
F4D
330
1D
100
AcDbEntity
  8
0
100
AcDbLine
 10
23.91886763504
 20
771.649360554034
 30
0.0
 11
27.482802973135
 21
769.770086811861
 31
0.0
  0
LINE
  5
F4E
330
1D
100
AcDbEntity
  8
0
100
AcDbLine
 10
23.91886763504
 20
771.649360554034
 30
0.0
 11
27.482802973135
 21
769.770086811862
 31
0.0
  0
LINE
  5
F4F
330
1D
100
AcDbEntity
  8
0
100
AcDbLine
 10
24.55471296451
 20
773.024077614101
 30
0.0
 11
26.819663025572
 21
771.96802792515
 31
0.0
  0
LINE
  5
F50
330
1D
100
AcDbEntity
  8
0
100
AcDbLine
 10
24.55471296451
 20
773.024077614101
 30
0.0
 11
26.819663025572
 21
771.96802792515
 31
0.0
  0
LINE
  5
F51
330
1D
100
AcDbEntity
  8
0
100
AcDbLine
 10
23.096797415959
 20
773.703841502954
 30
0.0
 11
23.41325
 21
773.556
 31
0.0
  0
LINE
  5
F52
330
1D
100
AcDbEntity
  8
0
100
AcDbLine
 10
23.096797415959
 20
773.703841502954
 30
0.0
 11
23.41325
 21
773.556
 31
0.0
  0
LINE
  5
F53
330
1D
100
AcDbEntity
  8
0
100
AcDbLine
 10
23.41325
 20
773.556
 30
0.0
 11
24.55916
 21
773.022
 31
0.0
  0
LINE
  5
F54
330
1D
100
AcDbEntity
  8
0
100
AcDbLine
 10
23.90408
 20
773.327
 30
0.0
 11
28.86555
 21
771.014
 31
0.0
  0
LINE
  5
F55
330
1D
100
AcDbEntity
  8
0
100
AcDbLine
 10
22.91201
 20
773.79
 30
0.0
 11
28.07225
 21
771.384
 31
0.0
  0
LINE
  5
F56
330
1D
100
AcDbEntity
  8
0
100
AcDbLine
 10
23.00389
 20
774.851
 30
0.0
 11
28.23015
 21
772.414
 31
0.0
  0
LINE
  5
F57
330
1D
100
AcDbEntity
  8
0
100
AcDbLine
 10
22.41945
 20
798.294
 30
0.0
 11
26.91735
 21
796.197
 31
0.0
  0
LINE
  5
F58
330
1D
100
AcDbEntity
  8
0
100
AcDbLine
 10
23.30461
 20
798.985
 30
0.0
 11
27.73655
 21
796.918
 31
0.0
  0
LINE
  5
F59
330
1D
100
AcDbEntity
  8
0
100
AcDbLine
 10
26.33335
 20
770.539
 30
0.0
 11
26.544996246235
 21
770.992992717019
 31
0.0
  0
LINE
  5
F5A
330
1D
100
AcDbEntity
  8
0
100
AcDbLine
 10
26.33335
 20
770.539
 30
0.0
 11
27.65615
 21
769.922
 31
0.0
  0
LINE
  5
F5B
330
1D
100
AcDbEntity
  8
0
100
AcDbLine
 10
27.41035
 20
768.934
 30
0.0
 11
27.621481928297
 21
769.386889477049
 31
0.0
  0
LINE
  5
F5C
330
1D
100
AcDbEntity
  8
0
100
AcDbLine
 10
27.41035
 20
768.934
 30
0.0
 11
28.55635
 21
768.399
 31
0.0
  0
LINE
  5
F5D
330
1D
100
AcDbEntity
  8
0
100
AcDbLine
 10
26.74895
 20
769.243
 30
0.0
 11
27.095896200447
 21
769.986807992439
 31
0.0
  0
LINE
  5
F5E
330
1D
100
AcDbEntity
  8
0
100
AcDbLine
 10
26.74895
 20
769.243
 30
0.0
 11
27.41035
 21
768.934
 31
0.0
  0
LINE
  5
F5F
330
1D
100
AcDbEntity
  8
0
100
AcDbLine
 10
26.74895
 20
769.243
 30
0.0
 11
27.89495
 21
768.707
 31
0.0
  0
LINE
  5
F60
330
1D
100
AcDbEntity
  8
0
100
AcDbLine
 10
27.37255
 20
769.503
 30
0.0
 11
27.583668805543
 21
769.955807753992
 31
0.0
  0
LINE
  5
F61
330
1D
100
AcDbEntity
  8
0
100
AcDbLine
 10
27.37255
 20
769.503
 30
0.0
 11
28.69535
 21
768.886
 31
0.0
  0
LINE
  5
F62
330
1D
100
AcDbEntity
  8
0
100
AcDbLine
 10
27.65615
 20
769.922
 30
0.0
 11
27.992202545007
 21
770.642850998695
 31
0.0
  0
LINE
  5
F63
330
1D
100
AcDbEntity
  8
0
100
AcDbLine
 10
27.71985
 20
770.445
 30
0.0
 11
28.142550446232
 21
771.351215343791
 31
0.0
  0
LINE
  5
F64
330
1D
100
AcDbEntity
  8
0
100
AcDbLine
 10
26.39705
 20
771.062
 30
0.0
 11
26.819663025572
 21
771.96802792515
 31
0.0
  0
LINE
  5
F65
330
1D
100
AcDbEntity
  8
0
100
AcDbLine
 10
26.39705
 20
771.062
 30
0.0
 11
27.71985
 21
770.445
 31
0.0
  0
LINE
  5
F66
330
1D
100
AcDbEntity
  8
0
100
AcDbLine
 10
26.39705
 20
771.062
 30
0.0
 11
26.692744914518
 21
771.695931832828
 31
0.0
  0
LINE
  5
F67
330
1D
100
AcDbEntity
  8
0
100
AcDbLine
 10
26.91735
 20
796.197
 30
0.0
 11
31.87895
 21
793.882
 31
0.0
  0
LINE
  5
F68
330
1D
100
AcDbEntity
  8
0
100
AcDbLine
 10
27.89495
 20
768.707
 30
0.0
 11
28.55635
 21
768.399
 31
0.0
  0
LINE
  5
F69
330
1D
100
AcDbEntity
  8
0
100
AcDbLine
 10
28.55635
 20
768.399
 30
0.0
 11
28.866418771635
 21
769.064193093095
 31
0.0
  0
LINE
  5
F6A
330
1D
100
AcDbEntity
  8
0
100
AcDbLine
 10
28.69535
 20
768.886
 30
0.0
 11
29.016530471665
 21
769.574488128069
 31
0.0
  0
LINE
  5
F6B
330
1D
100
AcDbEntity
  8
0
100
AcDbLine
 10
28.57085
 20
768.393
 30
0.0
 11
28.926010217451
 21
769.154747869678
 31
0.0
  0
LINE
  5
F6C
330
1D
100
AcDbEntity
  8
0
100
AcDbLine
 10
28.57085
 20
768.393
 30
0.0
 11
29.23225
 21
768.085
 31
0.0
  0
LINE
  5
F6D
330
1D
100
AcDbEntity
  8
0
100
AcDbLine
 10
28.57085
 20
768.393
 30
0.0
 11
29.71575
 21
767.859
 31
0.0
  0
LINE
  5
F6E
330
1D
100
AcDbEntity
  8
0
100
AcDbLine
 10
28.57085
 20
768.393
 30
0.0
 11
28.871495660775
 21
769.037825012403
 31
0.0
  0
LINE
  5
F6F
330
1D
100
AcDbEntity
  8
0
100
AcDbLine
 10
28.786969025242
 20
769.082396159633
 30
0.0
 11
28.871495660775
 21
769.037825012403
 31
0.0
  0
LINE
  5
F70
330
1D
100
AcDbEntity
  8
0
100
AcDbLine
 10
28.786969025242
 20
769.082396159633
 30
0.0
 11
28.871495660775
 21
769.037825012403
 31
0.0
  0
LINE
  5
F71
330
1D
100
AcDbEntity
  8
0
100
AcDbLine
 10
28.290309950652
 20
771.282307608296
 30
0.0
 11
33.89405
 21
768.669
 31
0.0
  0
LINE
  5
F72
330
1D
100
AcDbEntity
  8
0
100
AcDbLine
 10
28.07225
 20
771.384
 30
0.0
 11
33.89405
 21
768.669
 31
0.0
  0
LINE
  5
F73
330
1D
100
AcDbEntity
  8
0
100
AcDbLine
 10
28.23015
 20
772.414
 30
0.0
 11
33.85315
 21
769.791
 31
0.0
  0
LINE
  5
F74
330
1D
100
AcDbEntity
  8
0
100
AcDbLine
 10
27.73655
 20
796.918
 30
0.0
 11
32.63215
 21
794.635
 31
0.0
  0
LINE
  5
F75
330
1D
100
AcDbEntity
  8
0
100
AcDbLine
 10
26.86395
 20
727.135
 30
0.0
 11
79.05455
 21
770.357
 31
0.0
  0
LINE
  5
F76
330
1D
100
AcDbEntity
  8
0
100
AcDbLine
 10
28.86555
 20
771.014
 30
0.0
 11
34.82025
 21
768.237
 31
0.0
  0
LINE
  5
F77
330
1D
100
AcDbEntity
  8
0
100
AcDbLine
 10
29.71575
 20
767.859
 30
0.0
 11
30.37715
 21
767.55
 31
0.0
  0
LINE
  5
F78
330
1D
100
AcDbEntity
  8
0
100
AcDbLine
 10
30.37715
 20
767.55
 30
0.0
 11
30.701813195455
 21
768.246337836696
 31
0.0
  0
LINE
  5
F79
330
1D
100
AcDbEntity
  8
0
100
AcDbLine
 10
29.23225
 20
768.085
 30
0.0
 11
29.585321538299
 21
768.8418503814
 31
0.0
  0
LINE
  5
F7A
330
1D
100
AcDbEntity
  8
0
100
AcDbLine
 10
29.23225
 20
768.085
 30
0.0
 11
30.37715
 21
767.55
 31
0.0
  0
LINE
  5
F7B
330
1D
100
AcDbEntity
  8
0
100
AcDbLine
 10
35.26915
 20
687.3913
 30
0.0
 11
35.49965
 21
687.5266
 31
0.0
  0
LINE
  5
F7C
330
1D
100
AcDbEntity
  8
0
100
AcDbLine
 10
35.467621914265
 20
687.5078
 30
0.0
 11
46.64885
 21
695.1681
 31
0.0
  0
LINE
  5
F7D
330
1D
100
AcDbEntity
  8
0
100
AcDbLine
 10
35.467621914265
 20
687.5078
 30
0.0
 11
46.64875
 21
695.1681
 31
0.0
  0
LINE
  5
F7E
330
1D
100
AcDbEntity
  8
0
100
AcDbLine
 10
34.63865
 20
687.2658
 30
0.0
 11
35.26915
 21
687.3913
 31
0.0
  0
LINE
  5
F7F
330
1D
100
AcDbEntity
  8
0
100
AcDbLine
 10
34.06235
 20
687.5502
 30
0.0
 11
34.63865
 21
687.2658
 31
0.0
  0
LINE
  5
F80
330
1D
100
AcDbEntity
  8
0
100
AcDbLine
 10
46.64875
 20
695.1681
 30
0.0
 11
53.74735
 21
700.2505
 31
0.0
  0
LINE
  5
F81
330
1D
100
AcDbEntity
  8
0
100
AcDbLine
 10
175.42365
 20
669.6205
 30
0.0
 11
176.84765
 21
670.8622
 31
0.0
  0
LINE
  5
F82
330
1D
100
AcDbEntity
  8
0
100
AcDbLine
 10
46.64885
 20
695.1681
 30
0.0
 11
53.74735
 21
700.2504
 31
0.0
  0
LINE
  5
F83
330
1D
100
AcDbEntity
  8
0
100
AcDbLine
 10
30.636828918361
 20
768.106959516134
 30
0.0
 11
32.273298288328
 21
767.244044332468
 31
0.0
  0
LINE
  5
F84
330
1D
100
AcDbEntity
  8
0
100
AcDbLine
 10
30.636828918361
 20
768.106959516134
 30
0.0
 11
32.273298288328
 21
767.244044332468
 31
0.0
  0
LINE
  5
F85
330
1D
100
AcDbEntity
  8
0
100
AcDbLine
 10
32.98445
 20
765.641
 30
0.0
 11
33.44815
 21
765.425
 31
0.0
  0
LINE
  5
F86
330
1D
100
AcDbEntity
  8
0
100
AcDbLine
 10
32.59945
 20
765.82
 30
0.0
 11
32.98445
 21
765.641
 31
0.0
  0
LINE
  5
F87
330
1D
100
AcDbEntity
  8
0
100
AcDbLine
 10
32.36815
 20
765.929
 30
0.0
 11
32.59945
 21
765.82
 31
0.0
  0
LINE
  5
F88
330
1D
100
AcDbEntity
  8
0
100
AcDbLine
 10
32.28755
 20
765.966
 30
0.0
 11
32.36815
 21
765.929
 31
0.0
  0
LINE
  5
F89
330
1D
100
AcDbEntity
  8
0
100
AcDbLine
 10
33.44815
 20
765.425
 30
0.0
 11
33.99225
 21
765.171
 31
0.0
  0
LINE
  5
F8A
330
1D
100
AcDbEntity
  8
0
100
AcDbLine
 10
33.11485
 20
766.825
 30
0.0
 11
33.64335
 21
766.578
 31
0.0
  0
LINE
  5
F8B
330
1D
100
AcDbEntity
  8
0
100
AcDbLine
 10
32.273023391959
 20
767.268696090388
 30
0.0
 11
32.28755
 21
765.966
 31
0.0
  0
LINE
  5
F8C
330
1D
100
AcDbEntity
  8
0
100
AcDbLine
 10
32.85005
 20
766.949
 30
0.0
 11
33.11485
 21
766.825
 31
0.0
  0
LINE
  5
F8D
330
1D
100
AcDbEntity
  8
0
100
AcDbLine
 10
33.99225
 20
765.171
 30
0.0
 11
34.60865
 21
764.884
 31
0.0
  0
LINE
  5
F8E
330
1D
100
AcDbEntity
  8
0
100
AcDbLine
 10
34.60865
 20
764.884
 30
0.0
 11
35.22405
 21
764.597
 31
0.0
  0
LINE
  5
F8F
330
1D
100
AcDbEntity
  8
0
100
AcDbLine
 10
34.81335
 20
765.482
 30
0.0
 11
35.184845382726
 21
766.27887781458
 31
0.0
  0
LINE
  5
F90
330
1D
100
AcDbEntity
  8
0
100
AcDbLine
 10
34.81335
 20
765.482
 30
0.0
 11
36.13615
 21
764.865
 31
0.0
  0
LINE
  5
F91
330
1D
100
AcDbEntity
  8
0
100
AcDbLine
 10
34.81335
 20
765.482
 30
0.0
 11
35.142674344668
 21
766.188418642787
 31
0.0
  0
LINE
  5
F92
330
1D
100
AcDbEntity
  8
0
100
AcDbLine
 10
35.22405
 20
764.597
 30
0.0
 11
35.76825
 21
764.343
 31
0.0
  0
LINE
  5
F93
330
1D
100
AcDbEntity
  8
0
100
AcDbLine
 10
35.76825
 20
764.343
 30
0.0
 11
36.23185
 21
764.127
 31
0.0
  0
LINE
  5
F94
330
1D
100
AcDbEntity
  8
0
100
AcDbLine
 10
36.23185
 20
764.127
 30
0.0
 11
36.61595
 21
763.947
 31
0.0
  0
LINE
  5
F95
330
1D
100
AcDbEntity
  8
0
100
AcDbLine
 10
35.53955
 20
765.695
 30
0.0
 11
35.750856494778
 21
766.148263931653
 31
0.0
  0
LINE
  5
F96
330
1D
100
AcDbEntity
  8
0
100
AcDbLine
 10
35.53955
 20
765.695
 30
0.0
 11
36.86235
 21
765.078
 31
0.0
  0
LINE
  5
F97
330
1D
100
AcDbEntity
  8
0
100
AcDbLine
 10
36.13615
 20
764.865
 30
0.0
 11
36.347418330961
 21
765.318182068187
 31
0.0
  0
LINE
  5
F98
330
1D
100
AcDbEntity
  8
0
100
AcDbLine
 10
36.41225
 20
765.84
 30
0.0
 11
36.681477991133
 21
766.417190156097
 31
0.0
  0
LINE
  5
F99
330
1D
100
AcDbEntity
  8
0
100
AcDbLine
 10
35.08845
 20
766.457
 30
0.0
 11
35.299622542398
 21
766.909726747309
 31
0.0
  0
LINE
  5
F9A
330
1D
100
AcDbEntity
  8
0
100
AcDbLine
 10
35.08845
 20
766.457
 30
0.0
 11
36.41225
 21
765.84
 31
0.0
  0
LINE
  5
F9B
330
1D
100
AcDbEntity
  8
0
100
AcDbLine
 10
36.61595
 20
763.947
 30
0.0
 11
36.84825
 21
763.839
 31
0.0
  0
LINE
  5
F9C
330
1D
100
AcDbEntity
  8
0
100
AcDbLine
 10
36.92785
 20
763.802
 30
0.0
 11
37.895797969857
 21
764.595831707244
 31
0.0
  0
LINE
  5
F9D
330
1D
100
AcDbEntity
  8
0
100
AcDbLine
 10
36.84825
 20
763.839
 30
0.0
 11
36.92785
 21
763.802
 31
0.0
  0
LINE
  5
F9E
330
1D
100
AcDbEntity
  8
0
100
AcDbLine
 10
36.86235
 20
765.078
 30
0.0
 11
37.257662040475
 21
765.925965841671
 31
0.0
  0
LINE
  5
F9F
330
1D
100
AcDbEntity
  8
0
100
AcDbLine
 10
36.47605
 20
766.361
 30
0.0
 11
36.898831295192
 21
767.267888888054
 31
0.0
  0
LINE
  5
FA0
330
1D
100
AcDbEntity
  8
0
100
AcDbLine
 10
35.15325
 20
766.978
 30
0.0
 11
35.52615708645
 21
767.777905995899
 31
0.0
  0
LINE
  5
FA1
330
1D
100
AcDbEntity
  8
0
100
AcDbLine
 10
35.15325
 20
766.978
 30
0.0
 11
36.47605
 21
766.361
 31
0.0
  0
LINE
  5
FA2
330
1D
100
AcDbEntity
  8
0
100
AcDbLine
 10
34.82025
 20
768.237
 30
0.0
 11
39.51695
 21
766.047
 31
0.0
  0
LINE
  5
FA3
330
1D
100
AcDbEntity
  8
0
100
AcDbLine
 10
33.89405
 20
768.669
 30
0.0
 11
39.38415
 21
766.109
 31
0.0
  0
LINE
  5
FA4
330
1D
100
AcDbEntity
  8
0
100
AcDbLine
 10
33.89405
 20
768.669
 30
0.0
 11
35.575959890353
 21
767.884735720788
 31
0.0
  0
LINE
  5
FA5
330
1D
100
AcDbEntity
  8
0
100
AcDbLine
 10
33.85315
 20
769.791
 30
0.0
 11
39.74085
 21
767.046
 31
0.0
  0
LINE
  5
FA6
330
1D
100
AcDbEntity
  8
0
100
AcDbLine
 10
31.87895
 20
793.882
 30
0.0
 11
37.10515
 21
791.446
 31
0.0
  0
LINE
  5
FA7
330
1D
100
AcDbEntity
  8
0
100
AcDbLine
 10
37.28205
 20
764.882
 30
0.0
 11
38.53885
 21
764.296
 31
0.0
  0
LINE
  5
FA8
330
1D
100
AcDbEntity
  8
0
100
AcDbLine
 10
37.707468934547
 20
766.890826110191
 30
0.0
 11
39.38415
 21
766.109
 31
0.0
  0
LINE
  5
FA9
330
1D
100
AcDbEntity
  8
0
100
AcDbLine
 10
37.10515
 20
791.446
 30
0.0
 11
42.72805
 21
788.824
 31
0.0
  0
LINE
  5
FAA
330
1D
100
AcDbEntity
  8
0
100
AcDbLine
 10
32.63215
 20
794.635
 30
0.0
 11
37.79255
 21
792.229
 31
0.0
  0
LINE
  5
FAB
330
1D
100
AcDbEntity
  8
0
100
AcDbLine
 10
37.895797969857
 20
764.595831707244
 30
0.0
 11
38.53885
 21
764.296
 31
0.0
  0
LINE
  5
FAC
330
1D
100
AcDbEntity
  8
0
100
AcDbLine
 10
37.79255
 20
792.229
 30
0.0
 11
43.61425
 21
789.515
 31
0.0
  0
LINE
  5
FAD
330
1D
100
AcDbEntity
  8
0
100
AcDbLine
 10
38.56865
 20
763.589
 30
0.0
 11
38.76435
 21
763.498
 31
0.0
  0
LINE
  5
FAE
330
1D
100
AcDbEntity
  8
0
100
AcDbLine
 10
38.56865
 20
763.589
 30
0.0
 11
38.834094043887
 21
764.158391920926
 31
0.0
  0
LINE
  5
FAF
330
1D
100
AcDbEntity
  8
0
100
AcDbLine
 10
38.76435
 20
763.498
 30
0.0
 11
39.28655
 21
763.255
 31
0.0
  0
LINE
  5
FB0
330
1D
100
AcDbEntity
  8
0
100
AcDbLine
 10
39.28655
 20
763.255
 30
0.0
 11
40.15615
 21
762.849
 31
0.0
  0
LINE
  5
FB1
330
1D
100
AcDbEntity
  8
0
100
AcDbLine
 10
39.51695
 20
766.047
 30
0.0
 11
45.13985
 21
763.425
 31
0.0
  0
LINE
  5
FB2
330
1D
100
AcDbEntity
  8
0
100
AcDbLine
 10
39.38415
 20
766.109
 30
0.0
 11
45.13985
 21
763.425
 31
0.0
  0
LINE
  5
FB3
330
1D
100
AcDbEntity
  8
0
100
AcDbLine
 10
39.38415
 20
766.109
 30
0.0
 11
44.478229531862
 21
763.733527083844
 31
0.0
  0
LINE
  5
FB4
330
1D
100
AcDbEntity
  8
0
100
AcDbLine
 10
40.15615
 20
762.849
 30
0.0
 11
41.30945
 21
762.311
 31
0.0
  0
LINE
  5
FB5
330
1D
100
AcDbEntity
  8
0
100
AcDbLine
 10
39.74085
 20
767.046
 30
0.0
 11
45.56255
 21
764.332
 31
0.0
  0
LINE
  5
FB6
330
1D
100
AcDbEntity
  8
0
100
AcDbLine
 10
41.30945
 20
762.311
 30
0.0
 11
42.61445
 21
761.703
 31
0.0
  0
LINE
  5
FB7
330
1D
100
AcDbEntity
  8
0
100
AcDbLine
 10
42.61445
 20
761.703
 30
0.0
 11
44.00625
 21
761.054
 31
0.0
  0
LINE
  5
FB8
330
1D
100
AcDbEntity
  8
0
100
AcDbLine
 10
41.31735
 20
763.001
 30
0.0
 11
42.77305
 21
762.322
 31
0.0
  0
LINE
  5
FB9
330
1D
100
AcDbEntity
  8
0
100
AcDbLine
 10
44.00625
 20
761.054
 30
0.0
 11
45.39815
 21
760.404
 31
0.0
  0
LINE
  5
FBA
330
1D
100
AcDbEntity
  8
0
100
AcDbLine
 10
44.95605
 20
761.304
 30
0.0
 11
45.167274794227
 21
761.757035078592
 31
0.0
  0
LINE
  5
FBB
330
1D
100
AcDbEntity
  8
0
100
AcDbLine
 10
44.74475
 20
760.851
 30
0.0
 11
44.955954269183
 21
761.304044652188
 31
0.0
  0
LINE
  5
FBC
330
1D
100
AcDbEntity
  8
0
100
AcDbLine
 10
43.63325
 20
761.921
 30
0.0
 11
44.95605
 21
761.304
 31
0.0
  0
LINE
  5
FBD
330
1D
100
AcDbEntity
  8
0
100
AcDbLine
 10
43.63325
 20
761.921
 30
0.0
 11
44.055805763783
 21
762.827405110907
 31
0.0
  0
LINE
  5
FBE
330
1D
100
AcDbEntity
  8
0
100
AcDbLine
 10
43.42205
 20
761.467
 30
0.0
 11
44.74475
 21
760.851
 31
0.0
  0
LINE
  5
FBF
330
1D
100
AcDbEntity
  8
0
100
AcDbLine
 10
43.42205
 20
761.467
 30
0.0
 11
43.633502968041
 21
761.920882006894
 31
0.0
  0
LINE
  5
FC0
330
1D
100
AcDbEntity
  8
0
100
AcDbLine
 10
44.956203834804
 20
761.304329944989
 30
0.0
 11
45.81635
 21
760.903
 31
0.0
  0
LINE
  5
FC1
330
1D
100
AcDbEntity
  8
0
100
AcDbLine
 10
43.84455
 20
762.374
 30
0.0
 11
45.16735
 21
761.757
 31
0.0
  0
LINE
  5
FC2
330
1D
100
AcDbEntity
  8
0
100
AcDbLine
 10
43.84455
 20
762.374
 30
0.0
 11
44.056137192451
 21
762.827866043437
 31
0.0
  0
LINE
  5
FC3
330
1D
100
AcDbEntity
  8
0
100
AcDbLine
 10
44.05585
 20
762.828
 30
0.0
 11
45.37865
 21
762.211
 31
0.0
  0
LINE
  5
FC4
330
1D
100
AcDbEntity
  8
0
100
AcDbLine
 10
44.05585
 20
762.828
 30
0.0
 11
44.478270476942
 21
763.733507990321
 31
0.0
  0
LINE
  5
FC5
330
1D
100
AcDbEntity
  8
0
100
AcDbLine
 10
42.77305
 20
762.322
 30
0.0
 11
43.633320426881
 21
761.921151069493
 31
0.0
  0
LINE
  5
FC6
330
1D
100
AcDbEntity
  8
0
100
AcDbLine
 10
45.39815
 20
760.404
 30
0.0
 11
46.062715427228
 21
760.094378712832
 31
0.0
  0
LINE
  5
FC7
330
1D
100
AcDbEntity
  8
0
100
AcDbLine
 10
45.16735
 20
761.757
 30
0.0
 11
45.428452434163
 21
762.31701267377
 31
0.0
  0
LINE
  5
FC8
330
1D
100
AcDbEntity
  8
0
100
AcDbLine
 10
45.37865
 20
762.211
 30
0.0
 11
45.801132610513
 21
763.116641180942
 31
0.0
  0
LINE
  5
FC9
330
1D
100
AcDbEntity
  8
0
100
AcDbLine
 10
45.81635
 20
760.903
 30
0.0
 11
47.27205
 21
760.224
 31
0.0
  0
LINE
  5
FCA
330
1D
100
AcDbEntity
  8
0
100
AcDbLine
 10
45.13985
 20
763.425
 30
0.0
 11
50.89575
 21
760.741
 31
0.0
  0
LINE
  5
FCB
330
1D
100
AcDbEntity
  8
0
100
AcDbLine
 10
45.13985
 20
763.425
 30
0.0
 11
50.76285
 21
760.802
 31
0.0
  0
LINE
  5
FCC
330
1D
100
AcDbEntity
  8
0
100
AcDbLine
 10
45.56255
 20
764.332
 30
0.0
 11
51.38425
 21
761.617
 31
0.0
  0
LINE
  5
FCD
330
1D
100
AcDbEntity
  8
0
100
AcDbLine
 10
42.72805
 20
788.824
 30
0.0
 11
48.61575
 21
786.079
 31
0.0
  0
LINE
  5
FCE
330
1D
100
AcDbEntity
  8
0
100
AcDbLine
 10
43.61425
 20
789.515
 30
0.0
 11
49.10435
 21
786.953
 31
0.0
  0
LINE
  5
FCF
330
1D
100
AcDbEntity
  8
0
100
AcDbLine
 10
46.75245
 20
759.221
 30
0.0
 11
47.22555
 21
759.0
 31
0.0
  0
LINE
  5
FD0
330
1D
100
AcDbEntity
  8
0
100
AcDbLine
 10
46.325121803853
 20
759.420180385289
 30
0.0
 11
46.38305
 21
759.393
 31
0.0
  0
LINE
  5
FD1
330
1D
100
AcDbEntity
  8
0
100
AcDbLine
 10
46.17375
 20
759.49
 30
0.0
 11
46.38405
 21
759.393
 31
0.0
  0
LINE
  5
FD2
330
1D
100
AcDbEntity
  8
0
100
AcDbLine
 10
46.13605
 20
759.508
 30
0.0
 11
46.37575
 21
759.397
 31
0.0
  0
LINE
  5
FD3
330
1D
100
AcDbEntity
  8
0
100
AcDbLine
 10
46.06595
 20
759.541
 30
0.0
 11
46.13605
 21
759.508
 31
0.0
  0
LINE
  5
FD4
330
1D
100
AcDbEntity
  8
0
100
AcDbLine
 10
46.0586495371
 20
760.789981255966
 30
0.0
 11
46.06595
 21
759.541
 31
0.0
  0
LINE
  5
FD5
330
1D
100
AcDbEntity
  8
0
100
AcDbLine
 10
46.38305
 20
759.393
 30
0.0
 11
46.511848059841
 21
759.333323906613
 31
0.0
  0
LINE
  5
FD6
330
1D
100
AcDbEntity
  8
0
100
AcDbLine
 10
46.37575
 20
759.397
 30
0.0
 11
46.73055
 21
759.231
 31
0.0
  0
LINE
  5
FD7
330
1D
100
AcDbEntity
  8
0
100
AcDbLine
 10
46.37575
 20
759.397
 30
0.0
 11
46.75245
 21
759.221
 31
0.0
  0
LINE
  5
FD8
330
1D
100
AcDbEntity
  8
0
100
AcDbLine
 10
46.73055
 20
759.231
 30
0.0
 11
46.889256727672
 21
759.157093242833
 31
0.0
  0
LINE
  5
FD9
330
1D
100
AcDbEntity
  8
0
100
AcDbLine
 10
49.499240563286
 20
757.940094367224
 30
0.0
 11
49.55295
 21
757.915
 31
0.0
  0
LINE
  5
FDA
330
1D
100
AcDbEntity
  8
0
100
AcDbLine
 10
50.135371701328
 20
757.643233270319
 30
0.0
 11
50.40165
 21
757.519
 31
0.0
  0
LINE
  5
FDB
330
1D
100
AcDbEntity
  8
0
100
AcDbLine
 10
50.165613417723
 20
757.629250632911
 30
0.0
 11
50.40165
 21
757.519
 31
0.0
  0
LINE
  5
FDC
330
1D
100
AcDbEntity
  8
0
100
AcDbLine
 10
50.261941909717
 20
757.58471194476
 30
0.0
 11
50.39335
 21
757.523
 31
0.0
  0
LINE
  5
FDD
330
1D
100
AcDbEntity
  8
0
100
AcDbLine
 10
50.71145
 20
757.375
 30
0.0
 11
51.671967924951
 21
758.171609582376
 31
0.0
  0
LINE
  5
FDE
330
1D
100
AcDbEntity
  8
0
100
AcDbLine
 10
50.40165
 20
757.519
 30
0.0
 11
50.64025
 21
757.408
 31
0.0
  0
LINE
  5
FDF
330
1D
100
AcDbEntity
  8
0
100
AcDbLine
 10
50.39335
 20
757.523
 30
0.0
 11
50.63285
 21
757.412
 31
0.0
  0
LINE
  5
FE0
330
1D
100
AcDbEntity
  8
0
100
AcDbLine
 10
50.63285
 20
757.412
 30
0.0
 11
50.70415
 21
757.378
 31
0.0
  0
LINE
  5
FE1
330
1D
100
AcDbEntity
  8
0
100
AcDbLine
 10
50.60355
 20
757.426
 30
0.0
 11
50.70415
 21
757.378
 31
0.0
  0
LINE
  5
FE2
330
1D
100
AcDbEntity
  8
0
100
AcDbLine
 10
50.70415
 20
757.378
 30
0.0
 11
51.664978294337
 21
758.174866988532
 31
0.0
  0
LINE
  5
FE3
330
1D
100
AcDbEntity
  8
0
100
AcDbLine
 10
50.39325
 20
757.524
 30
0.0
 11
50.60355
 21
757.426
 31
0.0
  0
LINE
  5
FE4
330
1D
100
AcDbEntity
  8
0
100
AcDbLine
 10
49.55295
 20
757.915
 30
0.0
 11
49.626093976636
 21
757.88086911214
 31
0.0
  0
LINE
  5
FE5
330
1D
100
AcDbEntity
  8
0
100
AcDbLine
 10
50.03855
 20
757.688
 30
0.0
 11
50.39325
 21
757.524
 31
0.0
  0
LINE
  5
FE6
330
1D
100
AcDbEntity
  8
0
100
AcDbLine
 10
49.54455
 20
757.919
 30
0.0
 11
50.03855
 21
757.688
 31
0.0
  0
LINE
  5
FE7
330
1D
100
AcDbEntity
  8
0
100
AcDbLine
 10
48.38395
 20
758.46
 30
0.0
 11
48.97105
 21
758.186
 31
0.0
  0
LINE
  5
FE8
330
1D
100
AcDbEntity
  8
0
100
AcDbLine
 10
48.97105
 20
758.186
 30
0.0
 11
49.54455
 21
757.919
 31
0.0
  0
LINE
  5
FE9
330
1D
100
AcDbEntity
  8
0
100
AcDbLine
 10
53.35345
 20
756.836
 30
0.0
 11
53.725106243722
 21
757.633222870169
 31
0.0
  0
LINE
  5
FEA
330
1D
100
AcDbEntity
  8
0
100
AcDbLine
 10
53.04975
 20
757.53
 30
0.0
 11
53.260890387154
 21
757.982854042246
 31
0.0
  0
LINE
  5
FEB
330
1D
100
AcDbEntity
  8
0
100
AcDbLine
 10
53.92355
 20
757.674
 30
0.0
 11
54.134920069075
 21
758.127346664182
 31
0.0
  0
LINE
  5
FEC
330
1D
100
AcDbEntity
  8
0
100
AcDbLine
 10
52.59975
 20
758.291
 30
0.0
 11
53.92355
 21
757.674
 31
0.0
  0
LINE
  5
FED
330
1D
100
AcDbEntity
  8
0
100
AcDbLine
 10
52.59975
 20
758.291
 30
0.0
 11
52.869287254986
 21
758.869103683058
 31
0.0
  0
LINE
  5
FEE
330
1D
100
AcDbEntity
  8
0
100
AcDbLine
 10
54.28145
 20
758.059
 30
0.0
 11
54.65400311763
 21
758.85770592658
 31
0.0
  0
LINE
  5
FEF
330
1D
100
AcDbEntity
  8
0
100
AcDbLine
 10
51.72605
 20
758.146
 30
0.0
 11
52.241823437542
 21
757.905978516639
 31
0.0
  0
LINE
  5
FF0
330
1D
100
AcDbEntity
  8
0
100
AcDbLine
 10
51.72605
 20
758.146
 30
0.0
 11
53.04975
 21
757.53
 31
0.0
  0
LINE
  5
FF1
330
1D
100
AcDbEntity
  8
0
100
AcDbLine
 10
51.72605
 20
758.146
 30
0.0
 11
52.121647502085
 21
758.995046224304
 31
0.0
  0
LINE
  5
FF2
330
1D
100
AcDbEntity
  8
0
100
AcDbLine
 10
51.72605
 20
758.146
 30
0.0
 11
51.946876688363
 21
758.619946536547
 31
0.0
  0
LINE
  5
FF3
330
1D
100
AcDbEntity
  8
0
100
AcDbLine
 10
52.03065
 20
757.453
 30
0.0
 11
53.35345
 21
756.836
 31
0.0
  0
LINE
  5
FF4
330
1D
100
AcDbEntity
  8
0
100
AcDbLine
 10
52.03065
 20
757.453
 30
0.0
 11
52.241823437542
 21
757.905978516639
 31
0.0
  0
LINE
  5
FF5
330
1D
100
AcDbEntity
  8
0
100
AcDbLine
 10
51.671967924951
 20
758.171609582376
 30
0.0
 11
51.72620522568
 21
758.146333151186
 31
0.0
  0
LINE
  5
FF6
330
1D
100
AcDbEntity
  8
0
100
AcDbLine
 10
54.34965
 20
756.923
 30
0.0
 11
54.94505
 21
756.646
 31
0.0
  0
LINE
  5
FF7
330
1D
100
AcDbEntity
  8
0
100
AcDbLine
 10
55.47455
 20
756.399
 30
0.0
 11
55.73935
 21
756.276
 31
0.0
  0
LINE
  5
FF8
330
1D
100
AcDbEntity
  8
0
100
AcDbLine
 10
55.87125
 20
756.214
 30
0.0
 11
58.048629325247
 21
755.32551063214
 31
0.0
  0
LINE
  5
FF9
330
1D
100
AcDbEntity
  8
0
100
AcDbLine
 10
51.30635
 20
758.342
 30
0.0
 11
51.72620522568
 21
758.146333151186
 31
0.0
  0
LINE
  5
FFA
330
1D
100
AcDbEntity
  8
0
100
AcDbLine
 10
47.79795
 20
758.733
 30
0.0
 11
48.247564918335
 21
758.523894595051
 31
0.0
  0
LINE
  5
FFB
330
1D
100
AcDbEntity
  8
0
100
AcDbLine
 10
47.360945958721
 20
758.937214617372
 30
0.0
 11
47.79795
 21
758.733
 31
0.0
  0
LINE
  5
FFC
330
1D
100
AcDbEntity
  8
0
100
AcDbLine
 10
47.22555
 20
759.0
 30
0.0
 11
47.79055
 21
758.738
 31
0.0
  0
LINE
  5
FFD
330
1D
100
AcDbEntity
  8
0
100
AcDbLine
 10
47.79055
 20
758.738
 30
0.0
 11
48.38395
 21
758.46
 31
0.0
  0
LINE
  5
FFE
330
1D
100
AcDbEntity
  8
0
100
AcDbLine
 10
52.95865
 20
758.676
 30
0.0
 11
54.28145
 21
758.059
 31
0.0
  0
LINE
  5
FFF
330
1D
100
AcDbEntity
  8
0
100
AcDbLine
 10
52.95865
 20
758.676
 30
0.0
 11
53.38126018139
 21
759.582021827588
 31
0.0
  0
LINE
  5
1000
330
1D
100
AcDbEntity
  8
0
100
AcDbLine
 10
52.95865
 20
758.676
 30
0.0
 11
53.243989609525
 21
759.287731391931
 31
0.0
  0
LINE
  5
1001
330
1D
100
AcDbEntity
  8
0
100
AcDbLine
 10
55.45965
 20
758.612
 30
0.0
 11
61.41365
 21
755.837
 31
0.0
  0
LINE
  5
1002
330
1D
100
AcDbEntity
  8
0
100
AcDbLine
 10
56.38585
 20
758.181
 30
0.0
 11
61.482794019984
 21
755.804830893528
 31
0.0
  0
LINE
  5
1003
330
1D
100
AcDbEntity
  8
0
100
AcDbLine
 10
50.76285
 20
760.802
 30
0.0
 11
55.45965
 21
758.612
 31
0.0
  0
LINE
  5
1004
330
1D
100
AcDbEntity
  8
0
100
AcDbLine
 10
50.89575
 20
760.741
 30
0.0
 11
56.38585
 21
758.181
 31
0.0
  0
LINE
  5
1005
330
1D
100
AcDbEntity
  8
0
100
AcDbLine
 10
58.44995
 20
754.459
 30
0.0
 11
59.350820584519
 21
754.039222607214
 31
0.0
  0
LINE
  5
1006
330
1D
100
AcDbEntity
  8
0
100
AcDbLine
 10
59.865015323792
 20
754.465056474249
 30
0.0
 11
59.920411942038
 21
754.583885235347
 31
0.0
  0
LINE
  5
1007
330
1D
100
AcDbEntity
  8
0
100
AcDbLine
 10
59.865015323792
 20
754.465056474249
 30
0.0
 11
59.920411942038
 21
754.583885235347
 31
0.0
  0
LINE
  5
1008
330
1D
100
AcDbEntity
  8
0
100
AcDbLine
 10
59.836840552797
 20
754.441723346216
 30
0.0
 11
59.951226469
 21
754.687087361922
 31
0.0
  0
LINE
  5
1009
330
1D
100
AcDbEntity
  8
0
100
AcDbLine
 10
58.93445
 20
754.234
 30
0.0
 11
59.351038522318
 21
754.039403093883
 31
0.0
  0
LINE
  5
100A
330
1D
100
AcDbEntity
  8
0
100
AcDbLine
 10
58.93445
 20
754.234
 30
0.0
 11
59.287671528406
 21
754.99117190284
 31
0.0
  0
LINE
  5
100B
330
1D
100
AcDbEntity
  8
0
100
AcDbLine
 10
58.93445
 20
754.234
 30
0.0
 11
59.351038522318
 21
754.039403093883
 31
0.0
  0
LINE
  5
100C
330
1D
100
AcDbEntity
  8
0
100
AcDbLine
 10
60.00799286358
 20
754.583464295288
 30
0.0
 11
60.214585193401
 21
755.026319259957
 31
0.0
  0
LINE
  5
100D
330
1D
100
AcDbEntity
  8
0
100
AcDbLine
 10
60.00799286358
 20
754.583464295288
 30
0.0
 11
60.148691775298
 21
754.885068965858
 31
0.0
  0
LINE
  5
100E
330
1D
100
AcDbEntity
  8
0
100
AcDbLine
 10
57.78855
 20
754.768
 30
0.0
 11
58.93445
 21
754.234
 31
0.0
  0
LINE
  5
100F
330
1D
100
AcDbEntity
  8
0
100
AcDbLine
 10
57.78855
 20
754.768
 30
0.0
 11
58.113221015981
 21
755.463970520476
 31
0.0
  0
LINE
  5
1010
330
1D
100
AcDbEntity
  8
0
100
AcDbLine
 10
57.78855
 20
754.768
 30
0.0
 11
58.44995
 21
754.459
 31
0.0
  0
LINE
  5
1011
330
1D
100
AcDbEntity
  8
0
100
AcDbLine
 10
59.897198221211
 20
754.571193829928
 30
0.0
 11
59.96149537879
 21
754.544957087331
 31
0.0
  0
LINE
  5
1012
330
1D
100
AcDbEntity
  8
0
100
AcDbLine
 10
99.601974417025
 20
733.388154554827
 30
0.0
 11
104.48815
 21
727.505
 31
0.0
  0
LINE
  5
1013
330
1D
100
AcDbEntity
  8
0
100
AcDbLine
 10
61.41365
 20
755.837
 30
0.0
 11
61.482722698561
 21
755.804771828207
 31
0.0
  0
LINE
  5
1014
330
1D
100
AcDbEntity
  8
0
100
AcDbLine
 10
57.27195
 20
758.871
 30
0.0
 11
62.33452657845
 21
756.510198998934
 31
0.0
  0
LINE
  5
1015
330
1D
100
AcDbEntity
  8
0
100
AcDbLine
 10
51.38425
 20
761.617
 30
0.0
 11
57.27195
 21
758.871
 31
0.0
  0
LINE
  5
1016
330
1D
100
AcDbEntity
  8
0
100
AcDbLine
 10
102.95005
 20
724.063
 30
0.0
 11
103.14725
 21
724.504
 31
0.0
  0
LINE
  5
1017
330
1D
100
AcDbEntity
  8
0
100
AcDbLine
 10
102.95005
 20
724.063
 30
0.0
 11
159.73365
 21
656.4009
 31
0.0
  0
LINE
  5
1018
330
1D
100
AcDbEntity
  8
0
100
AcDbLine
 10
103.14725
 20
724.504
 30
0.0
 11
103.69935
 21
725.74
 31
0.0
  0
LINE
  5
1019
330
1D
100
AcDbEntity
  8
0
100
AcDbLine
 10
103.69935
 20
725.74
 30
0.0
 11
104.56705
 21
727.681
 31
0.0
  0
LINE
  5
101A
330
1D
100
AcDbEntity
  8
0
100
AcDbLine
 10
104.56705
 20
727.681
 30
0.0
 11
105.71065
 21
730.241
 31
0.0
  0
LINE
  5
101B
330
1D
100
AcDbEntity
  8
0
100
AcDbLine
 10
104.56705
 20
727.681
 30
0.0
 11
104.938458904111
 21
728.512415525118
 31
0.0
  0
LINE
  5
101C
330
1D
100
AcDbEntity
  8
0
100
AcDbLine
 10
104.56705
 20
727.681
 30
0.0
 11
104.938458904112
 21
728.512415525118
 31
0.0
  0
LINE
  5
101D
330
1D
100
AcDbEntity
  8
0
100
AcDbLine
 10
104.48815
 20
727.505
 30
0.0
 11
104.64595
 21
727.858
 31
0.0
  0
LINE
  5
101E
330
1D
100
AcDbEntity
  8
0
100
AcDbLine
 10
104.64595
 20
727.858
 30
0.0
 11
104.938458904111
 21
728.512415525118
 31
0.0
  0
LINE
  5
101F
330
1D
100
AcDbEntity
  8
0
100
AcDbLine
 10
104.64595
 20
727.858
 30
0.0
 11
104.938458904111
 21
728.512415525118
 31
0.0
  0
LINE
  5
1020
330
1D
100
AcDbEntity
  8
0
100
AcDbLine
 10
110.601609639884
 20
741.185313932372
 30
0.0
 11
110.701942353384
 21
741.409696746067
 31
0.0
  0
LINE
  5
1021
330
1D
100
AcDbEntity
  8
0
100
AcDbLine
 10
116.315309590897
 20
745.466272619871
 30
0.0
 11
178.06465
 21
671.8825
 31
0.0
  0
LINE
  5
1022
330
1D
100
AcDbEntity
  8
0
100
AcDbLine
 10
116.315309590897
 20
745.466272619871
 30
0.0
 11
178.06465
 21
671.8825
 31
0.0
  0
LINE
  5
1023
330
1D
100
AcDbEntity
  8
0
100
AcDbLine
 10
110.601609639884
 20
741.185313932372
 30
0.0
 11
110.701836065147
 21
741.409619935433
 31
0.0
  0
LINE
  5
1024
330
1D
100
AcDbEntity
  8
0
100
AcDbLine
 10
110.601609639884
 20
741.185313932372
 30
0.0
 11
110.701942353384
 21
741.409696746067
 31
0.0
  0
LINE
  5
1025
330
1D
100
AcDbEntity
  8
0
100
AcDbLine
 10
110.601609639884
 20
741.185313932372
 30
0.0
 11
110.701836065147
 21
741.409619935433
 31
0.0
  0
LINE
  5
1026
330
1D
100
AcDbEntity
  8
0
100
AcDbLine
 10
147.49265
 20
767.997
 30
0.0
 11
175.22865
 21
787.2
 31
0.0
  0
LINE
  5
1027
330
1D
100
AcDbEntity
  8
0
100
AcDbLine
 10
76.99585
 20
772.845
 30
0.0
 11
80.229189000187
 21
771.337029497252
 31
0.0
  0
LINE
  5
1028
330
1D
100
AcDbEntity
  8
0
100
AcDbLine
 10
71.76985
 20
775.281
 30
0.0
 11
76.99585
 21
772.845
 31
0.0
  0
LINE
  5
1029
330
1D
100
AcDbEntity
  8
0
100
AcDbLine
 10
77.08775
 20
773.905
 30
0.0
 11
81.077758948517
 21
772.045011762197
 31
0.0
  0
LINE
  5
102A
330
1D
100
AcDbEntity
  8
0
100
AcDbLine
 10
48.61575
 20
786.079
 30
0.0
 11
54.43755
 21
783.364
 31
0.0
  0
LINE
  5
102B
330
1D
100
AcDbEntity
  8
0
100
AcDbLine
 10
60.25905
 20
780.649
 30
0.0
 11
66.14665
 21
777.903
 31
0.0
  0
LINE
  5
102C
330
1D
100
AcDbEntity
  8
0
100
AcDbLine
 10
54.43755
 20
783.364
 30
0.0
 11
60.25905
 21
780.649
 31
0.0
  0
LINE
  5
102D
330
1D
100
AcDbEntity
  8
0
100
AcDbLine
 10
66.14665
 20
777.903
 30
0.0
 11
71.76985
 21
775.281
 31
0.0
  0
LINE
  5
102E
330
1D
100
AcDbEntity
  8
0
100
AcDbLine
 10
71.92775
 20
776.311
 30
0.0
 11
77.08775
 21
773.905
 31
0.0
  0
LINE
  5
102F
330
1D
100
AcDbEntity
  8
0
100
AcDbLine
 10
66.10615
 20
779.026
 30
0.0
 11
71.92775
 21
776.311
 31
0.0
  0
LINE
  5
1030
330
1D
100
AcDbEntity
  8
0
100
AcDbLine
 10
60.61545
 20
781.586
 30
0.0
 11
66.10615
 21
779.026
 31
0.0
  0
LINE
  5
1031
330
1D
100
AcDbEntity
  8
0
100
AcDbLine
 10
55.70545
 20
786.082
 30
0.0
 11
81.764343530212
 21
772.617845749757
 31
0.0
  0
LINE
  5
1032
330
1D
100
AcDbEntity
  8
0
100
AcDbLine
 10
54.86015
 20
784.27
 30
0.0
 11
60.61545
 21
781.586
 31
0.0
  0
LINE
  5
1033
330
1D
100
AcDbEntity
  8
0
100
AcDbLine
 10
49.10435
 20
786.953
 30
0.0
 11
54.86015
 21
784.27
 31
0.0
  0
LINE
  5
1034
330
1D
100
AcDbEntity
  8
0
100
AcDbLine
 10
138.64565
 20
820.401
 30
0.0
 11
147.75565
 21
828.556
 31
0.0
  0
LINE
  5
1035
330
1D
100
AcDbEntity
  8
0
100
AcDbLine
 10
120.02065
 20
804.536
 30
0.0
 11
138.64565
 21
820.401
 31
0.0
  0
LINE
  5
1036
330
1D
100
AcDbEntity
  8
0
100
AcDbLine
 10
147.75565
 20
828.556
 30
0.0
 11
157.13265
 21
837.713
 31
0.0
  0
LINE
  5
1037
330
1D
100
AcDbEntity
  8
0
100
AcDbLine
 10
157.13265
 20
837.713
 30
0.0
 11
165.321408006944
 21
847.385495881579
 31
0.0
  0
LINE
  5
1038
330
1D
100
AcDbEntity
  8
0
100
AcDbLine
 10
157.13265
 20
837.713
 30
0.0
 11
165.321408006944
 21
847.385495881579
 31
0.0
  0
LINE
  5
1039
330
1D
100
AcDbEntity
  8
0
100
AcDbLine
 10
171.34165
 20
855.456
 30
0.0
 11
177.17665
 21
864.646
 31
0.0
  0
LINE
  5
103A
330
1D
100
AcDbEntity
  8
0
100
AcDbLine
 10
79.05455
 20
770.357
 30
0.0
 11
120.02065
 21
804.536
 31
0.0
  0
LINE
  5
103B
330
1D
100
AcDbEntity
  8
0
100
AcDbLine
 10
176.84765
 20
670.8622
 30
0.0
 11
177.72765
 21
671.6162
 31
0.0
  0
LINE
  5
103C
330
1D
100
AcDbEntity
  8
0
100
AcDbLine
 10
176.894231404601
 20
787.999374204311
 30
0.0
 11
178.34065
 21
788.231
 31
0.0
  0
LINE
  5
103D
330
1D
100
AcDbEntity
  8
0
100
AcDbLine
 10
179.75265
 20
611.024
 30
0.0
 11
179.88665
 21
611.79072
 31
0.0
  0
LINE
  5
103E
330
1D
100
AcDbEntity
  8
0
100
AcDbLine
 10
177.72765
 20
671.6162
 30
0.0
 11
178.06465
 21
671.8825
 31
0.0
  0
LINE
  5
103F
330
1D
100
AcDbEntity
  8
0
100
AcDbLine
 10
178.012963101317
 20
670.830093027108
 30
0.0
 11
178.06465
 21
671.8825
 31
0.0
  0
LINE
  5
1040
330
1D
100
AcDbEntity
  8
0
100
AcDbLine
 10
165.321408006944
 20
847.385495881579
 30
0.0
 11
171.34165
 21
855.456
 31
0.0
  0
LINE
  5
1041
330
1D
100
AcDbEntity
  8
0
100
AcDbLine
 10
53.74695
 20
700.2504
 30
0.0
 11
147.49265
 21
767.997
 31
0.0
  0
LINE
  5
1042
330
1D
100
AcDbEntity
  8
0
100
AcDbLine
 10
175.22865
 20
787.2
 30
0.0
 11
176.894231404601
 21
787.999374204311
 31
0.0
  0
LINE
  5
1043
330
1D
100
AcDbEntity
  8
0
100
AcDbLine
 10
171.74665
 20
637.7097
 30
0.0
 11
171.24265
 21
638.3304
 31
0.0
  0
LINE
  5
1044
330
1D
100
AcDbEntity
  8
0
100
AcDbLine
 10
105.71065
 20
730.241
 30
0.0
 11
110.601609639884
 21
741.185313932372
 31
0.0
  0
LINE
  5
1045
330
1D
100
AcDbEntity
  8
0
100
AcDbLine
 10
10.326540378548
 20
711.285422712935
 30
0.0
 11
34.06235
 21
687.5502
 31
0.0
  0
LINE
  5
1046
330
1D
100
AcDbEntity
  8
0
100
AcDbLine
 10
180.37965
 20
612.43955
 30
0.0
 11
181.02665
 21
612.87175
 31
0.0
  0
LINE
  5
1047
330
1D
100
AcDbEntity
  8
0
100
AcDbLine
 10
181.026934428505
 20
612.87194
 30
0.0
 11
181.74465
 21
613.024
 31
0.0
  0
LINE
  5
1048
330
1D
100
AcDbEntity
  8
0
100
AcDbLine
 10
181.89365
 20
613.024
 30
0.0
 11
182.33965
 21
613.024
 31
0.0
  0
LINE
  5
1049
330
1D
100
AcDbEntity
  8
0
100
AcDbLine
 10
182.33965
 20
613.024
 30
0.0
 11
183.09765
 21
613.024
 31
0.0
  0
LINE
  5
104A
330
1D
100
AcDbEntity
  8
0
100
AcDbLine
 10
183.09765
 20
613.024
 30
0.0
 11
184.16165
 21
613.024
 31
0.0
  0
LINE
  5
104B
330
1D
100
AcDbEntity
  8
0
100
AcDbLine
 10
181.76465
 20
613.024
 30
0.0
 11
181.89365
 21
613.024
 31
0.0
  0
LINE
  5
104C
330
1D
100
AcDbEntity
  8
0
100
AcDbLine
 10
184.16165
 20
613.024
 30
0.0
 11
185.51865
 21
613.024
 31
0.0
  0
LINE
  5
104D
330
1D
100
AcDbEntity
  8
0
100
AcDbLine
 10
185.51865
 20
613.024
 30
0.0
 11
187.15865
 21
613.024
 31
0.0
  0
LINE
  5
104E
330
1D
100
AcDbEntity
  8
0
100
AcDbLine
 10
187.15865
 20
613.024
 30
0.0
 11
189.06465
 21
613.024
 31
0.0
  0
LINE
  5
104F
330
1D
100
AcDbEntity
  8
0
100
AcDbLine
 10
187.15865
 20
613.024
 30
0.0
 11
189.06365
 21
613.024
 31
0.0
  0
LINE
  5
1050
330
1D
100
AcDbEntity
  8
0
100
AcDbLine
 10
189.06365
 20
613.024
 30
0.0
 11
191.21665
 21
613.024
 31
0.0
  0
LINE
  5
1051
330
1D
100
AcDbEntity
  8
0
100
AcDbLine
 10
189.06465
 20
613.024
 30
0.0
 11
191.21665
 21
613.024
 31
0.0
  0
LINE
  5
1052
330
1D
100
AcDbEntity
  8
0
100
AcDbLine
 10
188.90365
 20
613.0622
 30
0.0
 11
189.04965
 21
613.024
 31
0.0
  0
LINE
  5
1053
330
1D
100
AcDbEntity
  8
0
100
AcDbLine
 10
188.74965
 20
613.3121
 30
0.0
 11
188.79365
 21
613.1672
 31
0.0
  0
LINE
  5
1054
330
1D
100
AcDbEntity
  8
0
100
AcDbLine
 10
188.79365
 20
613.1672
 30
0.0
 11
188.90365
 21
613.0622
 31
0.0
  0
LINE
  5
1055
330
1D
100
AcDbEntity
  8
0
100
AcDbLine
 10
193.59665
 20
613.024
 30
0.0
 11
196.17965
 21
613.024
 31
0.0
  0
LINE
  5
1056
330
1D
100
AcDbEntity
  8
0
100
AcDbLine
 10
191.21665
 20
613.024
 30
0.0
 11
193.59565
 21
613.024
 31
0.0
  0
LINE
  5
1057
330
1D
100
AcDbEntity
  8
0
100
AcDbLine
 10
191.21665
 20
613.024
 30
0.0
 11
193.59665
 21
613.024
 31
0.0
  0
LINE
  5
1058
330
1D
100
AcDbEntity
  8
0
100
AcDbLine
 10
193.59565
 20
613.024
 30
0.0
 11
196.17965
 21
613.024
 31
0.0
  0
LINE
  5
1059
330
1D
100
AcDbEntity
  8
0
100
AcDbLine
 10
187.78165
 20
613.424
 30
0.0
 11
188.19265
 21
613.424
 31
0.0
  0
LINE
  5
105A
330
1D
100
AcDbEntity
  8
0
100
AcDbLine
 10
187.64265
 20
613.424
 30
0.0
 11
187.78165
 21
613.424
 31
0.0
  0
LINE
  5
105B
330
1D
100
AcDbEntity
  8
0
100
AcDbLine
 10
187.64265
 20
613.424
 30
0.0
 11
187.74965
 21
613.424
 31
0.0
  0
LINE
  5
105C
330
1D
100
AcDbEntity
  8
0
100
AcDbLine
 10
186.936796056805
 20
626.3638
 30
0.0
 11
186.95265
 21
626.1426
 31
0.0
  0
LINE
  5
105D
330
1D
100
AcDbEntity
  8
0
100
AcDbLine
 10
186.95265
 20
626.1426
 30
0.0
 11
187.16465
 21
622.0082
 31
0.0
  0
LINE
  5
105E
330
1D
100
AcDbEntity
  8
0
100
AcDbLine
 10
186.95265
 20
626.1426
 30
0.0
 11
187.16565
 21
622.0082
 31
0.0
  0
LINE
  5
105F
330
1D
100
AcDbEntity
  8
0
100
AcDbLine
 10
187.16565
 20
622.0082
 30
0.0
 11
187.29565
 21
617.8685
 31
0.0
  0
LINE
  5
1060
330
1D
100
AcDbEntity
  8
0
100
AcDbLine
 10
187.16465
 20
622.0082
 30
0.0
 11
187.29465
 21
617.8685
 31
0.0
  0
LINE
  5
1061
330
1D
100
AcDbEntity
  8
0
100
AcDbLine
 10
186.936795672914
 20
626.3638
 30
0.0
 11
186.95265
 21
626.1426
 31
0.0
  0
LINE
  5
1062
330
1D
100
AcDbEntity
  8
0
100
AcDbLine
 10
187.38265
 20
613.5737
 30
0.0
 11
187.49265
 21
613.4641
 31
0.0
  0
LINE
  5
1063
330
1D
100
AcDbEntity
  8
0
100
AcDbLine
 10
187.49265
 20
613.4641
 30
0.0
 11
187.64265
 21
613.424
 31
0.0
  0
LINE
  5
1064
330
1D
100
AcDbEntity
  8
0
100
AcDbLine
 10
187.29565
 20
617.8685
 30
0.0
 11
187.34265
 21
613.7236
 31
0.0
  0
LINE
  5
1065
330
1D
100
AcDbEntity
  8
0
100
AcDbLine
 10
187.34265
 20
613.7236
 30
0.0
 11
187.38265
 21
613.5737
 31
0.0
  0
LINE
  5
1066
330
1D
100
AcDbEntity
  8
0
100
AcDbLine
 10
187.29465
 20
617.8685
 30
0.0
 11
187.34265
 21
613.7236
 31
0.0
  0
LINE
  5
1067
330
1D
100
AcDbEntity
  8
0
100
AcDbLine
 10
188.19265
 20
613.424
 30
0.0
 11
188.745949594298
 21
613.424
 31
0.0
  0
LINE
  5
1068
330
1D
100
AcDbEntity
  8
0
100
AcDbLine
 10
186.27865
 20
634.3971
 30
0.0
 11
186.46498777002
 21
632.3638
 31
0.0
  0
LINE
  5
1069
330
1D
100
AcDbEntity
  8
0
100
AcDbLine
 10
187.97065
 20
636.8271
 30
0.0
 11
188.74965
 21
613.3123
 31
0.0
  0
LINE
  5
106A
330
1D
100
AcDbEntity
  8
0
100
AcDbLine
 10
187.97065
 20
636.8274
 30
0.0
 11
188.74965
 21
613.3126
 31
0.0
  0
LINE
  5
106B
330
1D
100
AcDbEntity
  8
0
100
AcDbLine
 10
196.17965
 20
613.024
 30
0.0
 11
198.94165
 21
613.024
 31
0.0
  0
LINE
  5
106C
330
1D
100
AcDbEntity
  8
0
100
AcDbLine
 10
198.94165
 20
613.024
 30
0.0
 11
201.85665
 21
613.024
 31
0.0
  0
LINE
  5
106D
330
1D
100
AcDbEntity
  8
0
100
AcDbLine
 10
198.94165
 20
613.024
 30
0.0
 11
201.85765
 21
613.024
 31
0.0
  0
LINE
  5
106E
330
1D
100
AcDbEntity
  8
0
100
AcDbLine
 10
201.85765
 20
613.024
 30
0.0
 11
204.89565
 21
613.024
 31
0.0
  0
LINE
  5
106F
330
1D
100
AcDbEntity
  8
0
100
AcDbLine
 10
204.89565
 20
613.024
 30
0.0
 11
208.03065
 21
613.024
 31
0.0
  0
LINE
  5
1070
330
1D
100
AcDbEntity
  8
0
100
AcDbLine
 10
211.22865
 20
613.024
 30
0.0
 11
214.46165
 21
613.024
 31
0.0
  0
LINE
  5
1071
330
1D
100
AcDbEntity
  8
0
100
AcDbLine
 10
208.03065
 20
613.024
 30
0.0
 11
211.22865
 21
613.024
 31
0.0
  0
LINE
  5
1072
330
1D
100
AcDbEntity
  8
0
100
AcDbLine
 10
204.89665
 20
613.024
 30
0.0
 11
208.03065
 21
613.024
 31
0.0
  0
LINE
  5
1073
330
1D
100
AcDbEntity
  8
0
100
AcDbLine
 10
201.85665
 20
613.024
 30
0.0
 11
204.89665
 21
613.024
 31
0.0
  0
LINE
  5
1074
330
1D
100
AcDbEntity
  8
0
100
AcDbLine
 10
200.62165
 20
613.063
 30
0.0
 11
200.70165
 21
613.024
 31
0.0
  0
LINE
  5
1075
330
1D
100
AcDbEntity
  8
0
100
AcDbLine
 10
200.62165
 20
613.063
 30
0.0
 11
200.70265
 21
613.024
 31
0.0
  0
LINE
  5
1076
330
1D
100
AcDbEntity
  8
0
100
AcDbLine
 10
214.46165
 20
613.024
 30
0.0
 11
217.69765
 21
613.024
 31
0.0
  0
LINE
  5
1077
330
1D
100
AcDbEntity
  8
0
100
AcDbLine
 10
214.46165
 20
613.024
 30
0.0
 11
217.69865
 21
613.024
 31
0.0
  0
LINE
  5
1078
330
1D
100
AcDbEntity
  8
0
100
AcDbLine
 10
217.69865
 20
613.024
 30
0.0
 11
220.90565
 21
613.024
 31
0.0
  0
LINE
  5
1079
330
1D
100
AcDbEntity
  8
0
100
AcDbLine
 10
217.69765
 20
613.024
 30
0.0
 11
220.90565
 21
613.024
 31
0.0
  0
LINE
  5
107A
330
1D
100
AcDbEntity
  8
0
100
AcDbLine
 10
220.90565
 20
613.024
 30
0.0
 11
224.05365
 21
613.024
 31
0.0
  0
LINE
  5
107B
330
1D
100
AcDbEntity
  8
0
100
AcDbLine
 10
224.05365
 20
613.024
 30
0.0
 11
227.11265
 21
613.024
 31
0.0
  0
LINE
  5
107C
330
1D
100
AcDbEntity
  8
0
100
AcDbLine
 10
227.11265
 20
613.024
 30
0.0
 11
230.05265
 21
613.024
 31
0.0
  0
LINE
  5
107D
330
1D
100
AcDbEntity
  8
0
100
AcDbLine
 10
230.05265
 20
613.024
 30
0.0
 11
232.84565
 21
613.024
 31
0.0
  0
LINE
  5
107E
330
1D
100
AcDbEntity
  8
0
100
AcDbLine
 10
232.84565
 20
613.024
 30
0.0
 11
235.46465
 21
613.024
 31
0.0
  0
LINE
  5
107F
330
1D
100
AcDbEntity
  8
0
100
AcDbLine
 10
235.46465
 20
613.024
 30
0.0
 11
237.88365
 21
613.024
 31
0.0
  0
LINE
  5
1080
330
1D
100
AcDbEntity
  8
0
100
AcDbLine
 10
237.88365
 20
613.024
 30
0.0
 11
240.08065
 21
613.024
 31
0.0
  0
LINE
  5
1081
330
1D
100
AcDbEntity
  8
0
100
AcDbLine
 10
237.88365
 20
613.024
 30
0.0
 11
240.07965
 21
613.024
 31
0.0
  0
LINE
  5
1082
330
1D
100
AcDbEntity
  8
0
100
AcDbLine
 10
240.07965
 20
613.024
 30
0.0
 11
242.03365
 21
613.024
 31
0.0
  0
LINE
  5
1083
330
1D
100
AcDbEntity
  8
0
100
AcDbLine
 10
240.08065
 20
613.024
 30
0.0
 11
242.03365
 21
613.024
 31
0.0
  0
LINE
  5
1084
330
1D
100
AcDbEntity
  8
0
100
AcDbLine
 10
240.29367014218
 20
619.905166469195
 30
0.0
 11
240.30765
 21
619.8316
 31
0.0
  0
LINE
  5
1085
330
1D
100
AcDbEntity
  8
0
100
AcDbLine
 10
242.03365
 20
613.024
 30
0.0
 11
242.36765
 21
613.024
 31
0.0
  0
LINE
  5
1086
330
1D
100
AcDbEntity
  8
0
100
AcDbLine
 10
242.03365
 20
613.024
 30
0.0
 11
243.72265
 21
613.024
 31
0.0
  0
LINE
  5
1087
330
1D
100
AcDbEntity
  8
0
100
AcDbLine
 10
242.03365
 20
613.024
 30
0.0
 11
243.72365
 21
613.024
 31
0.0
  0
LINE
  5
1088
330
1D
100
AcDbEntity
  8
0
100
AcDbLine
 10
246.25365
 20
613.024
 30
0.0
 11
247.06865
 21
613.024
 31
0.0
  0
LINE
  5
1089
330
1D
100
AcDbEntity
  8
0
100
AcDbLine
 10
245.13465
 20
613.024
 30
0.0
 11
246.25265
 21
613.024
 31
0.0
  0
LINE
  5
108A
330
1D
100
AcDbEntity
  8
0
100
AcDbLine
 10
245.13465
 20
613.024
 30
0.0
 11
246.25365
 21
613.024
 31
0.0
  0
LINE
  5
108B
330
1D
100
AcDbEntity
  8
0
100
AcDbLine
 10
246.25265
 20
613.024
 30
0.0
 11
247.06865
 21
613.024
 31
0.0
  0
LINE
  5
108C
330
1D
100
AcDbEntity
  8
0
100
AcDbLine
 10
248.45865
 20
612.87171
 30
0.0
 11
249.18565
 21
612.43929
 31
0.0
  0
LINE
  5
108D
330
1D
100
AcDbEntity
  8
0
100
AcDbLine
 10
247.781338230625
 20
613.015570264098
 30
0.0
 11
248.45865
 21
612.87171
 31
0.0
  0
LINE
  5
108E
330
1D
100
AcDbEntity
  8
0
100
AcDbLine
 10
249.18565
 20
612.43929
 30
0.0
 11
249.58065
 21
611.78936
 31
0.0
  0
LINE
  5
108F
330
1D
100
AcDbEntity
  8
0
100
AcDbLine
 10
247.57365
 20
613.024
 30
0.0
 11
247.76165
 21
613.024
 31
0.0
  0
LINE
  5
1090
330
1D
100
AcDbEntity
  8
0
100
AcDbLine
 10
247.06865
 20
613.024
 30
0.0
 11
247.57365
 21
613.024
 31
0.0
  0
LINE
  5
1091
330
1D
100
AcDbEntity
  8
0
100
AcDbLine
 10
243.72365
 20
613.024
 30
0.0
 11
245.13465
 21
613.024
 31
0.0
  0
LINE
  5
1092
330
1D
100
AcDbEntity
  8
0
100
AcDbLine
 10
249.58065
 20
611.78936
 30
0.0
 11
249.75265
 21
611.024
 31
0.0
  0
LINE
  5
1093
330
1D
100
AcDbEntity
  8
0
100
AcDbLine
 10
242.36765
 20
613.024
 30
0.0
 11
244.00765
 21
613.024
 31
0.0
  0
LINE
  5
1094
330
1D
100
AcDbEntity
  8
0
100
AcDbLine
 10
240.62965
 20
613.0679
 30
0.0
 11
240.74065
 21
613.1866
 31
0.0
  0
LINE
  5
1095
330
1D
100
AcDbEntity
  8
0
100
AcDbLine
 10
240.767022629729
 20
613.424
 30
0.0
 11
241.22865
 21
613.424
 31
0.0
  0
LINE
  5
1096
330
1D
100
AcDbEntity
  8
0
100
AcDbLine
 10
241.22865
 20
613.424
 30
0.0
 11
241.68965
 21
613.424
 31
0.0
  0
LINE
  5
1097
330
1D
100
AcDbEntity
  8
0
100
AcDbLine
 10
241.84265
 20
613.424
 30
0.0
 11
241.99265
 21
613.4642
 31
0.0
  0
LINE
  5
1098
330
1D
100
AcDbEntity
  8
0
100
AcDbLine
 10
241.99265
 20
613.4642
 30
0.0
 11
242.10265
 21
613.574
 31
0.0
  0
LINE
  5
1099
330
1D
100
AcDbEntity
  8
0
100
AcDbLine
 10
242.10265
 20
613.574
 30
0.0
 11
242.14265
 21
613.7241
 31
0.0
  0
LINE
  5
109A
330
1D
100
AcDbEntity
  8
0
100
AcDbLine
 10
241.68965
 20
613.424
 30
0.0
 11
241.84265
 21
613.424
 31
0.0
  0
LINE
  5
109B
330
1D
100
AcDbEntity
  8
0
100
AcDbLine
 10
241.68565
 20
613.424
 30
0.0
 11
241.84265
 21
613.424
 31
0.0
  0
LINE
  5
109C
330
1D
100
AcDbEntity
  8
0
100
AcDbLine
 10
240.74065
 20
613.1866
 30
0.0
 11
240.77265
 21
613.3455
 31
0.0
  0
LINE
  5
109D
330
1D
100
AcDbEntity
  8
0
100
AcDbLine
 10
240.47365
 20
613.024
 30
0.0
 11
240.62965
 21
613.0679
 31
0.0
  0
LINE
  5
109E
330
1D
100
AcDbEntity
  8
0
100
AcDbLine
 10
240.30765
 20
619.8321
 30
0.0
 11
240.77265
 21
613.3455
 31
0.0
  0
LINE
  5
109F
330
1D
100
AcDbEntity
  8
0
100
AcDbLine
 10
240.145069295559
 20
620.746025206739
 30
0.0
 11
240.191792523939
 21
620.470907844338
 31
0.0
  0
LINE
  5
10A0
330
1D
100
AcDbEntity
  8
0
100
AcDbLine
 10
240.05565
 20
621.3386
 30
0.0
 11
240.15965
 21
620.6494
 31
0.0
  0
LINE
  5
10A1
330
1D
100
AcDbEntity
  8
0
100
AcDbLine
 10
240.05565
 20
621.3379
 30
0.0
 11
240.15965
 21
620.6494
 31
0.0
  0
LINE
  5
10A2
330
1D
100
AcDbEntity
  8
0
100
AcDbLine
 10
240.15965
 20
620.6494
 30
0.0
 11
240.30265
 21
619.855
 31
0.0
  0
LINE
  5
10A3
330
1D
100
AcDbEntity
  8
0
100
AcDbLine
 10
240.15965
 20
620.6494
 30
0.0
 11
240.30265
 21
619.8553
 31
0.0
  0
LINE
  5
10A4
330
1D
100
AcDbEntity
  8
0
100
AcDbLine
 10
240.145475421133
 20
620.743333843799
 30
0.0
 11
240.190897237909
 21
620.475879499138
 31
0.0
  0
LINE
  5
10A5
330
1D
100
AcDbEntity
  8
0
100
AcDbLine
 10
239.788211818971
 20
624.395231935789
 30
0.0
 11
239.82165
 21
624.1996
 31
0.0
  0
LINE
  5
10A6
330
1D
100
AcDbEntity
  8
0
100
AcDbLine
 10
239.87965
 20
623.0182
 30
0.0
 11
240.05565
 21
621.3386
 31
0.0
  0
LINE
  5
10A7
330
1D
100
AcDbEntity
  8
0
100
AcDbLine
 10
239.999582251554
 20
621.873664717561
 30
0.0
 11
240.13162749627
 21
620.835102976643
 31
0.0
  0
LINE
  5
10A8
330
1D
100
AcDbEntity
  8
0
100
AcDbLine
 10
239.87965
 20
623.018
 30
0.0
 11
240.05565
 21
621.3379
 31
0.0
  0
LINE
  5
10A9
330
1D
100
AcDbEntity
  8
0
100
AcDbLine
 10
239.805504373254
 20
624.134811187786
 30
0.0
 11
239.82165
 21
624.1996
 31
0.0
  0
LINE
  5
10AA
330
1D
100
AcDbEntity
  8
0
100
AcDbLine
 10
239.819990711258
 20
624.636900350289
 30
0.0
 11
239.838292134891
 21
623.861116074916
 31
0.0
  0
LINE
  5
10AB
330
1D
100
AcDbEntity
  8
0
100
AcDbLine
 10
239.805504373254
 20
624.134811187786
 30
0.0
 11
239.82165
 21
624.1996
 31
0.0
  0
LINE
  5
10AC
330
1D
100
AcDbEntity
  8
0
100
AcDbLine
 10
239.861743820878
 20
623.383146454146
 30
0.0
 11
239.906657192459
 21
622.760465451967
 31
0.0
  0
LINE
  5
10AD
330
1D
100
AcDbEntity
  8
0
100
AcDbLine
 10
239.82165
 20
624.2003
 30
0.0
 11
239.87965
 21
623.0182
 31
0.0
  0
LINE
  5
10AE
330
1D
100
AcDbEntity
  8
0
100
AcDbLine
 10
239.82165
 20
624.1996
 30
0.0
 11
239.87965
 21
623.018
 31
0.0
  0
LINE
  5
10AF
330
1D
100
AcDbEntity
  8
0
100
AcDbLine
 10
239.819993187224
 20
624.636248861705
 30
0.0
 11
239.838258409678
 21
623.861803429646
 31
0.0
  0
LINE
  5
10B0
330
1D
100
AcDbEntity
  8
0
100
AcDbLine
 10
239.861850886851
 20
623.380964338856
 30
0.0
 11
239.906553831701
 21
622.761451842471
 31
0.0
  0
LINE
  5
10B1
330
1D
100
AcDbEntity
  8
0
100
AcDbLine
 10
239.788211818971
 20
624.395231935789
 30
0.0
 11
239.82165
 21
624.1996
 31
0.0
  0
LINE
  5
10B2
330
1D
100
AcDbEntity
  8
0
100
AcDbLine
 10
239.99976103734
 20
621.871958532295
 30
0.0
 11
240.131385223363
 21
620.836708500563
 31
0.0
  0
LINE
  5
10B3
330
1D
100
AcDbEntity
  8
0
100
AcDbLine
 10
240.292105834656
 20
619.9138532986
 30
0.0
 11
240.30765
 21
619.8321
 31
0.0
  0
LINE
  5
10B4
330
1D
100
AcDbEntity
  8
0
100
AcDbLine
 10
239.81765
 20
625.2528
 30
0.0
 11
239.82165
 21
624.2003
 31
0.0
  0
LINE
  5
10B5
330
1D
100
AcDbEntity
  8
0
100
AcDbLine
 10
239.81765
 20
625.2528
 30
0.0
 11
239.84765
 21
626.1214
 31
0.0
  0
LINE
  5
10B6
330
1D
100
AcDbEntity
  8
0
100
AcDbLine
 10
239.818635588533
 20
624.993467017217
 30
0.0
 11
239.828614871736
 21
625.570269586317
 31
0.0
  0
LINE
  5
10B7
330
1D
100
AcDbEntity
  8
0
100
AcDbLine
 10
239.818636972016
 20
624.993102988258
 30
0.0
 11
239.828623771959
 21
625.57052727745
 31
0.0
  0
LINE
  5
10B8
330
1D
100
AcDbEntity
  8
0
100
AcDbLine
 10
239.81765
 20
625.2527
 30
0.0
 11
239.82165
 21
624.1996
 31
0.0
  0
LINE
  5
10B9
330
1D
100
AcDbEntity
  8
0
100
AcDbLine
 10
239.81765
 20
625.2527
 30
0.0
 11
239.84765
 21
626.1219
 31
0.0
  0
LINE
  5
10BA
330
1D
100
AcDbEntity
  8
0
100
AcDbLine
 10
239.84517523172
 20
626.049747209064
 30
0.0
 11
239.85165
 21
626.1953
 31
0.0
  0
LINE
  5
10BB
330
1D
100
AcDbEntity
  8
0
100
AcDbLine
 10
239.84765
 20
626.1214
 30
0.0
 11
239.85165
 21
626.1953
 31
0.0
  0
LINE
  5
10BC
330
1D
100
AcDbEntity
  8
0
100
AcDbLine
 10
239.84524937727
 20
626.051893969903
 30
0.0
 11
239.85165
 21
626.1961
 31
0.0
  0
LINE
  5
10BD
330
1D
100
AcDbEntity
  8
0
100
AcDbLine
 10
242.07865
 20
626.0757
 30
0.0
 11
242.14265
 21
613.7241
 31
0.0
  0
LINE
  5
10BE
330
1D
100
AcDbEntity
  8
0
100
AcDbLine
 10
239.84765
 20
626.1219
 30
0.0
 11
239.85165
 21
626.1961
 31
0.0
  0
LINE
  5
10BF
330
1D
100
AcDbEntity
  8
0
100
AcDbLine
 10
241.89265
 20
638.4266
 30
0.0
 11
242.07865
 21
626.0757
 31
0.0
  0
LINE
  5
10C0
330
1D
100
AcDbEntity
  8
0
100
AcDbLine
 10
184.95965
 20
644.7609
 30
0.0
 11
185.81765
 21
638.5164
 31
0.0
  0
LINE
  5
10C1
330
1D
100
AcDbEntity
  8
0
100
AcDbLine
 10
181.65365
 20
661.7239
 30
0.0
 11
182.85365
 21
656.3628
 31
0.0
  0
LINE
  5
10C2
330
1D
100
AcDbEntity
  8
0
100
AcDbLine
 10
181.71265
 20
663.189
 30
0.0
 11
181.89365
 21
663.3613
 31
0.0
  0
LINE
  5
10C3
330
1D
100
AcDbEntity
  8
0
100
AcDbLine
 10
181.71165
 20
663.189
 30
0.0
 11
181.89365
 21
663.3613
 31
0.0
  0
LINE
  5
10C4
330
1D
100
AcDbEntity
  8
0
100
AcDbLine
 10
181.89365
 20
663.3613
 30
0.0
 11
182.13565
 21
663.424
 31
0.0
  0
LINE
  5
10C5
330
1D
100
AcDbEntity
  8
0
100
AcDbLine
 10
181.63665
 20
662.9502
 30
0.0
 11
181.71165
 21
663.189
 31
0.0
  0
LINE
  5
10C6
330
1D
100
AcDbEntity
  8
0
100
AcDbLine
 10
181.63665
 20
662.9502
 30
0.0
 11
181.71265
 21
663.189
 31
0.0
  0
LINE
  5
10C7
330
1D
100
AcDbEntity
  8
0
100
AcDbLine
 10
181.60265
 20
662.2904
 30
0.0
 11
181.65365
 21
661.7239
 31
0.0
  0
LINE
  5
10C8
330
1D
100
AcDbEntity
  8
0
100
AcDbLine
 10
181.60265
 20
662.2904
 30
0.0
 11
181.63665
 21
662.9502
 31
0.0
  0
LINE
  5
10C9
330
1D
100
AcDbEntity
  8
0
100
AcDbLine
 10
180.42665
 20
788.165
 30
0.0
 11
182.57465
 21
787.567
 31
0.0
  0
LINE
  5
10CA
330
1D
100
AcDbEntity
  8
0
100
AcDbLine
 10
181.56665
 20
673.859
 30
0.0
 11
182.83265
 21
673.8777
 31
0.0
  0
LINE
  5
10CB
330
1D
100
AcDbEntity
  8
0
100
AcDbLine
 10
182.13565
 20
663.424
 30
0.0
 11
182.21265
 21
663.424
 31
0.0
  0
LINE
  5
10CC
330
1D
100
AcDbEntity
  8
0
100
AcDbLine
 10
182.13565
 20
663.424
 30
0.0
 11
182.21065
 21
663.424
 31
0.0
  0
LINE
  5
10CD
330
1D
100
AcDbEntity
  8
0
100
AcDbLine
 10
182.13665
 20
663.424
 30
0.0
 11
182.21065
 21
663.424
 31
0.0
  0
LINE
  5
10CE
330
1D
100
AcDbEntity
  8
0
100
AcDbLine
 10
182.13665
 20
663.424
 30
0.0
 11
182.21265
 21
663.424
 31
0.0
  0
LINE
  5
10CF
330
1D
100
AcDbEntity
  8
0
100
AcDbLine
 10
182.21265
 20
663.424
 30
0.0
 11
182.55265
 21
663.424
 31
0.0
  0
LINE
  5
10D0
330
1D
100
AcDbEntity
  8
0
100
AcDbLine
 10
182.21265
 20
663.424
 30
0.0
 11
182.55365
 21
663.424
 31
0.0
  0
LINE
  5
10D1
330
1D
100
AcDbEntity
  8
0
100
AcDbLine
 10
182.55365
 20
663.424
 30
0.0
 11
183.09365
 21
663.424
 31
0.0
  0
LINE
  5
10D2
330
1D
100
AcDbEntity
  8
0
100
AcDbLine
 10
182.55265
 20
663.424
 30
0.0
 11
183.09365
 21
663.424
 31
0.0
  0
LINE
  5
10D3
330
1D
100
AcDbEntity
  8
0
100
AcDbLine
 10
182.57465
 20
787.567
 30
0.0
 11
184.28465
 21
786.667
 31
0.0
  0
LINE
  5
10D4
330
1D
100
AcDbEntity
  8
0
100
AcDbLine
 10
182.83265
 20
673.8777
 30
0.0
 11
183.69765
 21
673.1944
 31
0.0
  0
LINE
  5
10D5
330
1D
100
AcDbEntity
  8
0
100
AcDbLine
 10
183.09365
 20
663.424
 30
0.0
 11
184.19865
 21
663.424
 31
0.0
  0
LINE
  5
10D6
330
1D
100
AcDbEntity
  8
0
100
AcDbLine
 10
183.44803354444
 20
653.29225060059
 30
0.0
 11
184.034650077461
 21
650.261825111862
 31
0.0
  0
LINE
  5
10D7
330
1D
100
AcDbEntity
  8
0
100
AcDbLine
 10
183.44803354444
 20
653.29225060059
 30
0.0
 11
184.034650077461
 21
650.261825111862
 31
0.0
  0
LINE
  5
10D8
330
1D
100
AcDbEntity
  8
0
100
AcDbLine
 10
184.034650077461
 20
650.261825111862
 30
0.0
 11
184.95965
 21
644.7609
 31
0.0
  0
LINE
  5
10D9
330
1D
100
AcDbEntity
  8
0
100
AcDbLine
 10
241.58065
 20
650.9256
 30
0.0
 11
241.89265
 21
638.4266
 31
0.0
  0
LINE
  5
10DA
330
1D
100
AcDbEntity
  8
0
100
AcDbLine
 10
187.50465
 20
658.5999
 30
0.0
 11
187.97065
 21
636.8271
 31
0.0
  0
LINE
  5
10DB
330
1D
100
AcDbEntity
  8
0
100
AcDbLine
 10
187.50465
 20
658.5994
 30
0.0
 11
187.97065
 21
636.8274
 31
0.0
  0
LINE
  5
10DC
330
1D
100
AcDbEntity
  8
0
100
AcDbLine
 10
184.19865
 20
663.424
 30
0.0
 11
185.84965
 21
663.424
 31
0.0
  0
LINE
  5
10DD
330
1D
100
AcDbEntity
  8
0
100
AcDbLine
 10
185.84965
 20
663.424
 30
0.0
 11
187.451237789136
 21
663.424
 31
0.0
  0
LINE
  5
10DE
330
1D
100
AcDbEntity
  8
0
100
AcDbLine
 10
237.21476349831
 20
663.424
 30
0.0
 11
238.37765
 21
663.424
 31
0.0
  0
LINE
  5
10DF
330
1D
100
AcDbEntity
  8
0
100
AcDbLine
 10
238.37765
 20
663.424
 30
0.0
 11
239.36965
 21
663.424
 31
0.0
  0
LINE
  5
10E0
330
1D
100
AcDbEntity
  8
0
100
AcDbLine
 10
240.90665
 20
663.3603
 30
0.0
 11
241.08865
 21
663.1853
 31
0.0
  0
LINE
  5
10E1
330
1D
100
AcDbEntity
  8
0
100
AcDbLine
 10
241.08865
 20
663.1853
 30
0.0
 11
241.16165
 21
662.9438
 31
0.0
  0
LINE
  5
10E2
330
1D
100
AcDbEntity
  8
0
100
AcDbLine
 10
240.51665
 20
663.424
 30
0.0
 11
240.66265
 21
663.424
 31
0.0
  0
LINE
  5
10E3
330
1D
100
AcDbEntity
  8
0
100
AcDbLine
 10
240.66265
 20
663.424
 30
0.0
 11
240.90665
 21
663.3603
 31
0.0
  0
LINE
  5
10E4
330
1D
100
AcDbEntity
  8
0
100
AcDbLine
 10
239.36965
 20
663.424
 30
0.0
 11
240.08565
 21
663.424
 31
0.0
  0
LINE
  5
10E5
330
1D
100
AcDbEntity
  8
0
100
AcDbLine
 10
240.08565
 20
663.424
 30
0.0
 11
240.51665
 21
663.424
 31
0.0
  0
LINE
  5
10E6
330
1D
100
AcDbEntity
  8
0
100
AcDbLine
 10
241.16165
 20
662.9436
 30
0.0
 11
241.58065
 21
650.9256
 31
0.0
  0
LINE
  5
10E7
330
1D
100
AcDbEntity
  8
0
100
AcDbLine
 10
236.29465
 20
677.797
 30
0.0
 11
239.85165
 21
626.1953
 31
0.0
  0
LINE
  5
10E8
330
1D
100
AcDbEntity
  8
0
100
AcDbLine
 10
236.29465
 20
677.797
 30
0.0
 11
239.85165
 21
626.1953
 31
0.0
  0
LINE
  5
10E9
330
1D
100
AcDbEntity
  8
0
100
AcDbLine
 10
184.30765
 20
786.643
 30
0.0
 11
185.60465
 21
785.46
 31
0.0
  0
LINE
  5
10EA
330
1D
100
AcDbEntity
  8
0
100
AcDbLine
 10
185.60465
 20
785.46
 30
0.0
 11
186.79865
 21
782.254
 31
0.0
  0
LINE
  5
10EB
330
1D
100
AcDbEntity
  8
0
100
AcDbLine
 10
186.79865
 20
782.255
 30
0.0
 11
187.36194379977
 21
763.189962199726
 31
0.0
  0
LINE
  5
10EC
330
1D
100
AcDbEntity
  8
0
100
AcDbLine
 10
187.17565
 20
688.3172
 30
0.0
 11
187.50465
 21
658.5994
 31
0.0
  0
LINE
  5
10ED
330
1D
100
AcDbEntity
  8
0
100
AcDbLine
 10
187.17565
 20
688.3172
 30
0.0
 11
187.22965
 21
698.7216
 31
0.0
  0
LINE
  5
10EE
330
1D
100
AcDbEntity
  8
0
100
AcDbLine
 10
187.36194379977
 20
763.189962199721
 30
0.0
 11
187.43065
 21
751.744
 31
0.0
  0
LINE
  5
10EF
330
1D
100
AcDbEntity
  8
0
100
AcDbLine
 10
187.22965
 20
698.7216
 30
0.0
 11
187.230212005218
 21
698.212391659914
 31
0.0
  0
LINE
  5
10F0
330
1D
100
AcDbEntity
  8
0
100
AcDbLine
 10
187.22965
 20
698.7216
 30
0.0
 11
187.34665
 21
720.236
 31
0.0
  0
LINE
  5
10F1
330
1D
100
AcDbEntity
  8
0
100
AcDbLine
 10
187.34665
 20
720.236
 30
0.0
 11
187.43065
 21
751.744
 31
0.0
  0
LINE
  5
10F2
330
1D
100
AcDbEntity
  8
0
100
AcDbLine
 10
187.22965
 20
698.7206
 30
0.0
 11
187.34665
 21
720.236
 31
0.0
  0
LINE
  5
10F3
330
1D
100
AcDbEntity
  8
0
100
AcDbLine
 10
187.22965
 20
698.7206
 30
0.0
 11
187.230240020252
 21
698.217472377419
 31
0.0
  0
LINE
  5
10F4
330
1D
100
AcDbEntity
  8
0
100
AcDbLine
 10
188.24965
 20
875.997
 30
0.0
 11
189.58465
 21
874.835
 31
0.0
  0
LINE
  5
10F5
330
1D
100
AcDbEntity
  8
0
100
AcDbLine
 10
184.87165
 20
879.289
 30
0.0
 11
184.90165
 21
879.403
 31
0.0
  0
LINE
  5
10F6
330
1D
100
AcDbEntity
  8
0
100
AcDbLine
 10
184.87165
 20
879.289
 30
0.0
 11
185.06765
 21
879.01
 31
0.0
  0
LINE
  5
10F7
330
1D
100
AcDbEntity
  8
0
100
AcDbLine
 10
184.87265
 20
879.289
 30
0.0
 11
185.06765
 21
879.01
 31
0.0
  0
LINE
  5
10F8
330
1D
100
AcDbEntity
  8
0
100
AcDbLine
 10
184.873718034544
 20
879.293310282267
 30
0.0
 11
184.90065
 21
879.402
 31
0.0
  0
LINE
  5
10F9
330
1D
100
AcDbEntity
  8
0
100
AcDbLine
 10
185.51865
 20
878.522
 30
0.0
 11
186.20665
 21
877.85
 31
0.0
  0
LINE
  5
10FA
330
1D
100
AcDbEntity
  8
0
100
AcDbLine
 10
185.51765
 20
878.521
 30
0.0
 11
186.20565
 21
877.85
 31
0.0
  0
LINE
  5
10FB
330
1D
100
AcDbEntity
  8
0
100
AcDbLine
 10
185.06765
 20
879.01
 30
0.0
 11
185.51765
 21
878.521
 31
0.0
  0
LINE
  5
10FC
330
1D
100
AcDbEntity
  8
0
100
AcDbLine
 10
185.06765
 20
879.01
 30
0.0
 11
185.51865
 21
878.522
 31
0.0
  0
LINE
  5
10FD
330
1D
100
AcDbEntity
  8
0
100
AcDbLine
 10
186.20665
 20
877.85
 30
0.0
 11
187.12065
 21
877.006
 31
0.0
  0
LINE
  5
10FE
330
1D
100
AcDbEntity
  8
0
100
AcDbLine
 10
186.20565
 20
877.85
 30
0.0
 11
187.12065
 21
877.006
 31
0.0
  0
LINE
  5
10FF
330
1D
100
AcDbEntity
  8
0
100
AcDbLine
 10
187.12065
 20
877.006
 30
0.0
 11
188.25065
 21
875.997
 31
0.0
  0
LINE
  5
1100
330
1D
100
AcDbEntity
  8
0
100
AcDbLine
 10
187.12065
 20
877.006
 30
0.0
 11
188.24965
 21
875.997
 31
0.0
  0
LINE
  5
1101
330
1D
100
AcDbEntity
  8
0
100
AcDbLine
 10
236.25365
 20
678.0827
 30
0.0
 11
236.29465
 21
677.797
 31
0.0
  0
LINE
  5
1102
330
1D
100
AcDbEntity
  8
0
100
AcDbLine
 10
236.09465
 20
679.2243
 30
0.0
 11
236.25365
 21
678.0827
 31
0.0
  0
LINE
  5
1103
330
1D
100
AcDbEntity
  8
0
100
AcDbLine
 10
236.259658551255
 20
677.989908141417
 30
0.0
 11
236.29465
 21
677.797
 31
0.0
  0
LINE
  5
1104
330
1D
100
AcDbEntity
  8
0
100
AcDbLine
 10
236.67370978093
 20
682.828551784397
 30
0.0
 11
239.03465
 21
682.487
 31
0.0
  0
LINE
  5
1105
330
1D
100
AcDbEntity
  8
0
100
AcDbLine
 10
239.03465
 20
682.487
 30
0.0
 11
240.22365
 21
682.1656
 31
0.0
  0
LINE
  5
1106
330
1D
100
AcDbEntity
  8
0
100
AcDbLine
 10
240.22365
 20
682.1656
 30
0.0
 11
241.86965
 21
681.8371
 31
0.0
  0
LINE
  5
1107
330
1D
100
AcDbEntity
  8
0
100
AcDbLine
 10
235.97465
 20
680.5235
 30
0.0
 11
236.09465
 21
679.2243
 31
0.0
  0
LINE
  5
1108
330
1D
100
AcDbEntity
  8
0
100
AcDbLine
 10
253.08465
 20
681.8347
 30
0.0
 11
253.85265
 21
682.1491
 31
0.0
  0
LINE
  5
1109
330
1D
100
AcDbEntity
  8
0
100
AcDbLine
 10
253.85265
 20
682.1491
 30
0.0
 11
254.58565
 21
683.0741
 31
0.0
  0
LINE
  5
110A
330
1D
100
AcDbEntity
  8
0
100
AcDbLine
 10
241.86965
 20
681.8371
 30
0.0
 11
253.08465
 21
681.8347
 31
0.0
  0
LINE
  5
110B
330
1D
100
AcDbEntity
  8
0
100
AcDbLine
 10
254.58565
 20
683.0741
 30
0.0
 11
254.70965
 21
683.6977
 31
0.0
  0
LINE
  5
110C
330
1D
100
AcDbEntity
  8
0
100
AcDbLine
 10
254.70965
 20
683.7308
 30
0.0
 11
254.76265
 21
685.324
 31
0.0
  0
LINE
  5
110D
330
1D
100
AcDbEntity
  8
0
100
AcDbLine
 10
235.823921399185
 20
682.8273
 30
0.0
 11
236.67370978093
 21
682.828551784397
 31
0.0
  0
LINE
  5
110E
330
1D
100
AcDbEntity
  8
0
100
AcDbLine
 10
235.28765
 20
691.0239
 30
0.0
 11
235.97465
 21
680.5235
 31
0.0
  0
LINE
  5
110F
330
1D
100
AcDbEntity
  8
0
100
AcDbLine
 10
235.23465
 20
692.5694
 30
0.0
 11
235.28765
 21
691.0239
 31
0.0
  0
LINE
  5
1110
330
1D
100
AcDbEntity
  8
0
100
AcDbLine
 10
235.23465
 20
692.5694
 30
0.0
 11
235.24665
 21
693.5575
 31
0.0
  0
LINE
  5
1111
330
1D
100
AcDbEntity
  8
0
100
AcDbLine
 10
235.497222816274
 20
687.8207
 30
0.0
 11
236.44665
 21
687.8207
 31
0.0
  0
LINE
  5
1112
330
1D
100
AcDbEntity
  8
0
100
AcDbLine
 10
235.239420733234
 20
693.671927335911
 30
0.0
 11
235.24765
 21
693.7735
 31
0.0
  0
LINE
  5
1113
330
1D
100
AcDbEntity
  8
0
100
AcDbLine
 10
235.24665
 20
693.5575
 30
0.0
 11
235.24765
 21
693.7735
 31
0.0
  0
LINE
  5
1114
330
1D
100
AcDbEntity
  8
0
100
AcDbLine
 10
239.03465
 20
688.161
 30
0.0
 11
240.22365
 21
688.4824
 31
0.0
  0
LINE
  5
1115
330
1D
100
AcDbEntity
  8
0
100
AcDbLine
 10
236.44665
 20
687.8207
 30
0.0
 11
239.03465
 21
688.161
 31
0.0
  0
LINE
  5
1116
330
1D
100
AcDbEntity
  8
0
100
AcDbLine
 10
254.70965
 20
686.9172
 30
0.0
 11
254.76265
 21
685.324
 31
0.0
  0
LINE
  5
1117
330
1D
100
AcDbEntity
  8
0
100
AcDbLine
 10
241.78365
 20
688.7751
 30
0.0
 11
253.03365
 21
688.8196
 31
0.0
  0
LINE
  5
1118
330
1D
100
AcDbEntity
  8
0
100
AcDbLine
 10
253.03365
 20
688.8196
 30
0.0
 11
254.05765
 21
688.3369
 31
0.0
  0
LINE
  5
1119
330
1D
100
AcDbEntity
  8
0
100
AcDbLine
 10
254.05765
 20
688.3369
 30
0.0
 11
254.40065
 21
687.8882
 31
0.0
  0
LINE
  5
111A
330
1D
100
AcDbEntity
  8
0
100
AcDbLine
 10
254.40065
 20
687.8882
 30
0.0
 11
254.70965
 21
686.9502
 31
0.0
  0
LINE
  5
111B
330
1D
100
AcDbEntity
  8
0
100
AcDbLine
 10
240.22365
 20
688.4824
 30
0.0
 11
241.78365
 21
688.7751
 31
0.0
  0
LINE
  5
111C
330
1D
100
AcDbEntity
  8
0
100
AcDbLine
 10
226.46165
 20
840.999
 30
0.0
 11
226.55065
 21
841.033
 31
0.0
  0
LINE
  5
111D
330
1D
100
AcDbEntity
  8
0
100
AcDbLine
 10
226.46165
 20
840.999
 30
0.0
 11
226.55065
 21
841.032
 31
0.0
  0
LINE
  5
111E
330
1D
100
AcDbEntity
  8
0
100
AcDbLine
 10
202.27665
 20
864.628
 30
0.0
 11
204.67865
 21
863.019
 31
0.0
  0
LINE
  5
111F
330
1D
100
AcDbEntity
  8
0
100
AcDbLine
 10
197.81365
 20
867.984
 30
0.0
 11
199.98465
 21
866.299
 31
0.0
  0
LINE
  5
1120
330
1D
100
AcDbEntity
  8
0
100
AcDbLine
 10
197.81265
 20
867.985
 30
0.0
 11
199.98465
 21
866.299
 31
0.0
  0
LINE
  5
1121
330
1D
100
AcDbEntity
  8
0
100
AcDbLine
 10
199.98465
 20
866.299
 30
0.0
 11
202.27765
 21
864.629
 31
0.0
  0
LINE
  5
1122
330
1D
100
AcDbEntity
  8
0
100
AcDbLine
 10
199.98465
 20
866.299
 30
0.0
 11
202.27665
 21
864.628
 31
0.0
  0
LINE
  5
1123
330
1D
100
AcDbEntity
  8
0
100
AcDbLine
 10
204.67865
 20
863.019
 30
0.0
 11
207.80265
 21
861.081
 31
0.0
  0
LINE
  5
1124
330
1D
100
AcDbEntity
  8
0
100
AcDbLine
 10
202.27765
 20
864.629
 30
0.0
 11
204.67865
 21
863.018
 31
0.0
  0
LINE
  5
1125
330
1D
100
AcDbEntity
  8
0
100
AcDbLine
 10
204.67865
 20
863.018
 30
0.0
 11
207.80265
 21
861.081
 31
0.0
  0
LINE
  5
1126
330
1D
100
AcDbEntity
  8
0
100
AcDbLine
 10
233.25565
 20
722.642
 30
0.0
 11
233.34265
 21
722.647
 31
0.0
  0
LINE
  5
1127
330
1D
100
AcDbEntity
  8
0
100
AcDbLine
 10
233.25565
 20
722.642
 30
0.0
 11
233.40865
 21
722.65
 31
0.0
  0
LINE
  5
1128
330
1D
100
AcDbEntity
  8
0
100
AcDbLine
 10
226.55065
 20
841.032
 30
0.0
 11
227.803358861201
 21
856.524423817253
 31
0.0
  0
LINE
  5
1129
330
1D
100
AcDbEntity
  8
0
100
AcDbLine
 10
226.52865
 20
835.216
 30
0.0
 11
226.87865
 21
827.12
 31
0.0
  0
LINE
  5
112A
330
1D
100
AcDbEntity
  8
0
100
AcDbLine
 10
226.87865
 20
827.12
 30
0.0
 11
229.83365
 21
780.003
 31
0.0
  0
LINE
  5
112B
330
1D
100
AcDbEntity
  8
0
100
AcDbLine
 10
226.51065
 20
838.69
 30
0.0
 11
226.55065
 21
841.033
 31
0.0
  0
LINE
  5
112C
330
1D
100
AcDbEntity
  8
0
100
AcDbLine
 10
226.51065
 20
838.69
 30
0.0
 11
226.52865
 21
835.216
 31
0.0
  0
LINE
  5
112D
330
1D
100
AcDbEntity
  8
0
100
AcDbLine
 10
229.227511516227
 20
865.804265937433
 30
0.0
 11
235.228295940452
 21
891.507436827233
 31
0.0
  0
LINE
  5
112E
330
1D
100
AcDbEntity
  8
0
100
AcDbLine
 10
227.78365
 20
856.396
 30
0.0
 11
229.227511516227
 21
865.804265937433
 31
0.0
  0
LINE
  5
112F
330
1D
100
AcDbEntity
  8
0
100
AcDbLine
 10
227.78365
 20
856.396
 30
0.0
 11
229.227511516227
 21
865.804265937433
 31
0.0
  0
LINE
  5
1130
330
1D
100
AcDbEntity
  8
0
100
AcDbLine
 10
229.83365
 20
780.003
 30
0.0
 11
233.34265
 21
722.647
 31
0.0
  0
LINE
  5
1131
330
1D
100
AcDbEntity
  8
0
100
AcDbLine
 10
233.34265
 20
722.647
 30
0.0
 11
233.40865
 21
722.65
 31
0.0
  0
LINE
  5
1132
330
1D
100
AcDbEntity
  8
0
100
AcDbLine
 10
233.40865
 20
722.65
 30
0.0
 11
235.24665
 21
693.5575
 31
0.0
  0
LINE
  5
1133
330
1D
100
AcDbEntity
  8
0
100
AcDbLine
 10
192.82365
 20
872.084
 30
0.0
 11
195.77265
 21
869.635
 31
0.0
  0
LINE
  5
1134
330
1D
100
AcDbEntity
  8
0
100
AcDbLine
 10
189.58465
 20
874.835
 30
0.0
 11
191.11265
 21
873.527
 31
0.0
  0
LINE
  5
1135
330
1D
100
AcDbEntity
  8
0
100
AcDbLine
 10
191.11265
 20
873.527
 30
0.0
 11
192.82365
 21
872.085
 31
0.0
  0
LINE
  5
1136
330
1D
100
AcDbEntity
  8
0
100
AcDbLine
 10
191.11265
 20
873.527
 30
0.0
 11
192.82365
 21
872.084
 31
0.0
  0
LINE
  5
1137
330
1D
100
AcDbEntity
  8
0
100
AcDbLine
 10
195.77265
 20
869.635
 30
0.0
 11
197.81365
 21
867.984
 31
0.0
  0
LINE
  5
1138
330
1D
100
AcDbEntity
  8
0
100
AcDbLine
 10
196.579754453616
 20
905.34982981356
 30
0.0
 11
198.32765
 21
909.954
 31
0.0
  0
LINE
  5
1139
330
1D
100
AcDbEntity
  8
0
100
AcDbLine
 10
198.36865
 20
907.42
 30
0.0
 11
198.67165
 21
906.691
 31
0.0
  0
LINE
  5
113A
330
1D
100
AcDbEntity
  8
0
100
AcDbLine
 10
198.11765
 20
908.773
 30
0.0
 11
198.32665
 21
909.954
 31
0.0
  0
LINE
  5
113B
330
1D
100
AcDbEntity
  8
0
100
AcDbLine
 10
198.11765
 20
908.773
 30
0.0
 11
198.36865
 21
907.42
 31
0.0
  0
LINE
  5
113C
330
1D
100
AcDbEntity
  8
0
100
AcDbLine
 10
198.11765
 20
908.773
 30
0.0
 11
198.32765
 21
909.954
 31
0.0
  0
LINE
  5
113D
330
1D
100
AcDbEntity
  8
0
100
AcDbLine
 10
199.63765
 20
905.149
 30
0.0
 11
201.01065
 21
903.603
 31
0.0
  0
LINE
  5
113E
330
1D
100
AcDbEntity
  8
0
100
AcDbLine
 10
195.77265
 20
869.636
 30
0.0
 11
197.81265
 21
867.985
 31
0.0
  0
LINE
  5
113F
330
1D
100
AcDbEntity
  8
0
100
AcDbLine
 10
192.82365
 20
872.085
 30
0.0
 11
195.77265
 21
869.636
 31
0.0
  0
LINE
  5
1140
330
1D
100
AcDbEntity
  8
0
100
AcDbLine
 10
198.32765
 20
909.954
 30
0.0
 11
198.60165
 21
910.472
 31
0.0
  0
LINE
  5
1141
330
1D
100
AcDbEntity
  8
0
100
AcDbLine
 10
198.60165
 20
910.472
 30
0.0
 11
199.29965
 21
911.211
 31
0.0
  0
LINE
  5
1142
330
1D
100
AcDbEntity
  8
0
100
AcDbLine
 10
199.29965
 20
911.211
 30
0.0
 11
202.35865
 21
912.71
 31
0.0
  0
LINE
  5
1143
330
1D
100
AcDbEntity
  8
0
100
AcDbLine
 10
222.66465
 20
893.333
 30
0.0
 11
225.15565
 21
892.9
 31
0.0
  0
LINE
  5
1144
330
1D
100
AcDbEntity
  8
0
100
AcDbLine
 10
230.56065
 20
892.59
 30
0.0
 11
232.98665
 21
892.878
 31
0.0
  0
LINE
  5
1145
330
1D
100
AcDbEntity
  8
0
100
AcDbLine
 10
230.56065
 20
892.589
 30
0.0
 11
232.98665
 21
892.878
 31
0.0
  0
LINE
  5
1146
330
1D
100
AcDbEntity
  8
0
100
AcDbLine
 10
228.11565
 20
892.609
 30
0.0
 11
230.56065
 21
892.59
 31
0.0
  0
LINE
  5
1147
330
1D
100
AcDbEntity
  8
0
100
AcDbLine
 10
228.11665
 20
892.61
 30
0.0
 11
230.56065
 21
892.589
 31
0.0
  0
LINE
  5
1148
330
1D
100
AcDbEntity
  8
0
100
AcDbLine
 10
225.15565
 20
892.9
 30
0.0
 11
228.11565
 21
892.609
 31
0.0
  0
LINE
  5
1149
330
1D
100
AcDbEntity
  8
0
100
AcDbLine
 10
219.74165
 20
894.028
 30
0.0
 11
222.66465
 21
893.333
 31
0.0
  0
LINE
  5
114A
330
1D
100
AcDbEntity
  8
0
100
AcDbLine
 10
219.74165
 20
894.029
 30
0.0
 11
222.66465
 21
893.333
 31
0.0
  0
LINE
  5
114B
330
1D
100
AcDbEntity
  8
0
100
AcDbLine
 10
214.11265
 20
895.892
 30
0.0
 11
216.21265
 21
895.117
 31
0.0
  0
LINE
  5
114C
330
1D
100
AcDbEntity
  8
0
100
AcDbLine
 10
214.11265
 20
895.891
 30
0.0
 11
216.21265
 21
895.117
 31
0.0
  0
LINE
  5
114D
330
1D
100
AcDbEntity
  8
0
100
AcDbLine
 10
217.23665
 20
894.773
 30
0.0
 11
219.74165
 21
894.029
 31
0.0
  0
LINE
  5
114E
330
1D
100
AcDbEntity
  8
0
100
AcDbLine
 10
217.23665
 20
894.773
 30
0.0
 11
219.74165
 21
894.028
 31
0.0
  0
LINE
  5
114F
330
1D
100
AcDbEntity
  8
0
100
AcDbLine
 10
216.21265
 20
895.117
 30
0.0
 11
217.23665
 21
894.773
 31
0.0
  0
LINE
  5
1150
330
1D
100
AcDbEntity
  8
0
100
AcDbLine
 10
212.05665
 20
896.74
 30
0.0
 11
214.11265
 21
895.892
 31
0.0
  0
LINE
  5
1151
330
1D
100
AcDbEntity
  8
0
100
AcDbLine
 10
212.05765
 20
896.739
 30
0.0
 11
214.11265
 21
895.891
 31
0.0
  0
LINE
  5
1152
330
1D
100
AcDbEntity
  8
0
100
AcDbLine
 10
232.98665
 20
892.878
 30
0.0
 11
234.59065
 21
893.407
 31
0.0
  0
LINE
  5
1153
330
1D
100
AcDbEntity
  8
0
100
AcDbLine
 10
234.59065
 20
893.407
 30
0.0
 11
235.65365
 21
894.168
 31
0.0
  0
LINE
  5
1154
330
1D
100
AcDbEntity
  8
0
100
AcDbLine
 10
234.59065
 20
893.407
 30
0.0
 11
235.65365
 21
894.169
 31
0.0
  0
LINE
  5
1155
330
1D
100
AcDbEntity
  8
0
100
AcDbLine
 10
235.65365
 20
894.169
 30
0.0
 11
236.27165
 21
895.229
 31
0.0
  0
LINE
  5
1156
330
1D
100
AcDbEntity
  8
0
100
AcDbLine
 10
235.65365
 20
894.168
 30
0.0
 11
236.27165
 21
895.229
 31
0.0
  0
LINE
  5
1157
330
1D
100
AcDbEntity
  8
0
100
AcDbLine
 10
236.27165
 20
895.229
 30
0.0
 11
236.39365
 21
896.499
 31
0.0
  0
LINE
  5
1158
330
1D
100
AcDbEntity
  8
0
100
AcDbLine
 10
236.27165
 20
895.229
 30
0.0
 11
236.39365
 21
896.498
 31
0.0
  0
LINE
  5
1159
330
1D
100
AcDbEntity
  8
0
100
AcDbLine
 10
209.15165
 20
898.099
 30
0.0
 11
212.05665
 21
896.74
 31
0.0
  0
LINE
  5
115A
330
1D
100
AcDbEntity
  8
0
100
AcDbLine
 10
206.52565
 20
899.521
 30
0.0
 11
209.15165
 21
898.098
 31
0.0
  0
LINE
  5
115B
330
1D
100
AcDbEntity
  8
0
100
AcDbLine
 10
206.52565
 20
899.521
 30
0.0
 11
209.15165
 21
898.099
 31
0.0
  0
LINE
  5
115C
330
1D
100
AcDbEntity
  8
0
100
AcDbLine
 10
209.15165
 20
898.098
 30
0.0
 11
212.05765
 21
896.739
 31
0.0
  0
LINE
  5
115D
330
1D
100
AcDbEntity
  8
0
100
AcDbLine
 10
204.18665
 20
901.01
 30
0.0
 11
206.52565
 21
899.521
 31
0.0
  0
LINE
  5
115E
330
1D
100
AcDbEntity
  8
0
100
AcDbLine
 10
202.80665
 20
902.029
 30
0.0
 11
204.18665
 21
901.01
 31
0.0
  0
LINE
  5
115F
330
1D
100
AcDbEntity
  8
0
100
AcDbLine
 10
201.85765
 20
902.816
 30
0.0
 11
202.80665
 21
902.029
 31
0.0
  0
LINE
  5
1160
330
1D
100
AcDbEntity
  8
0
100
AcDbLine
 10
201.01065
 20
903.603
 30
0.0
 11
201.85765
 21
902.816
 31
0.0
  0
LINE
  5
1161
330
1D
100
AcDbEntity
  8
0
100
AcDbLine
 10
208.21465
 20
912.775
 30
0.0
 11
212.23165
 21
912.155
 31
0.0
  0
LINE
  5
1162
330
1D
100
AcDbEntity
  8
0
100
AcDbLine
 10
208.21465
 20
912.776
 30
0.0
 11
212.23165
 21
912.155
 31
0.0
  0
LINE
  5
1163
330
1D
100
AcDbEntity
  8
0
100
AcDbLine
 10
212.23165
 20
912.155
 30
0.0
 11
216.14665
 21
911.177
 31
0.0
  0
LINE
  5
1164
330
1D
100
AcDbEntity
  8
0
100
AcDbLine
 10
216.14665
 20
911.177
 30
0.0
 11
218.06265
 21
910.568
 31
0.0
  0
LINE
  5
1165
330
1D
100
AcDbEntity
  8
0
100
AcDbLine
 10
231.62065
 20
903.478
 30
0.0
 11
233.74465
 21
901.523
 31
0.0
  0
LINE
  5
1166
330
1D
100
AcDbEntity
  8
0
100
AcDbLine
 10
228.97665
 20
905.457
 30
0.0
 11
231.62065
 21
903.478
 31
0.0
  0
LINE
  5
1167
330
1D
100
AcDbEntity
  8
0
100
AcDbLine
 10
233.74465
 20
901.523
 30
0.0
 11
234.80365
 21
900.162
 31
0.0
  0
LINE
  5
1168
330
1D
100
AcDbEntity
  8
0
100
AcDbLine
 10
227.27665
 20
906.48
 30
0.0
 11
228.97665
 21
905.457
 31
0.0
  0
LINE
  5
1169
330
1D
100
AcDbEntity
  8
0
100
AcDbLine
 10
225.06865
 20
907.602
 30
0.0
 11
227.27665
 21
906.48
 31
0.0
  0
LINE
  5
116A
330
1D
100
AcDbEntity
  8
0
100
AcDbLine
 10
221.77165
 20
909.146
 30
0.0
 11
225.06865
 21
907.602
 31
0.0
  0
LINE
  5
116B
330
1D
100
AcDbEntity
  8
0
100
AcDbLine
 10
218.06265
 20
910.568
 30
0.0
 11
221.77165
 21
909.146
 31
0.0
  0
LINE
  5
116C
330
1D
100
AcDbEntity
  8
0
100
AcDbLine
 10
236.08365
 20
897.81
 30
0.0
 11
236.39365
 21
896.499
 31
0.0
  0
LINE
  5
116D
330
1D
100
AcDbEntity
  8
0
100
AcDbLine
 10
236.08365
 20
897.81
 30
0.0
 11
236.39365
 21
896.498
 31
0.0
  0
LINE
  5
116E
330
1D
100
AcDbEntity
  8
0
100
AcDbLine
 10
188.25065
 20
875.997
 30
0.0
 11
189.58465
 21
874.835
 31
0.0
  0
LINE
  5
116F
330
1D
100
AcDbEntity
  8
0
100
AcDbLine
 10
183.71965
 20
673.2115
 30
0.0
 11
187.391249191716
 21
668.84262960612
 31
0.0
  0
LINE
  5
1170
330
1D
100
AcDbEntity
  8
0
100
AcDbLine
 10
183.79165
 20
648.4694
 30
0.0
 11
184.273346572952
 21
648.842309807953
 31
0.0
  0
LINE
  5
1171
330
1D
100
AcDbEntity
  8
0
100
AcDbLine
 10
198.67165
 20
906.691
 30
0.0
 11
199.63765
 21
905.149
 31
0.0
  0
LINE
  5
1172
330
1D
100
AcDbEntity
  8
0
100
AcDbLine
 10
234.80365
 20
900.162
 30
0.0
 11
235.56786541844
 21
898.948041911471
 31
0.0
  0
LINE
  5
1173
330
1D
100
AcDbEntity
  8
0
100
AcDbLine
 10
235.56786541844
 20
898.948041911471
 30
0.0
 11
236.08365
 21
897.81
 31
0.0
  0
LINE
  5
1174
330
1D
100
AcDbEntity
  8
0
100
AcDbLine
 10
184.90165
 20
879.403
 30
0.0
 11
196.579754453616
 21
905.34982981356
 31
0.0
  0
LINE
  5
1175
330
1D
100
AcDbEntity
  8
0
100
AcDbLine
 10
235.228295940452
 20
891.507436827233
 30
0.0
 11
236.27165
 21
895.229
 31
0.0
  0
LINE
  5
1176
330
1D
100
AcDbEntity
  8
0
100
AcDbLine
 10
207.802649999999
 20
861.081
 30
0.0
 11
213.328155841508
 21
859.127022130089
 31
0.0
  0
LINE
  5
1177
330
1D
100
AcDbEntity
  8
0
100
AcDbLine
 10
213.328155841508
 20
859.127022130089
 30
0.0
 11
216.851414980768
 21
858.409115352067
 31
0.0
  0
LINE
  5
1178
330
1D
100
AcDbEntity
  8
0
100
AcDbLine
 10
216.851414980768
 20
858.409115352067
 30
0.0
 11
219.711589778743
 21
858.11874227613
 31
0.0
  0
LINE
  5
1179
330
1D
100
AcDbEntity
  8
0
100
AcDbLine
 10
219.711589778743
 20
858.11874227613
 30
0.0
 11
224.513764530813
 21
858.11874227613
 31
0.0
  0
LINE
  5
117A
330
1D
100
AcDbEntity
  8
0
100
AcDbLine
 10
224.513764530813
 20
858.11874227613
 30
0.0
 11
227.59843796859
 21
858.532955174156
 31
0.0
  0
LINE
  5
117B
330
1D
100
AcDbEntity
  8
0
100
AcDbLine
 10
227.59843796859
 20
858.532955174156
 30
0.0
 11
228.112506270757
 21
858.532955174156
 31
0.0
  0
LINE
  5
117C
330
1D
100
AcDbEntity
  8
0
100
AcDbLine
 10
186.936795672914
 20
626.3638
 30
0.0
 11
186.46498777002
 21
632.3638
 31
0.0
  0
LINE
  5
117D
330
1D
100
AcDbEntity
  8
0
100
AcDbLine
 10
186.27865
 20
634.3971
 30
0.0
 11
185.81765
 21
638.5164
 31
0.0
  0
LINE
  5
117E
330
1D
100
AcDbEntity
  8
0
100
AcDbLine
 10
183.44803354444
 20
653.29225060059
 30
0.0
 11
182.85365
 21
656.3628
 31
0.0
  0
LINE
  5
117F
330
1D
100
AcDbEntity
  8
0
100
AcDbLine
 10
202.35865
 20
912.71
 30
0.0
 11
204.753246545402
 21
913.036980524523
 31
0.0
  0
LINE
  5
1180
330
1D
100
AcDbEntity
  8
0
100
AcDbLine
 10
204.753246545402
 20
913.036980524523
 30
0.0
 11
208.21465
 21
912.776
 31
0.0
  0
ENDSEC
  0
SECTION
  2
OBJECTS
  0
DICTIONARY
  5
C
330
0
100
AcDbDictionary
281
     1
  3
ACAD_GROUP
350
D
  3
ACAD_LAYOUT
350
1A
  3
ACAD_MLEADERSTYLE
350
1183
  3
ACAD_MLINESTYLE
350
17
  3
ACAD_PLOTSETTINGS
350
19
  3
ACAD_PLOTSTYLENAME
350
E
  3
ACAD_SCALELIST
350
9AA
  3
AcDbVariableDictionary
350
1181
  3
DWGPROPS
350
1186
  0
DICTIONARY
  5
D
102
{ACAD_REACTORS
330
C
102
}
330
C
100
AcDbDictionary
281
     1
  0
DICTIONARY
  5
1A
102
{ACAD_REACTORS
330
C
102
}
330
C
100
AcDbDictionary
281
     1
  3
Layout1
350
1C
  3
Model
350
1E
  0
DICTIONARY
  5
1183
102
{ACAD_REACTORS
330
C
102
}
330
C
100
AcDbDictionary
281
     1
  0
DICTIONARY
  5
17
102
{ACAD_REACTORS
330
C
102
}
330
C
100
AcDbDictionary
281
     1
  3
Standard
350
18
  0
DICTIONARY
  5
19
102
{ACAD_REACTORS
330
C
102
}
330
C
100
AcDbDictionary
281
     1
  0
ACDBDICTIONARYWDFLT
  5
E
102
{ACAD_REACTORS
330
C
102
}
330
C
100
AcDbDictionary
281
     1
  3
Normal
350
F
100
AcDbDictionaryWithDefault
340
F
  0
DICTIONARY
  5
9AA
102
{ACAD_REACTORS
330
C
102
}
330
C
100
AcDbDictionary
281
     1
  3
A0
350
9AB
  3
A1
350
9AC
  3
A2
350
9AD
  3
A3
350
9AE
  3
A4
350
9AF
  3
A5
350
9B0
  3
A6
350
9B1
  3
A7
350
9B2
  3
A8
350
9B3
  3
A9
350
9B4
  3
B0
350
9B5
  3
B1
350
9B6
  3
B2
350
9B7
  3
B3
350
9B8
  3
B4
350
9B9
  3
B5
350
9BA
  3
B6
350
9BB
  3
B7
350
9BC
  3
B8
350
9BD
  3
B9
350
9BE
  3
C0
350
9BF
  3
C1
350
9C0
  3
C2
350
9C1
  3
C3
350
9C2
  3
C4
350
9C3
  3
C5
350
9C4
  3
C6
350
9C5
  3
C7
350
9C6
  3
C8
350
9C7
  3
C9
350
9C8
  3
D0
350
9C9
  3
D1
350
9CA
  3
D2
350
9CB
  0
DICTIONARY
  5
1181
102
{ACAD_REACTORS
330
C
102
}
330
C
100
AcDbDictionary
281
     1
  3
CANNOSCALE
350
1184
  0
XRECORD
  5
1186
102
{ACAD_REACTORS
330
C
102
}
330
C
100
AcDbXrecord
280
     1
  1
DWGPROPS COOKIE
  2

  3

  4

  6

  7

  8
MARTIN
  9

300
=
301
=
302
=
303
=
304
=
305
=
306
=
307
=
308
=
309
=
 40
0.0
 41
2456184.815969225
 42
2456184.816752824
  1

 90
        0
  0
LAYOUT
  5
1C
102
{ACAD_REACTORS
330
1A
102
}
330
1A
100
AcDbPlotSettings
  1

  2
none_device
  4

  6

 40
0.0
 41
0.0
 42
0.0
 43
0.0
 44
0.0
 45
0.0
 46
0.0
 47
0.0
 48
0.0
 49
0.0
140
0.0
141
0.0
142
1.0
143
1.0
 70
   688
 72
     0
 73
     0
 74
     5
  7

 75
    16
147
1.0
148
0.0
149
0.0
100
AcDbLayout
  1
Layout1
 70
     1
 71
     1
 10
0.0
 20
0.0
 11
12.0
 21
9.0
 12
0.0
 22
0.0
 32
0.0
 14
1.000000000000E+20
 24
1.000000000000E+20
 34
1.000000000000E+20
 15
-1.000000000000E+20
 25
-1.000000000000E+20
 35
-1.000000000000E+20
146
0.0
 13
0.0
 23
0.0
 33
0.0
 16
1.0
 26
0.0
 36
0.0
 17
0.0
 27
1.0
 37
0.0
 76
     0
330
1B
  0
LAYOUT
  5
1E
102
{ACAD_REACTORS
330
1A
102
}
330
1A
100
AcDbPlotSettings
  1

  2
none_device
  4

  6

 40
0.0
 41
0.0
 42
0.0
 43
0.0
 44
0.0
 45
0.0
 46
0.0
 47
0.0
 48
0.0
 49
0.0
140
0.0
141
0.0
142
1.0
143
1.0
 70
  1712
 72
     0
 73
     0
 74
     0
  7

 75
     0
147
1.0
148
0.0
149
0.0
100
AcDbLayout
  1
Model
 70
     1
 71
     0
 10
0.0
 20
0.0
 11
12.0
 21
9.0
 12
0.0
 22
0.0
 32
0.0
 14
0.24735
 24
0.024
 34
0.0
 15
299.75265
 25
913.036980524523
 35
0.0
146
0.0
 13
0.0
 23
0.0
 33
0.0
 16
1.0
 26
0.0
 36
0.0
 17
0.0
 27
1.0
 37
0.0
 76
     0
330
1D
331
9A5
  0
MLINESTYLE
  5
18
102
{ACAD_REACTORS
330
17
102
}
330
17
100
AcDbMlineStyle
  2
Standard
 70
     0
  3

 62
   256
 51
90.0
 52
90.0
 71
     2
 49
0.5
 62
   256
  6
BYLAYER
 49
-0.5
 62
   256
  6
BYLAYER
  0
ACDBPLACEHOLDER
  5
F
102
{ACAD_REACTORS
330
E
102
}
330
E
  0
SCALE
  5
9AB
102
{ACAD_REACTORS
330
9AA
102
}
330
9AA
100
AcDbScale
 70
     0
300
1:1
140
1.0
141
1.0
290
     1
  0
SCALE
  5
9AC
102
{ACAD_REACTORS
330
9AA
102
}
330
9AA
100
AcDbScale
 70
     0
300
1:2
140
1.0
141
2.0
290
     0
  0
SCALE
  5
9AD
102
{ACAD_REACTORS
330
9AA
102
}
330
9AA
100
AcDbScale
 70
     0
300
1:4
140
1.0
141
4.0
290
     0
  0
SCALE
  5
9AE
102
{ACAD_REACTORS
330
9AA
102
}
330
9AA
100
AcDbScale
 70
     0
300
1:5
140
1.0
141
5.0
290
     0
  0
SCALE
  5
9AF
102
{ACAD_REACTORS
330
9AA
102
}
330
9AA
100
AcDbScale
 70
     0
300
1:8
140
1.0
141
8.0
290
     0
  0
SCALE
  5
9B0
102
{ACAD_REACTORS
330
9AA
102
}
330
9AA
100
AcDbScale
 70
     0
300
1:10
140
1.0
141
10.0
290
     0
  0
SCALE
  5
9B1
102
{ACAD_REACTORS
330
9AA
102
}
330
9AA
100
AcDbScale
 70
     0
300
1:16
140
1.0
141
16.0
290
     0
  0
SCALE
  5
9B2
102
{ACAD_REACTORS
330
9AA
102
}
330
9AA
100
AcDbScale
 70
     0
300
1:20
140
1.0
141
20.0
290
     0
  0
SCALE
  5
9B3
102
{ACAD_REACTORS
330
9AA
102
}
330
9AA
100
AcDbScale
 70
     0
300
1:30
140
1.0
141
30.0
290
     0
  0
SCALE
  5
9B4
102
{ACAD_REACTORS
330
9AA
102
}
330
9AA
100
AcDbScale
 70
     0
300
1:40
140
1.0
141
40.0
290
     0
  0
SCALE
  5
9B5
102
{ACAD_REACTORS
330
9AA
102
}
330
9AA
100
AcDbScale
 70
     0
300
1:50
140
1.0
141
50.0
290
     0
  0
SCALE
  5
9B6
102
{ACAD_REACTORS
330
9AA
102
}
330
9AA
100
AcDbScale
 70
     0
300
1:100
140
1.0
141
100.0
290
     0
  0
SCALE
  5
9B7
102
{ACAD_REACTORS
330
9AA
102
}
330
9AA
100
AcDbScale
 70
     0
300
2:1
140
2.0
141
1.0
290
     0
  0
SCALE
  5
9B8
102
{ACAD_REACTORS
330
9AA
102
}
330
9AA
100
AcDbScale
 70
     0
300
4:1
140
4.0
141
1.0
290
     0
  0
SCALE
  5
9B9
102
{ACAD_REACTORS
330
9AA
102
}
330
9AA
100
AcDbScale
 70
     0
300
8:1
140
8.0
141
1.0
290
     0
  0
SCALE
  5
9BA
102
{ACAD_REACTORS
330
9AA
102
}
330
9AA
100
AcDbScale
 70
     0
300
10:1
140
10.0
141
1.0
290
     0
  0
SCALE
  5
9BB
102
{ACAD_REACTORS
330
9AA
102
}
330
9AA
100
AcDbScale
 70
     0
300
100:1
140
100.0
141
1.0
290
     0
  0
SCALE
  5
9BC
102
{ACAD_REACTORS
330
9AA
102
}
330
9AA
100
AcDbScale
 70
     0
300
1/128" = 1'-0"
140
0.0078125
141
12.0
290
     0
  0
SCALE
  5
9BD
102
{ACAD_REACTORS
330
9AA
102
}
330
9AA
100
AcDbScale
 70
     0
300
1/64" = 1'-0"
140
0.015625
141
12.0
290
     0
  0
SCALE
  5
9BE
102
{ACAD_REACTORS
330
9AA
102
}
330
9AA
100
AcDbScale
 70
     0
300
1/32" = 1'-0"
140
0.03125
141
12.0
290
     0
  0
SCALE
  5
9BF
102
{ACAD_REACTORS
330
9AA
102
}
330
9AA
100
AcDbScale
 70
     0
300
1/16" = 1'-0"
140
0.0625
141
12.0
290
     0
  0
SCALE
  5
9C0
102
{ACAD_REACTORS
330
9AA
102
}
330
9AA
100
AcDbScale
 70
     0
300
3/32" = 1'-0"
140
0.09375
141
12.0
290
     0
  0
SCALE
  5
9C1
102
{ACAD_REACTORS
330
9AA
102
}
330
9AA
100
AcDbScale
 70
     0
300
1/8" = 1'-0"
140
0.125
141
12.0
290
     0
  0
SCALE
  5
9C2
102
{ACAD_REACTORS
330
9AA
102
}
330
9AA
100
AcDbScale
 70
     0
300
3/16" = 1'-0"
140
0.1875
141
12.0
290
     0
  0
SCALE
  5
9C3
102
{ACAD_REACTORS
330
9AA
102
}
330
9AA
100
AcDbScale
 70
     0
300
1/4" = 1'-0"
140
0.25
141
12.0
290
     0
  0
SCALE
  5
9C4
102
{ACAD_REACTORS
330
9AA
102
}
330
9AA
100
AcDbScale
 70
     0
300
3/8" = 1'-0"
140
0.375
141
12.0
290
     0
  0
SCALE
  5
9C5
102
{ACAD_REACTORS
330
9AA
102
}
330
9AA
100
AcDbScale
 70
     0
300
1/2" = 1'-0"
140
0.5
141
12.0
290
     0
  0
SCALE
  5
9C6
102
{ACAD_REACTORS
330
9AA
102
}
330
9AA
100
AcDbScale
 70
     0
300
3/4" = 1'-0"
140
0.75
141
12.0
290
     0
  0
SCALE
  5
9C7
102
{ACAD_REACTORS
330
9AA
102
}
330
9AA
100
AcDbScale
 70
     0
300
1" = 1'-0"
140
1.0
141
12.0
290
     0
  0
SCALE
  5
9C8
102
{ACAD_REACTORS
330
9AA
102
}
330
9AA
100
AcDbScale
 70
     0
300
1-1/2" = 1'-0"
140
1.5
141
12.0
290
     0
  0
SCALE
  5
9C9
102
{ACAD_REACTORS
330
9AA
102
}
330
9AA
100
AcDbScale
 70
     0
300
3" = 1'-0"
140
3.0
141
12.0
290
     0
  0
SCALE
  5
9CA
102
{ACAD_REACTORS
330
9AA
102
}
330
9AA
100
AcDbScale
 70
     0
300
6" = 1'-0"
140
6.0
141
12.0
290
     0
  0
SCALE
  5
9CB
102
{ACAD_REACTORS
330
9AA
102
}
330
9AA
100
AcDbScale
 70
     0
300
1'-0" = 1'-0"
140
12.0
141
12.0
290
     0
  0
DICTIONARYVAR
  5
1184
102
{ACAD_REACTORS
330
1181
102
}
330
1181
100
DictionaryVariables
280
     0
  1
1:1
  0
ENDSEC
  0
SECTION
  2
THUMBNAILIMAGE
 90
    16364
310
28000000B40000005500000001000800000000000000000000000000000000000000000000000000FFFFFF000000FF0000FFFF0000FF0000FFFF0000FF000000FF00FF000000000080808000C0C0C0000000FF007F7FFF000000A5005252A50000007F003F3F7F0000004C0026264C000000260013132600003FFF007F9FFF
310
000029A5005267A500001F7F003F4F7F0000134C00262F4C000009260013172600007FFF007FBFFF000052A500527CA500003F7F003F5F7F0000264C0026394C0000132600131C260000BFFF007FDFFF00007CA5005291A500005F7F003F6F7F0000394C0026424C00001C26001321260000FFFF007FFFFF0000A5A50052A5
310
A500007F7F003F7F7F00004C4C00264C4C00002626001326260000FFBF007FFFDF0000A57C0052A59100007F5F003F7F6F00004C3900264C420000261C001326210000FF7F007FFFBF0000A5520052A57C00007F3F003F7F5F00004C2600264C39000026130013261C0000FF3F007FFF9F0000A5290052A56700007F1F003F
310
7F4F00004C1300264C2F00002609001326170000FF00007FFF7F0000A5000052A55200007F00003F7F3F00004C0000264C260000260000132613003FFF00009FFF7F0029A5000067A552001F7F00004F7F3F00134C00002F4C260009260000172613007FFF0000BFFF7F0052A500007CA552003F7F00005F7F3F00264C0000
310
394C2600132600001C261300BFFF0000DFFF7F007CA5000091A552005F7F00006F7F3F00394C0000424C26001C26000021261300FFFF0000FFFF7F00A5A50000A5A552007F7F00007F7F3F004C4C00004C4C26002626000026261300FFBF0000FFDF7F00A57C0000A59152007F5F00007F6F3F004C3900004C422600261C00
310
0026211300FF7F0000FFBF7F00A5520000A57C52007F3F00007F5F3F004C2600004C39260026130000261C1300FF3F0000FF9F7F00A5290000A56752007F1F00007F4F3F004C1300004C2F26002609000026171300FF000000FF7F7F00A5000000A55252007F0000007F3F3F004C0000004C2626002600000026131300FF00
310
3F00FF7F9F00A5002900A55267007F001F007F3F4F004C0013004C262F002600090026131700FF007F00FF7FBF00A5005200A5527C007F003F007F3F5F004C0026004C2639002600130026131C00FF00BF00FF7FDF00A5007C00A55291007F005F007F3F6F004C0039004C26420026001C0026132100FF00FF00FF7FFF00A5
310
00A500A552A5007F007F007F3F7F004C004C004C264C002600260026132600BF00FF00DF7FFF007C00A5009152A5005F007F006F3F7F0039004C0042264C001C002600211326007F00FF00BF7FFF005200A5007C52A5003F007F005F3F7F0026004C0039264C00130026001C1326003F00FF009F7FFF002900A5006752A500
310
1F007F004F3F7F0013004C002F264C000900260017132600000000002D2D2D005B5B5B0089898900B7B7B700B3B3B30000000000000000000000000000000000000000000000000000000000000000000000000000000000000000000000000000000000000000000000000000000000000000000000000000000000000000
310
00000000000007070707070707070707070707070707070707070000000000000000000000000000000000000000000000000000000000000000000000000000000000000000000000000000000000000000000000000000000000000000000000000000000000000000000000000000000000000000000000000000000000
310
00000000000000000000000000000000000000000000000000000000000000000000000000000000000000000000000000000000000000000000000700000000000000000000000000000000000007000000000000000000000000000000000000000000000000000000000000000000000000000000000000000000000000
310
00000000000000000000000000000000000000000000000000000000000000000000000000000000000000000000000000000000000000000000000000000000000000000000000000000000000000000000000000000000000000000000000000000000000000000000000000000000070000000000000000000000000000
310
00000000070000000000000000000000000000000000000000000000000000000000000000000000000000000000000000000000000000000000000000000000000000000000000000000000000000000000000000000000000000000000000000000000000000000000000000000000000000000000000000000000000000
310
00000000000000000000000000000000000000000000000000000000000000000000000000000700000000000000000000000000000000000007000000000000000000000000000000000000000000000000000000000000000000000000000000000000000000000000000000000000000000000000000000000000000000
310
00000000000000000000000000000000000000000000000000000000000000000000000000000000000000000000000000000000000000000000000000000000000000000000000000000000000000000000000000000000000000070707070707070707070707070707070707070700000000000000000000000000000000
310
00000000000000000000000000000000000000000000000000000000000000000000000000000000000000000000000000000000000000000000000000000000000000000000000000000000000000000000000000000000000000000000000000000000000000000000000000000000000000000000000000000000000000
310
00000000000000000000000000000000000700000000000000000000000000000000000707000000000000000000000000000000000000000000000000000000000000000000000000000000000000000000000000000000000000000000000000000000000000000000000000000000000000000000000000000000000000
310
00000000000000000000000000000000000000000000000000000000000000000000000000000000000000000000000000000000000000000000000000000000000000000000000700000000000000000000000000000000070000000000000000000000000000000000000000000000000000000000000000000000000000
310
00000000000000000000000000000000000000000000000000000000000000000000000000000000000000000000000000000000000000000000000000000000000000000000000000000000000000000000000000000000000000000000000000000000000000000000000000000000000000000000000000000000070000
310
00000000000000000000000000000700000000000000000000000000000000000000000000000000000000000000000000000000000000000000000000000000000000000000000000000000000000000000000000000000000000000000000000000000000000000000000000000000000000000000000000000000000000
310
00000000000000000000000000000000000000000000000000000000000000000000000000000000000000000000000000000700000000000000000000000000000000070000000000000000000000000000000000000000000000000000000000000000000000000000000000000000000000000000000000000000000000
310
00000000000000000000000000000000000000000000000000000000000000000000000000000000000000000000000000000000000000000000000000000000000000000000000000000000000000000000000000000000000000000000000000000000000000070000000000000000000000000000000007000000000000
310
00000000000000000000000000000000000000000000000000000000000000000000000000000000000000000000000000000000000000000000000000000000000000000000000000000000000000000000000000000000000000000000000000000000000000000000000000000000000000000000000000000000000000
310
00000000000000000000000000000000000000000000000000000000000007000000000000000000000000000007070000000000000000000000000000000000000000000000000000000000000000000000000000000000000000000000000000000000000000000000000000000000000000000000000000000000000000
310
00000000000000000000000000000000000000000000000000000000000000000000000000000000000000000000000000000000000000000000000000000000000000000000000000000000000000000000000700000000000000000000000000000707000000000000000000000000000000000000000000000000000000
310
00000000000000000000000000000000000000000000000000000000000000000000000000000000000000000000000000000000000000000000000000000000000000000000000000000000000000000000000000000000000000000000000000000000000000000000000000000000000000000000000000000000000000
310
00000000000000000007000000000000000000000000000007070000000000000000000000000000000000000000000000000000000000000000000000000000000000000000000000000000000000000000000000000000000000000000000000000000000000000000000000000000000000000000000000000000000000
310
00000000000000000000000000000000000000000000000000000000000000000000000000000000000000000000000000000000000000000000000000000700000000000000000000000000000707000000000000000000000000000000000000000000000000000000000000000000000000000000000000000000000000
310
00000000000000000000000000000000000000000000000000000000000000000000000000000000000000000000000000000000000000000000000000000000000000000000000000000000000000000000000000000000000000000000000000000000000000000000000000000000000000000700000000000000000000
310
00000700070000000000000000000000000000000000000000000000000000000000000000000000000000000000000000000000000000000000000000000000000000000000000000000000000000000000000000000000000000000000000000000000000000000000000000000000000000000000000000000000000000
310
00000000000000000000000000000000000000000000000000000000000000000000000000000000000007000000000000000000000000070007000000000000000000000000000000000000000000000000000000000000000000000000000000000000000000000000000000000000000000000000000000000000000000
310
00000000000000000000000000000000000000000000000000000000000000000000000000000000000000000000000000000000000000000000000000000000000000000000000000000000000000000000000000000000000000000000000700000000000000000000000007000700000000000000000000000000000000
310
00000000000000000000000000000000000000000000000000000000000000000000000000000000000000000000000000000000000000000000000000000000000000000000000000000000000000000000000000000000000000000000000000000000000000000000000000000000000000000000000000000000000000
310
00000000000000000000000000000000000000000007000000000000000000000000070007000000000000000000000000000000000000000000000000000000000000000000000000000000000000000000000000000000000000000000000000000000000000000000000000000000000000000000000000000000000000
310
00000000000000000000000000000000000000000000000000000000000000000000000000000000000000000000000000000000000000000000000000000000000000000000000000000007000000000000000000000700000700000000000000000000000000000000000000000000000000000000000000000000000000
310
00000000000000000000000000000000000000000000000000000000000000000000000000000000000000000000000000000000000000000000000000000000000000000000000000000000000000000000000000000000000000000000000000000000000000000000000000000000000000000000000000000000000000
310
00070000000000000000000007000007000000000000000000000000000000000000000000000000000000000000000000000000000000000000000000000000000000000000000000000000000000000000000000000000000000000000000000000000000000000000000000000000000000000000000000000000000000
310
00000000000000000000000000000000000000000000000000000000000000000000000000000000000000000000000000000000000007000000000000000000000700000700000000000000000000000000000000000000000000000000000000000000000000000000000000000000000000000000000000000000000000
310
00000000000000000000000000000000000000000000000000000000000000000000000000000000000000000000000000000000000000000000000000000000000000000000000000000000000000000000000000000000000000000000000000000000000000000000000700000000000000000000070000070000000000
310
00000000000000000000000000000000000000000000000000000000000000000000000000000000000000000000000000000000000000000000000000000000000000000000000000000000000000000000000000000000000000000000000000000000000000000000000000000000000000000000000000000000000000
310
00000000000000000000000000000000000000000000000000000000000000000000070000000000000000070000000700000000000000000000000000000000000000000000000000000000000000000000000000000000000000000000000000000000000000000000000000000000000000000000000000000000000000
310
00000000000000000000000000000000000000000000000000000000000000000000000000000000000000000000000000000000000000000000000000000000000000000000000000000000000000000000000000000007070707070707070707000000070000000000000000000000000000000000000000000000000000
310
00000000000000000000000000000000000000000000000000000000000000000000000000000000000000000000000000000000000000000000000000000000000000000000000000000000000000000000000000000000000000000000000000000000000000000000000000000000000000000000000000000000000000
310
00000000000000000000000000070000000000000000070000000700000000000000000000000000000000000000000000000000000000000000000000000000000000000000000000000000000000000000000000000000000000000000000000000000000000000000000000000000000000000000000000000000000000
310
00000000000000000000000000000000000000000000000000000000000000000000000000000000000000000000000000000000000000000000000000000000000007000000000000000007000000070000000000000000000000000000000000000000000000000000000000000000000000000000000000000000000000
310
00000000000000000000000000000000000000000000000000000000000000000000000000000000000000000000000000000000000000000000000000000000000000000000000000000000000000000000000000000000000000000000000000000000000000000000000000000000000000000000000700000000000000
310
00070000000700000000000000000000000000000000000000000000000000000000000000000000000000000000000000000000000000000000000000000000000000000000000000000000000000000000000000000000000000000000000000000000000000000000000000000000000000000000000000000000000000
310
00000000000000000000000000000000000000000000000000000000000000000000000000000000000000000007000000000000000007000007070000000000000000000000000000000000000000000000000000000000000000000000000000000000000000000000000000000000000000000000000000000000000000
310
00000000000000000000000000000000000000000000000000000000000000000000000000000000000000000000000000000000000000000000000000000000000000000000000000000000000000000000000000000000000000000000000000000700000000000000000700000707000000000000000000000000000000
310
00000000000000000000000000000000000000000000000000000000000000000000000000000000000000000000000000000000000000000000000000000000000000000000000000000000000000000000000000000000000000000000000000000000000000000000000000000000000000000000000000000000000000
310
00000000000000000000000000000000000000000000000007000000000000000007000007070000000000000000000000000000000000000000000000000000000000000000000000000000000000000000000000000000000000000000000000000000000000000000000000000000000000000000000000000000000000
310
00000000000000000000000000000000000000000000000000000000000000000000000000000000000000000000000000000000000000000000000000000000000000000000000000000000000700000000000000000700000007000000000000000000000000000000000000000000000000000000000000000000000000
310
00000000000000000000000000000000000000000000000000000000000000000000000000000000000000000000000000000000000000000000000000000000000000000000000000000000000000000000000000000000000000000000000000000000000000000000000000000000000000000000000000000000000000
310
00000007000000000000000007000000070000000000000000000000000000000000000000000000000000000000000000000000000000000000000000000000000000000000000000000000000000000000000000000000000000000000000000000000000000000000000000000000000000000000000000000000000000
310
00000000000000000000000000000000000000000000000000000000000000000000000000000000000000000000000000000000000000000700000000000000000700000007000000000000000000000000000000000000000000000000000000000000000000000000000000000000000000000000000000000000000000
310
00000000000000000000000000000000000000000000000000000000000000000000000000000000000000000000000000000000000000000000000000000000000000000000000000000000000000000000000000000000000000000000000000000000000000000000000000070000000000000000070000000700000000
310
00000000000000000000000000000000000000000000000000000000000000000000000000000000000000000000000000000000000000000000000000000000000000000000000000000000000000000000000000000000000000000000000000000000000000000000000000000000000000000000000000000000000000
310
00000000000000000000000000000000000000000000000000000000000000000000000700000000000000000700000007000000000000000000000000000000000000000000000000000000000000000000000000000000000000000000000000000000000000000000000000000000000000000000000000000000000000
310
00000000000000000000000000000000000000000000000000000000000000000000000000000000000000000000000000000000000000000000000000000000000000000000000000000000000000000000000000000000070000000000000000070000000700000000000000000000000000000000000000000000000000
310
00000000000000000000000000000000000000000000000000000000000000000000000000000000000000000000000000000000000000000000000000000000000000000000000000000000000000000000000000000000000000000000000000000000000000000000000000000000000000000000000000000000000000
310
00000000000000000000000000000700000000000000000700000007000000000000000000000000000000000000000000000000000000000000000000000000000000000000000000000000000000000000000000000000000000000000000000000000000000000000000000000000000000000000000000000000000000
310
00000000000000000000000000000000000000000000000000000000000000000000000000000000000000000000000000000000000000000000000000000000000000070000000000000000070000000700000000000000000000000000000000000000000000000000000000000000000000000000000000000000000000
310
00000000000000000000000000000000000000000000000000000000000000000000000000000000000000000000000000000000000000000000000000000000000000000000000000000000000000000000000000000000000000000000000000000000000000000000000000000000000000000000000007000000000000
310
00000700000007000000000000000000000000000000000000000000000000000000000000000000000000000000000000000000000000000000000000000000000000000000000000000000000000000000000000000000000000000000000000000000000000000000000000000000000000000000000000000000000000
310
00000000000000000000000000000000000000000000000000000000000000000000000000000000000000000000070000000000000000070000000700000000000000000000000000000000000000000000000000000000000000000000000000000000000000000000000000000000000000000000000000000000000000
310
00000000000000000000000000000000000000000000000000000000000000000000000000000000000000000000000000000000000000000000000000000000000000000000000000000000000000000000000000000000000000000000000000000007000000000000000007000000070000000000000000000000000000
310
00000000000000000000000000000000000000000000000000000000000000000000000000000000000000000000000000000000000000000000000000000000000000000000000000000000000000000000000000000000000000000000000000000000000000000000000000000000000000000000000000000000000000
310
00000000000000000000000000000000000000000000000000070000000000000000070000000700000000000000000000000000000000000000000000000000000000000000000000000000000000000000000000000000000000000000000000000000000000000000000000000000000000000000000000000000000000
310
00000000000000000000000000000000000000000000000000000000000000000000000000000000000000000000000000000000000000000000000000000000000000000000000000000000000007000000000000000007000000070000000000000000000000000000000000000000000000000000000000000000000000
310
00000000000000000000000000000000000000000000000000000000000000000000000000000000000000000000000000000000000000000000000000000000000000000000000000000000000000000000000000000000000000000000000000000000000000000000000000000000000000000000000000000000000000
310
00000000070000000000000000070000000700000000000000000000000000000000000000000000000000000000000000000000000000000000000000000000000000000000000000000000000000000000000000000000000000000000000000000000000000000000000000000000000000000000000000000000000000
310
00000000000000000000000000000000000000000000000000000000000000000000000000000000000000000000000000000000000000000007000000000000000007000000070000000000000000000000000000000000000000000000000000000000000000000000000000000000000000000000000000000000000000
310
00000000000000000000000000000000000000000000000000000000000000000000000000000000000000000000000000000000000000000000000000000000000000000000000000000000000000000000000000000000000000000000000000000000000000000000000000000700000000000000000700000007000000
310
00000000000000000000000000000000000000000000000000000000000000000000000000000000000000000000000000000000000000000000000000000000000000000000000000000000000000000000000000000000000000000000000000000000000000000000000000000000000000000000000000000000000000
310
00000000000000000000000000000000000000000000000000000000000000000000000007000000000000000007000000070000000000000000000000000000000000000000000000000000000000000000000000000000000000000000000000000000000000000000000000000000000000000000000000000000000000
310
00000000000000000000000000000000000000000000000000000000000000000000000000000000000000000000000000000000000000000000000000000000000000000000000000000000000000000000000000000000000700000000000000000700000007000000000000000000000000000000000000000000000000
310
00000000000000000000000000000000000000000000000000000000000000000000000000000000000000000000000000000000000000000000000000000000000000000000000000000000000000000000000000000000000000000000000000000000000000000000000000000000000000000000000000000000000000
310
00000000000000000000000000000007000000000000000007000000070000000000000000000000000000000000000000000000000000000000000000000000000000000000000000000000000000000000000000000000000000000000000000000000000000000000000000000000000000000000000000000000000000
310
00000000000000000000000000000000000000000000000000000000000000000000000000000000000000000000000000000000000000000000000000000000000000000700000000000000000700000007000000000000000000000000000000000000000000000000000000000000000000000000000000000000000000
310
00000000000000000000000000000000000000000000000000000000000000000000000000000000000000000000000000000000000000000000000000000000000000000000000000000000000000000000000000000000000000000000000000000000000000000000000000000000000000000000000000070707070707
310
07070707000000070000000000000000000000000000000000000000000000000000000000000000000000000000000000000000000000000000000000000000000000000000000000000000000000000000000000000000000000000000000000000000000000000000000000000000000000000000000000000000000000
310
00000000000000000000000000000000000000000000000000000000000000000000000000000000000000000000000000000700000000000700000007000000000000000000000000000000000000000000000000000000000000000000000000000000000000000000000000000000000000000000000000000000000000
310
00000000000000000000000000000000000000000000000000000000000000000000000000000000000000000000000000000000000000000000000000000000000000000000000000000000000000000000000000000000000000000000000000000000000000070000000000070000000700000000000000000000000000
310
00000000000000000000000000000000000000000000000000000000000000000000000000000000000000000000000000000000000000000000000000000000000000000000000000000000000000000000000000000000000000000000000000000000000000000000000000000000000000000000000000000000000000
310
00000000000000000000000000000000000000000000000000070707070707070707070707070707000000000000000000000000000000000000000000000000000000000000000000000000000000000000000000000000000000000000000000000000000000000000000000000000000000000000000000000000000000
310
00000000000000000000000000000000000000000000000000000000000000000000000000000000000000000000000000000000000000000000000000000000000000000000000000000000000007070707070707070707070707070700000000000000000000000000000000000000000000000000000000000000000000
310
00000000000000000000000000000000000000000000000000000000000000000000000000000000000000000000000000000000000000000000000000000000000000000000000000000000000000000000000000000000000000000000000000000000000000000000000000000000000000000000000000000000000000
310
00000000000000000707070707070700000000000000000000000000000000000000000000000000000000000000000000000000000000000000000000000000000000000000000000000000000000000000000000000000000000000000000000000000000000000000000000000000000000000000000000000000000000
310
00000000000000000000000000000000000000000000000000000000000000000000000000000000000000000000000000000000000000000000000000070707070707070000000000000000000000000000000000000000000000000000000000000000000000000000000000000000000000000000000000000000000000
310
00000000000000000000000000000000000000000000000000000000000000000000000000000000000000000000000000000000000000000000000000000000000000000000000000000000000000000000000000000000000000000000000000000000000000000000000000000000000707000000000700000000000000
310
00000000000000000000000000000000000000000000000000000000000000000000000000000000000000000000000000000000000000000000000000000000000000000000000000000000000000000000000000000000000000000000000000000000000000000000000000000000000000000000000000000000000000
310
00000000000000000000000000000000000000000000000000000000000000000000000000000007070000000007000000000000000000000000000000000000000000000000000000000000000000000000000000000000000000000000000000000000000000000000000000000000000000000000000000000000000000
310
00000000000000000000000000000000000000000000000000000000000000000000000000000000000000000000000000000000000000000000000000000000000000000000000000000000000000000000000000000000000000070007000000000700000000000000000000000000000000000000000000000000000000
310
00000000000000000000000000000000000000000000000000000000000000000000000000000000000000000000000000000000000000000000000000000000000000000000000000000000000000000000000000000000000000000000000000000000000000000000000000000000000000000000000000000000000000
310
00000000000000000000000000000000000707070000000007000000000000000000000000000000000000000000000000000000000000000000000000000000000000000000000000000000000000000000000000000000000000000000000000000000000000000000000000000000000000000000000000000000000000
310
00000000000000000000000000000000000000000000000000000000000000000000000000000000000000000000000000000000000000000000000000000000000000000007000707000000000700000000000000000000000000000000000000000000000000000000000000000000000000000000000000000000000000
310
00000000000000000000000000000000000000000000000000000000000000000000000000000000000000000000000000000000000000000000000000000000000000000000000000000000000000000000000000000000000000000000000000000000000000000000000000000000000000000000000000070000070700
310
00000007070700000000000000000000000000000000000000000000000000000000000000000000000000000000000000000000000000000000000000000000000000000000000000000000000000000000000000000000000000000000000000000000000000000000000000000000000000000000000000000000000000
310
00000000000000000000000000000000000000000000000000000000000000000000000000070707000000000000070000070007000000000707070000000000000000000000000000000000000000000000000000000000000000000000000000000000000000000000000000000000000000000000000000000000000000
310
00000000000000000000000000000000000000000000000000000000000000000000000000000000000000000000000000000000000000000000000000000000000000000000000000000000000000000000000000000000000700000700000000000007000700000700000000070000000000000000000000000000000000
310
00000000000000000000000000000000000000000000000000000000000000000000000000000000000000000000000000000000000000000000000000000000000000000000000000000000000000000000000000000000000000000000000000000000000000000000000000000000000000000000000000000000000000
310
00000000000000000000000000000700000000070700000007000007000007000000000700000000000000000000000000000000000000000000000000000000000000000000000000000000000000000000000000000000000000000000000000000000000000000000000000000000000000000000000000000000000000
310
00000000000000000000000000000000000000000000000000000000000000000000000000000000000000000000000000000000000000000000000000000000000000000707000000000700070000070000000700000000070000000000000000000000000000000000000000000000000000000000000000000000000000
310
00000000000000000000000000000000000000000000000000000000000000000000000000000000000000000000000000000000000000000000000000000000000000000000000000000000000000000000000000000000000000000000000000000000000000000000000000000000000000000000000000000007000000
310
00070700070000000007000000000700000000000000000000000000000000000000000000000000000000000000000000000000000000000000000000000000000000000000000000000000000000000000000000000000000000000000000000000000000000000000000000000000000000000000000000000000000000
310
00000000000000000000000000000000000000000000000000000000000000000000000000000000000000000000000000000707000000000700000000000000000000070000000000000000000000000000000000000000000000000000000000000000000000000000000000000000000000000000000000000000000000
310
00000000000000000000000000000000000000000000000000000000000000000000000000000000000000000000000000000000000000000000000000000000000000000000000000000000000000000000000000000000000000000000000000000000000007070707000000000707000000070000000700000000000000
310
00000000000000000000000000000000000000000000000000000000000000000000000000000000000000000000000000000000000000000000000000000000000000000000000000000000000000000000000000000000000000000000000000000000000000000000000000000000000000000000000000000000000000
310
00000000000000000000000000000000000000000000000000000707070000070700000000000700000700000007000000000000000000000000000000000000000000000000000000000000000000000000000000000000000000000000000000000000000000000000000000000000000000000000000000000000000000
310
00000000000000000000000000000000000000000000000000000000000000000000000000000000000000000000000000000000000000000000000000000000000000000000000000000000000707070000070707000700000000000700070000000700000000000000000000000000000000000000000000000000000000
310
00000000000000000000000000000000000000000000000000000000000000000000000000000000000000000000000000000000000000000000000000000000000000000000000000000000000000000000000000000000000000000000000000000000000000000000000000000000000000000000000000000000000000
310
00000007000007070700000000070000000000070700000007000000000000000000000000000000000000000000000000000000000000000000000000000000000000000000000000000000000000000000000000000000000000000000000000000000000000000000000000000000000000000000000000000000000000
310
00000000000000000000000000000000000000000000000000000000000000000000000000000000000000000000000000000000000000000007070700000000000000070000000000000000000700000000000000000000000000000000000000000000000000000000000000000000000000000000000000000000000000
310
00000000000000000000000000000000000000000000000000000000000000000000000000000000000000000000000000000000000000000000000000000000000000000000000000000000000000000000000000000000000000000000000000000000000000000000000000000000000000000000000000070000000000
310
00000007000000000000000000000000000000000000000000000000000000000000000000000000000000000000000000000000000000000000000000000000000000000000000000000000000000000000000000000000000000000000000000000000000000000000000000000000000000000000000000000000000000
310
00000000000000000000000000000000000000000000000000000000000000000000000000000000000000000000000007070000000000000700000000000000000000000000000000000000000000000000000000000000000000000000000000000000000000000000000000000000000000000000000000000000000000
310
00000000000000000000000000000000000000000000000000000000000000000000000000000000000000000000000000000000000000000000000000000000000000000000000000000000000000000000000000000000000000000000000000000000000000070000000000070000000000000000000000000000000000
310
00000000000000000000000000000000000000000000000000000000000000000000000000000000000000000000000000000000000000000000000000000000000000000000000000000000000000000000000000000000000000000000000000000000000000000000000000000000000000000000000000000000000000
310
00000000000000000000000000000000000000000000000000000000000700000000000700000000000000000000000000000000000000000000000000000000000000000000000000000000000000000000000000000000000000000000000000000000000000000000000000000000000000000000000000000000000000
310
00000000000000000000000000000000000000000000000000000000000000000000000000000000000000000000000000000000000000000000000000000000000000000000000000000000000000000000000700000707070000000000000000000000000000000000000000000000000000000000000000000000000000
310
00000000000000000000000000000000000000000000000000000000000000000000000000000000000000000000000000000000000000000000000000000000000000000000000000000000000000000000000000000000000000000000000000000000000000000000000000000000000000000000000000000000000000
310
00000000000000000007000707000700000000000000000000000000000000000000000000000000000000000000000000000000000000000000000000000000000000000000000000000000000000000000000000000000000000000000000000000000000000000000000000000000000000000000000000000000000000
310
00000000000000000000000000000000000000000000000000000000000000000000000000000000000000000000000000000000000000000000000000000007070000070000000000000000000000000000000000000000000000000000000000000000000000000000000000000000000000000000000000000000000000
310
00000000000000000000000000000000000000000000000000000000000000000000000000000000000000000000000000000000000000000000000000000000000000000000000000000000000000000000000000000000000000000000000000000000000000000000000000000000000000000700000707070000000000
310
00000000000000000000000000000000000000000000000000000000000000000000000000000000000000000000000000000000000000000000000000000000000000000000000000000000000000000000000000000000000000000000000000000000000000000000000000000000000000000000000000000000000000
310
00000000000000000000000000000000000000000000000000000000000000000000000000000000000000070707070700000000000000000000000000000000000000000000000000000000000000000000000000000000000000000000000000000000000000000000000000000000000000000000000000000000000000
310
00000000000000000000000000000000000000000000000000000000000000000000000000000000000000000000000000000000000000000000000000000000000000000000000000000000000000000000000000000000000000000000000007070707000000000000000000000000000000000000000000000000000000
310
00000000000000000000000000000000000000000000000000000000000000000000000000000000000000000000000000000000000000000000000000000000000000000000000000000000000000000000000000000000000000000000000000000000000000000000000000000000000000000000000000000000000000
310
000000000000000000000000000000000000000000000000000000000000000000000000000000000000000000000000000000000000000000000000000000000000000000000000000000000000000000000000000000000000000000000000000000000000000000000000
  0
ENDSEC
  0
EOF
