  0
SECTION
  2
HEADER
  9
$ACADVER
  1
AC1015
  9
$ACADMAINTVER
 70
     6
  9
$DWGCODEPAGE
  3
ANSI_1252
  9
$INSBASE
 10
0.0
 20
0.0
 30
0.0
  9
$EXTMIN
 10
0.01
 20
0.24235
 30
0.0
  9
$EXTMAX
 10
414.99
 20
254.75765
 30
0.0
  9
$LIMMIN
 10
0.0
 20
0.0
  9
$LIMMAX
 10
12.0
 20
9.0
  9
$ORTHOMODE
 70
     0
  9
$REGENMODE
 70
     1
  9
$FILLMODE
 70
     1
  9
$QTEXTMODE
 70
     0
  9
$MIRRTEXT
 70
     1
  9
$LTSCALE
 40
1.0
  9
$ATTMODE
 70
     1
  9
$TEXTSIZE
 40
0.2
  9
$TRACEWID
 40
0.05
  9
$TEXTSTYLE
  7
Standard
  9
$CLAYER
  8
0
  9
$CELTYPE
  6
ByBlock
  9
$CECOLOR
 62
   256
  9
$CELTSCALE
 40
1.0
  9
$DISPSILH
 70
     0
  9
$DIMSCALE
 40
1.0
  9
$DIMASZ
 40
0.18
  9
$DIMEXO
 40
0.0625
  9
$DIMDLI
 40
0.38
  9
$DIMRND
 40
0.0
  9
$DIMDLE
 40
0.0
  9
$DIMEXE
 40
0.18
  9
$DIMTP
 40
0.0
  9
$DIMTM
 40
0.0
  9
$DIMTXT
 40
0.18
  9
$DIMCEN
 40
0.09
  9
$DIMTSZ
 40
0.0
  9
$DIMTOL
 70
     0
  9
$DIMLIM
 70
     0
  9
$DIMTIH
 70
     1
  9
$DIMTOH
 70
     1
  9
$DIMSE1
 70
     0
  9
$DIMSE2
 70
     0
  9
$DIMTAD
 70
     0
  9
$DIMZIN
 70
     0
  9
$DIMBLK
  1

  9
$DIMASO
 70
     1
  9
$DIMSHO
 70
     1
  9
$DIMPOST
  1

  9
$DIMAPOST
  1

  9
$DIMALT
 70
     0
  9
$DIMALTD
 70
     2
  9
$DIMALTF
 40
25.4
  9
$DIMLFAC
 40
1.0
  9
$DIMTOFL
 70
     0
  9
$DIMTVP
 40
0.0
  9
$DIMTIX
 70
     0
  9
$DIMSOXD
 70
     0
  9
$DIMSAH
 70
     0
  9
$DIMBLK1
  1

  9
$DIMBLK2
  1

  9
$DIMSTYLE
  2
Standard
  9
$DIMCLRD
 70
     0
  9
$DIMCLRE
 70
     0
  9
$DIMCLRT
 70
     0
  9
$DIMTFAC
 40
1.0
  9
$DIMGAP
 40
0.09
  9
$DIMJUST
 70
     0
  9
$DIMSD1
 70
     0
  9
$DIMSD2
 70
     0
  9
$DIMTOLJ
 70
     1
  9
$DIMTZIN
 70
     0
  9
$DIMALTZ
 70
     0
  9
$DIMALTTZ
 70
     0
  9
$DIMUPT
 70
     0
  9
$DIMDEC
 70
     4
  9
$DIMTDEC
 70
     4
  9
$DIMALTU
 70
     2
  9
$DIMALTTD
 70
     2
  9
$DIMTXSTY
  7
Standard
  9
$DIMAUNIT
 70
     0
  9
$DIMADEC
 70
     0
  9
$DIMALTRND
 40
0.0
  9
$DIMAZIN
 70
     0
  9
$DIMDSEP
 70
    46
  9
$DIMATFIT
 70
     3
  9
$DIMFRAC
 70
     0
  9
$DIMLDRBLK
  1

  9
$DIMLUNIT
 70
     2
  9
$DIMLWD
 70
    -2
  9
$DIMLWE
 70
    -2
  9
$DIMTMOVE
 70
     2
  9
$LUNITS
 70
     2
  9
$LUPREC
 70
     4
  9
$SKETCHINC
 40
0.1
  9
$FILLETRAD
 40
0.5
  9
$AUNITS
 70
     0
  9
$AUPREC
 70
     0
  9
$MENU
  1
.
  9
$ELEVATION
 40
0.0
  9
$PELEVATION
 40
0.0
  9
$THICKNESS
 40
0.0
  9
$LIMCHECK
 70
     0
  9
$CHAMFERA
 40
0.5
  9
$CHAMFERB
 40
0.5
  9
$CHAMFERC
 40
1.0
  9
$CHAMFERD
 40
0.0
  9
$SKPOLY
 70
     0
  9
$TDCREATE
 40
2456184.900981516
  9
$TDUCREATE
 40
2456184.817648183
  9
$TDUPDATE
 40
2456184.914415405
  9
$TDUUPDATE
 40
2456184.831082072
  9
$TDINDWG
 40
0.0134335417
  9
$TDUSRTIMER
 40
0.0134335417
  9
$USRTIMER
 70
     1
  9
$ANGBASE
 50
0.0
  9
$ANGDIR
 70
     0
  9
$PDMODE
 70
     0
  9
$PDSIZE
 40
0.0
  9
$PLINEWID
 40
0.0
  9
$SPLFRAME
 70
     0
  9
$SPLINETYPE
 70
     6
  9
$SPLINESEGS
 70
     8
  9
$HANDSEED
  5
1364
  9
$SURFTAB1
 70
     6
  9
$SURFTAB2
 70
     6
  9
$SURFTYPE
 70
     6
  9
$SURFU
 70
     6
  9
$SURFV
 70
     6
  9
$UCSBASE
  2

  9
$UCSNAME
  2

  9
$UCSORG
 10
0.0
 20
0.0
 30
0.0
  9
$UCSXDIR
 10
1.0
 20
0.0
 30
0.0
  9
$UCSYDIR
 10
0.0
 20
1.0
 30
0.0
  9
$UCSORTHOREF
  2

  9
$UCSORTHOVIEW
 70
     0
  9
$UCSORGTOP
 10
0.0
 20
0.0
 30
0.0
  9
$UCSORGBOTTOM
 10
0.0
 20
0.0
 30
0.0
  9
$UCSORGLEFT
 10
0.0
 20
0.0
 30
0.0
  9
$UCSORGRIGHT
 10
0.0
 20
0.0
 30
0.0
  9
$UCSORGFRONT
 10
0.0
 20
0.0
 30
0.0
  9
$UCSORGBACK
 10
0.0
 20
0.0
 30
0.0
  9
$PUCSBASE
  2

  9
$PUCSNAME
  2

  9
$PUCSORG
 10
0.0
 20
0.0
 30
0.0
  9
$PUCSXDIR
 10
1.0
 20
0.0
 30
0.0
  9
$PUCSYDIR
 10
0.0
 20
1.0
 30
0.0
  9
$PUCSORTHOREF
  2

  9
$PUCSORTHOVIEW
 70
     0
  9
$PUCSORGTOP
 10
0.0
 20
0.0
 30
0.0
  9
$PUCSORGBOTTOM
 10
0.0
 20
0.0
 30
0.0
  9
$PUCSORGLEFT
 10
0.0
 20
0.0
 30
0.0
  9
$PUCSORGRIGHT
 10
0.0
 20
0.0
 30
0.0
  9
$PUCSORGFRONT
 10
0.0
 20
0.0
 30
0.0
  9
$PUCSORGBACK
 10
0.0
 20
0.0
 30
0.0
  9
$USERI1
 70
     0
  9
$USERI2
 70
     0
  9
$USERI3
 70
     0
  9
$USERI4
 70
     0
  9
$USERI5
 70
     0
  9
$USERR1
 40
0.0
  9
$USERR2
 40
0.0
  9
$USERR3
 40
0.0
  9
$USERR4
 40
0.0
  9
$USERR5
 40
0.0
  9
$WORLDVIEW
 70
     1
  9
$SHADEDGE
 70
     3
  9
$SHADEDIF
 70
    70
  9
$TILEMODE
 70
     1
  9
$MAXACTVP
 70
    64
  9
$PINSBASE
 10
0.0
 20
0.0
 30
0.0
  9
$PLIMCHECK
 70
     0
  9
$PEXTMIN
 10
1.000000000000E+20
 20
1.000000000000E+20
 30
1.000000000000E+20
  9
$PEXTMAX
 10
-1.000000000000E+20
 20
-1.000000000000E+20
 30
-1.000000000000E+20
  9
$PLIMMIN
 10
0.0
 20
0.0
  9
$PLIMMAX
 10
12.0
 20
9.0
  9
$UNITMODE
 70
     0
  9
$VISRETAIN
 70
     1
  9
$PLINEGEN
 70
     0
  9
$PSLTSCALE
 70
     1
  9
$TREEDEPTH
 70
  3020
  9
$CMLSTYLE
  2
Standard
  9
$CMLJUST
 70
     0
  9
$CMLSCALE
 40
1.0
  9
$PROXYGRAPHICS
 70
     1
  9
$MEASUREMENT
 70
     0
  9
$CELWEIGHT
370
    -1
  9
$ENDCAPS
280
     0
  9
$JOINSTYLE
280
     0
  9
$LWDISPLAY
290
     0
  9
$INSUNITS
 70
     0
  9
$HYPERLINKBASE
  1

  9
$STYLESHEET
  1

  9
$XEDIT
290
     1
  9
$CEPSNTYPE
380
     0
  9
$PSTYLEMODE
290
     1
  9
$FINGERPRINTGUID
  2
{EDE31305-9363-4D32-8589-2B60DC5B7B1E}
  9
$VERSIONGUID
  2
{FAEB1C32-E019-11D5-929B-00C0DF256EC4}
  9
$EXTNAMES
290
     1
  9
$PSVPSCALE
 40
0.0
  9
$OLESTARTUP
290
     0
  0
ENDSEC
  0
SECTION
  2
CLASSES
  0
CLASS
  1
ACDBDICTIONARYWDFLT
  2
AcDbDictionaryWithDefault
  3
ObjectDBX Classes
 90
        0
280
     0
281
     0
  0
CLASS
  1
SCALE
  2
AcDbScale
  3
ObjectDBX Classes
 90
     1153
280
     0
281
     0
  0
CLASS
  1
DICTIONARYVAR
  2
AcDbDictionaryVar
  3
ObjectDBX Classes
 90
        0
280
     0
281
     0
  0
CLASS
  1
ACDBPLACEHOLDER
  2
AcDbPlaceHolder
  3
ObjectDBX Classes
 90
        0
280
     0
281
     0
  0
CLASS
  1
LAYOUT
  2
AcDbLayout
  3
ObjectDBX Classes
 90
        0
280
     0
281
     0
  0
ENDSEC
  0
SECTION
  2
TABLES
  0
TABLE
  2
VPORT
  5
8
330
0
100
AcDbSymbolTable
 70
     1
  0
VPORT
  5
C67
330
8
100
AcDbSymbolTableRecord
100
AcDbViewportTableRecord
  2
*Active
 70
     0
 10
0.0
 20
0.0
 11
1.0
 21
1.0
 12
207.495
 22
127.378825
 13
0.0
 23
0.0
 14
0.5
 24
0.5
 15
0.5
 25
0.5
 16
0.0
 26
0.0
 36
1.0
 17
0.0
 27
0.0
 37
0.0
 40
259.852803
 41
1.860689655172
 42
50.0
 43
0.0
 44
0.0
 50
0.0
 51
0.0
 71
    16
 72
   100
 73
     1
 74
     3
 75
     0
 76
     0
 77
     0
 78
     0
281
     0
 65
     1
110
0.0
120
0.0
130
0.0
111
1.0
121
0.0
131
0.0
112
0.0
122
1.0
132
0.0
 79
     0
146
0.0
  0
ENDTAB
  0
TABLE
  2
LTYPE
  5
5
330
0
100
AcDbSymbolTable
 70
     1
  0
LTYPE
  5
14
330
5
100
AcDbSymbolTableRecord
100
AcDbLinetypeTableRecord
  2
ByBlock
 70
     0
  3

 72
    65
 73
     0
 40
0.0
  0
LTYPE
  5
15
330
5
100
AcDbSymbolTableRecord
100
AcDbLinetypeTableRecord
  2
ByLayer
 70
     0
  3

 72
    65
 73
     0
 40
0.0
  0
LTYPE
  5
16
330
5
100
AcDbSymbolTableRecord
100
AcDbLinetypeTableRecord
  2
Continuous
 70
     0
  3
Solid line
 72
    65
 73
     0
 40
0.0
  0
ENDTAB
  0
TABLE
  2
LAYER
  5
2
330
0
100
AcDbSymbolTable
 70
     1
  0
LAYER
  5
10
330
2
100
AcDbSymbolTableRecord
100
AcDbLayerTableRecord
  2
0
 70
     0
 62
     7
  6
Continuous
370
    -3
390
F
  0
ENDTAB
  0
TABLE
  2
STYLE
  5
3
330
0
100
AcDbSymbolTable
 70
     1
  0
STYLE
  5
11
330
3
100
AcDbSymbolTableRecord
100
AcDbTextStyleTableRecord
  2
Standard
 70
     0
 40
0.0
 41
1.0
 50
0.0
 71
     0
 42
0.2
  3
txt
  4

  0
ENDTAB
  0
TABLE
  2
VIEW
  5
6
330
0
100
AcDbSymbolTable
 70
     0
  0
ENDTAB
  0
TABLE
  2
UCS
  5
7
330
0
100
AcDbSymbolTable
 70
     0
  0
ENDTAB
  0
TABLE
  2
APPID
  5
9
330
0
100
AcDbSymbolTable
 70
     1
  0
APPID
  5
12
330
9
100
AcDbSymbolTableRecord
100
AcDbRegAppTableRecord
  2
ACAD
 70
     0
  0
ENDTAB
  0
TABLE
  2
DIMSTYLE
  5
A
330
0
100
AcDbSymbolTable
 70
     1
100
AcDbDimStyleTable
  0
DIMSTYLE
105
20
330
A
100
AcDbSymbolTableRecord
100
AcDbDimStyleTableRecord
  2
Standard
 70
     0
340
11
  0
ENDTAB
  0
TABLE
  2
BLOCK_RECORD
  5
1
330
0
100
AcDbSymbolTable
 70
     1
  0
BLOCK_RECORD
  5
1D
330
1
100
AcDbSymbolTableRecord
100
AcDbBlockTableRecord
  2
*Model_Space
340
1E
  0
BLOCK_RECORD
  5
1B
330
1
100
AcDbSymbolTableRecord
100
AcDbBlockTableRecord
  2
*Paper_Space
340
1C
  0
ENDTAB
  0
ENDSEC
  0
SECTION
  2
BLOCKS
  0
BLOCK
  5
C6A
330
1D
100
AcDbEntity
  8
0
100
AcDbBlockBegin
  2
*Model_Space
 70
     0
 10
0.0
 20
0.0
 30
0.0
  3
*Model_Space
  1
*Model_Space
  0
ENDBLK
  5
C6B
330
1D
100
AcDbEntity
  8
0
100
AcDbBlockEnd
  0
BLOCK
  5
C68
330
1B
100
AcDbEntity
 67
     1
  8
0
100
AcDbBlockBegin
  2
*Paper_Space
 70
     0
 10
0.0
 20
0.0
 30
0.0
  3
*Paper_Space
  1
*Paper_Space
  0
ENDBLK
  5
C69
330
1B
100
AcDbEntity
 67
     1
  8
0
100
AcDbBlockEnd
  0
ENDSEC
  0
SECTION
  2
ENTITIES
  0
LINE
  5
21
330
1D
100
AcDbEntity
  8
0
100
AcDbLine
 10
0.5209
 20
39.73585
 30
0.0
 11
1.8348
 21
33.84815
 31
0.0
  0
LINE
  5
22
330
1D
100
AcDbEntity
  8
0
100
AcDbLine
 10
0.5209
 20
48.61075
 30
0.0
 11
1.8348
 21
42.72305
 31
0.0
  0
LINE
  5
23
330
1D
100
AcDbEntity
  8
0
100
AcDbLine
 10
0.01
 20
45.55755
 30
0.0
 11
0.01
 21
54.43255
 31
0.0
  0
LINE
  5
24
330
1D
100
AcDbEntity
  8
0
100
AcDbLine
 10
0.01
 20
45.55755
 30
0.0
 11
0.5209
 21
39.73585
 31
0.0
  0
LINE
  5
25
330
1D
100
AcDbEntity
  8
0
100
AcDbLine
 10
0.5209
 20
60.25405
 30
0.0
 11
1.8348
 21
66.14165
 31
0.0
  0
LINE
  5
26
330
1D
100
AcDbEntity
  8
0
100
AcDbLine
 10
0.01
 20
54.43255
 30
0.0
 11
0.5209
 21
60.25405
 31
0.0
  0
LINE
  5
27
330
1D
100
AcDbEntity
  8
0
100
AcDbLine
 10
0.01
 20
54.43255
 30
0.0
 11
0.5209
 21
48.61075
 31
0.0
  0
LINE
  5
28
330
1D
100
AcDbEntity
  8
0
100
AcDbLine
 10
0.01
 20
54.43255
 30
0.0
 11
0.01
 21
45.55755
 31
0.0
  0
LINE
  5
29
330
1D
100
AcDbEntity
  8
0
100
AcDbLine
 10
3.8786
 20
28.22515
 30
0.0
 11
6.7253
 21
22.99889
 31
0.0
  0
LINE
  5
2A
330
1D
100
AcDbEntity
  8
0
100
AcDbLine
 10
1.8348
 20
33.84815
 30
0.0
 11
3.8786
 21
28.22515
 31
0.0
  0
LINE
  5
2B
330
1D
100
AcDbEntity
  8
0
100
AcDbLine
 10
3.8786
 20
37.10015
 30
0.0
 11
6.7253
 21
31.87395
 31
0.0
  0
LINE
  5
2C
330
1D
100
AcDbEntity
  8
0
100
AcDbLine
 10
1.8348
 20
42.72305
 30
0.0
 11
3.8786
 21
37.10015
 31
0.0
  0
LINE
  5
2D
330
1D
100
AcDbEntity
  8
0
100
AcDbLine
 10
10.375
 20
18.03738
 30
0.0
 11
14.6815
 21
13.53942
 31
0.0
  0
LINE
  5
2E
330
1D
100
AcDbEntity
  8
0
100
AcDbLine
 10
6.7253
 20
22.99889
 30
0.0
 11
10.375
 21
18.03738
 31
0.0
  0
LINE
  5
2F
330
1D
100
AcDbEntity
  8
0
100
AcDbLine
 10
10.375
 20
26.91235
 30
0.0
 11
14.6815
 21
22.41445
 31
0.0
  0
LINE
  5
30
330
1D
100
AcDbEntity
  8
0
100
AcDbLine
 10
6.7253
 20
31.87395
 30
0.0
 11
10.375
 21
26.91235
 31
0.0
  0
LINE
  5
31
330
1D
100
AcDbEntity
  8
0
100
AcDbLine
 10
14.6815
 20
13.53942
 30
0.0
 11
19.645
 21
9.63597
 31
0.0
  0
LINE
  5
32
330
1D
100
AcDbEntity
  8
0
100
AcDbLine
 10
19.645
 20
9.63597
 30
0.0
 11
25.1195
 21
6.32793
 31
0.0
  0
LINE
  5
33
330
1D
100
AcDbEntity
  8
0
100
AcDbLine
 10
19.645
 20
18.51091
 30
0.0
 11
25.1195
 21
15.202877
 31
0.0
  0
LINE
  5
34
330
1D
100
AcDbEntity
  8
0
100
AcDbLine
 10
14.6815
 20
22.41445
 30
0.0
 11
19.645
 21
18.51091
 31
0.0
  0
LINE
  5
35
330
1D
100
AcDbEntity
  8
0
100
AcDbLine
 10
15.1925
 20
23.29961
 30
0.0
 11
20.083
 21
19.46305
 31
0.0
  0
LINE
  5
36
330
1D
100
AcDbEntity
  8
0
100
AcDbLine
 10
20.083
 20
19.46305
 30
0.0
 11
25.4845
 21
16.15502
 31
0.0
  0
LINE
  5
37
330
1D
100
AcDbEntity
  8
0
100
AcDbLine
 10
10.9589
 20
27.73155
 30
0.0
 11
15.1925
 21
23.29961
 31
0.0
  0
LINE
  5
38
330
1D
100
AcDbEntity
  8
0
100
AcDbLine
 10
7.3093
 20
32.62715
 30
0.0
 11
10.9589
 21
27.73155
 31
0.0
  0
LINE
  5
39
330
1D
100
AcDbEntity
  8
0
100
AcDbLine
 10
4.6085
 20
37.78755
 30
0.0
 11
7.3093
 21
32.62715
 31
0.0
  0
LINE
  5
3A
330
1D
100
AcDbEntity
  8
0
100
AcDbLine
 10
2.4918
 20
43.60925
 30
0.0
 11
4.6085
 21
37.78755
 31
0.0
  0
LINE
  5
3B
330
1D
100
AcDbEntity
  8
0
100
AcDbLine
 10
1.2509
 20
49.09935
 30
0.0
 11
2.4918
 21
43.60925
 31
0.0
  0
LINE
  5
3C
330
1D
100
AcDbEntity
  8
0
100
AcDbLine
 10
1.8348
 20
66.14165
 30
0.0
 11
3.8786
 21
71.76485
 31
0.0
  0
LINE
  5
3D
330
1D
100
AcDbEntity
  8
0
100
AcDbLine
 10
3.8786
 20
71.76485
 30
0.0
 11
6.7253
 21
76.99085
 31
0.0
  0
LINE
  5
3E
330
1D
100
AcDbEntity
  8
0
100
AcDbLine
 10
6.7253
 20
76.99085
 30
0.0
 11
10.375
 21
81.95245
 31
0.0
  0
LINE
  5
3F
330
1D
100
AcDbEntity
  8
0
100
AcDbLine
 10
10.375
 20
81.95245
 30
0.0
 11
14.6815
 21
86.45095
 31
0.0
  0
LINE
  5
40
330
1D
100
AcDbEntity
  8
0
100
AcDbLine
 10
10.9589
 20
81.97805
 30
0.0
 11
15.1925
 21
86.41045
 31
0.0
  0
LINE
  5
41
330
1D
100
AcDbEntity
  8
0
100
AcDbLine
 10
7.3093
 20
77.08275
 30
0.0
 11
10.9589
 21
81.97805
 31
0.0
  0
LINE
  5
42
330
1D
100
AcDbEntity
  8
0
100
AcDbLine
 10
4.6085
 20
71.92275
 30
0.0
 11
7.3093
 21
77.08275
 31
0.0
  0
LINE
  5
43
330
1D
100
AcDbEntity
  8
0
100
AcDbLine
 10
2.4918
 20
66.10115
 30
0.0
 11
4.6085
 21
71.92275
 31
0.0
  0
LINE
  5
44
330
1D
100
AcDbEntity
  8
0
100
AcDbLine
 10
1.2509
 20
60.61045
 30
0.0
 11
2.4918
 21
66.10115
 31
0.0
  0
LINE
  5
45
330
1D
100
AcDbEntity
  8
0
100
AcDbLine
 10
0.7399
 20
54.85515
 30
0.0
 11
1.2509
 21
60.61045
 31
0.0
  0
LINE
  5
46
330
1D
100
AcDbEntity
  8
0
100
AcDbLine
 10
0.7399
 20
54.85515
 30
0.0
 11
1.2509
 21
49.09935
 31
0.0
  0
LINE
  5
47
330
1D
100
AcDbEntity
  8
0
100
AcDbLine
 10
14.6815
 20
86.45095
 30
0.0
 11
19.645
 21
90.35385
 31
0.0
  0
LINE
  5
48
330
1D
100
AcDbEntity
  8
0
100
AcDbLine
 10
19.645
 20
90.35385
 30
0.0
 11
25.1195
 21
93.66165
 31
0.0
  0
LINE
  5
49
330
1D
100
AcDbEntity
  8
0
100
AcDbLine
 10
15.1925
 20
86.41045
 30
0.0
 11
20.083
 21
90.24725
 31
0.0
  0
LINE
  5
4A
330
1D
100
AcDbEntity
  8
0
100
AcDbLine
 10
25.1195
 20
6.32793
 30
0.0
 11
30.8859
 21
3.74825
 31
0.0
  0
LINE
  5
4B
330
1D
100
AcDbEntity
  8
0
100
AcDbLine
 10
25.1195
 20
15.202877
 30
0.0
 11
30.8859
 21
12.62324
 31
0.0
  0
LINE
  5
4C
330
1D
100
AcDbEntity
  8
0
100
AcDbLine
 10
25.4845
 20
16.15502
 30
0.0
 11
31.1779
 21
13.70726
 31
0.0
  0
LINE
  5
4D
330
1D
100
AcDbEntity
  8
0
100
AcDbLine
 10
20.083
 20
90.24725
 30
0.0
 11
25.4845
 21
93.55505
 31
0.0
  0
LINE
  5
4E
330
1D
100
AcDbEntity
  8
0
100
AcDbLine
 10
25.1195
 20
93.66165
 30
0.0
 11
30.8859
 21
96.24165
 31
0.0
  0
LINE
  5
4F
330
1D
100
AcDbEntity
  8
0
100
AcDbLine
 10
25.4845
 20
93.55505
 30
0.0
 11
31.1779
 21
96.00275
 31
0.0
  0
LINE
  5
52
330
1D
100
AcDbEntity
  8
0
100
AcDbLine
 10
30.8859
 20
3.74825
 30
0.0
 11
37.0903
 21
1.89595
 31
0.0
  0
LINE
  5
53
330
1D
100
AcDbEntity
  8
0
100
AcDbLine
 10
30.8859
 20
12.62324
 30
0.0
 11
37.0903
 21
10.7709
 31
0.0
  0
LINE
  5
54
330
1D
100
AcDbEntity
  8
0
100
AcDbLine
 10
31.1779
 20
13.70726
 30
0.0
 11
37.6012
 21
11.78903
 31
0.0
  0
LINE
  5
55
330
1D
100
AcDbEntity
  8
0
100
AcDbLine
 10
30.8859
 20
96.24165
 30
0.0
 11
37.0903
 21
98.09395
 31
0.0
  0
LINE
  5
56
330
1D
100
AcDbEntity
  8
0
100
AcDbLine
 10
31.1779
 20
96.00275
 30
0.0
 11
37.6012
 21
97.92125
 31
0.0
  0
LINE
  5
58
330
1D
100
AcDbEntity
  8
0
100
AcDbLine
 10
30.3835
 20
185.85365
 30
0.0
 11
33.2311
 21
184.18365
 31
0.0
  0
LINE
  5
59
330
1D
100
AcDbEntity
  8
0
100
AcDbLine
 10
31.5488
 20
187.80065
 30
0.0
 11
33.9837
 21
186.310493332603
 31
0.0
  0
LINE
  5
5E
330
1D
100
AcDbEntity
  8
0
100
AcDbLine
 10
16.6715
 20
204.21165
 30
0.0
 11
17.8535
 21
201.10065
 31
0.0
  0
LINE
  5
5F
330
1D
100
AcDbEntity
  8
0
100
AcDbLine
 10
15.8314
 20
207.42865
 30
0.0
 11
16.6715
 21
204.21165
 31
0.0
  0
LINE
  5
62
330
1D
100
AcDbEntity
  8
0
100
AcDbLine
 10
17.8191
 20
208.75865
 30
0.0
 11
18.5714
 21
205.63565
 31
0.0
  0
LINE
  5
63
330
1D
100
AcDbEntity
  8
0
100
AcDbLine
 10
17.8195
 20
208.75865
 30
0.0
 11
18.5714
 21
205.63665
 31
0.0
  0
LINE
  5
65
330
1D
100
AcDbEntity
  8
0
100
AcDbLine
 10
17.3771
 20
211.94065
 30
0.0
 11
17.8195
 21
208.75865
 31
0.0
  0
LINE
  5
66
330
1D
100
AcDbEntity
  8
0
100
AcDbLine
 10
17.3771
 20
211.94065
 30
0.0
 11
17.8191
 21
208.75865
 31
0.0
  0
LINE
  5
68
330
1D
100
AcDbEntity
  8
0
100
AcDbLine
 10
17.8535
 20
201.10065
 30
0.0
 11
19.3064
 21
198.10865
 31
0.0
  0
LINE
  5
6C
330
1D
100
AcDbEntity
  8
0
100
AcDbLine
 10
15.2218
 20
219.01265
 30
0.0
 11
16.5716
 21
225.20365
 31
0.0
  0
LINE
  5
74
330
1D
100
AcDbEntity
  8
0
100
AcDbLine
 10
17.2486
 20
215.15065
 30
0.0
 11
17.3771
 21
211.94065
 31
0.0
  0
LINE
  5
75
330
1D
100
AcDbEntity
  8
0
100
AcDbLine
 10
17.2486
 20
215.15065
 30
0.0
 11
17.4355
 21
218.35865
 31
0.0
  0
LINE
  5
76
330
1D
100
AcDbEntity
  8
0
100
AcDbLine
 10
17.4355
 20
218.35865
 30
0.0
 11
17.9358
 21
221.53065
 31
0.0
  0
LINE
  5
77
330
1D
100
AcDbEntity
  8
0
100
AcDbLine
 10
17.249
 20
215.15165
 30
0.0
 11
17.4358
 21
218.35865
 31
0.0
  0
LINE
  5
78
330
1D
100
AcDbEntity
  8
0
100
AcDbLine
 10
17.249
 20
215.15165
 30
0.0
 11
17.3771
 21
211.94065
 31
0.0
  0
LINE
  5
79
330
1D
100
AcDbEntity
  8
0
100
AcDbLine
 10
17.9358
 20
221.53065
 30
0.0
 11
18.745
 21
224.63965
 31
0.0
  0
LINE
  5
7B
330
1D
100
AcDbEntity
  8
0
100
AcDbLine
 10
17.4358
 20
218.35865
 30
0.0
 11
17.936
 21
221.53165
 31
0.0
  0
LINE
  5
7C
330
1D
100
AcDbEntity
  8
0
100
AcDbLine
 10
17.936
 20
221.53165
 30
0.0
 11
18.7449
 21
224.64065
 31
0.0
  0
LINE
  5
7E
330
1D
100
AcDbEntity
  8
0
100
AcDbLine
 10
16.5716
 20
225.20365
 30
0.0
 11
17.8229
 21
228.66065
 31
0.0
  0
LINE
  5
85
330
1D
100
AcDbEntity
  8
0
100
AcDbLine
 10
15.0624
 20
212.36265
 30
0.0
 11
15.2218
 21
219.01265
 31
0.0
  0
LINE
  5
86
330
1D
100
AcDbEntity
  8
0
100
AcDbLine
 10
15.0624
 20
212.36265
 30
0.0
 11
15.8314
 21
207.42865
 31
0.0
  0
LINE
  5
88
330
1D
100
AcDbEntity
  8
0
100
AcDbLine
 10
17.8229
 20
228.66065
 30
0.0
 11
18.5197
 21
230.14465
 31
0.0
  0
LINE
  5
89
330
1D
100
AcDbEntity
  8
0
100
AcDbLine
 10
19.3064
 20
198.10865
 30
0.0
 11
20.9869
 21
195.19965
 31
0.0
  0
LINE
  5
8F
330
1D
100
AcDbEntity
  8
0
100
AcDbLine
 10
18.5714
 20
205.63565
 30
0.0
 11
19.6259
 21
202.60065
 31
0.0
  0
LINE
  5
90
330
1D
100
AcDbEntity
  8
0
100
AcDbLine
 10
18.5714
 20
205.63665
 30
0.0
 11
19.6265
 21
202.60065
 31
0.0
  0
LINE
  5
91
330
1D
100
AcDbEntity
  8
0
100
AcDbLine
 10
19.6259
 20
202.60065
 30
0.0
 11
20.9731
 21
199.68365
 31
0.0
  0
LINE
  5
92
330
1D
100
AcDbEntity
  8
0
100
AcDbLine
 10
18.745
 20
224.63965
 30
0.0
 11
19.855
 21
227.65565
 31
0.0
  0
LINE
  5
93
330
1D
100
AcDbEntity
  8
0
100
AcDbLine
 10
19.6265
 20
202.60065
 30
0.0
 11
20.9732
 21
199.68465
 31
0.0
  0
LINE
  5
94
330
1D
100
AcDbEntity
  8
0
100
AcDbLine
 10
18.7449
 20
224.64065
 30
0.0
 11
19.8548
 21
227.65565
 31
0.0
  0
LINE
  5
96
330
1D
100
AcDbEntity
  8
0
100
AcDbLine
 10
19.855
 20
227.65565
 30
0.0
 11
21.2546
 21
230.54665
 31
0.0
  0
LINE
  5
97
330
1D
100
AcDbEntity
  8
0
100
AcDbLine
 10
19.8548
 20
227.65565
 30
0.0
 11
21.2553
 21
230.54665
 31
0.0
  0
LINE
  5
98
330
1D
100
AcDbEntity
  8
0
100
AcDbLine
 10
18.5197
 20
230.14465
 30
0.0
 11
20.1155
 21
233.06565
 31
0.0
  0
LINE
  5
99
330
1D
100
AcDbEntity
  8
0
100
AcDbLine
 10
20.9731
 20
199.68365
 30
0.0
 11
22.5996
 21
196.91365
 31
0.0
  0
LINE
  5
9A
330
1D
100
AcDbEntity
  8
0
100
AcDbLine
 10
20.9732
 20
199.68465
 30
0.0
 11
22.5997
 21
196.91365
 31
0.0
  0
LINE
  5
9B
330
1D
100
AcDbEntity
  8
0
100
AcDbLine
 10
22.5996
 20
196.91365
 30
0.0
 11
24.4892
 21
194.31665
 31
0.0
  0
LINE
  5
9C
330
1D
100
AcDbEntity
  8
0
100
AcDbLine
 10
22.3966
 20
208.53865
 30
0.0
 11
23.3594
 21
205.25965
 31
0.0
  0
LINE
  5
9E
330
1D
100
AcDbEntity
  8
0
100
AcDbLine
 10
21.837
 20
211.90965
 30
0.0
 11
22.3966
 21
208.53865
 31
0.0
  0
LINE
  5
9F
330
1D
100
AcDbEntity
  8
0
100
AcDbLine
 10
21.951
 20
218.73165
 30
0.0
 11
22.6229
 21
222.08265
 31
0.0
  0
LINE
  5
A0
330
1D
100
AcDbEntity
  8
0
100
AcDbLine
 10
21.6877
 20
215.32465
 30
0.0
 11
21.951
 21
218.73165
 31
0.0
  0
LINE
  5
A1
330
1D
100
AcDbEntity
  8
0
100
AcDbLine
 10
21.6877
 20
215.32465
 30
0.0
 11
21.837
 21
211.90965
 31
0.0
  0
LINE
  5
A8
330
1D
100
AcDbEntity
  8
0
100
AcDbLine
 10
22.5997
 20
196.91365
 30
0.0
 11
24.4895
 21
194.31665
 31
0.0
  0
LINE
  5
AB
330
1D
100
AcDbEntity
  8
0
100
AcDbLine
 10
20.9869
 20
195.19965
 30
0.0
 11
22.9538
 21
192.54465
 31
0.0
  0
LINE
  5
AD
330
1D
100
AcDbEntity
  8
0
100
AcDbLine
 10
21.2546
 20
230.54665
 30
0.0
 11
22.9314
 21
233.28765
 31
0.0
  0
LINE
  5
AF
330
1D
100
AcDbEntity
  8
0
100
AcDbLine
 10
21.2553
 20
230.54665
 30
0.0
 11
22.9318
 21
233.28765
 31
0.0
  0
LINE
  5
B3
330
1D
100
AcDbEntity
  8
0
100
AcDbLine
 10
21.9621
 20
235.83765
 30
0.0
 11
24.0557
 21
238.43265
 31
0.0
  0
LINE
  5
B5
330
1D
100
AcDbEntity
  8
0
100
AcDbLine
 10
20.1155
 20
233.06565
 30
0.0
 11
21.9621
 21
235.83765
 31
0.0
  0
LINE
  5
B9
330
1D
100
AcDbEntity
  8
0
100
AcDbLine
 10
23.3594
 20
205.25965
 30
0.0
 11
24.7092
 21
202.12065
 31
0.0
  0
LINE
  5
BD
330
1D
100
AcDbEntity
  8
0
100
AcDbLine
 10
22.9538
 20
192.54465
 30
0.0
 11
25.2239
 21
190.10265
 31
0.0
  0
LINE
  5
C2
330
1D
100
AcDbEntity
  8
0
100
AcDbLine
 10
25.2239
 20
190.10265
 30
0.0
 11
26.594428227686
 21
188.827217816293
 31
0.0
  0
LINE
  5
C4
330
1D
100
AcDbEntity
  8
0
100
AcDbLine
 10
27.6653
 20
187.83065
 30
0.0
 11
30.3835
 21
185.85365
 31
0.0
  0
LINE
  5
C6
330
1D
100
AcDbEntity
  8
0
100
AcDbLine
 10
28.9859
 20
189.73665
 30
0.0
 11
31.5487
 21
187.80065
 31
0.0
  0
LINE
  5
C7
330
1D
100
AcDbEntity
  8
0
100
AcDbLine
 10
28.9859
 20
189.73665
 30
0.0
 11
31.5488
 21
187.80065
 31
0.0
  0
LINE
  5
C8
330
1D
100
AcDbEntity
  8
0
100
AcDbLine
 10
26.594428227686
 20
188.827217816293
 30
0.0
 11
27.6653
 21
187.83065
 31
0.0
  0
LINE
  5
C9
330
1D
100
AcDbEntity
  8
0
100
AcDbLine
 10
26.6248
 20
191.91665
 30
0.0
 11
28.9859
 21
189.73665
 31
0.0
  0
LINE
  5
CB
330
1D
100
AcDbEntity
  8
0
100
AcDbLine
 10
24.4892
 20
194.31665
 30
0.0
 11
26.6248
 21
191.91665
 31
0.0
  0
LINE
  5
CC
330
1D
100
AcDbEntity
  8
0
100
AcDbLine
 10
26.4285
 20
199.16665
 30
0.0
 11
28.4906
 21
196.44165
 31
0.0
  0
LINE
  5
CD
330
1D
100
AcDbEntity
  8
0
100
AcDbLine
 10
24.7092
 20
202.12065
 30
0.0
 11
26.4285
 21
199.16665
 31
0.0
  0
LINE
  5
D1
330
1D
100
AcDbEntity
  8
0
100
AcDbLine
 10
28.4906
 20
196.44165
 30
0.0
 11
30.8671
 21
193.98565
 31
0.0
  0
LINE
  5
DC
330
1D
100
AcDbEntity
  8
0
100
AcDbLine
 10
24.4895
 20
194.31665
 30
0.0
 11
26.6256
 21
191.91665
 31
0.0
  0
LINE
  5
DD
330
1D
100
AcDbEntity
  8
0
100
AcDbLine
 10
26.6256
 20
191.91665
 30
0.0
 11
28.9859
 21
189.73665
 31
0.0
  0
LINE
  5
DE
330
1D
100
AcDbEntity
  8
0
100
AcDbLine
 10
30.8671
 20
193.98565
 30
0.0
 11
33.5216
 21
191.83365
 31
0.0
  0
LINE
  5
FC
330
1D
100
AcDbEntity
  8
0
100
AcDbLine
 10
22.9314
 20
233.28765
 30
0.0
 11
24.8682
 21
235.84965
 31
0.0
  0
LINE
  5
FD
330
1D
100
AcDbEntity
  8
0
100
AcDbLine
 10
22.9318
 20
233.28765
 30
0.0
 11
24.8686
 21
235.85065
 31
0.0
  0
LINE
  5
FF
330
1D
100
AcDbEntity
  8
0
100
AcDbLine
 10
24.8682
 20
235.84965
 30
0.0
 11
27.0475
 21
238.20965
 31
0.0
  0
LINE
  5
101
330
1D
100
AcDbEntity
  8
0
100
AcDbLine
 10
24.8686
 20
235.85065
 30
0.0
 11
27.0477
 21
238.21065
 31
0.0
  0
LINE
  5
104
330
1D
100
AcDbEntity
  8
0
100
AcDbLine
 10
24.0557
 20
238.43265
 30
0.0
 11
27.3615
 21
241.58465
 31
0.0
  0
LINE
  5
107
330
1D
100
AcDbEntity
  8
0
100
AcDbLine
 10
26.9648
 20
231.31465
 30
0.0
 11
29.1167
 21
233.96865
 31
0.0
  0
LINE
  5
108
330
1D
100
AcDbEntity
  8
0
100
AcDbLine
 10
27.0475
 20
238.20965
 30
0.0
 11
29.4478
 21
240.34565
 31
0.0
  0
LINE
  5
10A
330
1D
100
AcDbEntity
  8
0
100
AcDbLine
 10
29.1167
 20
233.96865
 30
0.0
 11
31.5734
 21
236.34565
 31
0.0
  0
LINE
  5
10B
330
1D
100
AcDbEntity
  8
0
100
AcDbLine
 10
31.5734
 20
236.34565
 30
0.0
 11
34.2979
 21
238.40765
 31
0.0
  0
LINE
  5
10F
330
1D
100
AcDbEntity
  8
0
100
AcDbLine
 10
27.0477
 20
238.21065
 30
0.0
 11
29.4479
 21
240.34565
 31
0.0
  0
LINE
  5
110
330
1D
100
AcDbEntity
  8
0
100
AcDbLine
 10
29.4478
 20
240.34565
 30
0.0
 11
32.0453
 21
242.23665
 31
0.0
  0
LINE
  5
112
330
1D
100
AcDbEntity
  8
0
100
AcDbLine
 10
29.4479
 20
240.34565
 30
0.0
 11
32.0459
 21
242.23665
 31
0.0
  0
LINE
  5
11A
330
1D
100
AcDbEntity
  8
0
100
AcDbLine
 10
27.3615
 20
241.58465
 30
0.0
 11
28.987
 21
242.91365
 31
0.0
  0
LINE
  5
11D
330
1D
100
AcDbEntity
  8
0
100
AcDbLine
 10
32.0453
 20
242.23665
 30
0.0
 11
34.8158
 21
243.86265
 31
0.0
  0
LINE
  5
11F
330
1D
100
AcDbEntity
  8
0
100
AcDbLine
 10
32.0459
 20
242.23665
 30
0.0
 11
34.8158
 21
243.86265
 31
0.0
  0
LINE
  5
120
330
1D
100
AcDbEntity
  8
0
100
AcDbLine
 10
31.7327
 20
244.75165
 30
0.0
 11
34.7192
 21
246.29165
 31
0.0
  0
LINE
  5
124
330
1D
100
AcDbEntity
  8
0
100
AcDbLine
 10
28.987
 20
242.91365
 30
0.0
 11
31.7327
 21
244.75165
 31
0.0
  0
LINE
  5
126
330
1D
100
AcDbEntity
  8
0
100
AcDbLine
 10
25.1479
 20
228.41965
 30
0.0
 11
26.9648
 21
231.31465
 31
0.0
  0
LINE
  5
127
330
1D
100
AcDbEntity
  8
0
100
AcDbLine
 10
23.6936
 20
225.32765
 30
0.0
 11
25.1479
 21
228.41965
 31
0.0
  0
LINE
  5
128
330
1D
100
AcDbEntity
  8
0
100
AcDbLine
 10
22.6229
 20
222.08265
 30
0.0
 11
23.6936
 21
225.32765
 31
0.0
  0
LINE
  5
129
330
1D
100
AcDbEntity
  8
0
100
AcDbLine
 10
31.5487
 20
187.80065
 30
0.0
 11
33.9837
 21
186.310432132691
 31
0.0
  0
LINE
  5
134
330
1D
100
AcDbEntity
  8
0
100
AcDbLine
 10
33.5216
 20
191.83365
 30
0.0
 11
33.9837
 21
191.543580318524
 31
0.0
  0
LINE
  5
139
330
1D
100
AcDbEntity
  8
0
100
AcDbLine
 10
34.1603
 20
169.55265
 30
0.0
 11
34.6132
 21
167.90365
 31
0.0
  0
LINE
  5
13A
330
1D
100
AcDbEntity
  8
0
100
AcDbLine
 10
33.9774
 20
171.95465
 30
0.0
 11
34.4995
 21
174.62665
 31
0.0
  0
LINE
  5
13B
330
1D
100
AcDbEntity
  8
0
100
AcDbLine
 10
33.9774
 20
171.95465
 30
0.0
 11
34.1603
 21
169.55265
 31
0.0
  0
LINE
  5
140
330
1D
100
AcDbEntity
  8
0
100
AcDbLine
 10
34.4995
 20
174.62665
 30
0.0
 11
35.8047
 21
177.14265
 31
0.0
  0
LINE
  5
141
330
1D
100
AcDbEntity
  8
0
100
AcDbLine
 10
34.6132
 20
167.90365
 30
0.0
 11
36.0754
 21
165.04865
 31
0.0
  0
LINE
  5
142
330
1D
100
AcDbEntity
  8
0
100
AcDbLine
 10
34.93344528996
 20
167.278359134978
 30
0.0
 11
34.9495
 21
167.22765
 31
0.0
  0
LINE
  5
144
330
1D
100
AcDbEntity
  8
0
100
AcDbLine
 10
36.184284297427
 20
164.999764145921
 30
0.0
 11
37.6588
 21
163.27465
 31
0.0
  0
LINE
  5
145
330
1D
100
AcDbEntity
  8
0
100
AcDbLine
 10
34.9495
 20
167.22765
 30
0.0
 11
35.013972258199
 21
167.121127228041
 31
0.0
  0
LINE
  5
148
330
1D
100
AcDbEntity
  8
0
100
AcDbLine
 10
35.8047
 20
177.14265
 30
0.0
 11
37.7391
 21
179.40865
 31
0.0
  0
LINE
  5
14A
330
1D
100
AcDbEntity
  8
0
100
AcDbLine
 10
37.0903
 20
1.89595
 30
0.0
 11
43.5866
 21
0.70505
 31
0.0
  0
LINE
  5
14B
330
1D
100
AcDbEntity
  8
0
100
AcDbLine
 10
43.5866
 20
0.70505
 30
0.0
 11
50.01
 21
0.24235
 31
0.0
  0
LINE
  5
14C
330
1D
100
AcDbEntity
  8
0
100
AcDbLine
 10
50.01
 20
0.24235
 30
0.0
 11
56.4334
 21
0.70505
 31
0.0
  0
LINE
  5
14D
330
1D
100
AcDbEntity
  8
0
100
AcDbLine
 10
37.0903
 20
10.7709
 30
0.0
 11
43.5866
 21
9.57997
 31
0.0
  0
LINE
  5
14E
330
1D
100
AcDbEntity
  8
0
100
AcDbLine
 10
43.5866
 20
9.57997
 30
0.0
 11
50.01
 21
9.11742
 31
0.0
  0
LINE
  5
14F
330
1D
100
AcDbEntity
  8
0
100
AcDbLine
 10
37.6012
 20
11.78903
 30
0.0
 11
43.6596
 21
10.66399
 31
0.0
  0
LINE
  5
150
330
1D
100
AcDbEntity
  8
0
100
AcDbLine
 10
43.6596
 20
10.66399
 30
0.0
 11
50.01
 21
10.20145
 31
0.0
  0
LINE
  5
151
330
1D
100
AcDbEntity
  8
0
100
AcDbLine
 10
41.37
 20
98.878437594477
 30
0.0
 11
41.37
 21
108.38775
 31
0.0
  0
LINE
  5
152
330
1D
100
AcDbEntity
  8
0
100
AcDbLine
 10
37.0903
 20
98.09395
 30
0.0
 11
43.5866
 21
99.28475
 31
0.0
  0
LINE
  5
153
330
1D
100
AcDbEntity
  8
0
100
AcDbLine
 10
43.5866
 20
99.28475
 30
0.0
 11
50.01
 21
99.74785
 31
0.0
  0
LINE
  5
154
330
1D
100
AcDbEntity
  8
0
100
AcDbLine
 10
37.6012
 20
97.92125
 30
0.0
 11
43.6596
 21
99.04575
 31
0.0
  0
LINE
  5
155
330
1D
100
AcDbEntity
  8
0
100
AcDbLine
 10
43.6596
 20
99.04575
 30
0.0
 11
50.01
 21
99.50885
 31
0.0
  0
LINE
  5
156
330
1D
100
AcDbEntity
  8
0
100
AcDbLine
 10
38.394
 20
107.00775
 30
0.0
 11
39.642
 21
105.70565
 31
0.0
  0
LINE
  5
157
330
1D
100
AcDbEntity
  8
0
100
AcDbLine
 10
38.01
 20
108.38775
 30
0.0
 11
38.394
 21
109.80725
 31
0.0
  0
LINE
  5
158
330
1D
100
AcDbEntity
  8
0
100
AcDbLine
 10
38.01
 20
108.38775
 30
0.0
 11
38.394
 21
107.00775
 31
0.0
  0
LINE
  5
159
330
1D
100
AcDbEntity
  8
0
100
AcDbLine
 10
38.01
 20
108.38775
 30
0.0
 11
38.01
 21
168.86865
 31
0.0
  0
LINE
  5
15A
330
1D
100
AcDbEntity
  8
0
100
AcDbLine
 10
39.642
 20
105.70565
 30
0.0
 11
41.37
 21
104.67641
 31
0.0
  0
LINE
  5
15B
330
1D
100
AcDbEntity
  8
0
100
AcDbLine
 10
38.394
 20
109.80725
 30
0.0
 11
39.642
 21
111.10935
 31
0.0
  0
LINE
  5
15C
330
1D
100
AcDbEntity
  8
0
100
AcDbLine
 10
39.642
 20
111.10935
 30
0.0
 11
41.562
 21
112.25265
 31
0.0
  0
LINE
  5
15D
330
1D
100
AcDbEntity
  8
0
100
AcDbLine
 10
41.562
 20
112.25265
 30
0.0
 11
44.058
 21
113.12075
 31
0.0
  0
LINE
  5
15E
330
1D
100
AcDbEntity
  8
0
100
AcDbLine
 10
44.058
 20
113.12075
 30
0.0
 11
46.938
 21
113.63265
 31
0.0
  0
LINE
  5
15F
330
1D
100
AcDbEntity
  8
0
100
AcDbLine
 10
46.938
 20
113.63265
 30
0.0
 11
50.01
 21
113.82995
 31
0.0
  0
LINE
  5
160
330
1D
100
AcDbEntity
  8
0
100
AcDbLine
 10
47.802
 20
112.17365
 30
0.0
 11
50.01
 21
112.33155
 31
0.0
  0
LINE
  5
161
330
1D
100
AcDbEntity
  8
0
100
AcDbLine
 10
45.69
 20
111.77915
 30
0.0
 11
47.802
 21
112.17365
 31
0.0
  0
LINE
  5
162
330
1D
100
AcDbEntity
  8
0
100
AcDbLine
 10
43.866
 20
111.14875
 30
0.0
 11
45.69
 21
111.77915
 31
0.0
  0
LINE
  5
163
330
1D
100
AcDbEntity
  8
0
100
AcDbLine
 10
42.522
 20
110.35965
 30
0.0
 11
43.866
 21
111.14875
 31
0.0
  0
LINE
  5
164
330
1D
100
AcDbEntity
  8
0
100
AcDbLine
 10
41.658
 20
109.41265
 30
0.0
 11
42.522
 21
110.35965
 31
0.0
  0
LINE
  5
165
330
1D
100
AcDbEntity
  8
0
100
AcDbLine
 10
41.37
 20
108.38775
 30
0.0
 11
41.37
 21
98.878437594477
 31
0.0
  0
LINE
  5
166
330
1D
100
AcDbEntity
  8
0
100
AcDbLine
 10
41.37
 20
108.38775
 30
0.0
 11
41.658
 21
109.41265
 31
0.0
  0
LINE
  5
167
330
1D
100
AcDbEntity
  8
0
100
AcDbLine
 10
50.01
 20
113.82995
 30
0.0
 11
53.082
 21
113.63265
 31
0.0
  0
LINE
  5
168
330
1D
100
AcDbEntity
  8
0
100
AcDbLine
 10
50.01
 20
112.33155
 30
0.0
 11
52.218
 21
112.17365
 31
0.0
  0
LINE
  5
169
330
1D
100
AcDbEntity
  8
0
100
AcDbLine
 10
50.01
 20
99.74785
 30
0.0
 11
56.4334
 21
99.28475
 31
0.0
  0
LINE
  5
16A
330
1D
100
AcDbEntity
  8
0
100
AcDbLine
 10
50.01
 20
99.50885
 30
0.0
 11
56.3604
 21
99.04575
 31
0.0
  0
LINE
  5
16B
330
1D
100
AcDbEntity
  8
0
100
AcDbLine
 10
50.01
 20
9.11742
 30
0.0
 11
56.4334
 21
9.57997
 31
0.0
  0
LINE
  5
16C
330
1D
100
AcDbEntity
  8
0
100
AcDbLine
 10
56.4334
 20
0.70505
 30
0.0
 11
62.9297
 21
1.89595
 31
0.0
  0
LINE
  5
16D
330
1D
100
AcDbEntity
  8
0
100
AcDbLine
 10
56.4334
 20
9.57997
 30
0.0
 11
62.9297
 21
10.7709
 31
0.0
  0
LINE
  5
16E
330
1D
100
AcDbEntity
  8
0
100
AcDbLine
 10
56.154
 20
111.14875
 30
0.0
 11
57.498
 21
110.35965
 31
0.0
  0
LINE
  5
16F
330
1D
100
AcDbEntity
  8
0
100
AcDbLine
 10
54.33
 20
111.77915
 30
0.0
 11
56.154
 21
111.14875
 31
0.0
  0
LINE
  5
170
330
1D
100
AcDbEntity
  8
0
100
AcDbLine
 10
55.962
 20
113.12075
 30
0.0
 11
58.458
 21
112.25265
 31
0.0
  0
LINE
  5
171
330
1D
100
AcDbEntity
  8
0
100
AcDbLine
 10
53.082
 20
113.63265
 30
0.0
 11
55.962
 21
113.12075
 31
0.0
  0
LINE
  5
172
330
1D
100
AcDbEntity
  8
0
100
AcDbLine
 10
52.218
 20
112.17365
 30
0.0
 11
54.33
 21
111.77915
 31
0.0
  0
LINE
  5
173
330
1D
100
AcDbEntity
  8
0
100
AcDbLine
 10
58.65
 20
98.878437594477
 30
0.0
 11
58.65
 21
108.38775
 31
0.0
  0
LINE
  5
174
330
1D
100
AcDbEntity
  8
0
100
AcDbLine
 10
58.65
 20
104.67641
 30
0.0
 11
60.378
 21
105.70565
 31
0.0
  0
LINE
  5
175
330
1D
100
AcDbEntity
  8
0
100
AcDbLine
 10
58.65
 20
108.38775
 30
0.0
 11
58.65
 21
98.878437594477
 31
0.0
  0
LINE
  5
176
330
1D
100
AcDbEntity
  8
0
100
AcDbLine
 10
58.458
 20
112.25265
 30
0.0
 11
60.378
 21
111.10935
 31
0.0
  0
LINE
  5
177
330
1D
100
AcDbEntity
  8
0
100
AcDbLine
 10
58.362
 20
109.41265
 30
0.0
 11
58.65
 21
108.38775
 31
0.0
  0
LINE
  5
178
330
1D
100
AcDbEntity
  8
0
100
AcDbLine
 10
57.498
 20
110.35965
 30
0.0
 11
58.362
 21
109.41265
 31
0.0
  0
LINE
  5
179
330
1D
100
AcDbEntity
  8
0
100
AcDbLine
 10
56.4334
 20
99.28475
 30
0.0
 11
62.9297
 21
98.09395
 31
0.0
  0
LINE
  5
17A
330
1D
100
AcDbEntity
  8
0
100
AcDbLine
 10
56.3604
 20
99.04575
 30
0.0
 11
62.4188
 21
97.92125
 31
0.0
  0
LINE
  5
17B
330
1D
100
AcDbEntity
  8
0
100
AcDbLine
 10
56.3604
 20
10.66399
 30
0.0
 11
62.4188
 21
11.78903
 31
0.0
  0
LINE
  5
17C
330
1D
100
AcDbEntity
  8
0
100
AcDbLine
 10
50.01
 20
10.20145
 30
0.0
 11
56.3604
 21
10.66399
 31
0.0
  0
LINE
  5
17D
330
1D
100
AcDbEntity
  8
0
100
AcDbLine
 10
38.01
 20
168.86865
 30
0.0
 11
38.01
 21
108.38775
 31
0.0
  0
LINE
  5
17E
330
1D
100
AcDbEntity
  8
0
100
AcDbLine
 10
38.01
 20
168.86865
 30
0.0
 11
38.394
 21
171.26265
 31
0.0
  0
LINE
  5
17F
330
1D
100
AcDbEntity
  8
0
100
AcDbLine
 10
38.394
 20
171.26265
 30
0.0
 11
39.642
 21
173.48865
 31
0.0
  0
LINE
  5
180
330
1D
100
AcDbEntity
  8
0
100
AcDbLine
 10
39.642
 20
173.48865
 30
0.0
 11
41.562
 21
175.41865
 31
0.0
  0
LINE
  5
181
330
1D
100
AcDbEntity
  8
0
100
AcDbLine
 10
41.562
 20
175.41865
 30
0.0
 11
44.058
 21
176.84265
 31
0.0
  0
LINE
  5
182
330
1D
100
AcDbEntity
  8
0
100
AcDbLine
 10
58.458
 20
175.41865
 30
0.0
 11
60.378
 21
173.48865
 31
0.0
  0
LINE
  5
183
330
1D
100
AcDbEntity
  8
0
100
AcDbLine
 10
37.6588
 20
163.27465
 30
0.0
 11
38.01
 21
162.999791569351
 31
0.0
  0
LINE
  5
185
330
1D
100
AcDbEntity
  8
0
100
AcDbLine
 10
44.058
 20
176.84265
 30
0.0
 11
46.938
 21
177.72265
 31
0.0
  0
LINE
  5
188
330
1D
100
AcDbEntity
  8
0
100
AcDbLine
 10
60.378
 20
105.70565
 30
0.0
 11
61.626
 21
107.00775
 31
0.0
  0
LINE
  5
189
330
1D
100
AcDbEntity
  8
0
100
AcDbLine
 10
62.01
 20
108.38775
 30
0.0
 11
62.01
 21
168.86865
 31
0.0
  0
LINE
  5
18A
330
1D
100
AcDbEntity
  8
0
100
AcDbLine
 10
61.626
 20
107.00775
 30
0.0
 11
62.01
 21
108.38775
 31
0.0
  0
LINE
  5
18B
330
1D
100
AcDbEntity
  8
0
100
AcDbLine
 10
61.626
 20
109.80725
 30
0.0
 11
62.01
 21
108.38775
 31
0.0
  0
LINE
  5
18C
330
1D
100
AcDbEntity
  8
0
100
AcDbLine
 10
60.378
 20
111.10935
 30
0.0
 11
61.626
 21
109.80725
 31
0.0
  0
LINE
  5
18D
330
1D
100
AcDbEntity
  8
0
100
AcDbLine
 10
62.01
 20
168.86865
 30
0.0
 11
62.01
 21
108.38775
 31
0.0
  0
LINE
  5
18E
330
1D
100
AcDbEntity
  8
0
100
AcDbLine
 10
61.626
 20
171.26265
 30
0.0
 11
62.01
 21
168.86865
 31
0.0
  0
LINE
  5
18F
330
1D
100
AcDbEntity
  8
0
100
AcDbLine
 10
60.378
 20
173.48865
 30
0.0
 11
61.626
 21
171.26265
 31
0.0
  0
LINE
  5
190
330
1D
100
AcDbEntity
  8
0
100
AcDbLine
 10
62.01
 20
163.046914579079
 30
0.0
 11
62.7308
 21
163.78865
 31
0.0
  0
LINE
  5
191
330
1D
100
AcDbEntity
  8
0
100
AcDbLine
 10
62.4188
 20
97.92125
 30
0.0
 11
68.8421
 21
96.00275
 31
0.0
  0
LINE
  5
192
330
1D
100
AcDbEntity
  8
0
100
AcDbLine
 10
62.9297
 20
1.89595
 30
0.0
 11
69.1341
 21
3.74825
 31
0.0
  0
LINE
  5
193
330
1D
100
AcDbEntity
  8
0
100
AcDbLine
 10
62.9297
 20
98.09395
 30
0.0
 11
69.1341
 21
96.24165
 31
0.0
  0
LINE
  5
194
330
1D
100
AcDbEntity
  8
0
100
AcDbLine
 10
62.9297
 20
10.7709
 30
0.0
 11
69.1341
 21
12.62324
 31
0.0
  0
LINE
  5
195
330
1D
100
AcDbEntity
  8
0
100
AcDbLine
 10
62.4188
 20
11.78903
 30
0.0
 11
68.8421
 21
13.70726
 31
0.0
  0
LINE
  5
196
330
1D
100
AcDbEntity
  8
0
100
AcDbLine
 10
62.7308
 20
163.78865
 30
0.0
 11
64.621
 21
166.20165
 31
0.0
  0
LINE
  5
197
330
1D
100
AcDbEntity
  8
0
100
AcDbLine
 10
62.01
 20
163.734782022725
 30
0.0
 11
62.2343
 21
163.93665
 31
0.0
  0
LINE
  5
1A4
330
1D
100
AcDbEntity
  8
0
100
AcDbLine
 10
33.9747
 20
182.77165
 30
0.0
 11
34.0243
 21
184.57965
 31
0.0
  0
LINE
  5
1A5
330
1D
100
AcDbEntity
  8
0
100
AcDbLine
 10
33.9747
 20
182.77165
 30
0.0
 11
33.99420885824
 21
182.663756902157
 31
0.0
  0
LINE
  5
1A9
330
1D
100
AcDbEntity
  8
0
100
AcDbLine
 10
33.9837
 20
183.99865
 30
0.0
 11
33.9837
 21
209.81765
 31
0.0
  0
LINE
  5
1AA
330
1D
100
AcDbEntity
  8
0
100
AcDbLine
 10
33.9837
 20
183.99865
 30
0.0
 11
34.003160651288
 21
183.809086643708
 31
0.0
  0
LINE
  5
1AD
330
1D
100
AcDbEntity
  8
0
100
AcDbLine
 10
34.060472021244
 20
184.74647502401
 30
0.0
 11
34.1805
 21
185.91565
 31
0.0
  0
LINE
  5
1AF
330
1D
100
AcDbEntity
  8
0
100
AcDbLine
 10
33.9916
 20
182.76965
 30
0.0
 11
34.019399839211
 21
172.169596505211
 31
0.0
  0
LINE
  5
1B4
330
1D
100
AcDbEntity
  8
0
100
AcDbLine
 10
34.1805
 20
185.91565
 30
0.0
 11
34.7669
 21
187.78565
 31
0.0
  0
LINE
  5
1B5
330
1D
100
AcDbEntity
  8
0
100
AcDbLine
 10
33.9837
 20
209.81765
 30
0.0
 11
33.9935
 21
210.55665
 31
0.0
  0
LINE
  5
1B6
330
1D
100
AcDbEntity
  8
0
100
AcDbLine
 10
33.9837
 20
209.81765
 30
0.0
 11
33.9837
 21
183.99865
 31
0.0
  0
LINE
  5
1BC
330
1D
100
AcDbEntity
  8
0
100
AcDbLine
 10
34.0745
 20
212.03965
 30
0.0
 11
34.7681
 21
216.58065
 31
0.0
  0
LINE
  5
1C0
330
1D
100
AcDbEntity
  8
0
100
AcDbLine
 10
33.9935
 20
210.55665
 30
0.0
 11
34.0745
 21
212.03965
 31
0.0
  0
LINE
  5
1C6
330
1D
100
AcDbEntity
  8
0
100
AcDbLine
 10
34.2979
 20
238.40765
 30
0.0
 11
37.2521
 21
240.12665
 31
0.0
  0
LINE
  5
1C7
330
1D
100
AcDbEntity
  8
0
100
AcDbLine
 10
34.7681
 20
216.58065
 30
0.0
 11
36.2923
 21
220.62665
 31
0.0
  0
LINE
  5
1CA
330
1D
100
AcDbEntity
  8
0
100
AcDbLine
 10
34.7669
 20
187.78565
 30
0.0
 11
35.7274
 21
189.56265
 31
0.0
  0
LINE
  5
1CF
330
1D
100
AcDbEntity
  8
0
100
AcDbLine
 10
35.7274
 20
189.56265
 30
0.0
 11
37.0394
 21
191.20265
 31
0.0
  0
LINE
  5
1D7
330
1D
100
AcDbEntity
  8
0
100
AcDbLine
 10
36.2925
 20
220.62665
 30
0.0
 11
37.327444540521
 21
222.496511631519
 31
0.0
  0
LINE
  5
1DB
330
1D
100
AcDbEntity
  8
0
100
AcDbLine
 10
37.7391
 20
179.40865
 30
0.0
 11
40.6244
 21
181.44565
 31
0.0
  0
LINE
  5
1DF
330
1D
100
AcDbEntity
  8
0
100
AcDbLine
 10
40.6244
 20
181.44565
 30
0.0
 11
44.4379
 21
182.99865
 31
0.0
  0
LINE
  5
1E8
330
1D
100
AcDbEntity
  8
0
100
AcDbLine
 10
37.0394
 20
191.20265
 30
0.0
 11
38.6698
 21
192.66565
 31
0.0
  0
LINE
  5
1EC
330
1D
100
AcDbEntity
  8
0
100
AcDbLine
 10
44.4379
 20
182.99865
 30
0.0
 11
48.2633
 21
183.69265
 31
0.0
  0
LINE
  5
202
330
1D
100
AcDbEntity
  8
0
100
AcDbLine
 10
40.579
 20
193.91465
 30
0.0
 11
42.7197
 21
194.91965
 31
0.0
  0
LINE
  5
203
330
1D
100
AcDbEntity
  8
0
100
AcDbLine
 10
38.6698
 20
192.66565
 30
0.0
 11
40.579
 21
193.91465
 31
0.0
  0
LINE
  5
20B
330
1D
100
AcDbEntity
  8
0
100
AcDbLine
 10
42.7197
 20
194.91965
 30
0.0
 11
45.0395
 21
195.65565
 31
0.0
  0
LINE
  5
20F
330
1D
100
AcDbEntity
  8
0
100
AcDbLine
 10
37.327444540521
 20
222.496511631519
 30
0.0
 11
38.4262
 21
224.26065
 31
0.0
  0
LINE
  5
21A
330
1D
100
AcDbEntity
  8
0
100
AcDbLine
 10
45.0395
 20
195.65565
 30
0.0
 11
47.481
 21
196.10465
 31
0.0
  0
LINE
  5
21B
330
1D
100
AcDbEntity
  8
0
100
AcDbLine
 10
38.4262
 20
224.26065
 30
0.0
 11
39.6875
 21
225.80465
 31
0.0
  0
LINE
  5
21C
330
1D
100
AcDbEntity
  8
0
100
AcDbLine
 10
39.6879
 20
225.80465
 30
0.0
 11
41.1108
 21
227.19865
 31
0.0
  0
LINE
  5
21E
330
1D
100
AcDbEntity
  8
0
100
AcDbLine
 10
39.6875
 20
225.80465
 30
0.0
 11
41.1109
 21
227.19865
 31
0.0
  0
LINE
  5
220
330
1D
100
AcDbEntity
  8
0
100
AcDbLine
 10
41.1109
 20
227.19865
 30
0.0
 11
42.6523
 21
228.38265
 31
0.0
  0
LINE
  5
223
330
1D
100
AcDbEntity
  8
0
100
AcDbLine
 10
42.6523
 20
228.38265
 30
0.0
 11
43.555161849321
 21
228.907066762779
 31
0.0
  0
LINE
  5
225
330
1D
100
AcDbEntity
  8
0
100
AcDbLine
 10
46.111
 20
230.08265
 30
0.0
 11
46.94265665945
 21
230.29588192936
 31
0.0
  0
LINE
  5
226
330
1D
100
AcDbEntity
  8
0
100
AcDbLine
 10
44.3223
 20
229.35265
 30
0.0
 11
46.111
 21
230.08265
 31
0.0
  0
LINE
  5
227
330
1D
100
AcDbEntity
  8
0
100
AcDbLine
 10
43.564989968835
 20
228.91277531124
 30
0.0
 11
44.3223
 21
229.35265
 31
0.0
  0
LINE
  5
22D
330
1D
100
AcDbEntity
  8
0
100
AcDbLine
 10
46.951281324554
 20
230.298093243319
 30
0.0
 11
47.7062
 21
230.49165
 31
0.0
  0
LINE
  5
230
330
1D
100
AcDbEntity
  8
0
100
AcDbLine
 10
38.4257
 20
224.26065
 30
0.0
 11
39.6879
 21
225.80465
 31
0.0
  0
LINE
  5
279
330
1D
100
AcDbEntity
  8
0
100
AcDbLine
 10
65.6088
 20
168.58065
 30
0.0
 11
65.9969
 21
170.67065
 31
0.0
  0
LINE
  5
27B
330
1D
100
AcDbEntity
  8
0
100
AcDbLine
 10
64.621
 20
166.20165
 30
0.0
 11
65.6088
 21
168.58065
 31
0.0
  0
LINE
  5
288
330
1D
100
AcDbEntity
  8
0
100
AcDbLine
 10
65.018
 20
175.70065
 30
0.0
 11
65.7684
 21
173.67265
 31
0.0
  0
LINE
  5
289
330
1D
100
AcDbEntity
  8
0
100
AcDbLine
 10
65.7684
 20
173.67265
 30
0.0
 11
65.9969
 21
170.67065
 31
0.0
  0
LINE
  5
2AF
330
1D
100
AcDbEntity
  8
0
100
AcDbLine
 10
37.2521
 20
240.12665
 30
0.0
 11
40.3911
 21
241.47665
 31
0.0
  0
LINE
  5
2BB
330
1D
100
AcDbEntity
  8
0
100
AcDbLine
 10
43.6699
 20
242.43965
 30
0.0
 11
47.0412
 21
242.99865
 31
0.0
  0
LINE
  5
2C1
330
1D
100
AcDbEntity
  8
0
100
AcDbLine
 10
37.7325
 20
245.20965
 30
0.0
 11
40.7668
 21
246.26465
 31
0.0
  0
LINE
  5
2C2
330
1D
100
AcDbEntity
  8
0
100
AcDbLine
 10
37.7327
 20
245.20965
 30
0.0
 11
40.7668
 21
246.26365
 31
0.0
  0
LINE
  5
2C3
330
1D
100
AcDbEntity
  8
0
100
AcDbLine
 10
34.8158
 20
243.86265
 30
0.0
 11
37.7327
 21
245.20965
 31
0.0
  0
LINE
  5
2C4
330
1D
100
AcDbEntity
  8
0
100
AcDbLine
 10
34.8158
 20
243.86265
 30
0.0
 11
37.7325
 21
245.20965
 31
0.0
  0
LINE
  5
2C6
330
1D
100
AcDbEntity
  8
0
100
AcDbLine
 10
40.3911
 20
241.47665
 30
0.0
 11
43.6699
 21
242.43965
 31
0.0
  0
LINE
  5
2CF
330
1D
100
AcDbEntity
  8
0
100
AcDbLine
 10
40.7668
 20
246.26465
 30
0.0
 11
43.8905
 21
247.01565
 31
0.0
  0
LINE
  5
2D0
330
1D
100
AcDbEntity
  8
0
100
AcDbLine
 10
40.7668
 20
246.26365
 30
0.0
 11
43.8908
 21
247.01565
 31
0.0
  0
LINE
  5
2D2
330
1D
100
AcDbEntity
  8
0
100
AcDbLine
 10
34.7192
 20
246.29165
 30
0.0
 11
37.7803
 21
247.68665
 31
0.0
  0
LINE
  5
2E3
330
1D
100
AcDbEntity
  8
0
100
AcDbLine
 10
69.1341
 20
3.74825
 30
0.0
 11
74.9005
 21
6.32793
 31
0.0
  0
LINE
  5
2E4
330
1D
100
AcDbEntity
  8
0
100
AcDbLine
 10
74.9005
 20
6.32793
 30
0.0
 11
80.375
 21
9.63597
 31
0.0
  0
LINE
  5
2E5
330
1D
100
AcDbEntity
  8
0
100
AcDbLine
 10
69.1341
 20
12.62324
 30
0.0
 11
74.9005
 21
15.202877
 31
0.0
  0
LINE
  5
2E6
330
1D
100
AcDbEntity
  8
0
100
AcDbLine
 10
74.5355
 20
93.55505
 30
0.0
 11
79.937
 21
90.24725
 31
0.0
  0
LINE
  5
2E7
330
1D
100
AcDbEntity
  8
0
100
AcDbLine
 10
69.1341
 20
96.24165
 30
0.0
 11
74.9005
 21
93.66165
 31
0.0
  0
LINE
  5
2E8
330
1D
100
AcDbEntity
  8
0
100
AcDbLine
 10
68.8421
 20
96.00275
 30
0.0
 11
74.5355
 21
93.55505
 31
0.0
  0
LINE
  5
2E9
330
1D
100
AcDbEntity
  8
0
100
AcDbLine
 10
74.9005
 20
93.66165
 30
0.0
 11
80.375
 21
90.35385
 31
0.0
  0
LINE
  5
2EA
330
1D
100
AcDbEntity
  8
0
100
AcDbLine
 10
74.9005
 20
15.202877
 30
0.0
 11
80.375
 21
18.51091
 31
0.0
  0
LINE
  5
2EB
330
1D
100
AcDbEntity
  8
0
100
AcDbLine
 10
74.5355
 20
16.15502
 30
0.0
 11
79.937
 21
19.46305
 31
0.0
  0
LINE
  5
2EC
330
1D
100
AcDbEntity
  8
0
100
AcDbLine
 10
68.8421
 20
13.70726
 30
0.0
 11
74.5355
 21
16.15502
 31
0.0
  0
LINE
  5
341
330
1D
100
AcDbEntity
  8
0
100
AcDbLine
 10
85.3385
 20
13.53942
 30
0.0
 11
89.645
 21
18.03738
 31
0.0
  0
LINE
  5
342
330
1D
100
AcDbEntity
  8
0
100
AcDbLine
 10
80.375
 20
9.63597
 30
0.0
 11
85.3385
 21
13.53942
 31
0.0
  0
LINE
  5
345
330
1D
100
AcDbEntity
  8
0
100
AcDbLine
 10
89.645
 20
18.03738
 30
0.0
 11
93.2947
 21
22.99889
 31
0.0
  0
LINE
  5
349
330
1D
100
AcDbEntity
  8
0
100
AcDbLine
 10
80.375
 20
18.51091
 30
0.0
 11
85.3385
 21
22.41445
 31
0.0
  0
LINE
  5
356
330
1D
100
AcDbEntity
  8
0
100
AcDbLine
 10
79.937
 20
19.46305
 30
0.0
 11
84.8275
 21
23.29961
 31
0.0
  0
LINE
  5
384
330
1D
100
AcDbEntity
  8
0
100
AcDbLine
 10
85.3385
 20
22.41445
 30
0.0
 11
89.645
 21
26.91235
 31
0.0
  0
LINE
  5
386
330
1D
100
AcDbEntity
  8
0
100
AcDbLine
 10
93.2947
 20
22.99889
 30
0.0
 11
96.1414
 21
28.22515
 31
0.0
  0
LINE
  5
387
330
1D
100
AcDbEntity
  8
0
100
AcDbLine
 10
84.8275
 20
23.29961
 30
0.0
 11
89.0611
 21
27.73155
 31
0.0
  0
LINE
  5
397
330
1D
100
AcDbEntity
  8
0
100
AcDbLine
 10
96.1414
 20
28.22515
 30
0.0
 11
98.1852
 21
33.84815
 31
0.0
  0
LINE
  5
398
330
1D
100
AcDbEntity
  8
0
100
AcDbLine
 10
89.645
 20
26.91235
 30
0.0
 11
93.2947
 21
31.87395
 31
0.0
  0
LINE
  5
399
330
1D
100
AcDbEntity
  8
0
100
AcDbLine
 10
89.0611
 20
27.73155
 30
0.0
 11
92.7107
 21
32.62715
 31
0.0
  0
LINE
  5
3D7
330
1D
100
AcDbEntity
  8
0
100
AcDbLine
 10
364.215
 20
13.57535
 30
0.0
 11
367.967
 21
11.63735
 31
0.0
  0
LINE
  5
402
330
1D
100
AcDbEntity
  8
0
100
AcDbLine
 10
367.967
 20
11.63735
 30
0.0
 11
372.301
 21
10.45205
 31
0.0
  0
LINE
  5
403
330
1D
100
AcDbEntity
  8
0
100
AcDbLine
 10
367.968
 20
11.63735
 30
0.0
 11
372.301
 21
10.45195
 31
0.0
  0
LINE
  5
40A
330
1D
100
AcDbEntity
  8
0
100
AcDbLine
 10
372.301
 20
10.45205
 30
0.0
 11
376.92
 21
10.10015
 31
0.0
  0
LINE
  5
40B
330
1D
100
AcDbEntity
  8
0
100
AcDbLine
 10
372.301
 20
10.45195
 30
0.0
 11
376.921
 21
10.10025
 31
0.0
  0
LINE
  5
40E
330
1D
100
AcDbEntity
  8
0
100
AcDbLine
 10
376.92
 20
10.10015
 30
0.0
 11
381.511
 21
10.60575
 31
0.0
  0
LINE
  5
413
330
1D
100
AcDbEntity
  8
0
100
AcDbLine
 10
381.512
 20
10.60575
 30
0.0
 11
385.575
 21
11.77205
 31
0.0
  0
LINE
  5
418
330
1D
100
AcDbEntity
  8
0
100
AcDbLine
 10
376.921
 20
10.10025
 30
0.0
 11
381.512
 21
10.60575
 31
0.0
  0
LINE
  5
423
330
1D
100
AcDbEntity
  8
0
100
AcDbLine
 10
385.575
 20
11.77205
 30
0.0
 11
389.121
 21
13.79155
 31
0.0
  0
LINE
  5
424
330
1D
100
AcDbEntity
  8
0
100
AcDbLine
 10
389.379
 20
13.99535
 30
0.0
 11
390.564
 21
15.06795
 31
0.0
  0
LINE
  5
427
330
1D
100
AcDbEntity
  8
0
100
AcDbLine
 10
390.564
 20
15.06795
 30
0.0
 11
392.12
 21
16.64845
 31
0.0
  0
LINE
  5
428
330
1D
100
AcDbEntity
  8
0
100
AcDbLine
 10
392.12
 20
16.64845
 30
0.0
 11
392.489
 21
17.22245
 31
0.0
  0
LINE
  5
429
330
1D
100
AcDbEntity
  8
0
100
AcDbLine
 10
392.489
 20
17.22215
 30
0.0
 11
393.213
 21
18.39395
 31
0.0
  0
LINE
  5
42A
330
1D
100
AcDbEntity
  8
0
100
AcDbLine
 10
392.489
 20
17.22245
 30
0.0
 11
393.213
 21
18.39395
 31
0.0
  0
LINE
  5
42B
330
1D
100
AcDbEntity
  8
0
100
AcDbLine
 10
393.213
 20
18.39395
 30
0.0
 11
393.796
 21
19.71245
 31
0.0
  0
LINE
  5
430
330
1D
100
AcDbEntity
  8
0
100
AcDbLine
 10
394.339
 20
22.14005
 30
0.0
 11
394.356
 21
22.39165
 31
0.0
  0
LINE
  5
431
330
1D
100
AcDbEntity
  8
0
100
AcDbLine
 10
394.356
 20
22.40355
 30
0.0
 11
394.366
 21
22.64395
 31
0.0
  0
LINE
  5
432
330
1D
100
AcDbEntity
  8
0
100
AcDbLine
 10
394.339
 20
22.13975
 30
0.0
 11
394.356
 21
22.39185
 31
0.0
  0
LINE
  5
433
330
1D
100
AcDbEntity
  8
0
100
AcDbLine
 10
393.977
 20
20.23575
 30
0.0
 11
394.339
 21
22.13975
 31
0.0
  0
LINE
  5
434
330
1D
100
AcDbEntity
  8
0
100
AcDbLine
 10
393.977
 20
20.23575
 30
0.0
 11
394.339
 21
22.14005
 31
0.0
  0
LINE
  5
437
330
1D
100
AcDbEntity
  8
0
100
AcDbLine
 10
394.356
 20
22.40365
 30
0.0
 11
394.366
 21
22.64375
 31
0.0
  0
LINE
  5
439
330
1D
100
AcDbEntity
  8
0
100
AcDbLine
 10
393.796
 20
19.71245
 30
0.0
 11
393.977
 21
20.23575
 31
0.0
  0
LINE
  5
43B
330
1D
100
AcDbEntity
  8
0
100
AcDbLine
 10
389.121
 20
13.79155
 30
0.0
 11
389.38
 21
13.99535
 31
0.0
  0
LINE
  5
45F
330
1D
100
AcDbEntity
  8
0
100
AcDbLine
 10
98.1852
 20
33.84815
 30
0.0
 11
99.4991
 21
39.73585
 31
0.0
  0
LINE
  5
460
330
1D
100
AcDbEntity
  8
0
100
AcDbLine
 10
93.2947
 20
31.87395
 30
0.0
 11
96.1414
 21
37.10015
 31
0.0
  0
LINE
  5
461
330
1D
100
AcDbEntity
  8
0
100
AcDbLine
 10
96.1414
 20
37.10015
 30
0.0
 11
98.1852
 21
42.72305
 31
0.0
  0
LINE
  5
462
330
1D
100
AcDbEntity
  8
0
100
AcDbLine
 10
92.7107
 20
32.62715
 30
0.0
 11
95.4115
 21
37.78755
 31
0.0
  0
LINE
  5
463
330
1D
100
AcDbEntity
  8
0
100
AcDbLine
 10
95.4115
 20
37.78755
 30
0.0
 11
97.5282
 21
43.60925
 31
0.0
  0
LINE
  5
465
330
1D
100
AcDbEntity
  8
0
100
AcDbLine
 10
99.4991
 20
39.73585
 30
0.0
 11
100.01
 21
45.55755
 31
0.0
  0
LINE
  5
467
330
1D
100
AcDbEntity
  8
0
100
AcDbLine
 10
356.51
 20
39.29055
 30
0.0
 11
357.837
 21
28.41575
 31
0.0
  0
LINE
  5
468
330
1D
100
AcDbEntity
  8
0
100
AcDbLine
 10
98.1852
 20
42.72305
 30
0.0
 11
99.4991
 21
48.61075
 31
0.0
  0
LINE
  5
469
330
1D
100
AcDbEntity
  8
0
100
AcDbLine
 10
97.5282
 20
43.60925
 30
0.0
 11
98.7691
 21
49.09935
 31
0.0
  0
LINE
  5
476
330
1D
100
AcDbEntity
  8
0
100
AcDbLine
 10
98.1852
 20
66.14165
 30
0.0
 11
99.4991
 21
60.25405
 31
0.0
  0
LINE
  5
477
330
1D
100
AcDbEntity
  8
0
100
AcDbLine
 10
97.5282
 20
66.10115
 30
0.0
 11
98.7691
 21
60.61045
 31
0.0
  0
LINE
  5
478
330
1D
100
AcDbEntity
  8
0
100
AcDbLine
 10
98.7691
 20
60.61045
 30
0.0
 11
99.2801
 21
54.85515
 31
0.0
  0
LINE
  5
479
330
1D
100
AcDbEntity
  8
0
100
AcDbLine
 10
100.01
 20
45.55755
 30
0.0
 11
100.01
 21
54.43255
 31
0.0
  0
LINE
  5
47A
330
1D
100
AcDbEntity
  8
0
100
AcDbLine
 10
100.01
 20
54.43255
 30
0.0
 11
100.01
 21
45.55755
 31
0.0
  0
LINE
  5
47B
330
1D
100
AcDbEntity
  8
0
100
AcDbLine
 10
99.4991
 20
60.25405
 30
0.0
 11
100.01
 21
54.43255
 31
0.0
  0
LINE
  5
47C
330
1D
100
AcDbEntity
  8
0
100
AcDbLine
 10
99.4991
 20
48.61075
 30
0.0
 11
100.01
 21
54.43255
 31
0.0
  0
LINE
  5
47D
330
1D
100
AcDbEntity
  8
0
100
AcDbLine
 10
98.7691
 20
49.09935
 30
0.0
 11
99.2801
 21
54.85515
 31
0.0
  0
LINE
  5
47E
330
1D
100
AcDbEntity
  8
0
100
AcDbLine
 10
352.792895922551
 20
71.710353824067
 30
0.0
 11
356.51
 21
39.29025
 31
0.0
  0
LINE
  5
47F
330
1D
100
AcDbEntity
  8
0
100
AcDbLine
 10
93.2947
 20
76.99085
 30
0.0
 11
96.1414
 21
71.76485
 31
0.0
  0
LINE
  5
480
330
1D
100
AcDbEntity
  8
0
100
AcDbLine
 10
80.375
 20
90.35385
 30
0.0
 11
85.3385
 21
86.45095
 31
0.0
  0
LINE
  5
481
330
1D
100
AcDbEntity
  8
0
100
AcDbLine
 10
79.937
 20
90.24725
 30
0.0
 11
84.8275
 21
86.41045
 31
0.0
  0
LINE
  5
482
330
1D
100
AcDbEntity
  8
0
100
AcDbLine
 10
85.3385
 20
86.45095
 30
0.0
 11
89.645
 21
81.95245
 31
0.0
  0
LINE
  5
483
330
1D
100
AcDbEntity
  8
0
100
AcDbLine
 10
84.8275
 20
86.41045
 30
0.0
 11
89.0611
 21
81.97805
 31
0.0
  0
LINE
  5
484
330
1D
100
AcDbEntity
  8
0
100
AcDbLine
 10
89.645
 20
81.95245
 30
0.0
 11
93.2947
 21
76.99085
 31
0.0
  0
LINE
  5
485
330
1D
100
AcDbEntity
  8
0
100
AcDbLine
 10
89.0611
 20
81.97805
 30
0.0
 11
92.7107
 21
77.08275
 31
0.0
  0
LINE
  5
486
330
1D
100
AcDbEntity
  8
0
100
AcDbLine
 10
92.7107
 20
77.08275
 30
0.0
 11
95.4115
 21
71.92275
 31
0.0
  0
LINE
  5
487
330
1D
100
AcDbEntity
  8
0
100
AcDbLine
 10
96.1414
 20
71.76485
 30
0.0
 11
98.1852
 21
66.14165
 31
0.0
  0
LINE
  5
488
330
1D
100
AcDbEntity
  8
0
100
AcDbLine
 10
95.4115
 20
71.92275
 30
0.0
 11
97.5282
 21
66.10115
 31
0.0
  0
LINE
  5
489
330
1D
100
AcDbEntity
  8
0
100
AcDbLine
 10
342.7
 20
169.47865
 30
0.0
 11
342.761
 21
172.24465
 31
0.0
  0
LINE
  5
48A
330
1D
100
AcDbEntity
  8
0
100
AcDbLine
 10
342.695
 20
168.84365
 30
0.0
 11
343.106
 21
159.92965
 31
0.0
  0
LINE
  5
48B
330
1D
100
AcDbEntity
  8
0
100
AcDbLine
 10
342.695
 20
168.84365
 30
0.0
 11
342.7
 21
169.47865
 31
0.0
  0
LINE
  5
48C
330
1D
100
AcDbEntity
  8
0
100
AcDbLine
 10
342.761
 20
172.24465
 30
0.0
 11
342.86
 21
174.35965
 31
0.0
  0
LINE
  5
4B6
330
1D
100
AcDbEntity
  8
0
100
AcDbLine
 10
159.336
 20
182.66365
 30
0.0
 11
160.0
 21
182.63165
 31
0.0
  0
LINE
  5
4DA
330
1D
100
AcDbEntity
  8
0
100
AcDbLine
 10
158.223
 20
182.87365
 30
0.0
 11
159.336
 21
182.66365
 31
0.0
  0
LINE
  5
5FC
330
1D
100
AcDbEntity
  8
0
100
AcDbLine
 10
342.848
 20
175.65565
 30
0.0
 11
342.86
 21
174.36065
 31
0.0
  0
LINE
  5
5FD
330
1D
100
AcDbEntity
  8
0
100
AcDbLine
 10
342.848
 20
175.65565
 30
0.0
 11
343.202
 21
179.87865
 31
0.0
  0
LINE
  5
5FF
330
1D
100
AcDbEntity
  8
0
100
AcDbLine
 10
342.761
 20
172.24565
 30
0.0
 11
342.86
 21
174.36065
 31
0.0
  0
LINE
  5
601
330
1D
100
AcDbEntity
  8
0
100
AcDbLine
 10
344.876
 20
141.27865
 30
0.0
 11
350.478
 21
91.55585
 31
0.0
  0
LINE
  5
60E
330
1D
100
AcDbEntity
  8
0
100
AcDbLine
 10
343.83
 20
184.68565
 30
0.0
 11
345.29
 21
191.18665
 31
0.0
  0
LINE
  5
60F
330
1D
100
AcDbEntity
  8
0
100
AcDbLine
 10
343.202
 20
179.87865
 30
0.0
 11
343.83
 21
184.68565
 31
0.0
  0
LINE
  5
611
330
1D
100
AcDbEntity
  8
0
100
AcDbLine
 10
345.29
 20
191.18665
 30
0.0
 11
346.548
 21
195.20065
 31
0.0
  0
LINE
  5
61D
330
1D
100
AcDbEntity
  8
0
100
AcDbLine
 10
346.548
 20
195.20065
 30
0.0
 11
347.933
 21
198.69665
 31
0.0
  0
LINE
  5
61E
330
1D
100
AcDbEntity
  8
0
100
AcDbLine
 10
357.467
 20
196.34765
 30
0.0
 11
358.603
 21
194.84665
 31
0.0
  0
LINE
  5
61F
330
1D
100
AcDbEntity
  8
0
100
AcDbLine
 10
358.603
 20
194.84665
 30
0.0
 11
361.414
 21
191.90665
 31
0.0
  0
LINE
  5
620
330
1D
100
AcDbEntity
  8
0
100
AcDbLine
 10
358.603
 20
194.84665
 30
0.0
 11
361.413
 21
191.90665
 31
0.0
  0
LINE
  5
622
330
1D
100
AcDbEntity
  8
0
100
AcDbLine
 10
357.466
 20
196.34765
 30
0.0
 11
358.603
 21
194.84665
 31
0.0
  0
LINE
  5
623
330
1D
100
AcDbEntity
  8
0
100
AcDbLine
 10
343.106
 20
159.92965
 30
0.0
 11
344.876
 21
141.27865
 31
0.0
  0
LINE
  5
625
330
1D
100
AcDbEntity
  8
0
100
AcDbLine
 10
352.792895922551
 20
71.710353824067
 30
0.0
 11
356.51
 21
39.29025
 31
0.0
  0
LINE
  5
626
330
1D
100
AcDbEntity
  8
0
100
AcDbLine
 10
361.414
 20
191.90665
 30
0.0
 11
363.491
 21
190.19765
 31
0.0
  0
LINE
  5
627
330
1D
100
AcDbEntity
  8
0
100
AcDbLine
 10
361.413
 20
191.90665
 30
0.0
 11
363.491
 21
190.19765
 31
0.0
  0
LINE
  5
629
330
1D
100
AcDbEntity
  8
0
100
AcDbLine
 10
363.491
 20
190.19765
 30
0.0
 11
365.686
 21
188.71965
 31
0.0
  0
LINE
  5
62A
330
1D
100
AcDbEntity
  8
0
100
AcDbLine
 10
363.491
 20
190.19765
 30
0.0
 11
365.685
 21
188.71965
 31
0.0
  0
LINE
  5
636
330
1D
100
AcDbEntity
  8
0
100
AcDbLine
 10
372.743
 20
185.69965
 30
0.0
 11
375.182
 21
185.17465
 31
0.0
  0
LINE
  5
63B
330
1D
100
AcDbEntity
  8
0
100
AcDbLine
 10
377.627
 20
184.89665
 30
0.0
 11
380.057
 21
184.86665
 31
0.0
  0
LINE
  5
63E
330
1D
100
AcDbEntity
  8
0
100
AcDbLine
 10
375.182
 20
185.17465
 30
0.0
 11
377.627
 21
184.89565
 31
0.0
  0
LINE
  5
63F
330
1D
100
AcDbEntity
  8
0
100
AcDbLine
 10
375.182
 20
185.17465
 30
0.0
 11
377.627
 21
184.89665
 31
0.0
  0
LINE
  5
649
330
1D
100
AcDbEntity
  8
0
100
AcDbLine
 10
380.057
 20
184.86665
 30
0.0
 11
382.273
 21
185.06265
 31
0.0
  0
LINE
  5
64B
330
1D
100
AcDbEntity
  8
0
100
AcDbLine
 10
380.056
 20
184.86765
 30
0.0
 11
382.273
 21
185.06265
 31
0.0
  0
LINE
  5
64C
330
1D
100
AcDbEntity
  8
0
100
AcDbLine
 10
382.273
 20
185.06265
 30
0.0
 11
384.647
 21
185.51265
 31
0.0
  0
LINE
  5
64D
330
1D
100
AcDbEntity
  8
0
100
AcDbLine
 10
382.273
 20
185.06265
 30
0.0
 11
384.647
 21
185.51365
 31
0.0
  0
LINE
  5
64E
330
1D
100
AcDbEntity
  8
0
100
AcDbLine
 10
384.647
 20
185.51365
 30
0.0
 11
386.956
 21
186.20165
 31
0.0
  0
LINE
  5
64F
330
1D
100
AcDbEntity
  8
0
100
AcDbLine
 10
384.647
 20
185.51265
 30
0.0
 11
386.956
 21
186.20065
 31
0.0
  0
LINE
  5
650
330
1D
100
AcDbEntity
  8
0
100
AcDbLine
 10
377.627
 20
184.89565
 30
0.0
 11
380.056
 21
184.86765
 31
0.0
  0
LINE
  5
653
330
1D
100
AcDbEntity
  8
0
100
AcDbLine
 10
372.744
 20
185.69965
 30
0.0
 11
375.182
 21
185.17465
 31
0.0
  0
LINE
  5
663
330
1D
100
AcDbEntity
  8
0
100
AcDbLine
 10
394.318
 20
143.62665
 30
0.0
 11
395.466
 21
174.76665
 31
0.0
  0
LINE
  5
666
330
1D
100
AcDbEntity
  8
0
100
AcDbLine
 10
395.876
 20
178.54465
 30
0.0
 11
396.942
 21
185.52665
 31
0.0
  0
LINE
  5
667
330
1D
100
AcDbEntity
  8
0
100
AcDbLine
 10
398.211
 20
184.86765
 30
0.0
 11
400.97
 21
186.73465
 31
0.0
  0
LINE
  5
668
330
1D
100
AcDbEntity
  8
0
100
AcDbLine
 10
396.716955221394
 20
184.052670033558
 30
0.0
 11
398.211
 21
184.86765
 31
0.0
  0
LINE
  5
669
330
1D
100
AcDbEntity
  8
0
100
AcDbLine
 10
395.466
 20
174.76665
 30
0.0
 11
395.876
 21
178.54465
 31
0.0
  0
LINE
  5
66C
330
1D
100
AcDbEntity
  8
0
100
AcDbLine
 10
396.942
 20
185.52665
 30
0.0
 11
398.078
 21
191.23365
 31
0.0
  0
LINE
  5
66D
330
1D
100
AcDbEntity
  8
0
100
AcDbLine
 10
394.258
 20
93.79135
 30
0.0
 11
394.407
 21
40.22475
 31
0.0
  0
LINE
  5
66E
330
1D
100
AcDbEntity
  8
0
100
AcDbLine
 10
394.258
 20
93.79135
 30
0.0
 11
394.318
 21
143.62665
 31
0.0
  0
LINE
  5
673
330
1D
100
AcDbEntity
  8
0
100
AcDbLine
 10
386.956
 20
186.20165
 30
0.0
 11
389.187
 21
187.11565
 31
0.0
  0
LINE
  5
674
330
1D
100
AcDbEntity
  8
0
100
AcDbLine
 10
370.334
 20
186.46765
 30
0.0
 11
372.743
 21
185.69965
 31
0.0
  0
LINE
  5
675
330
1D
100
AcDbEntity
  8
0
100
AcDbLine
 10
370.333
 20
186.46765
 30
0.0
 11
372.744
 21
185.69965
 31
0.0
  0
LINE
  5
676
330
1D
100
AcDbEntity
  8
0
100
AcDbLine
 10
367.973
 20
187.47465
 30
0.0
 11
370.334
 21
186.46765
 31
0.0
  0
LINE
  5
678
330
1D
100
AcDbEntity
  8
0
100
AcDbLine
 10
365.685
 20
188.71965
 30
0.0
 11
367.973
 21
187.47465
 31
0.0
  0
LINE
  5
67A
330
1D
100
AcDbEntity
  8
0
100
AcDbLine
 10
365.686
 20
188.71965
 30
0.0
 11
367.974
 21
187.47465
 31
0.0
  0
LINE
  5
67B
330
1D
100
AcDbEntity
  8
0
100
AcDbLine
 10
367.974
 20
187.47465
 30
0.0
 11
370.333
 21
186.46765
 31
0.0
  0
LINE
  5
67C
330
1D
100
AcDbEntity
  8
0
100
AcDbLine
 10
391.324
 20
188.24465
 30
0.0
 11
393.354
 21
189.57965
 31
0.0
  0
LINE
  5
67D
330
1D
100
AcDbEntity
  8
0
100
AcDbLine
 10
389.187
 20
187.11565
 30
0.0
 11
391.324
 21
188.24565
 31
0.0
  0
LINE
  5
67E
330
1D
100
AcDbEntity
  8
0
100
AcDbLine
 10
389.187
 20
187.11565
 30
0.0
 11
391.324
 21
188.24465
 31
0.0
  0
LINE
  5
67F
330
1D
100
AcDbEntity
  8
0
100
AcDbLine
 10
397.157800621197
 20
186.610782170044
 30
0.0
 11
398.082
 21
187.15365
 31
0.0
  0
LINE
  5
680
330
1D
100
AcDbEntity
  8
0
100
AcDbLine
 10
398.082
 20
187.15365
 30
0.0
 11
400.702
 21
189.05865
 31
0.0
  0
LINE
  5
681
330
1D
100
AcDbEntity
  8
0
100
AcDbLine
 10
400.97
 20
186.73465
 30
0.0
 11
402.628920214956
 21
188.104809570063
 31
0.0
  0
LINE
  5
682
330
1D
100
AcDbEntity
  8
0
100
AcDbLine
 10
397.157712081267
 20
186.610337366014
 30
0.0
 11
398.083
 21
187.15365
 31
0.0
  0
LINE
  5
687
330
1D
100
AcDbEntity
  8
0
100
AcDbLine
 10
393.354
 20
189.57965
 30
0.0
 11
402.546
 21
197.89865
 31
0.0
  0
LINE
  5
68A
330
1D
100
AcDbEntity
  8
0
100
AcDbLine
 10
398.078
 20
191.23365
 30
0.0
 11
398.788772928247
 21
194.087510999779
 31
0.0
  0
LINE
  5
68D
330
1D
100
AcDbEntity
  8
0
100
AcDbLine
 10
400.702
 20
189.05865
 30
0.0
 11
403.121
 21
191.21165
 31
0.0
  0
LINE
  5
68E
330
1D
100
AcDbEntity
  8
0
100
AcDbLine
 10
400.702
 20
189.05965
 30
0.0
 11
403.121
 21
191.21165
 31
0.0
  0
LINE
  5
68F
330
1D
100
AcDbEntity
  8
0
100
AcDbLine
 10
403.121
 20
191.21165
 30
0.0
 11
405.317
 21
193.59065
 31
0.0
  0
LINE
  5
690
330
1D
100
AcDbEntity
  8
0
100
AcDbLine
 10
403.121
 20
191.21165
 30
0.0
 11
405.317
 21
193.59165
 31
0.0
  0
LINE
  5
691
330
1D
100
AcDbEntity
  8
0
100
AcDbLine
 10
405.317
 20
193.59165
 30
0.0
 11
407.271
 21
196.17465
 31
0.0
  0
LINE
  5
692
330
1D
100
AcDbEntity
  8
0
100
AcDbLine
 10
407.271
 20
196.17465
 30
0.0
 11
408.961
 21
198.93665
 31
0.0
  0
LINE
  5
693
330
1D
100
AcDbEntity
  8
0
100
AcDbLine
 10
405.317
 20
193.59065
 30
0.0
 11
407.27
 21
196.17465
 31
0.0
  0
LINE
  5
694
330
1D
100
AcDbEntity
  8
0
100
AcDbLine
 10
407.27
 20
196.17465
 30
0.0
 11
408.961
 21
198.93665
 31
0.0
  0
LINE
  5
695
330
1D
100
AcDbEntity
  8
0
100
AcDbLine
 10
398.083
 20
187.15365
 30
0.0
 11
398.858628304786
 21
187.718335847563
 31
0.0
  0
LINE
  5
696
330
1D
100
AcDbEntity
  8
0
100
AcDbLine
 10
398.083
 20
187.15365
 30
0.0
 11
400.702
 21
189.05965
 31
0.0
  0
LINE
  5
697
330
1D
100
AcDbEntity
  8
0
100
AcDbLine
 10
391.324
 20
188.24565
 30
0.0
 11
393.354
 21
189.57965
 31
0.0
  0
LINE
  5
698
330
1D
100
AcDbEntity
  8
0
100
AcDbLine
 10
386.956
 20
186.20065
 30
0.0
 11
389.187
 21
187.11565
 31
0.0
  0
LINE
  5
6D2
330
1D
100
AcDbEntity
  8
0
100
AcDbLine
 10
347.933
 20
198.69665
 30
0.0
 11
350.298
 21
203.10165
 31
0.0
  0
LINE
  5
6D3
330
1D
100
AcDbEntity
  8
0
100
AcDbLine
 10
356.478
 20
197.94065
 30
0.0
 11
357.466
 21
196.34765
 31
0.0
  0
LINE
  5
6D4
330
1D
100
AcDbEntity
  8
0
100
AcDbLine
 10
356.478
 20
197.93965
 30
0.0
 11
357.467
 21
196.34765
 31
0.0
  0
LINE
  5
6D5
330
1D
100
AcDbEntity
  8
0
100
AcDbLine
 10
396.8
 20
198.11265
 30
0.0
 11
399.818
 21
198.36365
 31
0.0
  0
LINE
  5
6D6
330
1D
100
AcDbEntity
  8
0
100
AcDbLine
 10
396.801
 20
198.11265
 30
0.0
 11
399.818
 21
198.36365
 31
0.0
  0
LINE
  5
6D7
330
1D
100
AcDbEntity
  8
0
100
AcDbLine
 10
402.546
 20
197.89865
 30
0.0
 11
407.603
 21
201.85265
 31
0.0
  0
LINE
  5
6DA
330
1D
100
AcDbEntity
  8
0
100
AcDbLine
 10
393.754
 20
198.32265
 30
0.0
 11
396.801
 21
198.11265
 31
0.0
  0
LINE
  5
6DC
330
1D
100
AcDbEntity
  8
0
100
AcDbLine
 10
399.818
 20
198.36365
 30
0.0
 11
401.283
 21
198.66665
 31
0.0
  0
LINE
  5
6DD
330
1D
100
AcDbEntity
  8
0
100
AcDbLine
 10
393.754
 20
198.32165
 30
0.0
 11
396.8
 21
198.11265
 31
0.0
  0
LINE
  5
6DE
330
1D
100
AcDbEntity
  8
0
100
AcDbLine
 10
392.244
 20
198.59665
 30
0.0
 11
393.754
 21
198.32165
 31
0.0
  0
LINE
  5
6DF
330
1D
100
AcDbEntity
  8
0
100
AcDbLine
 10
392.244
 20
198.59665
 30
0.0
 11
393.754
 21
198.32265
 31
0.0
  0
LINE
  5
6E0
330
1D
100
AcDbEntity
  8
0
100
AcDbLine
 10
408.961
 20
198.93665
 30
0.0
 11
410.371
 21
201.85165
 31
0.0
  0
LINE
  5
6E1
330
1D
100
AcDbEntity
  8
0
100
AcDbLine
 10
408.961
 20
198.93665
 30
0.0
 11
410.372
 21
201.85165
 31
0.0
  0
LINE
  5
6E2
330
1D
100
AcDbEntity
  8
0
100
AcDbLine
 10
408.961
 20
198.93665
 30
0.0
 11
410.371
 21
201.85265
 31
0.0
  0
LINE
  5
6E3
330
1D
100
AcDbEntity
  8
0
100
AcDbLine
 10
389.796
 20
199.29465
 30
0.0
 11
392.244
 21
198.59665
 31
0.0
  0
LINE
  5
6E9
330
1D
100
AcDbEntity
  8
0
100
AcDbLine
 10
389.797
 20
199.29465
 30
0.0
 11
392.244
 21
198.59665
 31
0.0
  0
LINE
  5
71D
330
1D
100
AcDbEntity
  8
0
100
AcDbLine
 10
350.298
 20
203.10165
 30
0.0
 11
352.284
 21
206.57465
 31
0.0
  0
LINE
  5
71F
330
1D
100
AcDbEntity
  8
0
100
AcDbLine
 10
354.857
 20
203.20365
 30
0.0
 11
355.021
 21
205.78265
 31
0.0
  0
LINE
  5
720
330
1D
100
AcDbEntity
  8
0
100
AcDbLine
 10
354.857
 20
203.20365
 30
0.0
 11
355.128
 21
201.37465
 31
0.0
  0
LINE
  5
721
330
1D
100
AcDbEntity
  8
0
100
AcDbLine
 10
355.128
 20
201.37465
 30
0.0
 11
355.684
 21
199.61865
 31
0.0
  0
LINE
  5
722
330
1D
100
AcDbEntity
  8
0
100
AcDbLine
 10
347.823
 20
200.98665
 30
0.0
 11
348.459176338838
 21
199.676695146969
 31
0.0
  0
LINE
  5
728
330
1D
100
AcDbEntity
  8
0
100
AcDbLine
 10
387.413
 20
200.30365
 30
0.0
 11
389.797
 21
199.29465
 31
0.0
  0
LINE
  5
729
330
1D
100
AcDbEntity
  8
0
100
AcDbLine
 10
387.413
 20
200.30365
 30
0.0
 11
389.796
 21
199.29465
 31
0.0
  0
LINE
  5
72B
330
1D
100
AcDbEntity
  8
0
100
AcDbLine
 10
384.75
 20
201.88565
 30
0.0
 11
387.413
 21
200.30365
 31
0.0
  0
LINE
  5
734
330
1D
100
AcDbEntity
  8
0
100
AcDbLine
 10
410.372
 20
201.85165
 30
0.0
 11
411.49
 21
204.89165
 31
0.0
  0
LINE
  5
735
330
1D
100
AcDbEntity
  8
0
100
AcDbLine
 10
409.803494475109
 20
200.67840276237
 30
0.0
 11
410.372
 21
201.85165
 31
0.0
  0
LINE
  5
738
330
1D
100
AcDbEntity
  8
0
100
AcDbLine
 10
410.371
 20
201.85265
 30
0.0
 11
411.49
 21
204.89065
 31
0.0
  0
LINE
  5
739
330
1D
100
AcDbEntity
  8
0
100
AcDbLine
 10
407.603
 20
201.85265
 30
0.0
 11
408.619
 21
202.80165
 31
0.0
  0
LINE
  5
73B
330
1D
100
AcDbEntity
  8
0
100
AcDbLine
 10
408.619
 20
202.80165
 30
0.0
 11
409.803
 21
204.18165
 31
0.0
  0
LINE
  5
73D
330
1D
100
AcDbEntity
  8
0
100
AcDbLine
 10
407.602
 20
201.85265
 30
0.0
 11
408.619
 21
202.80165
 31
0.0
  0
LINE
  5
73E
330
1D
100
AcDbEntity
  8
0
100
AcDbLine
 10
410.371
 20
201.85165
 30
0.0
 11
410.9305
 21
203.37165
 31
0.0
  0
LINE
  5
740
330
1D
100
AcDbEntity
  8
0
100
AcDbLine
 10
355.684
 20
199.61865
 30
0.0
 11
356.478
 21
197.94065
 31
0.0
  0
LINE
  5
741
330
1D
100
AcDbEntity
  8
0
100
AcDbLine
 10
355.684
 20
199.61865
 30
0.0
 11
356.478
 21
197.93965
 31
0.0
  0
LINE
  5
742
330
1D
100
AcDbEntity
  8
0
100
AcDbLine
 10
355.128
 20
201.37565
 30
0.0
 11
355.684
 21
199.61865
 31
0.0
  0
LINE
  5
744
330
1D
100
AcDbEntity
  8
0
100
AcDbLine
 10
354.857
 20
203.20465
 30
0.0
 11
355.128
 21
201.37565
 31
0.0
  0
LINE
  5
746
330
1D
100
AcDbEntity
  8
0
100
AcDbLine
 10
354.857
 20
203.20465
 30
0.0
 11
355.02
 21
205.78165
 31
0.0
  0
LINE
  5
778
330
1D
100
AcDbEntity
  8
0
100
AcDbLine
 10
382.322
 20
203.85865
 30
0.0
 11
384.75
 21
201.88565
 31
0.0
  0
LINE
  5
779
330
1D
100
AcDbEntity
  8
0
100
AcDbLine
 10
346.66
 20
204.10765
 30
0.0
 11
347.823
 21
200.98665
 31
0.0
  0
LINE
  5
77A
330
1D
100
AcDbEntity
  8
0
100
AcDbLine
 10
409.803
 20
204.18165
 30
0.0
 11
411.256
 21
206.52065
 31
0.0
  0
LINE
  5
77B
330
1D
100
AcDbEntity
  8
0
100
AcDbLine
 10
382.323
 20
203.85865
 30
0.0
 11
384.75
 21
201.88565
 31
0.0
  0
LINE
  5
7CD
330
1D
100
AcDbEntity
  8
0
100
AcDbLine
 10
355.021
 20
205.78265
 30
0.0
 11
355.819
 21
208.43665
 31
0.0
  0
LINE
  5
7CE
330
1D
100
AcDbEntity
  8
0
100
AcDbLine
 10
377.595
 20
210.16365
 30
0.0
 11
378.396
 21
208.73965
 31
0.0
  0
LINE
  5
7CF
330
1D
100
AcDbEntity
  8
0
100
AcDbLine
 10
355.819
 20
208.43665
 30
0.0
 11
357.169
 21
211.16865
 31
0.0
  0
LINE
  5
7D0
330
1D
100
AcDbEntity
  8
0
100
AcDbLine
 10
355.819
 20
208.43665
 30
0.0
 11
357.168
 21
211.16865
 31
0.0
  0
LINE
  5
7D1
330
1D
100
AcDbEntity
  8
0
100
AcDbLine
 10
352.284
 20
206.57465
 30
0.0
 11
355.134
 21
210.58165
 31
0.0
  0
LINE
  5
7D2
330
1D
100
AcDbEntity
  8
0
100
AcDbLine
 10
355.02
 20
205.78165
 30
0.0
 11
355.819
 21
208.43665
 31
0.0
  0
LINE
  5
7D3
330
1D
100
AcDbEntity
  8
0
100
AcDbLine
 10
345.798
 20
207.32465
 30
0.0
 11
346.66
 21
204.10765
 31
0.0
  0
LINE
  5
7D6
330
1D
100
AcDbEntity
  8
0
100
AcDbLine
 10
355.134
 20
210.58165
 30
0.0
 11
357.038
 21
212.80165
 31
0.0
  0
LINE
  5
7DD
330
1D
100
AcDbEntity
  8
0
100
AcDbLine
 10
357.168
 20
211.16865
 30
0.0
 11
357.551
 21
211.81265
 31
0.0
  0
LINE
  5
7F5
330
1D
100
AcDbEntity
  8
0
100
AcDbLine
 10
354.25
 20
211.43365
 30
0.0
 11
354.591305981433
 21
209.81864125179
 31
0.0
  0
LINE
  5
7F6
330
1D
100
AcDbEntity
  8
0
100
AcDbLine
 10
357.169
 20
211.16865
 30
0.0
 11
357.551
 21
211.81265
 31
0.0
  0
LINE
  5
7F7
330
1D
100
AcDbEntity
  8
0
100
AcDbLine
 10
376.893
 20
211.63065
 30
0.0
 11
377.594
 21
210.16465
 31
0.0
  0
LINE
  5
7F8
330
1D
100
AcDbEntity
  8
0
100
AcDbLine
 10
376.892
 20
211.63065
 30
0.0
 11
377.595
 21
210.16365
 31
0.0
  0
LINE
  5
7F9
330
1D
100
AcDbEntity
  8
0
100
AcDbLine
 10
357.551
 20
211.81265
 30
0.0
 11
359.116
 21
214.14765
 31
0.0
  0
LINE
  5
7FA
330
1D
100
AcDbEntity
  8
0
100
AcDbLine
 10
357.551
 20
211.81265
 30
0.0
 11
359.116
 21
214.14865
 31
0.0
  0
LINE
  5
7FB
330
1D
100
AcDbEntity
  8
0
100
AcDbLine
 10
345.247
 20
210.60965
 30
0.0
 11
345.798
 21
207.32465
 31
0.0
  0
LINE
  5
7FD
330
1D
100
AcDbEntity
  8
0
100
AcDbLine
 10
377.594
 20
210.16465
 30
0.0
 11
378.396
 21
208.74065
 31
0.0
  0
LINE
  5
7FE
330
1D
100
AcDbEntity
  8
0
100
AcDbLine
 10
380.205
 20
206.15165
 30
0.0
 11
382.323
 21
203.85865
 31
0.0
  0
LINE
  5
7FF
330
1D
100
AcDbEntity
  8
0
100
AcDbLine
 10
380.205
 20
206.15165
 30
0.0
 11
382.322
 21
203.85865
 31
0.0
  0
LINE
  5
800
330
1D
100
AcDbEntity
  8
0
100
AcDbLine
 10
411.49
 20
204.89065
 30
0.0
 11
412.306
 21
208.02565
 31
0.0
  0
LINE
  5
801
330
1D
100
AcDbEntity
  8
0
100
AcDbLine
 10
412.306
 20
208.02565
 30
0.0
 11
412.81
 21
211.22365
 31
0.0
  0
LINE
  5
802
330
1D
100
AcDbEntity
  8
0
100
AcDbLine
 10
412.306
 20
208.02565
 30
0.0
 11
412.811
 21
211.22365
 31
0.0
  0
LINE
  5
804
330
1D
100
AcDbEntity
  8
0
100
AcDbLine
 10
411.49
 20
204.89165
 30
0.0
 11
412.306
 21
208.02565
 31
0.0
  0
LINE
  5
806
330
1D
100
AcDbEntity
  8
0
100
AcDbLine
 10
411.256
 20
206.52065
 30
0.0
 11
411.914
 21
208.03565
 31
0.0
  0
LINE
  5
807
330
1D
100
AcDbEntity
  8
0
100
AcDbLine
 10
411.914
 20
208.03565
 30
0.0
 11
412.313
 21
209.14665
 31
0.0
  0
LINE
  5
809
330
1D
100
AcDbEntity
  8
0
100
AcDbLine
 10
378.396
 20
208.73965
 30
0.0
 11
380.205
 21
206.15165
 31
0.0
  0
LINE
  5
80A
330
1D
100
AcDbEntity
  8
0
100
AcDbLine
 10
412.811
 20
211.22365
 30
0.0
 11
412.818306962649
 21
211.349306437465
 31
0.0
  0
LINE
  5
80B
330
1D
100
AcDbEntity
  8
0
100
AcDbLine
 10
412.81
 20
211.22365
 30
0.0
 11
412.817017148343
 21
211.343684077208
 31
0.0
  0
LINE
  5
80C
330
1D
100
AcDbEntity
  8
0
100
AcDbLine
 10
412.313
 20
209.14665
 30
0.0
 11
413.026
 21
212.25465
 31
0.0
  0
LINE
  5
80D
330
1D
100
AcDbEntity
  8
0
100
AcDbLine
 10
413.026
 20
212.25465
 30
0.0
 11
413.168
 21
214.10765
 31
0.0
  0
LINE
  5
80F
330
1D
100
AcDbEntity
  8
0
100
AcDbLine
 10
378.396
 20
208.74065
 30
0.0
 11
380.205
 21
206.15165
 31
0.0
  0
LINE
  5
813
330
1D
100
AcDbEntity
  8
0
100
AcDbLine
 10
357.038
 20
212.80165
 30
0.0
 11
358.802
 21
215.08065
 31
0.0
  0
LINE
  5
81D
330
1D
100
AcDbEntity
  8
0
100
AcDbLine
 10
376.112
 20
213.66265
 30
0.0
 11
376.893
 21
211.63065
 31
0.0
  0
LINE
  5
81E
330
1D
100
AcDbEntity
  8
0
100
AcDbLine
 10
376.112
 20
213.66265
 30
0.0
 11
376.892
 21
211.63065
 31
0.0
  0
LINE
  5
86E
330
1D
100
AcDbEntity
  8
0
100
AcDbLine
 10
354.053
 20
213.79965
 30
0.0
 11
354.25
 21
211.43365
 31
0.0
  0
LINE
  5
86F
330
1D
100
AcDbEntity
  8
0
100
AcDbLine
 10
354.053
 20
213.79965
 30
0.0
 11
354.307
 21
218.52365
 31
0.0
  0
LINE
  5
872
330
1D
100
AcDbEntity
  8
0
100
AcDbLine
 10
359.116
 20
214.14865
 30
0.0
 11
360.34
 21
215.75665
 31
0.0
  0
LINE
  5
877
330
1D
100
AcDbEntity
  8
0
100
AcDbLine
 10
360.34
 20
215.75665
 30
0.0
 11
361.636
 21
217.28265
 31
0.0
  0
LINE
  5
878
330
1D
100
AcDbEntity
  8
0
100
AcDbLine
 10
375.434
 20
216.24765
 30
0.0
 11
376.112
 21
213.66265
 31
0.0
  0
LINE
  5
879
330
1D
100
AcDbEntity
  8
0
100
AcDbLine
 10
360.339
 20
215.75665
 30
0.0
 11
361.636
 21
217.28265
 31
0.0
  0
LINE
  5
87A
330
1D
100
AcDbEntity
  8
0
100
AcDbLine
 10
359.116
 20
214.14765
 30
0.0
 11
360.339
 21
215.75665
 31
0.0
  0
LINE
  5
87B
330
1D
100
AcDbEntity
  8
0
100
AcDbLine
 10
345.01
 20
213.93265
 30
0.0
 11
345.247
 21
210.60965
 31
0.0
  0
LINE
  5
87C
330
1D
100
AcDbEntity
  8
0
100
AcDbLine
 10
345.01
 20
213.93265
 30
0.0
 11
345.09
 21
217.26165
 31
0.0
  0
LINE
  5
87D
330
1D
100
AcDbEntity
  8
0
100
AcDbLine
 10
354.053
 20
213.79865
 30
0.0
 11
354.307
 21
218.52265
 31
0.0
  0
LINE
  5
87E
330
1D
100
AcDbEntity
  8
0
100
AcDbLine
 10
354.053
 20
213.79865
 30
0.0
 11
354.25
 21
211.43365
 31
0.0
  0
LINE
  5
87F
330
1D
100
AcDbEntity
  8
0
100
AcDbLine
 10
413.143
 20
216.20765
 30
0.0
 11
413.168
 21
214.10765
 31
0.0
  0
LINE
  5
8A0
330
1D
100
AcDbEntity
  8
0
100
AcDbLine
 10
361.636
 20
217.28265
 30
0.0
 11
362.338
 21
218.05565
 31
0.0
  0
LINE
  5
8A1
330
1D
100
AcDbEntity
  8
0
100
AcDbLine
 10
354.307
 20
218.52265
 30
0.0
 11
354.757
 21
220.85365
 31
0.0
  0
LINE
  5
8A6
330
1D
100
AcDbEntity
  8
0
100
AcDbLine
 10
345.09
 20
217.26165
 30
0.0
 11
345.486
 21
220.56965
 31
0.0
  0
LINE
  5
8B0
330
1D
100
AcDbEntity
  8
0
100
AcDbLine
 10
354.307
 20
218.52365
 30
0.0
 11
354.757
 21
220.85365
 31
0.0
  0
LINE
  5
8B1
330
1D
100
AcDbEntity
  8
0
100
AcDbLine
 10
413.048
 20
217.23165
 30
0.0
 11
413.143
 21
216.20765
 31
0.0
  0
LINE
  5
8B2
330
1D
100
AcDbEntity
  8
0
100
AcDbLine
 10
414.753
 20
218.90665
 30
0.0
 11
414.99
 21
215.58365
 31
0.0
  0
LINE
  5
8B4
330
1D
100
AcDbEntity
  8
0
100
AcDbLine
 10
375.101
 20
219.23165
 30
0.0
 11
375.234
 21
222.15265
 31
0.0
  0
LINE
  5
8B6
330
1D
100
AcDbEntity
  8
0
100
AcDbLine
 10
375.101
 20
219.23165
 30
0.0
 11
375.234
 21
222.15165
 31
0.0
  0
LINE
  5
8B8
330
1D
100
AcDbEntity
  8
0
100
AcDbLine
 10
375.101
 20
219.23165
 30
0.0
 11
375.434
 21
216.24765
 31
0.0
  0
LINE
  5
8D2
330
1D
100
AcDbEntity
  8
0
100
AcDbLine
 10
345.486
 20
220.56965
 30
0.0
 11
346.195
 21
223.82365
 31
0.0
  0
LINE
  5
8F7
330
1D
100
AcDbEntity
  8
0
100
AcDbLine
 10
345.612664647996
 20
221.150985352015
 30
0.0
 11
346.194
 21
223.82365
 31
0.0
  0
LINE
  5
8F8
330
1D
100
AcDbEntity
  8
0
100
AcDbLine
 10
346.194
 20
223.82365
 30
0.0
 11
346.702
 21
225.40965
 31
0.0
  0
LINE
  5
8FB
330
1D
100
AcDbEntity
  8
0
100
AcDbLine
 10
346.195
 20
223.82365
 30
0.0
 11
347.209
 21
226.99565
 31
0.0
  0
LINE
  5
8FC
330
1D
100
AcDbEntity
  8
0
100
AcDbLine
 10
354.757
 20
220.85365
 30
0.0
 11
356.037
 21
224.77865
 31
0.0
  0
LINE
  5
90B
330
1D
100
AcDbEntity
  8
0
100
AcDbLine
 10
412.572
 20
219.73665
 30
0.0
 11
413.048
 21
217.23165
 31
0.0
  0
LINE
  5
912
330
1D
100
AcDbEntity
  8
0
100
AcDbLine
 10
375.234
 20
222.15265
 30
0.0
 11
375.874
 21
225.12765
 31
0.0
  0
LINE
  5
917
330
1D
100
AcDbEntity
  8
0
100
AcDbLine
 10
375.234
 20
222.15165
 30
0.0
 11
375.874
 21
225.12765
 31
0.0
  0
LINE
  5
918
330
1D
100
AcDbEntity
  8
0
100
AcDbLine
 10
411.587
 20
222.65965
 30
0.0
 11
412.572
 21
219.73665
 31
0.0
  0
LINE
  5
919
330
1D
100
AcDbEntity
  8
0
100
AcDbLine
 10
414.202
 20
222.19165
 30
0.0
 11
414.753
 21
218.90665
 31
0.0
  0
LINE
  5
941
330
1D
100
AcDbEntity
  8
0
100
AcDbLine
 10
356.037
 20
224.77865
 30
0.0
 11
357.924
 21
228.45465
 31
0.0
  0
LINE
  5
949
330
1D
100
AcDbEntity
  8
0
100
AcDbLine
 10
375.874
 20
225.12765
 30
0.0
 11
376.677
 21
227.23665
 31
0.0
  0
LINE
  5
94D
330
1D
100
AcDbEntity
  8
0
100
AcDbLine
 10
410.358
 20
225.15065
 30
0.0
 11
411.587
 21
222.65965
 31
0.0
  0
LINE
  5
94E
330
1D
100
AcDbEntity
  8
0
100
AcDbLine
 10
410.359
 20
225.15065
 30
0.0
 11
411.587
 21
222.65965
 31
0.0
  0
LINE
  5
95E
330
1D
100
AcDbEntity
  8
0
100
AcDbLine
 10
372.579
 20
225.96665
 30
0.0
 11
380.636
 21
232.63865
 31
0.0
  0
LINE
  5
970
330
1D
100
AcDbEntity
  8
0
100
AcDbLine
 10
347.209
 20
226.99565
 30
0.0
 11
348.521
 21
230.05765
 31
0.0
  0
LINE
  5
9A8
330
1D
100
AcDbEntity
  8
0
100
AcDbLine
 10
357.924
 20
228.45465
 30
0.0
 11
360.396
 21
231.81765
 31
0.0
  0
LINE
  5
9B6
330
1D
100
AcDbEntity
  8
0
100
AcDbLine
 10
348.521
 20
230.05765
 30
0.0
 11
350.118
 21
232.98065
 31
0.0
  0
LINE
  5
9B9
330
1D
100
AcDbEntity
  8
0
100
AcDbLine
 10
408.389333618773
 20
228.158916925539
 30
0.0
 11
410.359
 21
225.15065
 31
0.0
  0
LINE
  5
9BD
330
1D
100
AcDbEntity
  8
0
100
AcDbLine
 10
408.386
 20
228.16465
 30
0.0
 11
410.358
 21
225.15065
 31
0.0
  0
LINE
  5
9BE
330
1D
100
AcDbEntity
  8
0
100
AcDbLine
 10
413.341
 20
225.40765
 30
0.0
 11
413.655780851707
 21
224.230150000069
 31
0.0
  0
LINE
  5
9BF
330
1D
100
AcDbEntity
  8
0
100
AcDbLine
 10
413.34
 20
225.40865
 30
0.0
 11
414.202
 21
222.19165
 31
0.0
  0
LINE
  5
9C2
330
1D
100
AcDbEntity
  8
0
100
AcDbLine
 10
412.177
 20
228.52965
 30
0.0
 11
413.34
 21
225.40865
 31
0.0
  0
LINE
  5
9C3
330
1D
100
AcDbEntity
  8
0
100
AcDbLine
 10
412.177
 20
228.52965
 30
0.0
 11
413.341
 21
225.40765
 31
0.0
  0
LINE
  5
9EF
330
1D
100
AcDbEntity
  8
0
100
AcDbLine
 10
406.134
 20
230.55565
 30
0.0
 11
408.386
 21
228.16465
 31
0.0
  0
LINE
  5
A3B
330
1D
100
AcDbEntity
  8
0
100
AcDbLine
 10
350.118
 20
232.98065
 30
0.0
 11
351.985
 21
235.73865
 31
0.0
  0
LINE
  5
A3D
330
1D
100
AcDbEntity
  8
0
100
AcDbLine
 10
360.396
 20
231.81765
 30
0.0
 11
362.377
 21
233.86265
 31
0.0
  0
LINE
  5
A44
330
1D
100
AcDbEntity
  8
0
100
AcDbLine
 10
380.636
 20
232.63865
 30
0.0
 11
382.881
 21
234.24965
 31
0.0
  0
LINE
  5
A48
330
1D
100
AcDbEntity
  8
0
100
AcDbLine
 10
382.881
 20
234.24965
 30
0.0
 11
385.337
 21
235.37365
 31
0.0
  0
LINE
  5
A50
330
1D
100
AcDbEntity
  8
0
100
AcDbLine
 10
403.14
 20
232.98165
 30
0.0
 11
406.134
 21
230.55565
 31
0.0
  0
LINE
  5
A51
330
1D
100
AcDbEntity
  8
0
100
AcDbLine
 10
410.722
 20
231.52565
 30
0.0
 11
412.177
 21
228.52965
 31
0.0
  0
LINE
  5
A52
330
1D
100
AcDbEntity
  8
0
100
AcDbLine
 10
408.989
 20
234.37065
 30
0.0
 11
410.722
 21
231.52565
 31
0.0
  0
LINE
  5
A53
330
1D
100
AcDbEntity
  8
0
100
AcDbLine
 10
408.989
 20
234.36965
 30
0.0
 11
410.722
 21
231.52565
 31
0.0
  0
LINE
  5
A55
330
1D
100
AcDbEntity
  8
0
100
AcDbLine
 10
400.305
 20
234.58565
 30
0.0
 11
403.14
 21
232.98165
 31
0.0
  0
LINE
  5
A5A
330
1D
100
AcDbEntity
  8
0
100
AcDbLine
 10
362.377
 20
233.86265
 30
0.0
 11
364.555
 21
235.66865
 31
0.0
  0
LINE
  5
AAB
330
1D
100
AcDbEntity
  8
0
100
AcDbLine
 10
351.985
 20
235.73865
 30
0.0
 11
354.106
 21
238.30665
 31
0.0
  0
LINE
  5
AC5
330
1D
100
AcDbEntity
  8
0
100
AcDbLine
 10
354.106
 20
238.30665
 30
0.0
 11
356.462
 21
240.66165
 31
0.0
  0
LINE
  5
ACB
330
1D
100
AcDbEntity
  8
0
100
AcDbLine
 10
377.503
 20
236.44165
 30
0.0
 11
377.503
 21
235.188148561841
 31
0.0
  0
LINE
  5
ACD
330
1D
100
AcDbEntity
  8
0
100
AcDbLine
 10
377.503
 20
235.188148561841
 30
0.0
 11
377.503
 21
236.44165
 31
0.0
  0
LINE
  5
AD0
330
1D
100
AcDbEntity
  8
0
100
AcDbLine
 10
378.52
 20
235.20765
 30
0.0
 11
380.048
 21
235.24265
 31
0.0
  0
LINE
  5
AD1
330
1D
100
AcDbEntity
  8
0
100
AcDbLine
 10
381.068
 20
235.24165
 30
0.0
 11
382.275
 21
235.22965
 31
0.0
  0
LINE
  5
AD4
330
1D
100
AcDbEntity
  8
0
100
AcDbLine
 10
380.048
 20
235.24265
 30
0.0
 11
381.068
 21
235.24165
 31
0.0
  0
LINE
  5
ADB
330
1D
100
AcDbEntity
  8
0
100
AcDbLine
 10
385.337
 20
235.37365
 30
0.0
 11
388.022
 21
236.07865
 31
0.0
  0
LINE
  5
ADC
330
1D
100
AcDbEntity
  8
0
100
AcDbLine
 10
382.497
 20
235.254420526316
 30
0.0
 11
382.497
 21
236.44165
 31
0.0
  0
LINE
  5
ADE
330
1D
100
AcDbEntity
  8
0
100
AcDbLine
 10
397.41
 20
235.64865
 30
0.0
 11
400.305
 21
234.58565
 31
0.0
  0
LINE
  5
ADF
330
1D
100
AcDbEntity
  8
0
100
AcDbLine
 10
408.13485585587
 20
235.511505855837
 30
0.0
 11
408.989
 21
234.37065
 31
0.0
  0
LINE
  5
AE1
330
1D
100
AcDbEntity
  8
0
100
AcDbLine
 10
394.214
 20
236.26665
 30
0.0
 11
397.41
 21
235.64865
 31
0.0
  0
LINE
  5
AE2
330
1D
100
AcDbEntity
  8
0
100
AcDbLine
 10
390.974
 20
236.38865
 30
0.0
 11
394.214
 21
236.26665
 31
0.0
  0
LINE
  5
AE3
330
1D
100
AcDbEntity
  8
0
100
AcDbLine
 10
394.642
 20
236.23965
 30
0.0
 11
394.740748949769
 21
236.164794289438
 31
0.0
  0
LINE
  5
AE4
330
1D
100
AcDbEntity
  8
0
100
AcDbLine
 10
382.497
 20
236.44165
 30
0.0
 11
382.837
 21
239.02965
 31
0.0
  0
LINE
  5
AE5
330
1D
100
AcDbEntity
  8
0
100
AcDbLine
 10
382.497
 20
236.44165
 30
0.0
 11
382.497
 21
235.254420526316
 31
0.0
  0
LINE
  5
AE6
330
1D
100
AcDbEntity
  8
0
100
AcDbLine
 10
388.022
 20
236.07865
 30
0.0
 11
390.974
 21
236.38865
 31
0.0
  0
LINE
  5
AED
330
1D
100
AcDbEntity
  8
0
100
AcDbLine
 10
377.163
 20
239.02965
 30
0.0
 11
377.263345365555
 21
238.557144624831
 31
0.0
  0
LINE
  5
AF0
330
1D
100
AcDbEntity
  8
0
100
AcDbLine
 10
392.48
 20
237.56765
 30
0.0
 11
394.642
 21
236.23965
 31
0.0
  0
LINE
  5
AF1
330
1D
100
AcDbEntity
  8
0
100
AcDbLine
 10
392.479
 20
237.56765
 30
0.0
 11
394.642
 21
236.23965
 31
0.0
  0
LINE
  5
AF2
330
1D
100
AcDbEntity
  8
0
100
AcDbLine
 10
390.197
 20
238.67865
 30
0.0
 11
392.479
 21
237.56765
 31
0.0
  0
LINE
  5
AF4
330
1D
100
AcDbEntity
  8
0
100
AcDbLine
 10
390.197
 20
238.67865
 30
0.0
 11
392.48
 21
237.56765
 31
0.0
  0
LINE
  5
AF9
330
1D
100
AcDbEntity
  8
0
100
AcDbLine
 10
382.837
 20
239.02965
 30
0.0
 11
383.149
 21
240.21865
 31
0.0
  0
LINE
  5
AFA
330
1D
100
AcDbEntity
  8
0
100
AcDbLine
 10
369.389
 20
238.49765
 30
0.0
 11
371.947
 21
239.48565
 31
0.0
  0
LINE
  5
AFB
330
1D
100
AcDbEntity
  8
0
100
AcDbLine
 10
369.389
 20
238.49765
 30
0.0
 11
371.946
 21
239.48565
 31
0.0
  0
LINE
  5
AFC
330
1D
100
AcDbEntity
  8
0
100
AcDbLine
 10
366.901
 20
237.21765
 30
0.0
 11
369.389
 21
238.49765
 31
0.0
  0
LINE
  5
AFE
330
1D
100
AcDbEntity
  8
0
100
AcDbLine
 10
364.555
 20
235.66865
 30
0.0
 11
366.901
 21
237.21765
 31
0.0
  0
LINE
  5
AFF
330
1D
100
AcDbEntity
  8
0
100
AcDbLine
 10
377.477
 20
235.18765
 30
0.0
 11
378.52
 21
235.20765
 31
0.0
  0
LINE
  5
B8C
330
1D
100
AcDbEntity
  8
0
100
AcDbLine
 10
359.031
 20
242.78165
 30
0.0
 11
361.79
 21
244.64765
 31
0.0
  0
LINE
  5
B8D
330
1D
100
AcDbEntity
  8
0
100
AcDbLine
 10
357.746500000018
 20
241.721150000015
 30
0.0
 11
359.031
 21
242.78165
 31
0.0
  0
LINE
  5
B8E
330
1D
100
AcDbEntity
  8
0
100
AcDbLine
 10
359.031
 20
242.78065
 30
0.0
 11
361.79
 21
244.64765
 31
0.0
  0
LINE
  5
B8F
330
1D
100
AcDbEntity
  8
0
100
AcDbLine
 10
356.462
 20
240.66165
 30
0.0
 11
359.031
 21
242.78065
 31
0.0
  0
LINE
  5
B90
330
1D
100
AcDbEntity
  8
0
100
AcDbLine
 10
371.946
 20
239.48565
 30
0.0
 11
374.576
 21
240.19465
 31
0.0
  0
LINE
  5
B91
330
1D
100
AcDbEntity
  8
0
100
AcDbLine
 10
371.947
 20
239.48565
 30
0.0
 11
374.576
 21
240.19465
 31
0.0
  0
LINE
  5
B92
330
1D
100
AcDbEntity
  8
0
100
AcDbLine
 10
374.576
 20
240.19465
 30
0.0
 11
376.791358192952
 21
240.547954336348
 31
0.0
  0
LINE
  5
B96
330
1D
100
AcDbEntity
  8
0
100
AcDbLine
 10
383.149
 20
240.21865
 30
0.0
 11
383.396
 21
241.85465
 31
0.0
  0
LINE
  5
B97
330
1D
100
AcDbEntity
  8
0
100
AcDbLine
 10
385.357
 20
240.20865
 30
0.0
 11
387.816
 21
239.56165
 31
0.0
  0
LINE
  5
B9A
330
1D
100
AcDbEntity
  8
0
100
AcDbLine
 10
376.5
 20
242.15665
 30
0.0
 11
376.851
 21
240.21865
 31
0.0
  0
LINE
  5
B9B
330
1D
100
AcDbEntity
  8
0
100
AcDbLine
 10
383.396
 20
241.85465
 30
0.0
 11
383.486
 21
242.80665
 31
0.0
  0
LINE
  5
B9C
330
1D
100
AcDbEntity
  8
0
100
AcDbLine
 10
383.198721815921
 20
240.547981541887
 30
0.0
 11
385.357
 21
240.20865
 31
0.0
  0
LINE
  5
B9D
330
1D
100
AcDbEntity
  8
0
100
AcDbLine
 10
376.851
 20
240.21865
 30
0.0
 11
377.163
 21
239.02965
 31
0.0
  0
LINE
  5
B9F
330
1D
100
AcDbEntity
  8
0
100
AcDbLine
 10
404.754
 20
239.50265
 30
0.0
 11
405.819963868225
 21
238.328613868226
 31
0.0
  0
LINE
  5
BA4
330
1D
100
AcDbEntity
  8
0
100
AcDbLine
 10
402.29
 20
241.74265
 30
0.0
 11
404.754
 21
239.50265
 31
0.0
  0
LINE
  5
BA5
330
1D
100
AcDbEntity
  8
0
100
AcDbLine
 10
402.289
 20
241.74265
 30
0.0
 11
404.754
 21
239.50165
 31
0.0
  0
LINE
  5
BA6
330
1D
100
AcDbEntity
  8
0
100
AcDbLine
 10
387.816
 20
239.56165
 30
0.0
 11
390.197
 21
238.67865
 31
0.0
  0
LINE
  5
BA7
330
1D
100
AcDbEntity
  8
0
100
AcDbLine
 10
383.486
 20
242.80665
 30
0.0
 11
383.529
 21
252.72765
 31
0.0
  0
LINE
  5
BD0
330
1D
100
AcDbEntity
  8
0
100
AcDbLine
 10
361.79
 20
244.64765
 30
0.0
 11
364.713
 21
246.24265
 31
0.0
  0
LINE
  5
BD1
330
1D
100
AcDbEntity
  8
0
100
AcDbLine
 10
361.79
 20
244.64765
 30
0.0
 11
364.714
 21
246.24365
 31
0.0
  0
LINE
  5
BDC
330
1D
100
AcDbEntity
  8
0
100
AcDbLine
 10
364.714
 20
246.24365
 30
0.0
 11
367.775
 21
247.55365
 31
0.0
  0
LINE
  5
BDD
330
1D
100
AcDbEntity
  8
0
100
AcDbLine
 10
364.713
 20
246.24265
 30
0.0
 11
367.776
 21
247.55365
 31
0.0
  0
LINE
  5
BE6
330
1D
100
AcDbEntity
  8
0
100
AcDbLine
 10
399.624
 20
243.73965
 30
0.0
 11
402.29
 21
241.74265
 31
0.0
  0
LINE
  5
BE7
330
1D
100
AcDbEntity
  8
0
100
AcDbLine
 10
399.624
 20
243.73865
 30
0.0
 11
402.289
 21
241.74265
 31
0.0
  0
LINE
  5
BE8
330
1D
100
AcDbEntity
  8
0
100
AcDbLine
 10
396.78
 20
245.47365
 30
0.0
 11
399.624
 21
243.73865
 31
0.0
  0
LINE
  5
BE9
330
1D
100
AcDbEntity
  8
0
100
AcDbLine
 10
396.78
 20
245.47365
 30
0.0
 11
399.624
 21
243.73965
 31
0.0
  0
LINE
  5
BEF
330
1D
100
AcDbEntity
  8
0
100
AcDbLine
 10
43.8905
 20
247.01565
 30
0.0
 11
47.0718
 21
247.45865
 31
0.0
  0
LINE
  5
BF0
330
1D
100
AcDbEntity
  8
0
100
AcDbLine
 10
43.8908
 20
247.01565
 30
0.0
 11
47.0726
 21
247.45865
 31
0.0
  0
LINE
  5
BFF
330
1D
100
AcDbEntity
  8
0
100
AcDbLine
 10
40.9297
 20
248.66865
 30
0.0
 11
42.548
 21
249.07665
 31
0.0
  0
LINE
  5
C01
330
1D
100
AcDbEntity
  8
0
100
AcDbLine
 10
42.548
 20
249.07665
 30
0.0
 11
44.9545
 21
249.51765
 31
0.0
  0
LINE
  5
C15
330
1D
100
AcDbEntity
  8
0
100
AcDbLine
 10
37.7803
 20
247.68665
 30
0.0
 11
40.9297
 21
248.66865
 31
0.0
  0
LINE
  5
C20
330
1D
100
AcDbEntity
  8
0
100
AcDbLine
 10
393.785
 20
246.92965
 30
0.0
 11
396.78
 21
245.47365
 31
0.0
  0
LINE
  5
C41
330
1D
100
AcDbEntity
  8
0
100
AcDbLine
 10
367.775
 20
247.55365
 30
0.0
 11
369.361999999927
 21
248.060149999977
 31
0.0
  0
LINE
  5
C47
330
1D
100
AcDbEntity
  8
0
100
AcDbLine
 10
390.664
 20
248.09365
 30
0.0
 11
393.785
 21
246.92965
 31
0.0
  0
LINE
  5
C48
330
1D
100
AcDbEntity
  8
0
100
AcDbLine
 10
387.447
 20
248.95665
 30
0.0
 11
390.664
 21
248.09365
 31
0.0
  0
LINE
  5
C49
330
1D
100
AcDbEntity
  8
0
100
AcDbLine
 10
384.162
 20
249.50965
 30
0.0
 11
387.447
 21
248.95665
 31
0.0
  0
LINE
  5
C4B
330
1D
100
AcDbEntity
  8
0
100
AcDbLine
 10
376.874
 20
253.91365
 30
0.0
 11
377.476
 21
254.48865
 31
0.0
  0
LINE
  5
C4C
330
1D
100
AcDbEntity
  8
0
100
AcDbLine
 10
377.476
 20
254.48865
 30
0.0
 11
378.374
 21
254.70465
 31
0.0
  0
LINE
  5
C52
330
1D
100
AcDbEntity
  8
0
100
AcDbLine
 10
383.254
 20
253.88465
 30
0.0
 11
383.529
 21
252.72765
 31
0.0
  0
LINE
  5
C54
330
1D
100
AcDbEntity
  8
0
100
AcDbLine
 10
381.862
 20
254.60965
 30
0.0
 11
383.254
 21
253.88465
 31
0.0
  0
LINE
  5
C59
330
1D
100
AcDbEntity
  8
0
100
AcDbLine
 10
380.0
 20
254.75765
 30
0.0
 11
381.862
 21
254.60965
 31
0.0
  0
LINE
  5
C5A
330
1D
100
AcDbEntity
  8
0
100
AcDbLine
 10
378.374
 20
254.70465
 30
0.0
 11
380.0
 21
254.75765
 31
0.0
  0
LINE
  5
C5B
330
1D
100
AcDbEntity
  8
0
100
AcDbLine
 10
376.494
 20
253.12365
 30
0.0
 11
376.5
 21
242.15665
 31
0.0
  0
LINE
  5
C5D
330
1D
100
AcDbEntity
  8
0
100
AcDbLine
 10
376.494
 20
253.12365
 30
0.0
 11
376.874
 21
253.91365
 31
0.0
  0
LINE
  5
C5E
330
1D
100
AcDbEntity
  8
0
100
AcDbLine
 10
383.515253242225
 20
249.555985258384
 30
0.0
 11
384.162
 21
249.50965
 31
0.0
  0
LINE
  5
C5F
330
1D
100
AcDbEntity
  8
0
100
AcDbLine
 10
374.203
 20
249.27465
 30
0.0
 11
376.495955979137
 21
249.548446134147
 31
0.0
  0
LINE
  5
C60
330
1D
100
AcDbEntity
  8
0
100
AcDbLine
 10
370.948
 20
248.56665
 30
0.0
 11
374.203
 21
249.27465
 31
0.0
  0
LINE
  5
C61
330
1D
100
AcDbEntity
  8
0
100
AcDbLine
 10
367.776
 20
247.55365
 30
0.0
 11
370.948
 21
248.56665
 31
0.0
  0
LINE
  5
C65
330
1D
100
AcDbEntity
  8
0
100
AcDbLine
 10
33.2286
 20
184.18565
 30
0.0
 11
34.003126753605
 21
183.807851018518
 31
0.0
  0
LINE
  5
E85
330
1D
100
AcDbEntity
  8
0
100
AcDbLine
 10
174.107609957704
 20
193.629502314134
 30
0.0
 11
172.632709957704
 21
191.666402314134
 31
0.0
  0
LINE
  5
E86
330
1D
100
AcDbEntity
  8
0
100
AcDbLine
 10
174.628009957705
 20
195.260302314134
 30
0.0
 11
172.739109957704
 21
192.607102314134
 31
0.0
  0
LINE
  5
E87
330
1D
100
AcDbEntity
  8
0
100
AcDbLine
 10
174.628009957705
 20
195.260302314134
 30
0.0
 11
172.738909957704
 21
192.607402314134
 31
0.0
  0
LINE
  5
E88
330
1D
100
AcDbEntity
  8
0
100
AcDbLine
 10
174.297209957704
 20
192.360902314134
 30
0.0
 11
173.035809957704
 21
191.630902314134
 31
0.0
  0
LINE
  5
E89
330
1D
100
AcDbEntity
  8
0
100
AcDbLine
 10
174.297409957705
 20
192.360802314134
 30
0.0
 11
173.035909957704
 21
191.630902314134
 31
0.0
  0
LINE
  5
E8A
330
1D
100
AcDbEntity
  8
0
100
AcDbLine
 10
174.269909957704
 20
236.207902314134
 30
0.0
 11
172.789009957704
 21
237.492602314134
 31
0.0
  0
LINE
  5
E8B
330
1D
100
AcDbEntity
  8
0
100
AcDbLine
 10
174.269909957704
 20
236.207902314134
 30
0.0
 11
172.788909957704
 21
237.492602314134
 31
0.0
  0
LINE
  5
E8C
330
1D
100
AcDbEntity
  8
0
100
AcDbLine
 10
173.926509957704
 20
235.846902314134
 30
0.0
 11
172.838809957704
 21
236.811502314134
 31
0.0
  0
LINE
  5
E8D
330
1D
100
AcDbEntity
  8
0
100
AcDbLine
 10
174.459609957704
 20
238.776402314134
 30
0.0
 11
173.283609957704
 21
239.469802314134
 31
0.0
  0
LINE
  5
E8E
330
1D
100
AcDbEntity
  8
0
100
AcDbLine
 10
174.459509957704
 20
238.776502314134
 30
0.0
 11
173.283309957704
 21
239.470002314134
 31
0.0
  0
LINE
  5
E8F
330
1D
100
AcDbEntity
  8
0
100
AcDbLine
 10
133.682709957704
 20
222.922302314134
 30
0.0
 11
134.105309957704
 21
224.300502314134
 31
0.0
  0
LINE
  5
E90
330
1D
100
AcDbEntity
  8
0
100
AcDbLine
 10
133.683109957704
 20
222.922502314134
 30
0.0
 11
134.105109957704
 21
224.300402314134
 31
0.0
  0
LINE
  5
E91
330
1D
100
AcDbEntity
  8
0
100
AcDbLine
 10
138.683509957705
 20
221.095602314134
 30
0.0
 11
139.235009957704
 21
223.877402314134
 31
0.0
  0
LINE
  5
E92
330
1D
100
AcDbEntity
  8
0
100
AcDbLine
 10
138.683409957704
 20
221.095402314134
 30
0.0
 11
139.234809957704
 21
223.877402314134
 31
0.0
  0
LINE
  5
E93
330
1D
100
AcDbEntity
  8
0
100
AcDbLine
 10
138.436309957704
 20
222.593202314134
 30
0.0
 11
138.752009957705
 21
223.998602314134
 31
0.0
  0
LINE
  5
E94
330
1D
100
AcDbEntity
  8
0
100
AcDbLine
 10
138.436209957704
 20
222.593102314134
 30
0.0
 11
138.752209957704
 21
223.998802314134
 31
0.0
  0
LINE
  5
E95
330
1D
100
AcDbEntity
  8
0
100
AcDbLine
 10
152.666509957704
 20
186.777202314134
 30
0.0
 11
154.737809957704
 21
185.164402314134
 31
0.0
  0
LINE
  5
E96
330
1D
100
AcDbEntity
  8
0
100
AcDbLine
 10
151.741609957704
 20
186.934202314134
 30
0.0
 11
153.586509957704
 21
185.387902314134
 31
0.0
  0
LINE
  5
E97
330
1D
100
AcDbEntity
  8
0
100
AcDbLine
 10
151.741609957704
 20
186.934202314134
 30
0.0
 11
153.586509957704
 21
185.387702314134
 31
0.0
  0
LINE
  5
E98
330
1D
100
AcDbEntity
  8
0
100
AcDbLine
 10
152.666409957704
 20
186.777602314134
 30
0.0
 11
154.737809957704
 21
185.164202314134
 31
0.0
  0
LINE
  5
E99
330
1D
100
AcDbEntity
  8
0
100
AcDbLine
 10
135.007609957704
 20
204.607302314134
 30
0.0
 11
135.703309957704
 21
203.149602314134
 31
0.0
  0
LINE
  5
E9A
330
1D
100
AcDbEntity
  8
0
100
AcDbLine
 10
135.007909957704
 20
204.607302314134
 30
0.0
 11
135.703309957704
 21
203.149602314134
 31
0.0
  0
LINE
  5
E9B
330
1D
100
AcDbEntity
  8
0
100
AcDbLine
 10
140.051609957704
 20
204.716002314134
 30
0.0
 11
140.892809957704
 21
202.546802314134
 31
0.0
  0
LINE
  5
E9C
330
1D
100
AcDbEntity
  8
0
100
AcDbLine
 10
140.051809957704
 20
204.715602314134
 30
0.0
 11
140.892809957704
 21
202.546802314134
 31
0.0
  0
LINE
  5
E9D
330
1D
100
AcDbEntity
  8
0
100
AcDbLine
 10
140.632709957704
 20
204.563902314134
 30
0.0
 11
141.349409957704
 21
202.737702314134
 31
0.0
  0
LINE
  5
E9E
330
1D
100
AcDbEntity
  8
0
100
AcDbLine
 10
140.632509957704
 20
204.564002314134
 30
0.0
 11
141.349409957704
 21
202.737902314134
 31
0.0
  0
LINE
  5
E9F
330
1D
100
AcDbEntity
  8
0
100
AcDbLine
 10
142.173709957704
 20
194.938702314134
 30
0.0
 11
143.302809957704
 21
194.017202314134
 31
0.0
  0
LINE
  5
EA0
330
1D
100
AcDbEntity
  8
0
100
AcDbLine
 10
142.173709957704
 20
194.938402314134
 30
0.0
 11
143.302909957704
 21
194.017202314134
 31
0.0
  0
LINE
  5
EA1
330
1D
100
AcDbEntity
  8
0
100
AcDbLine
 10
141.986009957704
 20
200.152302314134
 30
0.0
 11
143.205009957704
 21
197.847802314134
 31
0.0
  0
LINE
  5
EA2
330
1D
100
AcDbEntity
  8
0
100
AcDbLine
 10
141.986009957704
 20
200.152302314134
 30
0.0
 11
143.205009957704
 21
197.847602314134
 31
0.0
  0
LINE
  5
EA3
330
1D
100
AcDbEntity
  8
0
100
AcDbLine
 10
142.430209957704
 20
200.370302314134
 30
0.0
 11
143.635609957704
 21
198.090502314134
 31
0.0
  0
LINE
  5
EA4
330
1D
100
AcDbEntity
  8
0
100
AcDbLine
 10
142.430009957704
 20
200.370502314134
 30
0.0
 11
143.636109957704
 21
198.090102314134
 31
0.0
  0
LINE
  5
EA5
330
1D
100
AcDbEntity
  8
0
100
AcDbLine
 10
138.193709957704
 20
199.183602314134
 30
0.0
 11
139.102409957704
 21
198.044402314134
 31
0.0
  0
LINE
  5
EA6
330
1D
100
AcDbEntity
  8
0
100
AcDbLine
 10
138.193809957705
 20
199.183502314134
 30
0.0
 11
139.102309957704
 21
198.044602314134
 31
0.0
  0
LINE
  5
EA7
330
1D
100
AcDbEntity
  8
0
100
AcDbLine
 10
139.102409957704
 20
198.044402314134
 30
0.0
 11
140.070209957704
 21
196.955302314134
 31
0.0
  0
LINE
  5
EA8
330
1D
100
AcDbEntity
  8
0
100
AcDbLine
 10
139.102309957704
 20
198.044602314134
 30
0.0
 11
140.070309957704
 21
196.955202314134
 31
0.0
  0
LINE
  5
EA9
330
1D
100
AcDbEntity
  8
0
100
AcDbLine
 10
136.484009957705
 20
201.735602314134
 30
0.0
 11
137.347009957705
 21
200.370002314134
 31
0.0
  0
LINE
  5
EAA
330
1D
100
AcDbEntity
  8
0
100
AcDbLine
 10
137.347009957705
 20
200.370002314134
 30
0.0
 11
138.193809957705
 21
199.183502314134
 31
0.0
  0
LINE
  5
EAB
330
1D
100
AcDbEntity
  8
0
100
AcDbLine
 10
137.347009957705
 20
200.370002314134
 30
0.0
 11
138.193709957704
 21
199.183602314134
 31
0.0
  0
LINE
  5
EAC
330
1D
100
AcDbEntity
  8
0
100
AcDbLine
 10
135.703309957704
 20
203.149602314134
 30
0.0
 11
136.484009957705
 21
201.735602314134
 31
0.0
  0
LINE
  5
EAD
330
1D
100
AcDbEntity
  8
0
100
AcDbLine
 10
135.703309957704
 20
203.149602314134
 30
0.0
 11
136.483809957704
 21
201.735602314134
 31
0.0
  0
LINE
  5
EAE
330
1D
100
AcDbEntity
  8
0
100
AcDbLine
 10
136.483809957704
 20
201.735602314134
 30
0.0
 11
137.347009957705
 21
200.370002314134
 31
0.0
  0
LINE
  5
EAF
330
1D
100
AcDbEntity
  8
0
100
AcDbLine
 10
140.070309957704
 20
196.955202314134
 30
0.0
 11
141.095009957704
 21
195.919002314134
 31
0.0
  0
LINE
  5
EB0
330
1D
100
AcDbEntity
  8
0
100
AcDbLine
 10
140.070209957704
 20
196.955302314134
 30
0.0
 11
141.095209957704
 21
195.918702314134
 31
0.0
  0
LINE
  5
EB1
330
1D
100
AcDbEntity
  8
0
100
AcDbLine
 10
141.095009957704
 20
195.919002314134
 30
0.0
 11
142.173709957704
 21
194.938402314134
 31
0.0
  0
LINE
  5
EB2
330
1D
100
AcDbEntity
  8
0
100
AcDbLine
 10
141.095209957704
 20
195.918702314134
 30
0.0
 11
142.173709957704
 21
194.938702314134
 31
0.0
  0
LINE
  5
EB3
330
1D
100
AcDbEntity
  8
0
100
AcDbLine
 10
141.349409957704
 20
202.737702314134
 30
0.0
 11
142.430009957704
 21
200.370502314134
 31
0.0
  0
LINE
  5
EB4
330
1D
100
AcDbEntity
  8
0
100
AcDbLine
 10
141.349409957704
 20
202.737902314134
 30
0.0
 11
142.430209957704
 21
200.370302314134
 31
0.0
  0
LINE
  5
EB5
330
1D
100
AcDbEntity
  8
0
100
AcDbLine
 10
140.892809957704
 20
202.546802314134
 30
0.0
 11
141.986009957704
 21
200.152302314134
 31
0.0
  0
LINE
  5
EB6
330
1D
100
AcDbEntity
  8
0
100
AcDbLine
 10
145.890209957704
 20
193.629502314134
 30
0.0
 11
147.365109957705
 21
191.666402314134
 31
0.0
  0
LINE
  5
EB7
330
1D
100
AcDbEntity
  8
0
100
AcDbLine
 10
145.369809957704
 20
195.260302314134
 30
0.0
 11
147.258709957704
 21
192.607102314134
 31
0.0
  0
LINE
  5
EB8
330
1D
100
AcDbEntity
  8
0
100
AcDbLine
 10
145.369809957704
 20
195.260302314134
 30
0.0
 11
147.258909957705
 21
192.607402314134
 31
0.0
  0
LINE
  5
EB9
330
1D
100
AcDbEntity
  8
0
100
AcDbLine
 10
145.700409957704
 20
192.360802314134
 30
0.0
 11
144.479609957704
 21
193.157102314134
 31
0.0
  0
LINE
  5
EBA
330
1D
100
AcDbEntity
  8
0
100
AcDbLine
 10
145.700609957705
 20
192.360902314134
 30
0.0
 11
146.962009957704
 21
191.630902314134
 31
0.0
  0
LINE
  5
EBB
330
1D
100
AcDbEntity
  8
0
100
AcDbLine
 10
145.700409957704
 20
192.360802314134
 30
0.0
 11
146.961909957704
 21
191.630902314134
 31
0.0
  0
LINE
  5
EBC
330
1D
100
AcDbEntity
  8
0
100
AcDbLine
 10
146.961909957704
 20
191.630902314134
 30
0.0
 11
147.338674971462
 21
191.439009754386
 31
0.0
  0
LINE
  5
EBD
330
1D
100
AcDbEntity
  8
0
100
AcDbLine
 10
146.962009957704
 20
191.630902314134
 30
0.0
 11
147.338713245915
 21
191.438967854773
 31
0.0
  0
LINE
  5
EBE
330
1D
100
AcDbEntity
  8
0
100
AcDbLine
 10
148.927509957705
 20
189.801402314134
 30
0.0
 11
150.018009957704
 21
188.617802314134
 31
0.0
  0
LINE
  5
EBF
330
1D
100
AcDbEntity
  8
0
100
AcDbLine
 10
148.927509957705
 20
189.801402314134
 30
0.0
 11
150.018209957704
 21
188.617402314134
 31
0.0
  0
LINE
  5
EC0
330
1D
100
AcDbEntity
  8
0
100
AcDbLine
 10
150.018209957704
 20
188.617402314134
 30
0.0
 11
151.741609957704
 21
186.934202314134
 31
0.0
  0
LINE
  5
EC1
330
1D
100
AcDbEntity
  8
0
100
AcDbLine
 10
150.018009957704
 20
188.617802314134
 30
0.0
 11
151.741609957704
 21
186.934202314134
 31
0.0
  0
LINE
  5
EC2
330
1D
100
AcDbEntity
  8
0
100
AcDbLine
 10
149.298609957704
 20
190.129102314134
 30
0.0
 11
151.498709957704
 21
187.839202314134
 31
0.0
  0
LINE
  5
EC3
330
1D
100
AcDbEntity
  8
0
100
AcDbLine
 10
149.298509957704
 20
190.129402314134
 30
0.0
 11
151.498709957704
 21
187.839302314134
 31
0.0
  0
LINE
  5
EC4
330
1D
100
AcDbEntity
  8
0
100
AcDbLine
 10
147.258909957705
 20
192.607402314134
 30
0.0
 11
149.298609957704
 21
190.129102314134
 31
0.0
  0
LINE
  5
EC5
330
1D
100
AcDbEntity
  8
0
100
AcDbLine
 10
147.258709957704
 20
192.607102314134
 30
0.0
 11
149.298509957704
 21
190.129402314134
 31
0.0
  0
LINE
  5
EC6
330
1D
100
AcDbEntity
  8
0
100
AcDbLine
 10
151.498709957704
 20
187.839302314134
 30
0.0
 11
152.666409957704
 21
186.777602314134
 31
0.0
  0
LINE
  5
EC7
330
1D
100
AcDbEntity
  8
0
100
AcDbLine
 10
151.498709957704
 20
187.839202314134
 30
0.0
 11
152.666509957704
 21
186.777202314134
 31
0.0
  0
LINE
  5
EC8
330
1D
100
AcDbEntity
  8
0
100
AcDbLine
 10
147.365109957705
 20
191.666402314134
 30
0.0
 11
148.927509957705
 21
189.801402314134
 31
0.0
  0
LINE
  5
EC9
330
1D
100
AcDbEntity
  8
0
100
AcDbLine
 10
143.205009957704
 20
197.847602314134
 30
0.0
 11
144.728109957705
 21
195.337702314134
 31
0.0
  0
LINE
  5
ECA
330
1D
100
AcDbEntity
  8
0
100
AcDbLine
 10
143.205009957704
 20
197.847802314134
 30
0.0
 11
144.728109957705
 21
195.337702314134
 31
0.0
  0
LINE
  5
ECB
330
1D
100
AcDbEntity
  8
0
100
AcDbLine
 10
143.302909957704
 20
194.017202314134
 30
0.0
 11
144.479609957704
 21
193.157102314134
 31
0.0
  0
LINE
  5
ECC
330
1D
100
AcDbEntity
  8
0
100
AcDbLine
 10
144.728109957705
 20
195.337702314134
 30
0.0
 11
145.890109957704
 21
193.629702314134
 31
0.0
  0
LINE
  5
ECD
330
1D
100
AcDbEntity
  8
0
100
AcDbLine
 10
143.302809957704
 20
194.017202314134
 30
0.0
 11
144.479709957705
 21
193.157102314134
 31
0.0
  0
LINE
  5
ECE
330
1D
100
AcDbEntity
  8
0
100
AcDbLine
 10
143.635609957704
 20
198.090502314134
 30
0.0
 11
145.369809957704
 21
195.260302314134
 31
0.0
  0
LINE
  5
ECF
330
1D
100
AcDbEntity
  8
0
100
AcDbLine
 10
143.636109957704
 20
198.090102314134
 30
0.0
 11
145.369809957704
 21
195.260302314134
 31
0.0
  0
LINE
  5
ED0
330
1D
100
AcDbEntity
  8
0
100
AcDbLine
 10
132.737409957705
 20
213.979102314134
 30
0.0
 11
132.881809957704
 21
212.370002314134
 31
0.0
  0
LINE
  5
ED1
330
1D
100
AcDbEntity
  8
0
100
AcDbLine
 10
137.989709957704
 20
214.046602314134
 30
0.0
 11
138.158609957704
 21
212.478902314134
 31
0.0
  0
LINE
  5
ED2
330
1D
100
AcDbEntity
  8
0
100
AcDbLine
 10
137.989809957704
 20
214.046302314134
 30
0.0
 11
138.158809957704
 21
212.478802314134
 31
0.0
  0
LINE
  5
ED3
330
1D
100
AcDbEntity
  8
0
100
AcDbLine
 10
132.737409957705
 20
213.979002314134
 30
0.0
 11
132.881709957704
 21
212.369902314134
 31
0.0
  0
LINE
  5
ED4
330
1D
100
AcDbEntity
  8
0
100
AcDbLine
 10
138.391309957704
 20
215.633202314134
 30
0.0
 11
138.650109957705
 21
212.543002314134
 31
0.0
  0
LINE
  5
ED5
330
1D
100
AcDbEntity
  8
0
100
AcDbLine
 10
138.391309957704
 20
215.633602314134
 30
0.0
 11
138.650009957704
 21
212.543302314134
 31
0.0
  0
LINE
  5
ED6
330
1D
100
AcDbEntity
  8
0
100
AcDbLine
 10
134.399509957704
 20
206.104102314134
 30
0.0
 11
135.007609957704
 21
204.607302314134
 31
0.0
  0
LINE
  5
ED7
330
1D
100
AcDbEntity
  8
0
100
AcDbLine
 10
134.399609957704
 20
206.104102314134
 30
0.0
 11
135.007909957704
 21
204.607302314134
 31
0.0
  0
LINE
  5
ED8
330
1D
100
AcDbEntity
  8
0
100
AcDbLine
 10
132.881709957704
 20
212.369902314134
 30
0.0
 11
133.120909957704
 21
210.772602314134
 31
0.0
  0
LINE
  5
ED9
330
1D
100
AcDbEntity
  8
0
100
AcDbLine
 10
132.881809957704
 20
212.370002314134
 30
0.0
 11
133.121009957705
 21
210.772602314134
 31
0.0
  0
LINE
  5
EDA
330
1D
100
AcDbEntity
  8
0
100
AcDbLine
 10
133.454609957704
 20
209.191702314134
 30
0.0
 11
133.881409957704
 21
207.633702314134
 31
0.0
  0
LINE
  5
EDB
330
1D
100
AcDbEntity
  8
0
100
AcDbLine
 10
133.881309957705
 20
207.633802314134
 30
0.0
 11
134.399509957704
 21
206.104102314134
 31
0.0
  0
LINE
  5
EDC
330
1D
100
AcDbEntity
  8
0
100
AcDbLine
 10
133.454709957704
 20
209.191702314134
 30
0.0
 11
133.881309957705
 21
207.633802314134
 31
0.0
  0
LINE
  5
EDD
330
1D
100
AcDbEntity
  8
0
100
AcDbLine
 10
133.121009957705
 20
210.772602314134
 30
0.0
 11
133.454709957704
 21
209.191702314134
 31
0.0
  0
LINE
  5
EDE
330
1D
100
AcDbEntity
  8
0
100
AcDbLine
 10
133.881409957704
 20
207.633702314134
 30
0.0
 11
134.399609957704
 21
206.104102314134
 31
0.0
  0
LINE
  5
EDF
330
1D
100
AcDbEntity
  8
0
100
AcDbLine
 10
133.120909957704
 20
210.772602314134
 30
0.0
 11
133.454609957704
 21
209.191702314134
 31
0.0
  0
LINE
  5
EE0
330
1D
100
AcDbEntity
  8
0
100
AcDbLine
 10
139.526909957704
 20
206.294802314134
 30
0.0
 11
140.051809957704
 21
204.715602314134
 31
0.0
  0
LINE
  5
EE1
330
1D
100
AcDbEntity
  8
0
100
AcDbLine
 10
139.999909957704
 20
206.440902314134
 30
0.0
 11
140.632509957704
 21
204.564002314134
 31
0.0
  0
LINE
  5
EE2
330
1D
100
AcDbEntity
  8
0
100
AcDbLine
 10
138.158609957704
 20
212.478902314134
 30
0.0
 11
138.399909957704
 21
210.916702314134
 31
0.0
  0
LINE
  5
EE3
330
1D
100
AcDbEntity
  8
0
100
AcDbLine
 10
138.158809957704
 20
212.478802314134
 30
0.0
 11
138.400009957704
 21
210.916402314134
 31
0.0
  0
LINE
  5
EE4
330
1D
100
AcDbEntity
  8
0
100
AcDbLine
 10
138.400009957704
 20
210.916402314134
 30
0.0
 11
138.710409957704
 21
209.362802314134
 31
0.0
  0
LINE
  5
EE5
330
1D
100
AcDbEntity
  8
0
100
AcDbLine
 10
138.710409957704
 20
209.362802314134
 30
0.0
 11
139.087109957704
 21
207.821302314134
 31
0.0
  0
LINE
  5
EE6
330
1D
100
AcDbEntity
  8
0
100
AcDbLine
 10
139.193809957705
 20
209.469902314134
 30
0.0
 11
139.999909957704
 21
206.440902314134
 31
0.0
  0
LINE
  5
EE7
330
1D
100
AcDbEntity
  8
0
100
AcDbLine
 10
139.087009957704
 20
207.821502314134
 30
0.0
 11
139.526909957704
 21
206.294902314134
 31
0.0
  0
LINE
  5
EE8
330
1D
100
AcDbEntity
  8
0
100
AcDbLine
 10
139.087109957704
 20
207.821302314134
 30
0.0
 11
139.526909957704
 21
206.294802314134
 31
0.0
  0
LINE
  5
EE9
330
1D
100
AcDbEntity
  8
0
100
AcDbLine
 10
138.710509957704
 20
209.362602314134
 30
0.0
 11
139.087009957704
 21
207.821502314134
 31
0.0
  0
LINE
  5
EEA
330
1D
100
AcDbEntity
  8
0
100
AcDbLine
 10
138.650109957705
 20
212.543002314134
 30
0.0
 11
139.193809957705
 21
209.469902314134
 31
0.0
  0
LINE
  5
EEB
330
1D
100
AcDbEntity
  8
0
100
AcDbLine
 10
138.399909957704
 20
210.916702314134
 30
0.0
 11
138.710509957704
 21
209.362602314134
 31
0.0
  0
LINE
  5
EEC
330
1D
100
AcDbEntity
  8
0
100
AcDbLine
 10
138.650009957704
 20
212.543302314134
 30
0.0
 11
139.193809957705
 21
209.470102314134
 31
0.0
  0
LINE
  5
EED
330
1D
100
AcDbEntity
  8
0
100
AcDbLine
 10
139.193809957705
 20
209.470102314134
 30
0.0
 11
139.999809957704
 21
206.441202314134
 31
0.0
  0
LINE
  5
EEE
330
1D
100
AcDbEntity
  8
0
100
AcDbLine
 10
139.999809957704
 20
206.441202314134
 30
0.0
 11
140.632709957704
 21
204.563902314134
 31
0.0
  0
LINE
  5
EEF
330
1D
100
AcDbEntity
  8
0
100
AcDbLine
 10
132.688309957704
 20
215.615502314134
 30
0.0
 11
132.736709957704
 21
217.245202314134
 31
0.0
  0
LINE
  5
EF0
330
1D
100
AcDbEntity
  8
0
100
AcDbLine
 10
132.737009957704
 20
217.245402314134
 30
0.0
 11
132.860709957705
 21
218.681602314134
 31
0.0
  0
LINE
  5
EF1
330
1D
100
AcDbEntity
  8
0
100
AcDbLine
 10
132.736709957704
 20
217.245202314134
 30
0.0
 11
132.860409957704
 21
218.681402314134
 31
0.0
  0
LINE
  5
EF2
330
1D
100
AcDbEntity
  8
0
100
AcDbLine
 10
132.688209957704
 20
215.615502314134
 30
0.0
 11
132.737009957704
 21
217.245402314134
 31
0.0
  0
LINE
  5
EF3
330
1D
100
AcDbEntity
  8
0
100
AcDbLine
 10
132.688209957704
 20
215.615502314134
 30
0.0
 11
132.737409957705
 21
213.979002314134
 31
0.0
  0
LINE
  5
EF4
330
1D
100
AcDbEntity
  8
0
100
AcDbLine
 10
132.688209957704
 20
215.615502314134
 30
0.0
 11
132.737409957705
 21
213.979102314134
 31
0.0
  0
LINE
  5
EF5
330
1D
100
AcDbEntity
  8
0
100
AcDbLine
 10
132.860709957705
 20
218.681602314134
 30
0.0
 11
133.059909957704
 21
220.108902314134
 31
0.0
  0
LINE
  5
EF6
330
1D
100
AcDbEntity
  8
0
100
AcDbLine
 10
132.860409957704
 20
218.681402314134
 30
0.0
 11
133.059709957704
 21
220.108802314134
 31
0.0
  0
LINE
  5
EF7
330
1D
100
AcDbEntity
  8
0
100
AcDbLine
 10
133.059709957704
 20
220.108802314134
 30
0.0
 11
133.334009957704
 21
221.523802314134
 31
0.0
  0
LINE
  5
EF8
330
1D
100
AcDbEntity
  8
0
100
AcDbLine
 10
133.334409957704
 20
221.523902314134
 30
0.0
 11
133.683109957704
 21
222.922502314134
 31
0.0
  0
LINE
  5
EF9
330
1D
100
AcDbEntity
  8
0
100
AcDbLine
 10
133.334009957704
 20
221.523802314134
 30
0.0
 11
133.682709957704
 21
222.922302314134
 31
0.0
  0
LINE
  5
EFA
330
1D
100
AcDbEntity
  8
0
100
AcDbLine
 10
133.059909957704
 20
220.108902314134
 30
0.0
 11
133.334409957704
 21
221.523902314134
 31
0.0
  0
LINE
  5
EFB
330
1D
100
AcDbEntity
  8
0
100
AcDbLine
 10
137.895309957704
 20
215.615602314134
 30
0.0
 11
137.989809957704
 21
214.046302314134
 31
0.0
  0
LINE
  5
EFC
330
1D
100
AcDbEntity
  8
0
100
AcDbLine
 10
138.378009957704
 20
217.409502314134
 30
0.0
 11
138.473609957704
 21
219.262402314134
 31
0.0
  0
LINE
  5
EFD
330
1D
100
AcDbEntity
  8
0
100
AcDbLine
 10
138.378009957704
 20
217.409502314134
 30
0.0
 11
138.391109957704
 21
215.633102314134
 31
0.0
  0
LINE
  5
EFE
330
1D
100
AcDbEntity
  8
0
100
AcDbLine
 10
137.895209957704
 20
215.615802314134
 30
0.0
 11
137.989709957704
 21
214.046602314134
 31
0.0
  0
LINE
  5
EFF
330
1D
100
AcDbEntity
  8
0
100
AcDbLine
 10
138.378309957704
 20
217.409602314134
 30
0.0
 11
138.391309957704
 21
215.633602314134
 31
0.0
  0
LINE
  5
F00
330
1D
100
AcDbEntity
  8
0
100
AcDbLine
 10
138.378309957704
 20
217.409602314134
 30
0.0
 11
138.474109957704
 21
219.262302314134
 31
0.0
  0
LINE
  5
F01
330
1D
100
AcDbEntity
  8
0
100
AcDbLine
 10
137.881509957704
 20
217.419902314134
 30
0.0
 11
137.978209957704
 21
219.303402314134
 31
0.0
  0
LINE
  5
F02
330
1D
100
AcDbEntity
  8
0
100
AcDbLine
 10
137.881509957704
 20
217.419902314134
 30
0.0
 11
137.895209957704
 21
215.615502314134
 31
0.0
  0
LINE
  5
F03
330
1D
100
AcDbEntity
  8
0
100
AcDbLine
 10
138.474109957704
 20
219.262302314134
 30
0.0
 11
138.683509957705
 21
221.095602314134
 31
0.0
  0
LINE
  5
F04
330
1D
100
AcDbEntity
  8
0
100
AcDbLine
 10
138.473609957704
 20
219.262402314134
 30
0.0
 11
138.683409957704
 21
221.095402314134
 31
0.0
  0
LINE
  5
F05
330
1D
100
AcDbEntity
  8
0
100
AcDbLine
 10
137.978209957704
 20
219.303402314134
 30
0.0
 11
138.190909957704
 21
221.167402314134
 31
0.0
  0
LINE
  5
F06
330
1D
100
AcDbEntity
  8
0
100
AcDbLine
 10
137.978209957704
 20
219.303402314134
 30
0.0
 11
138.191309957704
 21
221.167502314134
 31
0.0
  0
LINE
  5
F07
330
1D
100
AcDbEntity
  8
0
100
AcDbLine
 10
138.190909957704
 20
221.167402314134
 30
0.0
 11
138.436309957704
 21
222.593202314134
 31
0.0
  0
LINE
  5
F08
330
1D
100
AcDbEntity
  8
0
100
AcDbLine
 10
138.191309957704
 20
221.167502314134
 30
0.0
 11
138.436209957704
 21
222.593102314134
 31
0.0
  0
LINE
  5
F09
330
1D
100
AcDbEntity
  8
0
100
AcDbLine
 10
137.881309957705
 20
217.419902314134
 30
0.0
 11
137.978209957704
 21
219.303402314134
 31
0.0
  0
LINE
  5
F0A
330
1D
100
AcDbEntity
  8
0
100
AcDbLine
 10
137.881309957705
 20
217.419902314134
 30
0.0
 11
137.895309957704
 21
215.615602314134
 31
0.0
  0
LINE
  5
F0B
330
1D
100
AcDbEntity
  8
0
100
AcDbLine
 10
163.833709957704
 20
183.711102314134
 30
0.0
 11
162.695509957705
 21
183.184402314134
 31
0.0
  0
LINE
  5
F0C
330
1D
100
AcDbEntity
  8
0
100
AcDbLine
 10
163.833909957704
 20
183.711402314134
 30
0.0
 11
162.695509957705
 21
183.184402314134
 31
0.0
  0
LINE
  5
F0D
330
1D
100
AcDbEntity
  8
0
100
AcDbLine
 10
163.601709957704
 20
184.150802314134
 30
0.0
 11
162.081309957704
 21
183.487402314134
 31
0.0
  0
LINE
  5
F0E
330
1D
100
AcDbEntity
  8
0
100
AcDbLine
 10
163.601909957704
 20
184.150502314134
 30
0.0
 11
162.081709957704
 21
183.487402314134
 31
0.0
  0
LINE
  5
F0F
330
1D
100
AcDbEntity
  8
0
100
AcDbLine
 10
158.224909957704
 20
182.873102314134
 30
0.0
 11
159.336509957704
 21
182.663502314134
 31
0.0
  0
LINE
  5
F10
330
1D
100
AcDbEntity
  8
0
100
AcDbLine
 10
158.224909957704
 20
182.872902314134
 30
0.0
 11
159.336309957704
 21
182.663502314134
 31
0.0
  0
LINE
  5
F11
330
1D
100
AcDbEntity
  8
0
100
AcDbLine
 10
157.916109957704
 20
183.487402314134
 30
0.0
 11
159.035609957704
 21
183.203402314134
 31
0.0
  0
LINE
  5
F12
330
1D
100
AcDbEntity
  8
0
100
AcDbLine
 10
157.916509957704
 20
183.487402314134
 30
0.0
 11
159.035309957704
 21
183.203802314134
 31
0.0
  0
LINE
  5
F13
330
1D
100
AcDbEntity
  8
0
100
AcDbLine
 10
156.164109957704
 20
183.711102314134
 30
0.0
 11
157.302309957704
 21
183.184402314134
 31
0.0
  0
LINE
  5
F14
330
1D
100
AcDbEntity
  8
0
100
AcDbLine
 10
156.163909957704
 20
183.711402314134
 30
0.0
 11
157.302309957704
 21
183.184402314134
 31
0.0
  0
LINE
  5
F15
330
1D
100
AcDbEntity
  8
0
100
AcDbLine
 10
157.302309957704
 20
183.184402314134
 30
0.0
 11
158.224909957704
 21
182.872902314134
 31
0.0
  0
LINE
  5
F16
330
1D
100
AcDbEntity
  8
0
100
AcDbLine
 10
157.302309957704
 20
183.184402314134
 30
0.0
 11
158.224909957704
 21
182.873102314134
 31
0.0
  0
LINE
  5
F17
330
1D
100
AcDbEntity
  8
0
100
AcDbLine
 10
153.586509957704
 20
185.387702314134
 30
0.0
 11
154.902209957704
 21
184.455602314134
 31
0.0
  0
LINE
  5
F18
330
1D
100
AcDbEntity
  8
0
100
AcDbLine
 10
153.586509957704
 20
185.387902314134
 30
0.0
 11
154.902309957704
 21
184.455502314134
 31
0.0
  0
LINE
  5
F19
330
1D
100
AcDbEntity
  8
0
100
AcDbLine
 10
154.737809957704
 20
185.164402314134
 30
0.0
 11
156.396109957704
 21
184.150802314134
 31
0.0
  0
LINE
  5
F1A
330
1D
100
AcDbEntity
  8
0
100
AcDbLine
 10
154.902209957704
 20
184.455602314134
 30
0.0
 11
156.164109957704
 21
183.711102314134
 31
0.0
  0
LINE
  5
F1B
330
1D
100
AcDbEntity
  8
0
100
AcDbLine
 10
154.902309957704
 20
184.455502314134
 30
0.0
 11
156.163909957704
 21
183.711402314134
 31
0.0
  0
LINE
  5
F1C
330
1D
100
AcDbEntity
  8
0
100
AcDbLine
 10
156.396109957704
 20
184.150802314134
 30
0.0
 11
157.916509957704
 21
183.487402314134
 31
0.0
  0
LINE
  5
F1D
330
1D
100
AcDbEntity
  8
0
100
AcDbLine
 10
154.737809957704
 20
185.164202314134
 30
0.0
 11
156.395909957705
 21
184.150502314134
 31
0.0
  0
LINE
  5
F1E
330
1D
100
AcDbEntity
  8
0
100
AcDbLine
 10
156.395909957705
 20
184.150502314134
 30
0.0
 11
157.916109957704
 21
183.487402314134
 31
0.0
  0
LINE
  5
F1F
330
1D
100
AcDbEntity
  8
0
100
AcDbLine
 10
159.336509957704
 20
182.663502314134
 30
0.0
 11
159.998809957704
 21
182.631602314134
 31
0.0
  0
LINE
  5
F20
330
1D
100
AcDbEntity
  8
0
100
AcDbLine
 10
159.336309957704
 20
182.663502314134
 30
0.0
 11
159.998909957704
 21
182.631702314134
 31
0.0
  0
LINE
  5
F21
330
1D
100
AcDbEntity
  8
0
100
AcDbLine
 10
159.035309957704
 20
183.203802314134
 30
0.0
 11
159.998609957704
 21
183.128902314134
 31
0.0
  0
LINE
  5
F22
330
1D
100
AcDbEntity
  8
0
100
AcDbLine
 10
159.035609957704
 20
183.203402314134
 30
0.0
 11
159.998309957704
 21
183.129302314134
 31
0.0
  0
LINE
  5
F23
330
1D
100
AcDbEntity
  8
0
100
AcDbLine
 10
162.695509957705
 20
183.184402314134
 30
0.0
 11
161.772909957704
 21
182.872902314134
 31
0.0
  0
LINE
  5
F24
330
1D
100
AcDbEntity
  8
0
100
AcDbLine
 10
162.695509957705
 20
183.184402314134
 30
0.0
 11
161.772909957704
 21
182.873102314134
 31
0.0
  0
LINE
  5
F25
330
1D
100
AcDbEntity
  8
0
100
AcDbLine
 10
160.661309957705
 20
182.663502314134
 30
0.0
 11
159.999009957704
 21
182.631602314134
 31
0.0
  0
LINE
  5
F26
330
1D
100
AcDbEntity
  8
0
100
AcDbLine
 10
160.661509957704
 20
182.663502314134
 30
0.0
 11
159.998909957704
 21
182.631702314134
 31
0.0
  0
LINE
  5
F27
330
1D
100
AcDbEntity
  8
0
100
AcDbLine
 10
161.772909957704
 20
182.873102314134
 30
0.0
 11
160.661309957705
 21
182.663502314134
 31
0.0
  0
LINE
  5
F28
330
1D
100
AcDbEntity
  8
0
100
AcDbLine
 10
161.772909957704
 20
182.872902314134
 30
0.0
 11
160.661509957704
 21
182.663502314134
 31
0.0
  0
LINE
  5
F29
330
1D
100
AcDbEntity
  8
0
100
AcDbLine
 10
160.962509957704
 20
183.203802314134
 30
0.0
 11
159.999209957704
 21
183.128902314134
 31
0.0
  0
LINE
  5
F2A
330
1D
100
AcDbEntity
  8
0
100
AcDbLine
 10
160.962209957704
 20
183.203402314134
 30
0.0
 11
159.999509957704
 21
183.129302314134
 31
0.0
  0
LINE
  5
F2B
330
1D
100
AcDbEntity
  8
0
100
AcDbLine
 10
162.081709957704
 20
183.487402314134
 30
0.0
 11
160.962209957704
 21
183.203402314134
 31
0.0
  0
LINE
  5
F2C
330
1D
100
AcDbEntity
  8
0
100
AcDbLine
 10
162.081309957704
 20
183.487402314134
 30
0.0
 11
160.962509957704
 21
183.203802314134
 31
0.0
  0
LINE
  5
F2D
330
1D
100
AcDbEntity
  8
0
100
AcDbLine
 10
169.979609957704
 20
188.617402314134
 30
0.0
 11
168.256209957704
 21
186.934202314134
 31
0.0
  0
LINE
  5
F2E
330
1D
100
AcDbEntity
  8
0
100
AcDbLine
 10
169.979809957704
 20
188.617802314134
 30
0.0
 11
168.256209957704
 21
186.934202314134
 31
0.0
  0
LINE
  5
F2F
330
1D
100
AcDbEntity
  8
0
100
AcDbLine
 10
170.699209957704
 20
190.129102314134
 30
0.0
 11
168.499109957704
 21
187.839202314134
 31
0.0
  0
LINE
  5
F30
330
1D
100
AcDbEntity
  8
0
100
AcDbLine
 10
170.699309957704
 20
190.129402314134
 30
0.0
 11
168.499109957704
 21
187.839302314134
 31
0.0
  0
LINE
  5
F31
330
1D
100
AcDbEntity
  8
0
100
AcDbLine
 10
168.499109957704
 20
187.839302314134
 30
0.0
 11
167.331409957704
 21
186.777602314134
 31
0.0
  0
LINE
  5
F32
330
1D
100
AcDbEntity
  8
0
100
AcDbLine
 10
168.256209957704
 20
186.934202314134
 30
0.0
 11
166.411309957705
 21
185.387902314134
 31
0.0
  0
LINE
  5
F33
330
1D
100
AcDbEntity
  8
0
100
AcDbLine
 10
168.256209957704
 20
186.934202314134
 30
0.0
 11
166.411309957705
 21
185.387702314134
 31
0.0
  0
LINE
  5
F34
330
1D
100
AcDbEntity
  8
0
100
AcDbLine
 10
168.499109957704
 20
187.839202314134
 30
0.0
 11
167.331309957704
 21
186.777202314134
 31
0.0
  0
LINE
  5
F35
330
1D
100
AcDbEntity
  8
0
100
AcDbLine
 10
166.411309957705
 20
185.387702314134
 30
0.0
 11
165.095609957704
 21
184.455602314134
 31
0.0
  0
LINE
  5
F36
330
1D
100
AcDbEntity
  8
0
100
AcDbLine
 10
166.411309957705
 20
185.387902314134
 30
0.0
 11
165.095509957704
 21
184.455502314134
 31
0.0
  0
LINE
  5
F37
330
1D
100
AcDbEntity
  8
0
100
AcDbLine
 10
165.260009957704
 20
185.164402314134
 30
0.0
 11
163.601709957704
 21
184.150802314134
 31
0.0
  0
LINE
  5
F38
330
1D
100
AcDbEntity
  8
0
100
AcDbLine
 10
165.260009957704
 20
185.164202314134
 30
0.0
 11
163.601909957704
 21
184.150502314134
 31
0.0
  0
LINE
  5
F39
330
1D
100
AcDbEntity
  8
0
100
AcDbLine
 10
165.095609957704
 20
184.455602314134
 30
0.0
 11
163.833709957704
 21
183.711102314134
 31
0.0
  0
LINE
  5
F3A
330
1D
100
AcDbEntity
  8
0
100
AcDbLine
 10
165.095509957704
 20
184.455502314134
 30
0.0
 11
163.833909957704
 21
183.711402314134
 31
0.0
  0
LINE
  5
F3B
330
1D
100
AcDbEntity
  8
0
100
AcDbLine
 10
167.331309957704
 20
186.777202314134
 30
0.0
 11
165.260009957704
 21
185.164402314134
 31
0.0
  0
LINE
  5
F3C
330
1D
100
AcDbEntity
  8
0
100
AcDbLine
 10
167.331409957704
 20
186.777602314134
 30
0.0
 11
165.260009957704
 21
185.164202314134
 31
0.0
  0
LINE
  5
F3D
330
1D
100
AcDbEntity
  8
0
100
AcDbLine
 10
172.632709957704
 20
191.666402314134
 30
0.0
 11
171.070309957704
 21
189.801402314134
 31
0.0
  0
LINE
  5
F3E
330
1D
100
AcDbEntity
  8
0
100
AcDbLine
 10
172.738909957704
 20
192.607402314134
 30
0.0
 11
170.699209957704
 21
190.129102314134
 31
0.0
  0
LINE
  5
F3F
330
1D
100
AcDbEntity
  8
0
100
AcDbLine
 10
172.739109957704
 20
192.607102314134
 30
0.0
 11
170.699309957704
 21
190.129402314134
 31
0.0
  0
LINE
  5
F40
330
1D
100
AcDbEntity
  8
0
100
AcDbLine
 10
173.035909957704
 20
191.630902314134
 30
0.0
 11
172.659144943947
 21
191.439009754386
 31
0.0
  0
LINE
  5
F41
330
1D
100
AcDbEntity
  8
0
100
AcDbLine
 10
173.035809957704
 20
191.630902314134
 30
0.0
 11
172.659106669493
 21
191.438967854773
 31
0.0
  0
LINE
  5
F42
330
1D
100
AcDbEntity
  8
0
100
AcDbLine
 10
171.070309957704
 20
189.801402314134
 30
0.0
 11
169.979809957704
 21
188.617802314134
 31
0.0
  0
LINE
  5
F43
330
1D
100
AcDbEntity
  8
0
100
AcDbLine
 10
171.070309957704
 20
189.801402314134
 30
0.0
 11
169.979609957704
 21
188.617402314134
 31
0.0
  0
LINE
  5
F44
330
1D
100
AcDbEntity
  8
0
100
AcDbLine
 10
152.788509957704
 20
240.126402314134
 30
0.0
 11
154.981109957704
 21
240.823802314134
 31
0.0
  0
LINE
  5
F45
330
1D
100
AcDbEntity
  8
0
100
AcDbLine
 10
152.788809957705
 20
240.126302314134
 30
0.0
 11
154.981009957704
 21
240.824202314134
 31
0.0
  0
LINE
  5
F46
330
1D
100
AcDbEntity
  8
0
100
AcDbLine
 10
152.609609957704
 20
240.590902314134
 30
0.0
 11
154.858309957704
 21
241.306602314134
 31
0.0
  0
LINE
  5
F47
330
1D
100
AcDbEntity
  8
0
100
AcDbLine
 10
152.609509957704
 20
240.590802314134
 30
0.0
 11
154.857909957704
 21
241.306502314134
 31
0.0
  0
LINE
  5
F48
330
1D
100
AcDbEntity
  8
0
100
AcDbLine
 10
153.032109957704
 20
242.013002314134
 30
0.0
 11
154.361109957704
 21
242.327802314134
 31
0.0
  0
LINE
  5
F49
330
1D
100
AcDbEntity
  8
0
100
AcDbLine
 10
153.032109957704
 20
242.013002314134
 30
0.0
 11
154.361209957704
 21
242.327702314134
 31
0.0
  0
LINE
  5
F4A
330
1D
100
AcDbEntity
  8
0
100
AcDbLine
 10
142.505509957705
 20
231.514702314134
 30
0.0
 11
144.099609957705
 21
233.719502314134
 31
0.0
  0
LINE
  5
F4B
330
1D
100
AcDbEntity
  8
0
100
AcDbLine
 10
142.869109957704
 20
232.934302314134
 30
0.0
 11
143.712609957705
 21
234.033502314134
 31
0.0
  0
LINE
  5
F4C
330
1D
100
AcDbEntity
  8
0
100
AcDbLine
 10
142.868809957704
 20
232.934202314134
 30
0.0
 11
143.712809957704
 21
234.033502314134
 31
0.0
  0
LINE
  5
F4D
330
1D
100
AcDbEntity
  8
0
100
AcDbLine
 10
142.505709957704
 20
231.514602314134
 30
0.0
 11
144.099909957704
 21
233.719102314134
 31
0.0
  0
LINE
  5
F4E
330
1D
100
AcDbEntity
  8
0
100
AcDbLine
 10
142.099309957704
 20
236.236402314134
 30
0.0
 11
143.224809957704
 21
237.161402314134
 31
0.0
  0
LINE
  5
F4F
330
1D
100
AcDbEntity
  8
0
100
AcDbLine
 10
142.099009957704
 20
236.236302314134
 30
0.0
 11
143.224709957704
 21
237.161402314134
 31
0.0
  0
LINE
  5
F50
330
1D
100
AcDbEntity
  8
0
100
AcDbLine
 10
139.040009957704
 20
233.121102314134
 30
0.0
 11
140.003909957704
 21
234.213402314134
 31
0.0
  0
LINE
  5
F51
330
1D
100
AcDbEntity
  8
0
100
AcDbLine
 10
139.040109957704
 20
233.121202314134
 30
0.0
 11
140.003709957705
 21
234.213302314134
 31
0.0
  0
LINE
  5
F52
330
1D
100
AcDbEntity
  8
0
100
AcDbLine
 10
137.294009957705
 20
230.790602314134
 30
0.0
 11
138.135609957704
 21
231.979002314134
 31
0.0
  0
LINE
  5
F53
330
1D
100
AcDbEntity
  8
0
100
AcDbLine
 10
137.293709957704
 20
230.790602314134
 30
0.0
 11
138.135809957704
 21
231.979202314134
 31
0.0
  0
LINE
  5
F54
330
1D
100
AcDbEntity
  8
0
100
AcDbLine
 10
134.105109957704
 20
224.300402314134
 30
0.0
 11
134.599509957704
 21
225.654302314134
 31
0.0
  0
LINE
  5
F55
330
1D
100
AcDbEntity
  8
0
100
AcDbLine
 10
134.105309957704
 20
224.300502314134
 30
0.0
 11
134.599509957704
 21
225.654302314134
 31
0.0
  0
LINE
  5
F56
330
1D
100
AcDbEntity
  8
0
100
AcDbLine
 10
135.165109957704
 20
226.980502314134
 30
0.0
 11
135.806209957704
 21
228.287602314134
 31
0.0
  0
LINE
  5
F57
330
1D
100
AcDbEntity
  8
0
100
AcDbLine
 10
135.164909957704
 20
226.980302314134
 30
0.0
 11
135.806509957704
 21
228.287702314134
 31
0.0
  0
LINE
  5
F58
330
1D
100
AcDbEntity
  8
0
100
AcDbLine
 10
134.599509957704
 20
225.654302314134
 30
0.0
 11
135.164909957704
 21
226.980302314134
 31
0.0
  0
LINE
  5
F59
330
1D
100
AcDbEntity
  8
0
100
AcDbLine
 10
134.599509957704
 20
225.654302314134
 30
0.0
 11
135.165109957704
 21
226.980502314134
 31
0.0
  0
LINE
  5
F5A
330
1D
100
AcDbEntity
  8
0
100
AcDbLine
 10
135.806509957704
 20
228.287702314134
 30
0.0
 11
136.516809957704
 21
229.559002314134
 31
0.0
  0
LINE
  5
F5B
330
1D
100
AcDbEntity
  8
0
100
AcDbLine
 10
135.806209957704
 20
228.287602314134
 30
0.0
 11
136.516809957704
 21
229.559002314134
 31
0.0
  0
LINE
  5
F5C
330
1D
100
AcDbEntity
  8
0
100
AcDbLine
 10
136.516809957704
 20
229.559002314134
 30
0.0
 11
137.294009957705
 21
230.790602314134
 31
0.0
  0
LINE
  5
F5D
330
1D
100
AcDbEntity
  8
0
100
AcDbLine
 10
136.516809957704
 20
229.559002314134
 30
0.0
 11
137.293709957704
 21
230.790602314134
 31
0.0
  0
LINE
  5
F5E
330
1D
100
AcDbEntity
  8
0
100
AcDbLine
 10
140.060409957704
 20
226.562002314134
 30
0.0
 11
141.154209957704
 21
229.118602314134
 31
0.0
  0
LINE
  5
F5F
330
1D
100
AcDbEntity
  8
0
100
AcDbLine
 10
140.116009957704
 20
228.053502314134
 30
0.0
 11
140.707209957704
 21
229.338202314134
 31
0.0
  0
LINE
  5
F60
330
1D
100
AcDbEntity
  8
0
100
AcDbLine
 10
140.116209957704
 20
228.053502314134
 30
0.0
 11
140.707409957704
 21
229.338102314134
 31
0.0
  0
LINE
  5
F61
330
1D
100
AcDbEntity
  8
0
100
AcDbLine
 10
140.060609957704
 20
226.562202314134
 30
0.0
 11
141.154409957705
 21
229.118402314134
 31
0.0
  0
LINE
  5
F62
330
1D
100
AcDbEntity
  8
0
100
AcDbLine
 10
138.752209957704
 20
223.998802314134
 30
0.0
 11
139.137709957704
 21
225.379802314134
 31
0.0
  0
LINE
  5
F63
330
1D
100
AcDbEntity
  8
0
100
AcDbLine
 10
138.752009957705
 20
223.998602314134
 30
0.0
 11
139.137509957704
 21
225.379802314134
 31
0.0
  0
LINE
  5
F64
330
1D
100
AcDbEntity
  8
0
100
AcDbLine
 10
139.235009957704
 20
223.877402314134
 30
0.0
 11
140.060409957704
 21
226.562002314134
 31
0.0
  0
LINE
  5
F65
330
1D
100
AcDbEntity
  8
0
100
AcDbLine
 10
139.137509957704
 20
225.379802314134
 30
0.0
 11
139.592509957704
 21
226.732702314134
 31
0.0
  0
LINE
  5
F66
330
1D
100
AcDbEntity
  8
0
100
AcDbLine
 10
139.592509957704
 20
226.732702314134
 30
0.0
 11
140.116209957704
 21
228.053502314134
 31
0.0
  0
LINE
  5
F67
330
1D
100
AcDbEntity
  8
0
100
AcDbLine
 10
139.137709957704
 20
225.379802314134
 30
0.0
 11
139.592709957704
 21
226.732702314134
 31
0.0
  0
LINE
  5
F68
330
1D
100
AcDbEntity
  8
0
100
AcDbLine
 10
139.592709957704
 20
226.732702314134
 30
0.0
 11
140.116009957704
 21
228.053502314134
 31
0.0
  0
LINE
  5
F69
330
1D
100
AcDbEntity
  8
0
100
AcDbLine
 10
139.234809957704
 20
223.877402314134
 30
0.0
 11
140.060609957704
 21
226.562202314134
 31
0.0
  0
LINE
  5
F6A
330
1D
100
AcDbEntity
  8
0
100
AcDbLine
 10
140.707409957704
 20
229.338102314134
 30
0.0
 11
141.364009957704
 21
230.582402314134
 31
0.0
  0
LINE
  5
F6B
330
1D
100
AcDbEntity
  8
0
100
AcDbLine
 10
138.135609957704
 20
231.979002314134
 30
0.0
 11
139.040109957704
 21
233.121202314134
 31
0.0
  0
LINE
  5
F6C
330
1D
100
AcDbEntity
  8
0
100
AcDbLine
 10
138.135809957704
 20
231.979202314134
 30
0.0
 11
139.040009957704
 21
233.121102314134
 31
0.0
  0
LINE
  5
F6D
330
1D
100
AcDbEntity
  8
0
100
AcDbLine
 10
140.707209957704
 20
229.338202314134
 30
0.0
 11
141.364009957704
 21
230.582402314134
 31
0.0
  0
LINE
  5
F6E
330
1D
100
AcDbEntity
  8
0
100
AcDbLine
 10
141.364009957704
 20
230.582402314134
 30
0.0
 11
142.085209957704
 21
231.782302314134
 31
0.0
  0
LINE
  5
F6F
330
1D
100
AcDbEntity
  8
0
100
AcDbLine
 10
141.364009957704
 20
230.582402314134
 30
0.0
 11
142.085109957704
 21
231.782402314134
 31
0.0
  0
LINE
  5
F70
330
1D
100
AcDbEntity
  8
0
100
AcDbLine
 10
142.085109957704
 20
231.782402314134
 30
0.0
 11
142.868809957704
 21
232.934202314134
 31
0.0
  0
LINE
  5
F71
330
1D
100
AcDbEntity
  8
0
100
AcDbLine
 10
142.085209957704
 20
231.782302314134
 30
0.0
 11
142.869109957704
 21
232.934302314134
 31
0.0
  0
LINE
  5
F72
330
1D
100
AcDbEntity
  8
0
100
AcDbLine
 10
141.154209957704
 20
229.118602314134
 30
0.0
 11
142.505709957704
 21
231.514602314134
 31
0.0
  0
LINE
  5
F73
330
1D
100
AcDbEntity
  8
0
100
AcDbLine
 10
141.154409957705
 20
229.118402314134
 30
0.0
 11
142.505509957705
 21
231.514702314134
 31
0.0
  0
LINE
  5
F74
330
1D
100
AcDbEntity
  8
0
100
AcDbLine
 10
140.003909957704
 20
234.213402314134
 30
0.0
 11
141.024209957704
 21
235.252802314134
 31
0.0
  0
LINE
  5
F75
330
1D
100
AcDbEntity
  8
0
100
AcDbLine
 10
140.003709957705
 20
234.213302314134
 30
0.0
 11
141.024609957704
 21
235.253002314134
 31
0.0
  0
LINE
  5
F76
330
1D
100
AcDbEntity
  8
0
100
AcDbLine
 10
141.024609957704
 20
235.253002314134
 30
0.0
 11
142.099009957704
 21
236.236302314134
 31
0.0
  0
LINE
  5
F77
330
1D
100
AcDbEntity
  8
0
100
AcDbLine
 10
141.024209957704
 20
235.252802314134
 30
0.0
 11
142.099309957704
 21
236.236402314134
 31
0.0
  0
LINE
  5
F78
330
1D
100
AcDbEntity
  8
0
100
AcDbLine
 10
143.712809957704
 20
234.033502314134
 30
0.0
 11
144.688309957704
 21
235.155902314134
 31
0.0
  0
LINE
  5
F79
330
1D
100
AcDbEntity
  8
0
100
AcDbLine
 10
144.099609957705
 20
233.719502314134
 30
0.0
 11
146.071309957704
 21
235.846902314134
 31
0.0
  0
LINE
  5
F7A
330
1D
100
AcDbEntity
  8
0
100
AcDbLine
 10
147.159009957704
 20
236.811102314134
 30
0.0
 11
148.304109957704
 21
237.695102314134
 31
0.0
  0
LINE
  5
F7B
330
1D
100
AcDbEntity
  8
0
100
AcDbLine
 10
147.159009957704
 20
236.811502314134
 30
0.0
 11
148.303809957704
 21
237.695202314134
 31
0.0
  0
LINE
  5
F7C
330
1D
100
AcDbEntity
  8
0
100
AcDbLine
 10
147.923609957704
 20
240.103702314134
 30
0.0
 11
149.163309957704
 21
240.676402314134
 31
0.0
  0
LINE
  5
F7D
330
1D
100
AcDbEntity
  8
0
100
AcDbLine
 10
147.923409957704
 20
240.103602314134
 30
0.0
 11
149.163109957704
 21
240.676302314134
 31
0.0
  0
LINE
  5
F7E
330
1D
100
AcDbEntity
  8
0
100
AcDbLine
 10
147.208909957704
 20
237.492602314134
 30
0.0
 11
148.790109957704
 21
238.632002314134
 31
0.0
  0
LINE
  5
F7F
330
1D
100
AcDbEntity
  8
0
100
AcDbLine
 10
147.208809957704
 20
237.492602314134
 30
0.0
 11
148.790109957704
 21
238.632002314134
 31
0.0
  0
LINE
  5
F80
330
1D
100
AcDbEntity
  8
0
100
AcDbLine
 10
144.688309957704
 20
235.155902314134
 30
0.0
 11
145.727909957704
 21
236.207902314134
 31
0.0
  0
LINE
  5
F81
330
1D
100
AcDbEntity
  8
0
100
AcDbLine
 10
144.688209957704
 20
235.155902314134
 30
0.0
 11
145.727909957704
 21
236.207902314134
 31
0.0
  0
LINE
  5
F82
330
1D
100
AcDbEntity
  8
0
100
AcDbLine
 10
145.727909957704
 20
236.207902314134
 30
0.0
 11
147.208809957704
 21
237.492602314134
 31
0.0
  0
LINE
  5
F83
330
1D
100
AcDbEntity
  8
0
100
AcDbLine
 10
145.727909957704
 20
236.207902314134
 30
0.0
 11
147.208909957704
 21
237.492602314134
 31
0.0
  0
LINE
  5
F84
330
1D
100
AcDbEntity
  8
0
100
AcDbLine
 10
146.071309957704
 20
235.846902314134
 30
0.0
 11
147.159009957704
 21
236.811502314134
 31
0.0
  0
LINE
  5
F85
330
1D
100
AcDbEntity
  8
0
100
AcDbLine
 10
143.224809957704
 20
237.161402314134
 30
0.0
 11
144.398609957704
 21
238.025002314134
 31
0.0
  0
LINE
  5
F86
330
1D
100
AcDbEntity
  8
0
100
AcDbLine
 10
144.398609957704
 20
238.025002314134
 30
0.0
 11
145.538309957704
 21
238.776502314134
 31
0.0
  0
LINE
  5
F87
330
1D
100
AcDbEntity
  8
0
100
AcDbLine
 10
145.538209957704
 20
238.776402314134
 30
0.0
 11
146.714209957704
 21
239.469802314134
 31
0.0
  0
LINE
  5
F88
330
1D
100
AcDbEntity
  8
0
100
AcDbLine
 10
146.714209957704
 20
239.469802314134
 30
0.0
 11
147.923409957704
 21
240.103602314134
 31
0.0
  0
LINE
  5
F89
330
1D
100
AcDbEntity
  8
0
100
AcDbLine
 10
145.538309957704
 20
238.776502314134
 30
0.0
 11
146.714509957704
 21
239.470002314134
 31
0.0
  0
LINE
  5
F8A
330
1D
100
AcDbEntity
  8
0
100
AcDbLine
 10
146.714509957704
 20
239.470002314134
 30
0.0
 11
147.923609957704
 21
240.103702314134
 31
0.0
  0
LINE
  5
F8B
330
1D
100
AcDbEntity
  8
0
100
AcDbLine
 10
144.398509957704
 20
238.025002314134
 30
0.0
 11
145.538209957704
 21
238.776402314134
 31
0.0
  0
LINE
  5
F8C
330
1D
100
AcDbEntity
  8
0
100
AcDbLine
 10
143.224709957704
 20
237.161402314134
 30
0.0
 11
144.398509957704
 21
238.025002314134
 31
0.0
  0
LINE
  5
F8D
330
1D
100
AcDbEntity
  8
0
100
AcDbLine
 10
148.303809957704
 20
237.695202314134
 30
0.0
 11
149.475809957704
 21
238.478102314134
 31
0.0
  0
LINE
  5
F8E
330
1D
100
AcDbEntity
  8
0
100
AcDbLine
 10
149.475709957704
 20
238.477902314134
 30
0.0
 11
150.694609957705
 21
239.175402314134
 31
0.0
  0
LINE
  5
F8F
330
1D
100
AcDbEntity
  8
0
100
AcDbLine
 10
149.475809957704
 20
238.478102314134
 30
0.0
 11
150.694409957704
 21
239.175302314134
 31
0.0
  0
LINE
  5
F90
330
1D
100
AcDbEntity
  8
0
100
AcDbLine
 10
148.304109957704
 20
237.695102314134
 30
0.0
 11
149.475709957704
 21
238.477902314134
 31
0.0
  0
LINE
  5
F91
330
1D
100
AcDbEntity
  8
0
100
AcDbLine
 10
149.163309957704
 20
240.676402314134
 30
0.0
 11
150.429909957704
 21
241.186302314134
 31
0.0
  0
LINE
  5
F92
330
1D
100
AcDbEntity
  8
0
100
AcDbLine
 10
150.429909957704
 20
241.186302314134
 30
0.0
 11
151.721009957704
 21
241.632202314134
 31
0.0
  0
LINE
  5
F93
330
1D
100
AcDbEntity
  8
0
100
AcDbLine
 10
150.430109957705
 20
241.186202314134
 30
0.0
 11
151.720909957704
 21
241.632202314134
 31
0.0
  0
LINE
  5
F94
330
1D
100
AcDbEntity
  8
0
100
AcDbLine
 10
149.163109957704
 20
240.676302314134
 30
0.0
 11
150.430109957705
 21
241.186202314134
 31
0.0
  0
LINE
  5
F95
330
1D
100
AcDbEntity
  8
0
100
AcDbLine
 10
150.461809957705
 20
239.615602314134
 30
0.0
 11
152.609609957704
 21
240.590902314134
 31
0.0
  0
LINE
  5
F96
330
1D
100
AcDbEntity
  8
0
100
AcDbLine
 10
150.461709957704
 20
239.615502314134
 30
0.0
 11
152.609509957704
 21
240.590802314134
 31
0.0
  0
LINE
  5
F97
330
1D
100
AcDbEntity
  8
0
100
AcDbLine
 10
148.790109957704
 20
238.632002314134
 30
0.0
 11
150.461709957704
 21
239.615502314134
 31
0.0
  0
LINE
  5
F98
330
1D
100
AcDbEntity
  8
0
100
AcDbLine
 10
148.790109957704
 20
238.632002314134
 30
0.0
 11
150.461809957705
 21
239.615602314134
 31
0.0
  0
LINE
  5
F99
330
1D
100
AcDbEntity
  8
0
100
AcDbLine
 10
150.694609957705
 20
239.175402314134
 30
0.0
 11
152.788509957704
 21
240.126402314134
 31
0.0
  0
LINE
  5
F9A
330
1D
100
AcDbEntity
  8
0
100
AcDbLine
 10
150.694409957704
 20
239.175302314134
 30
0.0
 11
152.788809957705
 21
240.126302314134
 31
0.0
  0
LINE
  5
F9B
330
1D
100
AcDbEntity
  8
0
100
AcDbLine
 10
151.721009957704
 20
241.632202314134
 30
0.0
 11
153.032109957704
 21
242.013002314134
 31
0.0
  0
LINE
  5
F9C
330
1D
100
AcDbEntity
  8
0
100
AcDbLine
 10
151.720909957704
 20
241.632202314134
 30
0.0
 11
153.032109957704
 21
242.013002314134
 31
0.0
  0
LINE
  5
F9D
330
1D
100
AcDbEntity
  8
0
100
AcDbLine
 10
165.016709957704
 20
240.823802314134
 30
0.0
 11
162.743709957704
 21
241.261002314134
 31
0.0
  0
LINE
  5
F9E
330
1D
100
AcDbEntity
  8
0
100
AcDbLine
 10
165.016809957704
 20
240.824202314134
 30
0.0
 11
162.743809957704
 21
241.261302314134
 31
0.0
  0
LINE
  5
F9F
330
1D
100
AcDbEntity
  8
0
100
AcDbLine
 10
165.139509957704
 20
241.306602314134
 30
0.0
 11
162.809209957704
 21
241.754802314134
 31
0.0
  0
LINE
  5
FA0
330
1D
100
AcDbEntity
  8
0
100
AcDbLine
 10
165.139909957704
 20
241.306502314134
 30
0.0
 11
162.809409957705
 21
241.754502314134
 31
0.0
  0
LINE
  5
FA1
330
1D
100
AcDbEntity
  8
0
100
AcDbLine
 10
165.636609957704
 20
242.327702314134
 30
0.0
 11
162.939209957704
 21
242.756302314134
 31
0.0
  0
LINE
  5
FA2
330
1D
100
AcDbEntity
  8
0
100
AcDbLine
 10
165.636709957704
 20
242.327802314134
 30
0.0
 11
162.939309957704
 21
242.756202314134
 31
0.0
  0
LINE
  5
FA3
330
1D
100
AcDbEntity
  8
0
100
AcDbLine
 10
157.254009957704
 20
241.261302314134
 30
0.0
 11
159.998809957704
 21
241.439602314134
 31
0.0
  0
LINE
  5
FA4
330
1D
100
AcDbEntity
  8
0
100
AcDbLine
 10
157.254109957704
 20
241.261002314134
 30
0.0
 11
159.998609957704
 21
241.439702314134
 31
0.0
  0
LINE
  5
FA5
330
1D
100
AcDbEntity
  8
0
100
AcDbLine
 10
157.188609957705
 20
241.754802314134
 30
0.0
 11
159.581209957704
 21
241.933302314134
 31
0.0
  0
LINE
  5
FA6
330
1D
100
AcDbEntity
  8
0
100
AcDbLine
 10
157.188409957704
 20
241.754502314134
 30
0.0
 11
159.581309957704
 21
241.933202314134
 31
0.0
  0
LINE
  5
FA7
330
1D
100
AcDbEntity
  8
0
100
AcDbLine
 10
157.058609957704
 20
242.756302314134
 30
0.0
 11
159.785309957704
 21
242.913602314134
 31
0.0
  0
LINE
  5
FA8
330
1D
100
AcDbEntity
  8
0
100
AcDbLine
 10
157.058509957705
 20
242.756202314134
 30
0.0
 11
159.785509957704
 21
242.913802314134
 31
0.0
  0
LINE
  5
FA9
330
1D
100
AcDbEntity
  8
0
100
AcDbLine
 10
154.981109957704
 20
240.823802314134
 30
0.0
 11
157.254109957704
 21
241.261002314134
 31
0.0
  0
LINE
  5
FAA
330
1D
100
AcDbEntity
  8
0
100
AcDbLine
 10
154.981009957704
 20
240.824202314134
 30
0.0
 11
157.254009957704
 21
241.261302314134
 31
0.0
  0
LINE
  5
FAB
330
1D
100
AcDbEntity
  8
0
100
AcDbLine
 10
154.858309957704
 20
241.306602314134
 30
0.0
 11
157.188609957705
 21
241.754802314134
 31
0.0
  0
LINE
  5
FAC
330
1D
100
AcDbEntity
  8
0
100
AcDbLine
 10
154.857909957704
 20
241.306502314134
 30
0.0
 11
157.188409957704
 21
241.754502314134
 31
0.0
  0
LINE
  5
FAD
330
1D
100
AcDbEntity
  8
0
100
AcDbLine
 10
154.361209957704
 20
242.327702314134
 30
0.0
 11
157.058609957704
 21
242.756302314134
 31
0.0
  0
LINE
  5
FAE
330
1D
100
AcDbEntity
  8
0
100
AcDbLine
 10
154.361109957704
 20
242.327802314134
 30
0.0
 11
157.058509957705
 21
242.756202314134
 31
0.0
  0
LINE
  5
FAF
330
1D
100
AcDbEntity
  8
0
100
AcDbLine
 10
159.581309957704
 20
241.933202314134
 30
0.0
 11
159.998809957704
 21
241.937202314134
 31
0.0
  0
LINE
  5
FB0
330
1D
100
AcDbEntity
  8
0
100
AcDbLine
 10
159.785509957704
 20
242.913802314134
 30
0.0
 11
159.998809957704
 21
242.914502314134
 31
0.0
  0
LINE
  5
FB1
330
1D
100
AcDbEntity
  8
0
100
AcDbLine
 10
159.785309957704
 20
242.913602314134
 30
0.0
 11
159.998909957704
 21
242.914402314134
 31
0.0
  0
LINE
  5
FB2
330
1D
100
AcDbEntity
  8
0
100
AcDbLine
 10
159.581209957704
 20
241.933302314134
 30
0.0
 11
159.998909957704
 21
241.937202314134
 31
0.0
  0
LINE
  5
FB3
330
1D
100
AcDbEntity
  8
0
100
AcDbLine
 10
162.809209957704
 20
241.754802314134
 30
0.0
 11
160.416609957704
 21
241.933302314134
 31
0.0
  0
LINE
  5
FB4
330
1D
100
AcDbEntity
  8
0
100
AcDbLine
 10
162.809409957705
 20
241.754502314134
 30
0.0
 11
160.416509957705
 21
241.933202314134
 31
0.0
  0
LINE
  5
FB5
330
1D
100
AcDbEntity
  8
0
100
AcDbLine
 10
162.743809957704
 20
241.261302314134
 30
0.0
 11
159.999009957704
 21
241.439602314134
 31
0.0
  0
LINE
  5
FB6
330
1D
100
AcDbEntity
  8
0
100
AcDbLine
 10
162.743709957704
 20
241.261002314134
 30
0.0
 11
159.999209957704
 21
241.439702314134
 31
0.0
  0
LINE
  5
FB7
330
1D
100
AcDbEntity
  8
0
100
AcDbLine
 10
160.416509957705
 20
241.933202314134
 30
0.0
 11
159.999009957704
 21
241.937202314134
 31
0.0
  0
LINE
  5
FB8
330
1D
100
AcDbEntity
  8
0
100
AcDbLine
 10
162.939209957704
 20
242.756302314134
 30
0.0
 11
160.212509957704
 21
242.913602314134
 31
0.0
  0
LINE
  5
FB9
330
1D
100
AcDbEntity
  8
0
100
AcDbLine
 10
162.939309957704
 20
242.756202314134
 30
0.0
 11
160.212309957704
 21
242.913802314134
 31
0.0
  0
LINE
  5
FBA
330
1D
100
AcDbEntity
  8
0
100
AcDbLine
 10
160.212309957704
 20
242.913802314134
 30
0.0
 11
159.999009957704
 21
242.914502314134
 31
0.0
  0
LINE
  5
FBB
330
1D
100
AcDbEntity
  8
0
100
AcDbLine
 10
160.212509957704
 20
242.913602314134
 30
0.0
 11
159.998909957704
 21
242.914402314134
 31
0.0
  0
LINE
  5
FBC
330
1D
100
AcDbEntity
  8
0
100
AcDbLine
 10
160.416609957704
 20
241.933302314134
 30
0.0
 11
159.998909957704
 21
241.937202314134
 31
0.0
  0
LINE
  5
FBD
330
1D
100
AcDbEntity
  8
0
100
AcDbLine
 10
169.536009957704
 20
239.615602314134
 30
0.0
 11
167.388209957705
 21
240.590902314134
 31
0.0
  0
LINE
  5
FBE
330
1D
100
AcDbEntity
  8
0
100
AcDbLine
 10
169.536109957704
 20
239.615502314134
 30
0.0
 11
167.388309957704
 21
240.590802314134
 31
0.0
  0
LINE
  5
FBF
330
1D
100
AcDbEntity
  8
0
100
AcDbLine
 10
169.303209957704
 20
239.175402314134
 30
0.0
 11
167.209309957705
 21
240.126402314134
 31
0.0
  0
LINE
  5
FC0
330
1D
100
AcDbEntity
  8
0
100
AcDbLine
 10
169.303409957704
 20
239.175302314134
 30
0.0
 11
167.209009957704
 21
240.126302314134
 31
0.0
  0
LINE
  5
FC1
330
1D
100
AcDbEntity
  8
0
100
AcDbLine
 10
169.567909957704
 20
241.186302314134
 30
0.0
 11
168.276809957705
 21
241.632202314134
 31
0.0
  0
LINE
  5
FC2
330
1D
100
AcDbEntity
  8
0
100
AcDbLine
 10
169.567709957704
 20
241.186202314134
 30
0.0
 11
168.276909957704
 21
241.632202314134
 31
0.0
  0
LINE
  5
FC3
330
1D
100
AcDbEntity
  8
0
100
AcDbLine
 10
168.276809957705
 20
241.632202314134
 30
0.0
 11
166.965709957704
 21
242.013002314134
 31
0.0
  0
LINE
  5
FC4
330
1D
100
AcDbEntity
  8
0
100
AcDbLine
 10
168.276909957704
 20
241.632202314134
 30
0.0
 11
166.965709957704
 21
242.013002314134
 31
0.0
  0
LINE
  5
FC5
330
1D
100
AcDbEntity
  8
0
100
AcDbLine
 10
167.209309957705
 20
240.126402314134
 30
0.0
 11
165.016709957704
 21
240.823802314134
 31
0.0
  0
LINE
  5
FC6
330
1D
100
AcDbEntity
  8
0
100
AcDbLine
 10
167.209009957704
 20
240.126302314134
 30
0.0
 11
165.016809957704
 21
240.824202314134
 31
0.0
  0
LINE
  5
FC7
330
1D
100
AcDbEntity
  8
0
100
AcDbLine
 10
167.388209957705
 20
240.590902314134
 30
0.0
 11
165.139509957704
 21
241.306602314134
 31
0.0
  0
LINE
  5
FC8
330
1D
100
AcDbEntity
  8
0
100
AcDbLine
 10
167.388309957704
 20
240.590802314134
 30
0.0
 11
165.139909957704
 21
241.306502314134
 31
0.0
  0
LINE
  5
FC9
330
1D
100
AcDbEntity
  8
0
100
AcDbLine
 10
166.965709957704
 20
242.013002314134
 30
0.0
 11
165.636709957704
 21
242.327802314134
 31
0.0
  0
LINE
  5
FCA
330
1D
100
AcDbEntity
  8
0
100
AcDbLine
 10
166.965709957704
 20
242.013002314134
 30
0.0
 11
165.636609957704
 21
242.327702314134
 31
0.0
  0
LINE
  5
FCB
330
1D
100
AcDbEntity
  8
0
100
AcDbLine
 10
172.074209957704
 20
240.103702314134
 30
0.0
 11
170.834509957704
 21
240.676402314134
 31
0.0
  0
LINE
  5
FCC
330
1D
100
AcDbEntity
  8
0
100
AcDbLine
 10
172.074409957704
 20
240.103602314134
 30
0.0
 11
170.834709957704
 21
240.676302314134
 31
0.0
  0
LINE
  5
FCD
330
1D
100
AcDbEntity
  8
0
100
AcDbLine
 10
172.788909957704
 20
237.492602314134
 30
0.0
 11
171.207709957704
 21
238.632002314134
 31
0.0
  0
LINE
  5
FCE
330
1D
100
AcDbEntity
  8
0
100
AcDbLine
 10
172.789009957704
 20
237.492602314134
 30
0.0
 11
171.207709957704
 21
238.632002314134
 31
0.0
  0
LINE
  5
FCF
330
1D
100
AcDbEntity
  8
0
100
AcDbLine
 10
171.694009957704
 20
237.695202314134
 30
0.0
 11
170.522009957704
 21
238.478102314134
 31
0.0
  0
LINE
  5
FD0
330
1D
100
AcDbEntity
  8
0
100
AcDbLine
 10
171.693709957704
 20
237.695102314134
 30
0.0
 11
170.522109957704
 21
238.477902314134
 31
0.0
  0
LINE
  5
FD1
330
1D
100
AcDbEntity
  8
0
100
AcDbLine
 10
173.283609957704
 20
239.469802314134
 30
0.0
 11
172.074409957704
 21
240.103602314134
 31
0.0
  0
LINE
  5
FD2
330
1D
100
AcDbEntity
  8
0
100
AcDbLine
 10
173.283309957704
 20
239.470002314134
 30
0.0
 11
172.074209957704
 21
240.103702314134
 31
0.0
  0
LINE
  5
FD3
330
1D
100
AcDbEntity
  8
0
100
AcDbLine
 10
172.838809957704
 20
236.811102314134
 30
0.0
 11
171.693709957704
 21
237.695102314134
 31
0.0
  0
LINE
  5
FD4
330
1D
100
AcDbEntity
  8
0
100
AcDbLine
 10
172.838809957704
 20
236.811502314134
 30
0.0
 11
171.694009957704
 21
237.695202314134
 31
0.0
  0
LINE
  5
FD5
330
1D
100
AcDbEntity
  8
0
100
AcDbLine
 10
170.522109957704
 20
238.477902314134
 30
0.0
 11
169.303209957704
 21
239.175402314134
 31
0.0
  0
LINE
  5
FD6
330
1D
100
AcDbEntity
  8
0
100
AcDbLine
 10
170.522009957704
 20
238.478102314134
 30
0.0
 11
169.303409957704
 21
239.175302314134
 31
0.0
  0
LINE
  5
FD7
330
1D
100
AcDbEntity
  8
0
100
AcDbLine
 10
170.834509957704
 20
240.676402314134
 30
0.0
 11
169.567909957704
 21
241.186302314134
 31
0.0
  0
LINE
  5
FD8
330
1D
100
AcDbEntity
  8
0
100
AcDbLine
 10
170.834709957704
 20
240.676302314134
 30
0.0
 11
169.567709957704
 21
241.186202314134
 31
0.0
  0
LINE
  5
FD9
330
1D
100
AcDbEntity
  8
0
100
AcDbLine
 10
171.207709957704
 20
238.632002314134
 30
0.0
 11
169.536109957704
 21
239.615502314134
 31
0.0
  0
LINE
  5
FDA
330
1D
100
AcDbEntity
  8
0
100
AcDbLine
 10
171.207709957704
 20
238.632002314134
 30
0.0
 11
169.536009957704
 21
239.615602314134
 31
0.0
  0
LINE
  5
FDB
330
1D
100
AcDbEntity
  8
0
100
AcDbLine
 10
186.315109957704
 20
222.922302314134
 30
0.0
 11
185.892509957705
 21
224.300502314134
 31
0.0
  0
LINE
  5
FDC
330
1D
100
AcDbEntity
  8
0
100
AcDbLine
 10
186.314709957704
 20
222.922502314134
 30
0.0
 11
185.892709957704
 21
224.300402314134
 31
0.0
  0
LINE
  5
FDD
330
1D
100
AcDbEntity
  8
0
100
AcDbLine
 10
181.314309957704
 20
221.095602314134
 30
0.0
 11
180.762809957704
 21
223.877402314134
 31
0.0
  0
LINE
  5
FDE
330
1D
100
AcDbEntity
  8
0
100
AcDbLine
 10
181.314409957704
 20
221.095402314134
 30
0.0
 11
180.763009957704
 21
223.877402314134
 31
0.0
  0
LINE
  5
FDF
330
1D
100
AcDbEntity
  8
0
100
AcDbLine
 10
181.561509957704
 20
222.593202314134
 30
0.0
 11
181.245809957704
 21
223.998602314134
 31
0.0
  0
LINE
  5
FE0
330
1D
100
AcDbEntity
  8
0
100
AcDbLine
 10
181.561609957704
 20
222.593102314134
 30
0.0
 11
181.245609957704
 21
223.998802314134
 31
0.0
  0
LINE
  5
FE1
330
1D
100
AcDbEntity
  8
0
100
AcDbLine
 10
184.990209957704
 20
204.607302314134
 30
0.0
 11
184.294509957704
 21
203.149602314134
 31
0.0
  0
LINE
  5
FE2
330
1D
100
AcDbEntity
  8
0
100
AcDbLine
 10
184.989909957704
 20
204.607302314134
 30
0.0
 11
184.294509957704
 21
203.149602314134
 31
0.0
  0
LINE
  5
FE3
330
1D
100
AcDbEntity
  8
0
100
AcDbLine
 10
179.946209957704
 20
204.716002314134
 30
0.0
 11
179.105009957704
 21
202.546802314134
 31
0.0
  0
LINE
  5
FE4
330
1D
100
AcDbEntity
  8
0
100
AcDbLine
 10
179.946009957704
 20
204.715602314134
 30
0.0
 11
179.105009957704
 21
202.546802314134
 31
0.0
  0
LINE
  5
FE5
330
1D
100
AcDbEntity
  8
0
100
AcDbLine
 10
179.365109957705
 20
204.563902314134
 30
0.0
 11
178.648409957705
 21
202.737702314134
 31
0.0
  0
LINE
  5
FE6
330
1D
100
AcDbEntity
  8
0
100
AcDbLine
 10
179.365309957704
 20
204.564002314134
 30
0.0
 11
178.648409957705
 21
202.737902314134
 31
0.0
  0
LINE
  5
FE7
330
1D
100
AcDbEntity
  8
0
100
AcDbLine
 10
184.294509957704
 20
203.149602314134
 30
0.0
 11
183.513809957704
 21
201.735602314134
 31
0.0
  0
LINE
  5
FE8
330
1D
100
AcDbEntity
  8
0
100
AcDbLine
 10
184.294509957704
 20
203.149602314134
 30
0.0
 11
183.514009957704
 21
201.735602314134
 31
0.0
  0
LINE
  5
FE9
330
1D
100
AcDbEntity
  8
0
100
AcDbLine
 10
175.518109957704
 20
193.157102314134
 30
0.0
 11
174.297409957705
 21
192.360802314134
 31
0.0
  0
LINE
  5
FEA
330
1D
100
AcDbEntity
  8
0
100
AcDbLine
 10
175.518209957704
 20
193.157102314134
 30
0.0
 11
174.297209957704
 21
192.360902314134
 31
0.0
  0
LINE
  5
FEB
330
1D
100
AcDbEntity
  8
0
100
AcDbLine
 10
179.105009957704
 20
202.546802314134
 30
0.0
 11
178.011809957704
 21
200.152302314134
 31
0.0
  0
LINE
  5
FEC
330
1D
100
AcDbEntity
  8
0
100
AcDbLine
 10
179.927509957704
 20
196.955202314134
 30
0.0
 11
178.902809957704
 21
195.919002314134
 31
0.0
  0
LINE
  5
FED
330
1D
100
AcDbEntity
  8
0
100
AcDbLine
 10
179.927609957705
 20
196.955302314134
 30
0.0
 11
178.902609957704
 21
195.918702314134
 31
0.0
  0
LINE
  5
FEE
330
1D
100
AcDbEntity
  8
0
100
AcDbLine
 10
176.792809957704
 20
197.847602314134
 30
0.0
 11
175.269709957704
 21
195.337702314134
 31
0.0
  0
LINE
  5
FEF
330
1D
100
AcDbEntity
  8
0
100
AcDbLine
 10
176.792809957704
 20
197.847802314134
 30
0.0
 11
175.269709957704
 21
195.337702314134
 31
0.0
  0
LINE
  5
FF0
330
1D
100
AcDbEntity
  8
0
100
AcDbLine
 10
176.694909957704
 20
194.017202314134
 30
0.0
 11
175.518209957704
 21
193.157102314134
 31
0.0
  0
LINE
  5
FF1
330
1D
100
AcDbEntity
  8
0
100
AcDbLine
 10
176.695009957704
 20
194.017202314134
 30
0.0
 11
175.518109957704
 21
193.157102314134
 31
0.0
  0
LINE
  5
FF2
330
1D
100
AcDbEntity
  8
0
100
AcDbLine
 10
176.362209957704
 20
198.090502314134
 30
0.0
 11
174.628009957705
 21
195.260302314134
 31
0.0
  0
LINE
  5
FF3
330
1D
100
AcDbEntity
  8
0
100
AcDbLine
 10
176.361709957705
 20
198.090102314134
 30
0.0
 11
174.628009957705
 21
195.260302314134
 31
0.0
  0
LINE
  5
FF4
330
1D
100
AcDbEntity
  8
0
100
AcDbLine
 10
178.648409957705
 20
202.737702314134
 30
0.0
 11
177.567809957704
 21
200.370502314134
 31
0.0
  0
LINE
  5
FF5
330
1D
100
AcDbEntity
  8
0
100
AcDbLine
 10
178.648409957705
 20
202.737902314134
 30
0.0
 11
177.567609957704
 21
200.370302314134
 31
0.0
  0
LINE
  5
FF6
330
1D
100
AcDbEntity
  8
0
100
AcDbLine
 10
178.902809957704
 20
195.919002314134
 30
0.0
 11
177.824109957704
 21
194.938402314134
 31
0.0
  0
LINE
  5
FF7
330
1D
100
AcDbEntity
  8
0
100
AcDbLine
 10
178.902609957704
 20
195.918702314134
 30
0.0
 11
177.824109957704
 21
194.938702314134
 31
0.0
  0
LINE
  5
FF8
330
1D
100
AcDbEntity
  8
0
100
AcDbLine
 10
177.824109957704
 20
194.938702314134
 30
0.0
 11
176.695009957704
 21
194.017202314134
 31
0.0
  0
LINE
  5
FF9
330
1D
100
AcDbEntity
  8
0
100
AcDbLine
 10
177.824109957704
 20
194.938402314134
 30
0.0
 11
176.694909957704
 21
194.017202314134
 31
0.0
  0
LINE
  5
FFA
330
1D
100
AcDbEntity
  8
0
100
AcDbLine
 10
178.011809957704
 20
200.152302314134
 30
0.0
 11
176.792809957704
 21
197.847802314134
 31
0.0
  0
LINE
  5
FFB
330
1D
100
AcDbEntity
  8
0
100
AcDbLine
 10
178.011809957704
 20
200.152302314134
 30
0.0
 11
176.792809957704
 21
197.847602314134
 31
0.0
  0
LINE
  5
FFC
330
1D
100
AcDbEntity
  8
0
100
AcDbLine
 10
177.567609957704
 20
200.370302314134
 30
0.0
 11
176.362209957704
 21
198.090502314134
 31
0.0
  0
LINE
  5
FFD
330
1D
100
AcDbEntity
  8
0
100
AcDbLine
 10
177.567809957704
 20
200.370502314134
 30
0.0
 11
176.361709957705
 21
198.090102314134
 31
0.0
  0
LINE
  5
FFE
330
1D
100
AcDbEntity
  8
0
100
AcDbLine
 10
175.269709957704
 20
195.337702314134
 30
0.0
 11
174.107709957704
 21
193.629702314134
 31
0.0
  0
LINE
  5
FFF
330
1D
100
AcDbEntity
  8
0
100
AcDbLine
 10
183.513809957704
 20
201.735602314134
 30
0.0
 11
182.650809957704
 21
200.370002314134
 31
0.0
  0
LINE
  5
1000
330
1D
100
AcDbEntity
  8
0
100
AcDbLine
 10
183.514009957704
 20
201.735602314134
 30
0.0
 11
182.650809957704
 21
200.370002314134
 31
0.0
  0
LINE
  5
1001
330
1D
100
AcDbEntity
  8
0
100
AcDbLine
 10
181.804109957704
 20
199.183602314134
 30
0.0
 11
180.895409957704
 21
198.044402314134
 31
0.0
  0
LINE
  5
1002
330
1D
100
AcDbEntity
  8
0
100
AcDbLine
 10
181.804009957704
 20
199.183502314134
 30
0.0
 11
180.895509957704
 21
198.044602314134
 31
0.0
  0
LINE
  5
1003
330
1D
100
AcDbEntity
  8
0
100
AcDbLine
 10
180.895409957704
 20
198.044402314134
 30
0.0
 11
179.927609957705
 21
196.955302314134
 31
0.0
  0
LINE
  5
1004
330
1D
100
AcDbEntity
  8
0
100
AcDbLine
 10
180.895509957704
 20
198.044602314134
 30
0.0
 11
179.927509957704
 21
196.955202314134
 31
0.0
  0
LINE
  5
1005
330
1D
100
AcDbEntity
  8
0
100
AcDbLine
 10
182.650809957704
 20
200.370002314134
 30
0.0
 11
181.804009957704
 21
199.183502314134
 31
0.0
  0
LINE
  5
1006
330
1D
100
AcDbEntity
  8
0
100
AcDbLine
 10
182.650809957704
 20
200.370002314134
 30
0.0
 11
181.804109957704
 21
199.183602314134
 31
0.0
  0
LINE
  5
1007
330
1D
100
AcDbEntity
  8
0
100
AcDbLine
 10
182.008109957704
 20
214.046602314134
 30
0.0
 11
181.839209957704
 21
212.478902314134
 31
0.0
  0
LINE
  5
1008
330
1D
100
AcDbEntity
  8
0
100
AcDbLine
 10
182.008009957705
 20
214.046302314134
 30
0.0
 11
181.839009957704
 21
212.478802314134
 31
0.0
  0
LINE
  5
1009
330
1D
100
AcDbEntity
  8
0
100
AcDbLine
 10
181.606509957705
 20
215.633202314134
 30
0.0
 11
181.347709957704
 21
212.543002314134
 31
0.0
  0
LINE
  5
100A
330
1D
100
AcDbEntity
  8
0
100
AcDbLine
 10
181.606509957705
 20
215.633602314134
 30
0.0
 11
181.347809957704
 21
212.543302314134
 31
0.0
  0
LINE
  5
100B
330
1D
100
AcDbEntity
  8
0
100
AcDbLine
 10
181.287409957704
 20
209.362802314134
 30
0.0
 11
180.910709957704
 21
207.821302314134
 31
0.0
  0
LINE
  5
100C
330
1D
100
AcDbEntity
  8
0
100
AcDbLine
 10
180.804009957704
 20
209.469902314134
 30
0.0
 11
179.997909957704
 21
206.440902314134
 31
0.0
  0
LINE
  5
100D
330
1D
100
AcDbEntity
  8
0
100
AcDbLine
 10
181.287309957704
 20
209.362602314134
 30
0.0
 11
180.910809957704
 21
207.821502314134
 31
0.0
  0
LINE
  5
100E
330
1D
100
AcDbEntity
  8
0
100
AcDbLine
 10
180.804009957704
 20
209.470102314134
 30
0.0
 11
179.998009957704
 21
206.441202314134
 31
0.0
  0
LINE
  5
100F
330
1D
100
AcDbEntity
  8
0
100
AcDbLine
 10
179.997909957704
 20
206.440902314134
 30
0.0
 11
179.365309957704
 21
204.564002314134
 31
0.0
  0
LINE
  5
1010
330
1D
100
AcDbEntity
  8
0
100
AcDbLine
 10
179.998009957704
 20
206.441202314134
 30
0.0
 11
179.365109957705
 21
204.563902314134
 31
0.0
  0
LINE
  5
1011
330
1D
100
AcDbEntity
  8
0
100
AcDbLine
 10
180.470909957704
 20
206.294802314134
 30
0.0
 11
179.946009957704
 21
204.715602314134
 31
0.0
  0
LINE
  5
1012
330
1D
100
AcDbEntity
  8
0
100
AcDbLine
 10
180.910809957704
 20
207.821502314134
 30
0.0
 11
180.470909957704
 21
206.294902314134
 31
0.0
  0
LINE
  5
1013
330
1D
100
AcDbEntity
  8
0
100
AcDbLine
 10
180.910709957704
 20
207.821302314134
 30
0.0
 11
180.470909957704
 21
206.294802314134
 31
0.0
  0
LINE
  5
1014
330
1D
100
AcDbEntity
  8
0
100
AcDbLine
 10
181.839209957704
 20
212.478902314134
 30
0.0
 11
181.597909957705
 21
210.916702314134
 31
0.0
  0
LINE
  5
1015
330
1D
100
AcDbEntity
  8
0
100
AcDbLine
 10
181.839009957704
 20
212.478802314134
 30
0.0
 11
181.597809957704
 21
210.916402314134
 31
0.0
  0
LINE
  5
1016
330
1D
100
AcDbEntity
  8
0
100
AcDbLine
 10
181.597809957704
 20
210.916402314134
 30
0.0
 11
181.287409957704
 21
209.362802314134
 31
0.0
  0
LINE
  5
1017
330
1D
100
AcDbEntity
  8
0
100
AcDbLine
 10
181.347709957704
 20
212.543002314134
 30
0.0
 11
180.804009957704
 21
209.469902314134
 31
0.0
  0
LINE
  5
1018
330
1D
100
AcDbEntity
  8
0
100
AcDbLine
 10
181.597909957705
 20
210.916702314134
 30
0.0
 11
181.287309957704
 21
209.362602314134
 31
0.0
  0
LINE
  5
1019
330
1D
100
AcDbEntity
  8
0
100
AcDbLine
 10
181.347809957704
 20
212.543302314134
 30
0.0
 11
180.804009957704
 21
209.470102314134
 31
0.0
  0
LINE
  5
101A
330
1D
100
AcDbEntity
  8
0
100
AcDbLine
 10
181.619809957704
 20
217.409502314134
 30
0.0
 11
181.606709957704
 21
215.633102314134
 31
0.0
  0
LINE
  5
101B
330
1D
100
AcDbEntity
  8
0
100
AcDbLine
 10
181.619509957704
 20
217.409602314134
 30
0.0
 11
181.606509957705
 21
215.633602314134
 31
0.0
  0
LINE
  5
101C
330
1D
100
AcDbEntity
  8
0
100
AcDbLine
 10
182.116309957704
 20
217.419902314134
 30
0.0
 11
182.102609957704
 21
215.615502314134
 31
0.0
  0
LINE
  5
101D
330
1D
100
AcDbEntity
  8
0
100
AcDbLine
 10
182.102509957704
 20
215.615602314134
 30
0.0
 11
182.008009957705
 21
214.046302314134
 31
0.0
  0
LINE
  5
101E
330
1D
100
AcDbEntity
  8
0
100
AcDbLine
 10
181.619809957704
 20
217.409502314134
 30
0.0
 11
181.524209957704
 21
219.262402314134
 31
0.0
  0
LINE
  5
101F
330
1D
100
AcDbEntity
  8
0
100
AcDbLine
 10
181.619509957704
 20
217.409602314134
 30
0.0
 11
181.523709957704
 21
219.262302314134
 31
0.0
  0
LINE
  5
1020
330
1D
100
AcDbEntity
  8
0
100
AcDbLine
 10
182.116309957704
 20
217.419902314134
 30
0.0
 11
182.019609957704
 21
219.303402314134
 31
0.0
  0
LINE
  5
1021
330
1D
100
AcDbEntity
  8
0
100
AcDbLine
 10
181.523709957704
 20
219.262302314134
 30
0.0
 11
181.314309957704
 21
221.095602314134
 31
0.0
  0
LINE
  5
1022
330
1D
100
AcDbEntity
  8
0
100
AcDbLine
 10
181.524209957704
 20
219.262402314134
 30
0.0
 11
181.314409957704
 21
221.095402314134
 31
0.0
  0
LINE
  5
1023
330
1D
100
AcDbEntity
  8
0
100
AcDbLine
 10
182.019609957704
 20
219.303402314134
 30
0.0
 11
181.806909957705
 21
221.167402314134
 31
0.0
  0
LINE
  5
1024
330
1D
100
AcDbEntity
  8
0
100
AcDbLine
 10
182.019609957704
 20
219.303402314134
 30
0.0
 11
181.806509957704
 21
221.167502314134
 31
0.0
  0
LINE
  5
1025
330
1D
100
AcDbEntity
  8
0
100
AcDbLine
 10
181.806909957705
 20
221.167402314134
 30
0.0
 11
181.561509957704
 21
222.593202314134
 31
0.0
  0
LINE
  5
1026
330
1D
100
AcDbEntity
  8
0
100
AcDbLine
 10
181.806509957704
 20
221.167502314134
 30
0.0
 11
181.561609957704
 21
222.593102314134
 31
0.0
  0
LINE
  5
1027
330
1D
100
AcDbEntity
  8
0
100
AcDbLine
 10
182.116509957704
 20
217.419902314134
 30
0.0
 11
182.019609957704
 21
219.303402314134
 31
0.0
  0
LINE
  5
1028
330
1D
100
AcDbEntity
  8
0
100
AcDbLine
 10
187.260409957704
 20
213.979102314134
 30
0.0
 11
187.116009957705
 21
212.370002314134
 31
0.0
  0
LINE
  5
1029
330
1D
100
AcDbEntity
  8
0
100
AcDbLine
 10
187.260409957704
 20
213.979002314134
 30
0.0
 11
187.116109957704
 21
212.369902314134
 31
0.0
  0
LINE
  5
102A
330
1D
100
AcDbEntity
  8
0
100
AcDbLine
 10
186.876809957704
 20
210.772602314134
 30
0.0
 11
186.543109957705
 21
209.191702314134
 31
0.0
  0
LINE
  5
102B
330
1D
100
AcDbEntity
  8
0
100
AcDbLine
 10
186.876909957704
 20
210.772602314134
 30
0.0
 11
186.543209957704
 21
209.191702314134
 31
0.0
  0
LINE
  5
102C
330
1D
100
AcDbEntity
  8
0
100
AcDbLine
 10
185.598309957704
 20
206.104102314134
 30
0.0
 11
184.990209957704
 21
204.607302314134
 31
0.0
  0
LINE
  5
102D
330
1D
100
AcDbEntity
  8
0
100
AcDbLine
 10
185.598209957704
 20
206.104102314134
 30
0.0
 11
184.989909957704
 21
204.607302314134
 31
0.0
  0
LINE
  5
102E
330
1D
100
AcDbEntity
  8
0
100
AcDbLine
 10
186.543209957704
 20
209.191702314134
 30
0.0
 11
186.116409957704
 21
207.633702314134
 31
0.0
  0
LINE
  5
102F
330
1D
100
AcDbEntity
  8
0
100
AcDbLine
 10
186.116509957704
 20
207.633802314134
 30
0.0
 11
185.598309957704
 21
206.104102314134
 31
0.0
  0
LINE
  5
1030
330
1D
100
AcDbEntity
  8
0
100
AcDbLine
 10
186.543109957705
 20
209.191702314134
 30
0.0
 11
186.116509957704
 21
207.633802314134
 31
0.0
  0
LINE
  5
1031
330
1D
100
AcDbEntity
  8
0
100
AcDbLine
 10
186.116409957704
 20
207.633702314134
 30
0.0
 11
185.598209957704
 21
206.104102314134
 31
0.0
  0
LINE
  5
1032
330
1D
100
AcDbEntity
  8
0
100
AcDbLine
 10
187.116109957704
 20
212.369902314134
 30
0.0
 11
186.876909957704
 21
210.772602314134
 31
0.0
  0
LINE
  5
1033
330
1D
100
AcDbEntity
  8
0
100
AcDbLine
 10
187.116009957705
 20
212.370002314134
 30
0.0
 11
186.876809957704
 21
210.772602314134
 31
0.0
  0
LINE
  5
1034
330
1D
100
AcDbEntity
  8
0
100
AcDbLine
 10
187.260809957704
 20
217.245402314134
 30
0.0
 11
187.137109957704
 21
218.681602314134
 31
0.0
  0
LINE
  5
1035
330
1D
100
AcDbEntity
  8
0
100
AcDbLine
 10
187.261109957704
 20
217.245202314134
 30
0.0
 11
187.137409957704
 21
218.681402314134
 31
0.0
  0
LINE
  5
1036
330
1D
100
AcDbEntity
  8
0
100
AcDbLine
 10
187.309509957704
 20
215.615502314134
 30
0.0
 11
187.261109957704
 21
217.245202314134
 31
0.0
  0
LINE
  5
1037
330
1D
100
AcDbEntity
  8
0
100
AcDbLine
 10
187.309609957704
 20
215.615502314134
 30
0.0
 11
187.260809957704
 21
217.245402314134
 31
0.0
  0
LINE
  5
1038
330
1D
100
AcDbEntity
  8
0
100
AcDbLine
 10
187.309609957704
 20
215.615502314134
 30
0.0
 11
187.260409957704
 21
213.979002314134
 31
0.0
  0
LINE
  5
1039
330
1D
100
AcDbEntity
  8
0
100
AcDbLine
 10
187.309609957704
 20
215.615502314134
 30
0.0
 11
187.260409957704
 21
213.979102314134
 31
0.0
  0
LINE
  5
103A
330
1D
100
AcDbEntity
  8
0
100
AcDbLine
 10
187.137109957704
 20
218.681602314134
 30
0.0
 11
186.937909957704
 21
220.108902314134
 31
0.0
  0
LINE
  5
103B
330
1D
100
AcDbEntity
  8
0
100
AcDbLine
 10
187.137409957704
 20
218.681402314134
 30
0.0
 11
186.938109957704
 21
220.108802314134
 31
0.0
  0
LINE
  5
103C
330
1D
100
AcDbEntity
  8
0
100
AcDbLine
 10
186.938109957704
 20
220.108802314134
 30
0.0
 11
186.663809957705
 21
221.523802314134
 31
0.0
  0
LINE
  5
103D
330
1D
100
AcDbEntity
  8
0
100
AcDbLine
 10
186.663409957704
 20
221.523902314134
 30
0.0
 11
186.314709957704
 21
222.922502314134
 31
0.0
  0
LINE
  5
103E
330
1D
100
AcDbEntity
  8
0
100
AcDbLine
 10
186.663809957705
 20
221.523802314134
 30
0.0
 11
186.315109957704
 21
222.922302314134
 31
0.0
  0
LINE
  5
103F
330
1D
100
AcDbEntity
  8
0
100
AcDbLine
 10
186.937909957704
 20
220.108902314134
 30
0.0
 11
186.663409957704
 21
221.523902314134
 31
0.0
  0
LINE
  5
1040
330
1D
100
AcDbEntity
  8
0
100
AcDbLine
 10
184.191309957704
 20
228.287702314134
 30
0.0
 11
183.481009957704
 21
229.559002314134
 31
0.0
  0
LINE
  5
1041
330
1D
100
AcDbEntity
  8
0
100
AcDbLine
 10
184.191609957704
 20
228.287602314134
 30
0.0
 11
183.481009957704
 21
229.559002314134
 31
0.0
  0
LINE
  5
1042
330
1D
100
AcDbEntity
  8
0
100
AcDbLine
 10
176.285009957704
 20
234.033502314134
 30
0.0
 11
175.309509957704
 21
235.155902314134
 31
0.0
  0
LINE
  5
1043
330
1D
100
AcDbEntity
  8
0
100
AcDbLine
 10
175.898209957704
 20
233.719502314134
 30
0.0
 11
173.926509957704
 21
235.846902314134
 31
0.0
  0
LINE
  5
1044
330
1D
100
AcDbEntity
  8
0
100
AcDbLine
 10
180.957809957704
 20
233.121102314134
 30
0.0
 11
179.993909957704
 21
234.213402314134
 31
0.0
  0
LINE
  5
1045
330
1D
100
AcDbEntity
  8
0
100
AcDbLine
 10
180.957709957704
 20
233.121202314134
 30
0.0
 11
179.994109957704
 21
234.213302314134
 31
0.0
  0
LINE
  5
1046
330
1D
100
AcDbEntity
  8
0
100
AcDbLine
 10
179.937409957704
 20
226.562002314134
 30
0.0
 11
178.843609957705
 21
229.118602314134
 31
0.0
  0
LINE
  5
1047
330
1D
100
AcDbEntity
  8
0
100
AcDbLine
 10
179.937209957704
 20
226.562202314134
 30
0.0
 11
178.843409957704
 21
229.118402314134
 31
0.0
  0
LINE
  5
1048
330
1D
100
AcDbEntity
  8
0
100
AcDbLine
 10
179.290409957704
 20
229.338102314134
 30
0.0
 11
178.633809957704
 21
230.582402314134
 31
0.0
  0
LINE
  5
1049
330
1D
100
AcDbEntity
  8
0
100
AcDbLine
 10
179.290609957705
 20
229.338202314134
 30
0.0
 11
178.633809957704
 21
230.582402314134
 31
0.0
  0
LINE
  5
104A
330
1D
100
AcDbEntity
  8
0
100
AcDbLine
 10
177.492309957704
 20
231.514702314134
 30
0.0
 11
175.898209957704
 21
233.719502314134
 31
0.0
  0
LINE
  5
104B
330
1D
100
AcDbEntity
  8
0
100
AcDbLine
 10
177.128709957705
 20
232.934302314134
 30
0.0
 11
176.285209957704
 21
234.033502314134
 31
0.0
  0
LINE
  5
104C
330
1D
100
AcDbEntity
  8
0
100
AcDbLine
 10
177.129009957704
 20
232.934202314134
 30
0.0
 11
176.285009957704
 21
234.033502314134
 31
0.0
  0
LINE
  5
104D
330
1D
100
AcDbEntity
  8
0
100
AcDbLine
 10
177.492109957704
 20
231.514602314134
 30
0.0
 11
175.897909957704
 21
233.719102314134
 31
0.0
  0
LINE
  5
104E
330
1D
100
AcDbEntity
  8
0
100
AcDbLine
 10
178.633809957704
 20
230.582402314134
 30
0.0
 11
177.912609957704
 21
231.782302314134
 31
0.0
  0
LINE
  5
104F
330
1D
100
AcDbEntity
  8
0
100
AcDbLine
 10
178.633809957704
 20
230.582402314134
 30
0.0
 11
177.912709957704
 21
231.782402314134
 31
0.0
  0
LINE
  5
1050
330
1D
100
AcDbEntity
  8
0
100
AcDbLine
 10
177.912709957704
 20
231.782402314134
 30
0.0
 11
177.129009957704
 21
232.934202314134
 31
0.0
  0
LINE
  5
1051
330
1D
100
AcDbEntity
  8
0
100
AcDbLine
 10
177.912609957704
 20
231.782302314134
 30
0.0
 11
177.128709957705
 21
232.934302314134
 31
0.0
  0
LINE
  5
1052
330
1D
100
AcDbEntity
  8
0
100
AcDbLine
 10
178.843609957705
 20
229.118602314134
 30
0.0
 11
177.492109957704
 21
231.514602314134
 31
0.0
  0
LINE
  5
1053
330
1D
100
AcDbEntity
  8
0
100
AcDbLine
 10
178.843409957704
 20
229.118402314134
 30
0.0
 11
177.492309957704
 21
231.514702314134
 31
0.0
  0
LINE
  5
1054
330
1D
100
AcDbEntity
  8
0
100
AcDbLine
 10
180.762809957704
 20
223.877402314134
 30
0.0
 11
179.937409957704
 21
226.562002314134
 31
0.0
  0
LINE
  5
1055
330
1D
100
AcDbEntity
  8
0
100
AcDbLine
 10
180.860309957704
 20
225.379802314134
 30
0.0
 11
180.405309957704
 21
226.732702314134
 31
0.0
  0
LINE
  5
1056
330
1D
100
AcDbEntity
  8
0
100
AcDbLine
 10
180.860109957704
 20
225.379802314134
 30
0.0
 11
180.405109957704
 21
226.732702314134
 31
0.0
  0
LINE
  5
1057
330
1D
100
AcDbEntity
  8
0
100
AcDbLine
 10
180.763009957704
 20
223.877402314134
 30
0.0
 11
179.937209957704
 21
226.562202314134
 31
0.0
  0
LINE
  5
1058
330
1D
100
AcDbEntity
  8
0
100
AcDbLine
 10
181.245609957704
 20
223.998802314134
 30
0.0
 11
180.860109957704
 21
225.379802314134
 31
0.0
  0
LINE
  5
1059
330
1D
100
AcDbEntity
  8
0
100
AcDbLine
 10
181.245809957704
 20
223.998602314134
 30
0.0
 11
180.860309957704
 21
225.379802314134
 31
0.0
  0
LINE
  5
105A
330
1D
100
AcDbEntity
  8
0
100
AcDbLine
 10
179.881809957704
 20
228.053502314134
 30
0.0
 11
179.290609957705
 21
229.338202314134
 31
0.0
  0
LINE
  5
105B
330
1D
100
AcDbEntity
  8
0
100
AcDbLine
 10
179.881609957704
 20
228.053502314134
 30
0.0
 11
179.290409957704
 21
229.338102314134
 31
0.0
  0
LINE
  5
105C
330
1D
100
AcDbEntity
  8
0
100
AcDbLine
 10
180.405309957704
 20
226.732702314134
 30
0.0
 11
179.881609957704
 21
228.053502314134
 31
0.0
  0
LINE
  5
105D
330
1D
100
AcDbEntity
  8
0
100
AcDbLine
 10
180.405109957704
 20
226.732702314134
 30
0.0
 11
179.881809957704
 21
228.053502314134
 31
0.0
  0
LINE
  5
105E
330
1D
100
AcDbEntity
  8
0
100
AcDbLine
 10
183.481009957704
 20
229.559002314134
 30
0.0
 11
182.703809957704
 21
230.790602314134
 31
0.0
  0
LINE
  5
105F
330
1D
100
AcDbEntity
  8
0
100
AcDbLine
 10
183.481009957704
 20
229.559002314134
 30
0.0
 11
182.704109957705
 21
230.790602314134
 31
0.0
  0
LINE
  5
1060
330
1D
100
AcDbEntity
  8
0
100
AcDbLine
 10
181.862209957704
 20
231.979002314134
 30
0.0
 11
180.957709957704
 21
233.121202314134
 31
0.0
  0
LINE
  5
1061
330
1D
100
AcDbEntity
  8
0
100
AcDbLine
 10
182.703809957704
 20
230.790602314134
 30
0.0
 11
181.862209957704
 21
231.979002314134
 31
0.0
  0
LINE
  5
1062
330
1D
100
AcDbEntity
  8
0
100
AcDbLine
 10
181.862009957704
 20
231.979202314134
 30
0.0
 11
180.957809957704
 21
233.121102314134
 31
0.0
  0
LINE
  5
1063
330
1D
100
AcDbEntity
  8
0
100
AcDbLine
 10
182.704109957705
 20
230.790602314134
 30
0.0
 11
181.862009957704
 21
231.979202314134
 31
0.0
  0
LINE
  5
1064
330
1D
100
AcDbEntity
  8
0
100
AcDbLine
 10
176.773009957704
 20
237.161402314134
 30
0.0
 11
175.599209957704
 21
238.025002314134
 31
0.0
  0
LINE
  5
1065
330
1D
100
AcDbEntity
  8
0
100
AcDbLine
 10
176.773109957704
 20
237.161402314134
 30
0.0
 11
175.599309957704
 21
238.025002314134
 31
0.0
  0
LINE
  5
1066
330
1D
100
AcDbEntity
  8
0
100
AcDbLine
 10
179.993909957704
 20
234.213402314134
 30
0.0
 11
178.973609957704
 21
235.252802314134
 31
0.0
  0
LINE
  5
1067
330
1D
100
AcDbEntity
  8
0
100
AcDbLine
 10
179.994109957704
 20
234.213302314134
 30
0.0
 11
178.973209957704
 21
235.253002314134
 31
0.0
  0
LINE
  5
1068
330
1D
100
AcDbEntity
  8
0
100
AcDbLine
 10
178.973209957704
 20
235.253002314134
 30
0.0
 11
177.898809957704
 21
236.236302314134
 31
0.0
  0
LINE
  5
1069
330
1D
100
AcDbEntity
  8
0
100
AcDbLine
 10
178.973609957704
 20
235.252802314134
 30
0.0
 11
177.898509957704
 21
236.236402314134
 31
0.0
  0
LINE
  5
106A
330
1D
100
AcDbEntity
  8
0
100
AcDbLine
 10
177.898509957704
 20
236.236402314134
 30
0.0
 11
176.773009957704
 21
237.161402314134
 31
0.0
  0
LINE
  5
106B
330
1D
100
AcDbEntity
  8
0
100
AcDbLine
 10
177.898809957704
 20
236.236302314134
 30
0.0
 11
176.773109957704
 21
237.161402314134
 31
0.0
  0
LINE
  5
106C
330
1D
100
AcDbEntity
  8
0
100
AcDbLine
 10
175.309509957704
 20
235.155902314134
 30
0.0
 11
174.269909957704
 21
236.207902314134
 31
0.0
  0
LINE
  5
106D
330
1D
100
AcDbEntity
  8
0
100
AcDbLine
 10
175.309609957704
 20
235.155902314134
 30
0.0
 11
174.269909957704
 21
236.207902314134
 31
0.0
  0
LINE
  5
106E
330
1D
100
AcDbEntity
  8
0
100
AcDbLine
 10
175.599209957704
 20
238.025002314134
 30
0.0
 11
174.459509957704
 21
238.776502314134
 31
0.0
  0
LINE
  5
106F
330
1D
100
AcDbEntity
  8
0
100
AcDbLine
 10
175.599309957704
 20
238.025002314134
 30
0.0
 11
174.459609957704
 21
238.776402314134
 31
0.0
  0
LINE
  5
1070
330
1D
100
AcDbEntity
  8
0
100
AcDbLine
 10
185.892709957704
 20
224.300402314134
 30
0.0
 11
185.398309957704
 21
225.654302314134
 31
0.0
  0
LINE
  5
1071
330
1D
100
AcDbEntity
  8
0
100
AcDbLine
 10
185.892509957705
 20
224.300502314134
 30
0.0
 11
185.398309957704
 21
225.654302314134
 31
0.0
  0
LINE
  5
1072
330
1D
100
AcDbEntity
  8
0
100
AcDbLine
 10
184.832709957704
 20
226.980502314134
 30
0.0
 11
184.191609957704
 21
228.287602314134
 31
0.0
  0
LINE
  5
1073
330
1D
100
AcDbEntity
  8
0
100
AcDbLine
 10
184.832909957704
 20
226.980302314134
 30
0.0
 11
184.191309957704
 21
228.287702314134
 31
0.0
  0
LINE
  5
1074
330
1D
100
AcDbEntity
  8
0
100
AcDbLine
 10
185.398309957704
 20
225.654302314134
 30
0.0
 11
184.832909957704
 21
226.980302314134
 31
0.0
  0
LINE
  5
1075
330
1D
100
AcDbEntity
  8
0
100
AcDbLine
 10
185.398309957704
 20
225.654302314134
 30
0.0
 11
184.832709957704
 21
226.980502314134
 31
0.0
  0
LINE
  5
1095
330
1D
100
AcDbEntity
  8
0
100
AcDbLine
 10
160.664
 20
182.66365
 30
0.0
 11
160.0
 21
182.63165
 31
0.0
  0
LINE
  5
1096
330
1D
100
AcDbEntity
  8
0
100
AcDbLine
 10
161.777
 20
182.87365
 30
0.0
 11
160.664
 21
182.66365
 31
0.0
  0
CIRCLE
  5
10B3
330
1D
100
AcDbEntity
  8
0
100
AcDbCircle
 10
160.0
 20
215.0
 30
0.0
 40
35.0
  0
LINE
  5
10B4
330
1D
100
AcDbEntity
  8
0
100
AcDbLine
 10
296.543109957704
 20
209.191702314134
 30
0.0
 11
296.116509957704
 21
207.633802314134
 31
0.0
  0
LINE
  5
10B5
330
1D
100
AcDbEntity
  8
0
100
AcDbLine
 10
296.543209957704
 20
209.191702314134
 30
0.0
 11
296.116409957704
 21
207.633702314134
 31
0.0
  0
LINE
  5
10B6
330
1D
100
AcDbEntity
  8
0
100
AcDbLine
 10
290.910709957705
 20
207.821302314134
 30
0.0
 11
290.470909957705
 21
206.294802314134
 31
0.0
  0
LINE
  5
10B7
330
1D
100
AcDbEntity
  8
0
100
AcDbLine
 10
290.910809957704
 20
207.821502314134
 30
0.0
 11
290.470909957705
 21
206.294902314134
 31
0.0
  0
LINE
  5
10B8
330
1D
100
AcDbEntity
  8
0
100
AcDbLine
 10
290.804009957704
 20
209.470102314134
 30
0.0
 11
289.998009957704
 21
206.441202314134
 31
0.0
  0
LINE
  5
10B9
330
1D
100
AcDbEntity
  8
0
100
AcDbLine
 10
290.804009957704
 20
209.469902314134
 30
0.0
 11
289.997909957704
 21
206.440902314134
 31
0.0
  0
LINE
  5
10BA
330
1D
100
AcDbEntity
  8
0
100
AcDbLine
 10
249.193809957705
 20
209.470102314134
 30
0.0
 11
249.999809957704
 21
206.441202314134
 31
0.0
  0
LINE
  5
10BB
330
1D
100
AcDbEntity
  8
0
100
AcDbLine
 10
249.087109957704
 20
207.821302314134
 30
0.0
 11
249.526909957704
 21
206.294802314134
 31
0.0
  0
LINE
  5
10BC
330
1D
100
AcDbEntity
  8
0
100
AcDbLine
 10
249.087009957704
 20
207.821502314134
 30
0.0
 11
249.526909957704
 21
206.294902314134
 31
0.0
  0
LINE
  5
10BD
330
1D
100
AcDbEntity
  8
0
100
AcDbLine
 10
249.193809957705
 20
209.469902314134
 30
0.0
 11
249.999909957704
 21
206.440902314134
 31
0.0
  0
LINE
  5
10BE
330
1D
100
AcDbEntity
  8
0
100
AcDbLine
 10
243.454709957704
 20
209.191702314134
 30
0.0
 11
243.881309957705
 21
207.633802314134
 31
0.0
  0
LINE
  5
10BF
330
1D
100
AcDbEntity
  8
0
100
AcDbLine
 10
243.454609957704
 20
209.191702314134
 30
0.0
 11
243.881409957704
 21
207.633702314134
 31
0.0
  0
CIRCLE
  5
10C0
330
1D
100
AcDbEntity
  8
0
100
AcDbCircle
 10
270.0
 20
215.0
 30
0.0
 40
35.0
  0
LINE
  5
10C1
330
1D
100
AcDbEntity
  8
0
100
AcDbLine
 10
264.737809957704
 20
185.164202314134
 30
0.0
 11
266.395909957704
 21
184.150502314134
 31
0.0
  0
LINE
  5
10C2
330
1D
100
AcDbEntity
  8
0
100
AcDbLine
 10
264.902309957704
 20
184.455502314134
 30
0.0
 11
266.163909957705
 21
183.711402314134
 31
0.0
  0
LINE
  5
10C3
330
1D
100
AcDbEntity
  8
0
100
AcDbLine
 10
264.902209957704
 20
184.455602314134
 30
0.0
 11
266.164109957704
 21
183.711102314134
 31
0.0
  0
LINE
  5
10C4
330
1D
100
AcDbEntity
  8
0
100
AcDbLine
 10
264.737809957704
 20
185.164402314134
 30
0.0
 11
266.396109957704
 21
184.150802314134
 31
0.0
  0
LINE
  5
10C5
330
1D
100
AcDbEntity
  8
0
100
AcDbLine
 10
252.430009957704
 20
200.370502314134
 30
0.0
 11
253.636109957704
 21
198.090102314134
 31
0.0
  0
LINE
  5
10C6
330
1D
100
AcDbEntity
  8
0
100
AcDbLine
 10
252.430209957704
 20
200.370302314134
 30
0.0
 11
253.635609957704
 21
198.090502314134
 31
0.0
  0
LINE
  5
10C7
330
1D
100
AcDbEntity
  8
0
100
AcDbLine
 10
251.986009957704
 20
200.152302314134
 30
0.0
 11
253.205009957704
 21
197.847602314134
 31
0.0
  0
LINE
  5
10C8
330
1D
100
AcDbEntity
  8
0
100
AcDbLine
 10
251.986009957704
 20
200.152302314134
 30
0.0
 11
253.205009957704
 21
197.847802314134
 31
0.0
  0
LINE
  5
10C9
330
1D
100
AcDbEntity
  8
0
100
AcDbLine
 10
252.173709957704
 20
194.938402314134
 30
0.0
 11
253.302909957704
 21
194.017202314134
 31
0.0
  0
LINE
  5
10CA
330
1D
100
AcDbEntity
  8
0
100
AcDbLine
 10
252.173709957704
 20
194.938702314134
 30
0.0
 11
253.302809957704
 21
194.017202314134
 31
0.0
  0
LINE
  5
10CB
330
1D
100
AcDbEntity
  8
0
100
AcDbLine
 10
245.703309957704
 20
203.149602314134
 30
0.0
 11
246.483809957704
 21
201.735602314134
 31
0.0
  0
LINE
  5
10CC
330
1D
100
AcDbEntity
  8
0
100
AcDbLine
 10
245.703309957704
 20
203.149602314134
 30
0.0
 11
246.484009957705
 21
201.735602314134
 31
0.0
  0
LINE
  5
10CD
330
1D
100
AcDbEntity
  8
0
100
AcDbLine
 10
243.881409957704
 20
207.633702314134
 30
0.0
 11
244.399609957704
 21
206.104102314134
 31
0.0
  0
LINE
  5
10CE
330
1D
100
AcDbEntity
  8
0
100
AcDbLine
 10
243.881309957705
 20
207.633802314134
 30
0.0
 11
244.399509957704
 21
206.104102314134
 31
0.0
  0
LINE
  5
10CF
330
1D
100
AcDbEntity
  8
0
100
AcDbLine
 10
244.399609957704
 20
206.104102314134
 30
0.0
 11
245.007909957704
 21
204.607302314134
 31
0.0
  0
LINE
  5
10D0
330
1D
100
AcDbEntity
  8
0
100
AcDbLine
 10
244.399509957704
 20
206.104102314134
 30
0.0
 11
245.007609957704
 21
204.607302314134
 31
0.0
  0
LINE
  5
10D1
330
1D
100
AcDbEntity
  8
0
100
AcDbLine
 10
245.007909957704
 20
204.607302314134
 30
0.0
 11
245.703309957704
 21
203.149602314134
 31
0.0
  0
LINE
  5
10D2
330
1D
100
AcDbEntity
  8
0
100
AcDbLine
 10
245.007609957704
 20
204.607302314134
 30
0.0
 11
245.703309957704
 21
203.149602314134
 31
0.0
  0
LINE
  5
10D3
330
1D
100
AcDbEntity
  8
0
100
AcDbLine
 10
250.892809957704
 20
202.546802314134
 30
0.0
 11
251.986009957704
 21
200.152302314134
 31
0.0
  0
LINE
  5
10D4
330
1D
100
AcDbEntity
  8
0
100
AcDbLine
 10
251.349409957704
 20
202.737902314134
 30
0.0
 11
252.430209957704
 21
200.370302314134
 31
0.0
  0
LINE
  5
10D5
330
1D
100
AcDbEntity
  8
0
100
AcDbLine
 10
251.349409957704
 20
202.737702314134
 30
0.0
 11
252.430009957704
 21
200.370502314134
 31
0.0
  0
LINE
  5
10D6
330
1D
100
AcDbEntity
  8
0
100
AcDbLine
 10
246.483809957704
 20
201.735602314134
 30
0.0
 11
247.347009957705
 21
200.370002314134
 31
0.0
  0
LINE
  5
10D7
330
1D
100
AcDbEntity
  8
0
100
AcDbLine
 10
246.484009957705
 20
201.735602314134
 30
0.0
 11
247.347009957705
 21
200.370002314134
 31
0.0
  0
LINE
  5
10D8
330
1D
100
AcDbEntity
  8
0
100
AcDbLine
 10
251.095209957704
 20
195.918702314134
 30
0.0
 11
252.173709957704
 21
194.938702314134
 31
0.0
  0
LINE
  5
10D9
330
1D
100
AcDbEntity
  8
0
100
AcDbLine
 10
251.095009957704
 20
195.919002314134
 30
0.0
 11
252.173709957704
 21
194.938402314134
 31
0.0
  0
LINE
  5
10DA
330
1D
100
AcDbEntity
  8
0
100
AcDbLine
 10
250.070209957704
 20
196.955302314134
 30
0.0
 11
251.095209957704
 21
195.918702314134
 31
0.0
  0
LINE
  5
10DB
330
1D
100
AcDbEntity
  8
0
100
AcDbLine
 10
250.070309957704
 20
196.955202314134
 30
0.0
 11
251.095009957704
 21
195.919002314134
 31
0.0
  0
LINE
  5
10DC
330
1D
100
AcDbEntity
  8
0
100
AcDbLine
 10
247.347009957705
 20
200.370002314134
 30
0.0
 11
248.193709957704
 21
199.183602314134
 31
0.0
  0
LINE
  5
10DD
330
1D
100
AcDbEntity
  8
0
100
AcDbLine
 10
247.347009957705
 20
200.370002314134
 30
0.0
 11
248.193809957705
 21
199.183502314134
 31
0.0
  0
LINE
  5
10DE
330
1D
100
AcDbEntity
  8
0
100
AcDbLine
 10
249.102309957704
 20
198.044602314134
 30
0.0
 11
250.070309957704
 21
196.955202314134
 31
0.0
  0
LINE
  5
10DF
330
1D
100
AcDbEntity
  8
0
100
AcDbLine
 10
249.102409957704
 20
198.044402314134
 30
0.0
 11
250.070209957704
 21
196.955302314134
 31
0.0
  0
LINE
  5
10E0
330
1D
100
AcDbEntity
  8
0
100
AcDbLine
 10
248.193809957705
 20
199.183502314134
 30
0.0
 11
249.102309957704
 21
198.044602314134
 31
0.0
  0
LINE
  5
10E1
330
1D
100
AcDbEntity
  8
0
100
AcDbLine
 10
248.193709957704
 20
199.183602314134
 30
0.0
 11
249.102409957704
 21
198.044402314134
 31
0.0
  0
LINE
  5
10E2
330
1D
100
AcDbEntity
  8
0
100
AcDbLine
 10
249.999809957704
 20
206.441202314134
 30
0.0
 11
250.632709957704
 21
204.563902314134
 31
0.0
  0
LINE
  5
10E3
330
1D
100
AcDbEntity
  8
0
100
AcDbLine
 10
249.999909957704
 20
206.440902314134
 30
0.0
 11
250.632509957704
 21
204.564002314134
 31
0.0
  0
LINE
  5
10E4
330
1D
100
AcDbEntity
  8
0
100
AcDbLine
 10
249.526909957704
 20
206.294802314134
 30
0.0
 11
250.051809957704
 21
204.715602314134
 31
0.0
  0
LINE
  5
10E5
330
1D
100
AcDbEntity
  8
0
100
AcDbLine
 10
250.632509957704
 20
204.564002314134
 30
0.0
 11
251.349409957704
 21
202.737902314134
 31
0.0
  0
LINE
  5
10E6
330
1D
100
AcDbEntity
  8
0
100
AcDbLine
 10
250.632709957704
 20
204.563902314134
 30
0.0
 11
251.349409957704
 21
202.737702314134
 31
0.0
  0
LINE
  5
10E7
330
1D
100
AcDbEntity
  8
0
100
AcDbLine
 10
250.051809957704
 20
204.715602314134
 30
0.0
 11
250.892809957704
 21
202.546802314134
 31
0.0
  0
LINE
  5
10E8
330
1D
100
AcDbEntity
  8
0
100
AcDbLine
 10
250.051609957704
 20
204.716002314134
 30
0.0
 11
250.892809957704
 21
202.546802314134
 31
0.0
  0
LINE
  5
10E9
330
1D
100
AcDbEntity
  8
0
100
AcDbLine
 10
254.728109957705
 20
195.337702314134
 30
0.0
 11
255.890109957704
 21
193.629702314134
 31
0.0
  0
LINE
  5
10EA
330
1D
100
AcDbEntity
  8
0
100
AcDbLine
 10
255.369809957704
 20
195.260302314134
 30
0.0
 11
257.258909957705
 21
192.607402314134
 31
0.0
  0
LINE
  5
10EB
330
1D
100
AcDbEntity
  8
0
100
AcDbLine
 10
255.369809957704
 20
195.260302314134
 30
0.0
 11
257.258709957704
 21
192.607102314134
 31
0.0
  0
LINE
  5
10EC
330
1D
100
AcDbEntity
  8
0
100
AcDbLine
 10
257.258709957704
 20
192.607102314134
 30
0.0
 11
259.298509957704
 21
190.129402314134
 31
0.0
  0
LINE
  5
10ED
330
1D
100
AcDbEntity
  8
0
100
AcDbLine
 10
257.258909957705
 20
192.607402314134
 30
0.0
 11
259.298609957704
 21
190.129102314134
 31
0.0
  0
LINE
  5
10EE
330
1D
100
AcDbEntity
  8
0
100
AcDbLine
 10
258.927509957705
 20
189.801402314134
 30
0.0
 11
260.018209957704
 21
188.617402314134
 31
0.0
  0
LINE
  5
10EF
330
1D
100
AcDbEntity
  8
0
100
AcDbLine
 10
258.927509957705
 20
189.801402314134
 30
0.0
 11
260.018009957705
 21
188.617802314134
 31
0.0
  0
LINE
  5
10F0
330
1D
100
AcDbEntity
  8
0
100
AcDbLine
 10
253.302809957704
 20
194.017202314134
 30
0.0
 11
254.479709957705
 21
193.157102314134
 31
0.0
  0
LINE
  5
10F1
330
1D
100
AcDbEntity
  8
0
100
AcDbLine
 10
253.302909957704
 20
194.017202314134
 30
0.0
 11
254.479609957704
 21
193.157102314134
 31
0.0
  0
LINE
  5
10F2
330
1D
100
AcDbEntity
  8
0
100
AcDbLine
 10
257.365109957704
 20
191.666402314134
 30
0.0
 11
258.927509957705
 21
189.801402314134
 31
0.0
  0
LINE
  5
10F3
330
1D
100
AcDbEntity
  8
0
100
AcDbLine
 10
256.962009957704
 20
191.630902314134
 30
0.0
 11
257.338713245916
 21
191.438967854773
 31
0.0
  0
LINE
  5
10F4
330
1D
100
AcDbEntity
  8
0
100
AcDbLine
 10
256.961909957705
 20
191.630902314134
 30
0.0
 11
257.338674971462
 21
191.439009754386
 31
0.0
  0
LINE
  5
10F5
330
1D
100
AcDbEntity
  8
0
100
AcDbLine
 10
255.700409957704
 20
192.360802314134
 30
0.0
 11
256.961909957705
 21
191.630902314134
 31
0.0
  0
LINE
  5
10F6
330
1D
100
AcDbEntity
  8
0
100
AcDbLine
 10
255.700609957705
 20
192.360902314134
 30
0.0
 11
256.962009957704
 21
191.630902314134
 31
0.0
  0
LINE
  5
10F7
330
1D
100
AcDbEntity
  8
0
100
AcDbLine
 10
255.700409957704
 20
192.360802314134
 30
0.0
 11
254.479609957704
 21
193.157102314134
 31
0.0
  0
LINE
  5
10F8
330
1D
100
AcDbEntity
  8
0
100
AcDbLine
 10
255.890209957704
 20
193.629502314134
 30
0.0
 11
257.365109957704
 21
191.666402314134
 31
0.0
  0
LINE
  5
10F9
330
1D
100
AcDbEntity
  8
0
100
AcDbLine
 10
263.586509957704
 20
185.387902314134
 30
0.0
 11
264.902309957704
 21
184.455502314134
 31
0.0
  0
LINE
  5
10FA
330
1D
100
AcDbEntity
  8
0
100
AcDbLine
 10
263.586509957704
 20
185.387702314134
 30
0.0
 11
264.902209957704
 21
184.455602314134
 31
0.0
  0
LINE
  5
10FB
330
1D
100
AcDbEntity
  8
0
100
AcDbLine
 10
261.498709957704
 20
187.839202314134
 30
0.0
 11
262.666509957704
 21
186.777202314134
 31
0.0
  0
LINE
  5
10FC
330
1D
100
AcDbEntity
  8
0
100
AcDbLine
 10
261.498709957704
 20
187.839302314134
 30
0.0
 11
262.666409957704
 21
186.777602314134
 31
0.0
  0
LINE
  5
10FD
330
1D
100
AcDbEntity
  8
0
100
AcDbLine
 10
259.298509957704
 20
190.129402314134
 30
0.0
 11
261.498709957704
 21
187.839302314134
 31
0.0
  0
LINE
  5
10FE
330
1D
100
AcDbEntity
  8
0
100
AcDbLine
 10
259.298609957704
 20
190.129102314134
 30
0.0
 11
261.498709957704
 21
187.839202314134
 31
0.0
  0
LINE
  5
10FF
330
1D
100
AcDbEntity
  8
0
100
AcDbLine
 10
260.018009957705
 20
188.617802314134
 30
0.0
 11
261.741609957704
 21
186.934202314134
 31
0.0
  0
LINE
  5
1100
330
1D
100
AcDbEntity
  8
0
100
AcDbLine
 10
260.018209957704
 20
188.617402314134
 30
0.0
 11
261.741609957704
 21
186.934202314134
 31
0.0
  0
LINE
  5
1101
330
1D
100
AcDbEntity
  8
0
100
AcDbLine
 10
262.666409957704
 20
186.777602314134
 30
0.0
 11
264.737809957704
 21
185.164202314134
 31
0.0
  0
LINE
  5
1102
330
1D
100
AcDbEntity
  8
0
100
AcDbLine
 10
261.741609957704
 20
186.934202314134
 30
0.0
 11
263.586509957704
 21
185.387702314134
 31
0.0
  0
LINE
  5
1103
330
1D
100
AcDbEntity
  8
0
100
AcDbLine
 10
261.741609957704
 20
186.934202314134
 30
0.0
 11
263.586509957704
 21
185.387902314134
 31
0.0
  0
LINE
  5
1104
330
1D
100
AcDbEntity
  8
0
100
AcDbLine
 10
262.666509957704
 20
186.777202314134
 30
0.0
 11
264.737809957704
 21
185.164402314134
 31
0.0
  0
LINE
  5
1105
330
1D
100
AcDbEntity
  8
0
100
AcDbLine
 10
253.636109957704
 20
198.090102314134
 30
0.0
 11
255.369809957704
 21
195.260302314134
 31
0.0
  0
LINE
  5
1106
330
1D
100
AcDbEntity
  8
0
100
AcDbLine
 10
253.635609957704
 20
198.090502314134
 30
0.0
 11
255.369809957704
 21
195.260302314134
 31
0.0
  0
LINE
  5
1107
330
1D
100
AcDbEntity
  8
0
100
AcDbLine
 10
253.205009957704
 20
197.847802314134
 30
0.0
 11
254.728109957705
 21
195.337702314134
 31
0.0
  0
LINE
  5
1108
330
1D
100
AcDbEntity
  8
0
100
AcDbLine
 10
253.205009957704
 20
197.847602314134
 30
0.0
 11
254.728109957705
 21
195.337702314134
 31
0.0
  0
LINE
  5
1109
330
1D
100
AcDbEntity
  8
0
100
AcDbLine
 10
291.804009957704
 20
199.183502314134
 30
0.0
 11
290.895509957704
 21
198.044602314134
 31
0.0
  0
LINE
  5
110A
330
1D
100
AcDbEntity
  8
0
100
AcDbLine
 10
291.804109957704
 20
199.183602314134
 30
0.0
 11
290.895409957704
 21
198.044402314134
 31
0.0
  0
LINE
  5
110B
330
1D
100
AcDbEntity
  8
0
100
AcDbLine
 10
280.699309957704
 20
190.129402314134
 30
0.0
 11
278.499109957704
 21
187.839302314134
 31
0.0
  0
LINE
  5
110C
330
1D
100
AcDbEntity
  8
0
100
AcDbLine
 10
280.699209957705
 20
190.129102314134
 30
0.0
 11
278.499109957704
 21
187.839202314134
 31
0.0
  0
LINE
  5
110D
330
1D
100
AcDbEntity
  8
0
100
AcDbLine
 10
279.979809957704
 20
188.617802314134
 30
0.0
 11
278.256209957705
 21
186.934202314134
 31
0.0
  0
LINE
  5
110E
330
1D
100
AcDbEntity
  8
0
100
AcDbLine
 10
279.979609957704
 20
188.617402314134
 30
0.0
 11
278.256209957705
 21
186.934202314134
 31
0.0
  0
LINE
  5
110F
330
1D
100
AcDbEntity
  8
0
100
AcDbLine
 10
272.695509957705
 20
183.184402314134
 30
0.0
 11
271.772909957704
 21
182.873102314134
 31
0.0
  0
LINE
  5
1110
330
1D
100
AcDbEntity
  8
0
100
AcDbLine
 10
272.695509957705
 20
183.184402314134
 30
0.0
 11
271.772909957704
 21
182.872902314134
 31
0.0
  0
LINE
  5
1111
330
1D
100
AcDbEntity
  8
0
100
AcDbLine
 10
273.601909957704
 20
184.150502314134
 30
0.0
 11
272.081709957704
 21
183.487402314134
 31
0.0
  0
LINE
  5
1112
330
1D
100
AcDbEntity
  8
0
100
AcDbLine
 10
273.601709957704
 20
184.150802314134
 30
0.0
 11
272.081309957704
 21
183.487402314134
 31
0.0
  0
LINE
  5
1113
330
1D
100
AcDbEntity
  8
0
100
AcDbLine
 10
268.223
 20
182.87365
 30
0.0
 11
269.336
 21
182.66365
 31
0.0
  0
LINE
  5
1114
330
1D
100
AcDbEntity
  8
0
100
AcDbLine
 10
267.916509957704
 20
183.487402314134
 30
0.0
 11
269.035309957704
 21
183.203802314134
 31
0.0
  0
LINE
  5
1115
330
1D
100
AcDbEntity
  8
0
100
AcDbLine
 10
267.916109957705
 20
183.487402314134
 30
0.0
 11
269.035609957704
 21
183.203402314134
 31
0.0
  0
LINE
  5
1116
330
1D
100
AcDbEntity
  8
0
100
AcDbLine
 10
268.224909957704
 20
182.872902314134
 30
0.0
 11
269.336309957704
 21
182.663502314134
 31
0.0
  0
LINE
  5
1117
330
1D
100
AcDbEntity
  8
0
100
AcDbLine
 10
268.224909957704
 20
182.873102314134
 30
0.0
 11
269.336509957704
 21
182.663502314134
 31
0.0
  0
LINE
  5
1118
330
1D
100
AcDbEntity
  8
0
100
AcDbLine
 10
266.395909957704
 20
184.150502314134
 30
0.0
 11
267.916109957705
 21
183.487402314134
 31
0.0
  0
LINE
  5
1119
330
1D
100
AcDbEntity
  8
0
100
AcDbLine
 10
266.396109957704
 20
184.150802314134
 30
0.0
 11
267.916509957704
 21
183.487402314134
 31
0.0
  0
LINE
  5
111A
330
1D
100
AcDbEntity
  8
0
100
AcDbLine
 10
267.302309957704
 20
183.184402314134
 30
0.0
 11
268.224909957704
 21
182.873102314134
 31
0.0
  0
LINE
  5
111B
330
1D
100
AcDbEntity
  8
0
100
AcDbLine
 10
267.302309957704
 20
183.184402314134
 30
0.0
 11
268.224909957704
 21
182.872902314134
 31
0.0
  0
LINE
  5
111C
330
1D
100
AcDbEntity
  8
0
100
AcDbLine
 10
266.163909957705
 20
183.711402314134
 30
0.0
 11
267.302309957704
 21
183.184402314134
 31
0.0
  0
LINE
  5
111D
330
1D
100
AcDbEntity
  8
0
100
AcDbLine
 10
266.164109957704
 20
183.711102314134
 30
0.0
 11
267.302309957704
 21
183.184402314134
 31
0.0
  0
LINE
  5
111E
330
1D
100
AcDbEntity
  8
0
100
AcDbLine
 10
269.336
 20
182.66365
 30
0.0
 11
270.0
 21
182.63165
 31
0.0
  0
LINE
  5
111F
330
1D
100
AcDbEntity
  8
0
100
AcDbLine
 10
271.777
 20
182.87365
 30
0.0
 11
270.664
 21
182.66365
 31
0.0
  0
LINE
  5
1120
330
1D
100
AcDbEntity
  8
0
100
AcDbLine
 10
270.664
 20
182.66365
 30
0.0
 11
270.0
 21
182.63165
 31
0.0
  0
LINE
  5
1121
330
1D
100
AcDbEntity
  8
0
100
AcDbLine
 10
272.081309957704
 20
183.487402314134
 30
0.0
 11
270.962509957704
 21
183.203802314134
 31
0.0
  0
LINE
  5
1122
330
1D
100
AcDbEntity
  8
0
100
AcDbLine
 10
272.081709957704
 20
183.487402314134
 30
0.0
 11
270.962209957704
 21
183.203402314134
 31
0.0
  0
LINE
  5
1123
330
1D
100
AcDbEntity
  8
0
100
AcDbLine
 10
270.962209957704
 20
183.203402314134
 30
0.0
 11
269.999509957705
 21
183.129302314134
 31
0.0
  0
LINE
  5
1124
330
1D
100
AcDbEntity
  8
0
100
AcDbLine
 10
270.962509957704
 20
183.203802314134
 30
0.0
 11
269.999209957704
 21
183.128902314134
 31
0.0
  0
LINE
  5
1125
330
1D
100
AcDbEntity
  8
0
100
AcDbLine
 10
271.772909957704
 20
182.872902314134
 30
0.0
 11
270.661509957704
 21
182.663502314134
 31
0.0
  0
LINE
  5
1126
330
1D
100
AcDbEntity
  8
0
100
AcDbLine
 10
271.772909957704
 20
182.873102314134
 30
0.0
 11
270.661309957704
 21
182.663502314134
 31
0.0
  0
LINE
  5
1127
330
1D
100
AcDbEntity
  8
0
100
AcDbLine
 10
270.661509957704
 20
182.663502314134
 30
0.0
 11
269.998909957704
 21
182.631702314134
 31
0.0
  0
LINE
  5
1128
330
1D
100
AcDbEntity
  8
0
100
AcDbLine
 10
270.661309957704
 20
182.663502314134
 30
0.0
 11
269.999009957705
 21
182.631602314134
 31
0.0
  0
LINE
  5
1129
330
1D
100
AcDbEntity
  8
0
100
AcDbLine
 10
269.035609957704
 20
183.203402314134
 30
0.0
 11
269.998309957704
 21
183.129302314134
 31
0.0
  0
LINE
  5
112A
330
1D
100
AcDbEntity
  8
0
100
AcDbLine
 10
269.035309957704
 20
183.203802314134
 30
0.0
 11
269.998609957705
 21
183.128902314134
 31
0.0
  0
LINE
  5
112B
330
1D
100
AcDbEntity
  8
0
100
AcDbLine
 10
269.336309957704
 20
182.663502314134
 30
0.0
 11
269.998909957704
 21
182.631702314134
 31
0.0
  0
LINE
  5
112C
330
1D
100
AcDbEntity
  8
0
100
AcDbLine
 10
269.336509957704
 20
182.663502314134
 30
0.0
 11
269.998809957704
 21
182.631602314134
 31
0.0
  0
LINE
  5
112D
330
1D
100
AcDbEntity
  8
0
100
AcDbLine
 10
277.331409957705
 20
186.777602314134
 30
0.0
 11
275.260009957704
 21
185.164202314134
 31
0.0
  0
LINE
  5
112E
330
1D
100
AcDbEntity
  8
0
100
AcDbLine
 10
277.331309957704
 20
186.777202314134
 30
0.0
 11
275.260009957704
 21
185.164402314134
 31
0.0
  0
LINE
  5
112F
330
1D
100
AcDbEntity
  8
0
100
AcDbLine
 10
275.095509957705
 20
184.455502314134
 30
0.0
 11
273.833909957704
 21
183.711402314134
 31
0.0
  0
LINE
  5
1130
330
1D
100
AcDbEntity
  8
0
100
AcDbLine
 10
275.095609957704
 20
184.455602314134
 30
0.0
 11
273.833709957705
 21
183.711102314134
 31
0.0
  0
LINE
  5
1131
330
1D
100
AcDbEntity
  8
0
100
AcDbLine
 10
275.260009957704
 20
185.164202314134
 30
0.0
 11
273.601909957704
 21
184.150502314134
 31
0.0
  0
LINE
  5
1132
330
1D
100
AcDbEntity
  8
0
100
AcDbLine
 10
275.260009957704
 20
185.164402314134
 30
0.0
 11
273.601709957704
 21
184.150802314134
 31
0.0
  0
LINE
  5
1133
330
1D
100
AcDbEntity
  8
0
100
AcDbLine
 10
276.411309957704
 20
185.387902314134
 30
0.0
 11
275.095509957705
 21
184.455502314134
 31
0.0
  0
LINE
  5
1134
330
1D
100
AcDbEntity
  8
0
100
AcDbLine
 10
276.411309957704
 20
185.387702314134
 30
0.0
 11
275.095609957704
 21
184.455602314134
 31
0.0
  0
LINE
  5
1135
330
1D
100
AcDbEntity
  8
0
100
AcDbLine
 10
278.499109957704
 20
187.839202314134
 30
0.0
 11
277.331309957704
 21
186.777202314134
 31
0.0
  0
LINE
  5
1136
330
1D
100
AcDbEntity
  8
0
100
AcDbLine
 10
278.256209957705
 20
186.934202314134
 30
0.0
 11
276.411309957704
 21
185.387702314134
 31
0.0
  0
LINE
  5
1137
330
1D
100
AcDbEntity
  8
0
100
AcDbLine
 10
278.256209957705
 20
186.934202314134
 30
0.0
 11
276.411309957704
 21
185.387902314134
 31
0.0
  0
LINE
  5
1138
330
1D
100
AcDbEntity
  8
0
100
AcDbLine
 10
278.499109957704
 20
187.839302314134
 30
0.0
 11
277.331409957705
 21
186.777602314134
 31
0.0
  0
LINE
  5
1139
330
1D
100
AcDbEntity
  8
0
100
AcDbLine
 10
273.833909957704
 20
183.711402314134
 30
0.0
 11
272.695509957705
 21
183.184402314134
 31
0.0
  0
LINE
  5
113A
330
1D
100
AcDbEntity
  8
0
100
AcDbLine
 10
273.833709957705
 20
183.711102314134
 30
0.0
 11
272.695509957705
 21
183.184402314134
 31
0.0
  0
LINE
  5
113B
330
1D
100
AcDbEntity
  8
0
100
AcDbLine
 10
285.269709957704
 20
195.337702314134
 30
0.0
 11
284.107709957705
 21
193.629702314134
 31
0.0
  0
LINE
  5
113C
330
1D
100
AcDbEntity
  8
0
100
AcDbLine
 10
287.824109957704
 20
194.938402314134
 30
0.0
 11
286.694909957704
 21
194.017202314134
 31
0.0
  0
LINE
  5
113D
330
1D
100
AcDbEntity
  8
0
100
AcDbLine
 10
287.824109957704
 20
194.938702314134
 30
0.0
 11
286.695009957704
 21
194.017202314134
 31
0.0
  0
LINE
  5
113E
330
1D
100
AcDbEntity
  8
0
100
AcDbLine
 10
284.628009957705
 20
195.260302314134
 30
0.0
 11
282.738909957704
 21
192.607402314134
 31
0.0
  0
LINE
  5
113F
330
1D
100
AcDbEntity
  8
0
100
AcDbLine
 10
284.628009957705
 20
195.260302314134
 30
0.0
 11
282.739109957704
 21
192.607102314134
 31
0.0
  0
LINE
  5
1140
330
1D
100
AcDbEntity
  8
0
100
AcDbLine
 10
286.695009957704
 20
194.017202314134
 30
0.0
 11
285.518109957704
 21
193.157102314134
 31
0.0
  0
LINE
  5
1141
330
1D
100
AcDbEntity
  8
0
100
AcDbLine
 10
286.694909957704
 20
194.017202314134
 30
0.0
 11
285.518209957704
 21
193.157102314134
 31
0.0
  0
LINE
  5
1142
330
1D
100
AcDbEntity
  8
0
100
AcDbLine
 10
285.518209957704
 20
193.157102314134
 30
0.0
 11
284.297209957704
 21
192.360902314134
 31
0.0
  0
LINE
  5
1143
330
1D
100
AcDbEntity
  8
0
100
AcDbLine
 10
285.518109957704
 20
193.157102314134
 30
0.0
 11
284.297409957705
 21
192.360802314134
 31
0.0
  0
LINE
  5
1144
330
1D
100
AcDbEntity
  8
0
100
AcDbLine
 10
281.070309957704
 20
189.801402314134
 30
0.0
 11
279.979609957704
 21
188.617402314134
 31
0.0
  0
LINE
  5
1145
330
1D
100
AcDbEntity
  8
0
100
AcDbLine
 10
281.070309957704
 20
189.801402314134
 30
0.0
 11
279.979809957704
 21
188.617802314134
 31
0.0
  0
LINE
  5
1146
330
1D
100
AcDbEntity
  8
0
100
AcDbLine
 10
283.035809957704
 20
191.630902314134
 30
0.0
 11
282.659106669493
 21
191.438967854773
 31
0.0
  0
LINE
  5
1147
330
1D
100
AcDbEntity
  8
0
100
AcDbLine
 10
283.035909957704
 20
191.630902314134
 30
0.0
 11
282.659144943947
 21
191.439009754386
 31
0.0
  0
LINE
  5
1148
330
1D
100
AcDbEntity
  8
0
100
AcDbLine
 10
282.739109957704
 20
192.607102314134
 30
0.0
 11
280.699309957704
 21
190.129402314134
 31
0.0
  0
LINE
  5
1149
330
1D
100
AcDbEntity
  8
0
100
AcDbLine
 10
282.738909957704
 20
192.607402314134
 30
0.0
 11
280.699209957705
 21
190.129102314134
 31
0.0
  0
LINE
  5
114A
330
1D
100
AcDbEntity
  8
0
100
AcDbLine
 10
282.632709957704
 20
191.666402314134
 30
0.0
 11
281.070309957704
 21
189.801402314134
 31
0.0
  0
LINE
  5
114B
330
1D
100
AcDbEntity
  8
0
100
AcDbLine
 10
284.297409957705
 20
192.360802314134
 30
0.0
 11
283.035909957704
 21
191.630902314134
 31
0.0
  0
LINE
  5
114C
330
1D
100
AcDbEntity
  8
0
100
AcDbLine
 10
284.297209957704
 20
192.360902314134
 30
0.0
 11
283.035809957704
 21
191.630902314134
 31
0.0
  0
LINE
  5
114D
330
1D
100
AcDbEntity
  8
0
100
AcDbLine
 10
284.107609957704
 20
193.629502314134
 30
0.0
 11
282.632709957704
 21
191.666402314134
 31
0.0
  0
LINE
  5
114E
330
1D
100
AcDbEntity
  8
0
100
AcDbLine
 10
286.361709957705
 20
198.090102314134
 30
0.0
 11
284.628009957705
 21
195.260302314134
 31
0.0
  0
LINE
  5
114F
330
1D
100
AcDbEntity
  8
0
100
AcDbLine
 10
286.362209957705
 20
198.090502314134
 30
0.0
 11
284.628009957705
 21
195.260302314134
 31
0.0
  0
LINE
  5
1150
330
1D
100
AcDbEntity
  8
0
100
AcDbLine
 10
288.648409957705
 20
202.737902314134
 30
0.0
 11
287.567609957704
 21
200.370302314134
 31
0.0
  0
LINE
  5
1151
330
1D
100
AcDbEntity
  8
0
100
AcDbLine
 10
288.648409957705
 20
202.737702314134
 30
0.0
 11
287.567809957705
 21
200.370502314134
 31
0.0
  0
LINE
  5
1152
330
1D
100
AcDbEntity
  8
0
100
AcDbLine
 10
289.105009957705
 20
202.546802314134
 30
0.0
 11
288.011809957704
 21
200.152302314134
 31
0.0
  0
LINE
  5
1153
330
1D
100
AcDbEntity
  8
0
100
AcDbLine
 10
290.895509957704
 20
198.044602314134
 30
0.0
 11
289.927509957705
 21
196.955202314134
 31
0.0
  0
LINE
  5
1154
330
1D
100
AcDbEntity
  8
0
100
AcDbLine
 10
290.895409957704
 20
198.044402314134
 30
0.0
 11
289.927609957704
 21
196.955302314134
 31
0.0
  0
LINE
  5
1155
330
1D
100
AcDbEntity
  8
0
100
AcDbLine
 10
287.567809957705
 20
200.370502314134
 30
0.0
 11
286.361709957705
 21
198.090102314134
 31
0.0
  0
LINE
  5
1156
330
1D
100
AcDbEntity
  8
0
100
AcDbLine
 10
287.567609957704
 20
200.370302314134
 30
0.0
 11
286.362209957705
 21
198.090502314134
 31
0.0
  0
LINE
  5
1157
330
1D
100
AcDbEntity
  8
0
100
AcDbLine
 10
288.011809957704
 20
200.152302314134
 30
0.0
 11
286.792809957704
 21
197.847602314134
 31
0.0
  0
LINE
  5
1158
330
1D
100
AcDbEntity
  8
0
100
AcDbLine
 10
288.011809957704
 20
200.152302314134
 30
0.0
 11
286.792809957704
 21
197.847802314134
 31
0.0
  0
LINE
  5
1159
330
1D
100
AcDbEntity
  8
0
100
AcDbLine
 10
288.902609957704
 20
195.918702314134
 30
0.0
 11
287.824109957704
 21
194.938702314134
 31
0.0
  0
LINE
  5
115A
330
1D
100
AcDbEntity
  8
0
100
AcDbLine
 10
288.902809957704
 20
195.919002314134
 30
0.0
 11
287.824109957704
 21
194.938402314134
 31
0.0
  0
LINE
  5
115B
330
1D
100
AcDbEntity
  8
0
100
AcDbLine
 10
286.792809957704
 20
197.847802314134
 30
0.0
 11
285.269709957704
 21
195.337702314134
 31
0.0
  0
LINE
  5
115C
330
1D
100
AcDbEntity
  8
0
100
AcDbLine
 10
286.792809957704
 20
197.847602314134
 30
0.0
 11
285.269709957704
 21
195.337702314134
 31
0.0
  0
LINE
  5
115D
330
1D
100
AcDbEntity
  8
0
100
AcDbLine
 10
289.927609957704
 20
196.955302314134
 30
0.0
 11
288.902609957704
 21
195.918702314134
 31
0.0
  0
LINE
  5
115E
330
1D
100
AcDbEntity
  8
0
100
AcDbLine
 10
289.927509957705
 20
196.955202314134
 30
0.0
 11
288.902809957704
 21
195.919002314134
 31
0.0
  0
LINE
  5
115F
330
1D
100
AcDbEntity
  8
0
100
AcDbLine
 10
290.470909957705
 20
206.294802314134
 30
0.0
 11
289.946009957705
 21
204.715602314134
 31
0.0
  0
LINE
  5
1160
330
1D
100
AcDbEntity
  8
0
100
AcDbLine
 10
289.998009957704
 20
206.441202314134
 30
0.0
 11
289.365109957704
 21
204.563902314134
 31
0.0
  0
LINE
  5
1161
330
1D
100
AcDbEntity
  8
0
100
AcDbLine
 10
289.997909957704
 20
206.440902314134
 30
0.0
 11
289.365309957704
 21
204.564002314134
 31
0.0
  0
LINE
  5
1162
330
1D
100
AcDbEntity
  8
0
100
AcDbLine
 10
289.365309957704
 20
204.564002314134
 30
0.0
 11
288.648409957705
 21
202.737902314134
 31
0.0
  0
LINE
  5
1163
330
1D
100
AcDbEntity
  8
0
100
AcDbLine
 10
289.365109957704
 20
204.563902314134
 30
0.0
 11
288.648409957705
 21
202.737702314134
 31
0.0
  0
LINE
  5
1164
330
1D
100
AcDbEntity
  8
0
100
AcDbLine
 10
289.946009957705
 20
204.715602314134
 30
0.0
 11
289.105009957705
 21
202.546802314134
 31
0.0
  0
LINE
  5
1165
330
1D
100
AcDbEntity
  8
0
100
AcDbLine
 10
289.946209957704
 20
204.716002314134
 30
0.0
 11
289.105009957705
 21
202.546802314134
 31
0.0
  0
LINE
  5
1166
330
1D
100
AcDbEntity
  8
0
100
AcDbLine
 10
296.116409957704
 20
207.633702314134
 30
0.0
 11
295.598209957705
 21
206.104102314134
 31
0.0
  0
LINE
  5
1167
330
1D
100
AcDbEntity
  8
0
100
AcDbLine
 10
296.116509957704
 20
207.633802314134
 30
0.0
 11
295.598309957704
 21
206.104102314134
 31
0.0
  0
LINE
  5
1168
330
1D
100
AcDbEntity
  8
0
100
AcDbLine
 10
295.598209957705
 20
206.104102314134
 30
0.0
 11
294.989909957705
 21
204.607302314134
 31
0.0
  0
LINE
  5
1169
330
1D
100
AcDbEntity
  8
0
100
AcDbLine
 10
295.598309957704
 20
206.104102314134
 30
0.0
 11
294.990209957704
 21
204.607302314134
 31
0.0
  0
LINE
  5
116A
330
1D
100
AcDbEntity
  8
0
100
AcDbLine
 10
292.650809957704
 20
200.370002314134
 30
0.0
 11
291.804109957704
 21
199.183602314134
 31
0.0
  0
LINE
  5
116B
330
1D
100
AcDbEntity
  8
0
100
AcDbLine
 10
292.650809957704
 20
200.370002314134
 30
0.0
 11
291.804009957704
 21
199.183502314134
 31
0.0
  0
LINE
  5
116C
330
1D
100
AcDbEntity
  8
0
100
AcDbLine
 10
293.514009957705
 20
201.735602314134
 30
0.0
 11
292.650809957704
 21
200.370002314134
 31
0.0
  0
LINE
  5
116D
330
1D
100
AcDbEntity
  8
0
100
AcDbLine
 10
293.513809957704
 20
201.735602314134
 30
0.0
 11
292.650809957704
 21
200.370002314134
 31
0.0
  0
LINE
  5
116E
330
1D
100
AcDbEntity
  8
0
100
AcDbLine
 10
294.294509957704
 20
203.149602314134
 30
0.0
 11
293.514009957705
 21
201.735602314134
 31
0.0
  0
LINE
  5
116F
330
1D
100
AcDbEntity
  8
0
100
AcDbLine
 10
294.294509957704
 20
203.149602314134
 30
0.0
 11
293.513809957704
 21
201.735602314134
 31
0.0
  0
LINE
  5
1170
330
1D
100
AcDbEntity
  8
0
100
AcDbLine
 10
294.989909957705
 20
204.607302314134
 30
0.0
 11
294.294509957704
 21
203.149602314134
 31
0.0
  0
LINE
  5
1171
330
1D
100
AcDbEntity
  8
0
100
AcDbLine
 10
294.990209957704
 20
204.607302314134
 30
0.0
 11
294.294509957704
 21
203.149602314134
 31
0.0
  0
LINE
  5
1172
330
1D
100
AcDbEntity
  8
0
100
AcDbLine
 10
264.361109957704
 20
242.327802314134
 30
0.0
 11
267.058509957704
 21
242.756202314134
 31
0.0
  0
LINE
  5
1173
330
1D
100
AcDbEntity
  8
0
100
AcDbLine
 10
264.361209957704
 20
242.327702314134
 30
0.0
 11
267.058609957704
 21
242.756302314134
 31
0.0
  0
LINE
  5
1174
330
1D
100
AcDbEntity
  8
0
100
AcDbLine
 10
264.857909957704
 20
241.306502314134
 30
0.0
 11
267.188409957704
 21
241.754502314134
 31
0.0
  0
LINE
  5
1175
330
1D
100
AcDbEntity
  8
0
100
AcDbLine
 10
264.858309957704
 20
241.306602314134
 30
0.0
 11
267.188609957705
 21
241.754802314134
 31
0.0
  0
LINE
  5
1176
330
1D
100
AcDbEntity
  8
0
100
AcDbLine
 10
264.981009957704
 20
240.824202314134
 30
0.0
 11
267.254009957705
 21
241.261302314134
 31
0.0
  0
LINE
  5
1177
330
1D
100
AcDbEntity
  8
0
100
AcDbLine
 10
264.981109957704
 20
240.823802314134
 30
0.0
 11
267.254109957704
 21
241.261002314134
 31
0.0
  0
LINE
  5
1178
330
1D
100
AcDbEntity
  8
0
100
AcDbLine
 10
249.040109957704
 20
233.121202314134
 30
0.0
 11
250.003709957705
 21
234.213302314134
 31
0.0
  0
LINE
  5
1179
330
1D
100
AcDbEntity
  8
0
100
AcDbLine
 10
249.040009957704
 20
233.121102314134
 30
0.0
 11
250.003909957704
 21
234.213402314134
 31
0.0
  0
LINE
  5
117A
330
1D
100
AcDbEntity
  8
0
100
AcDbLine
 10
252.505709957704
 20
231.514602314134
 30
0.0
 11
254.099909957704
 21
233.719102314134
 31
0.0
  0
LINE
  5
117B
330
1D
100
AcDbEntity
  8
0
100
AcDbLine
 10
252.868809957704
 20
232.934202314134
 30
0.0
 11
253.712809957704
 21
234.033502314134
 31
0.0
  0
LINE
  5
117C
330
1D
100
AcDbEntity
  8
0
100
AcDbLine
 10
252.869109957704
 20
232.934302314134
 30
0.0
 11
253.712609957705
 21
234.033502314134
 31
0.0
  0
LINE
  5
117D
330
1D
100
AcDbEntity
  8
0
100
AcDbLine
 10
252.505509957705
 20
231.514702314134
 30
0.0
 11
254.099609957705
 21
233.719502314134
 31
0.0
  0
LINE
  5
117E
330
1D
100
AcDbEntity
  8
0
100
AcDbLine
 10
252.085209957704
 20
231.782302314134
 30
0.0
 11
252.869109957704
 21
232.934302314134
 31
0.0
  0
LINE
  5
117F
330
1D
100
AcDbEntity
  8
0
100
AcDbLine
 10
252.085109957704
 20
231.782402314134
 30
0.0
 11
252.868809957704
 21
232.934202314134
 31
0.0
  0
LINE
  5
1180
330
1D
100
AcDbEntity
  8
0
100
AcDbLine
 10
247.978209957704
 20
219.303402314134
 30
0.0
 11
248.191309957704
 21
221.167502314134
 31
0.0
  0
LINE
  5
1181
330
1D
100
AcDbEntity
  8
0
100
AcDbLine
 10
247.978209957704
 20
219.303402314134
 30
0.0
 11
248.190909957704
 21
221.167402314134
 31
0.0
  0
LINE
  5
1182
330
1D
100
AcDbEntity
  8
0
100
AcDbLine
 10
248.473609957704
 20
219.262402314134
 30
0.0
 11
248.683409957704
 21
221.095402314134
 31
0.0
  0
LINE
  5
1183
330
1D
100
AcDbEntity
  8
0
100
AcDbLine
 10
248.474109957704
 20
219.262302314134
 30
0.0
 11
248.683509957705
 21
221.095602314134
 31
0.0
  0
LINE
  5
1184
330
1D
100
AcDbEntity
  8
0
100
AcDbLine
 10
243.059909957704
 20
220.108902314134
 30
0.0
 11
243.334409957704
 21
221.523902314134
 31
0.0
  0
LINE
  5
1185
330
1D
100
AcDbEntity
  8
0
100
AcDbLine
 10
243.059709957704
 20
220.108802314134
 30
0.0
 11
243.334009957704
 21
221.523802314134
 31
0.0
  0
LINE
  5
1186
330
1D
100
AcDbEntity
  8
0
100
AcDbLine
 10
242.860409957704
 20
218.681402314134
 30
0.0
 11
243.059709957704
 21
220.108802314134
 31
0.0
  0
LINE
  5
1187
330
1D
100
AcDbEntity
  8
0
100
AcDbLine
 10
242.860709957705
 20
218.681602314134
 30
0.0
 11
243.059909957704
 21
220.108902314134
 31
0.0
  0
LINE
  5
1188
330
1D
100
AcDbEntity
  8
0
100
AcDbLine
 10
242.688209957704
 20
215.615502314134
 30
0.0
 11
242.737409957705
 21
213.979102314134
 31
0.0
  0
LINE
  5
1189
330
1D
100
AcDbEntity
  8
0
100
AcDbLine
 10
242.688209957704
 20
215.615502314134
 30
0.0
 11
242.737409957705
 21
213.979002314134
 31
0.0
  0
LINE
  5
118A
330
1D
100
AcDbEntity
  8
0
100
AcDbLine
 10
242.688209957704
 20
215.615502314134
 30
0.0
 11
242.737009957704
 21
217.245402314134
 31
0.0
  0
LINE
  5
118B
330
1D
100
AcDbEntity
  8
0
100
AcDbLine
 10
242.736709957704
 20
217.245202314134
 30
0.0
 11
242.860409957704
 21
218.681402314134
 31
0.0
  0
LINE
  5
118C
330
1D
100
AcDbEntity
  8
0
100
AcDbLine
 10
242.737009957704
 20
217.245402314134
 30
0.0
 11
242.860709957705
 21
218.681602314134
 31
0.0
  0
LINE
  5
118D
330
1D
100
AcDbEntity
  8
0
100
AcDbLine
 10
242.688309957704
 20
215.615502314134
 30
0.0
 11
242.736709957704
 21
217.245202314134
 31
0.0
  0
LINE
  5
118E
330
1D
100
AcDbEntity
  8
0
100
AcDbLine
 10
243.120909957704
 20
210.772602314134
 30
0.0
 11
243.454609957704
 21
209.191702314134
 31
0.0
  0
LINE
  5
118F
330
1D
100
AcDbEntity
  8
0
100
AcDbLine
 10
243.121009957705
 20
210.772602314134
 30
0.0
 11
243.454709957704
 21
209.191702314134
 31
0.0
  0
LINE
  5
1190
330
1D
100
AcDbEntity
  8
0
100
AcDbLine
 10
242.881809957704
 20
212.370002314134
 30
0.0
 11
243.121009957705
 21
210.772602314134
 31
0.0
  0
LINE
  5
1191
330
1D
100
AcDbEntity
  8
0
100
AcDbLine
 10
242.881709957704
 20
212.369902314134
 30
0.0
 11
243.120909957704
 21
210.772602314134
 31
0.0
  0
LINE
  5
1192
330
1D
100
AcDbEntity
  8
0
100
AcDbLine
 10
242.737409957705
 20
213.979002314134
 30
0.0
 11
242.881709957704
 21
212.369902314134
 31
0.0
  0
LINE
  5
1193
330
1D
100
AcDbEntity
  8
0
100
AcDbLine
 10
242.737409957705
 20
213.979102314134
 30
0.0
 11
242.881809957704
 21
212.370002314134
 31
0.0
  0
LINE
  5
1194
330
1D
100
AcDbEntity
  8
0
100
AcDbLine
 10
247.895209957704
 20
215.615802314134
 30
0.0
 11
247.989709957704
 21
214.046602314134
 31
0.0
  0
LINE
  5
1195
330
1D
100
AcDbEntity
  8
0
100
AcDbLine
 10
247.895309957704
 20
215.615602314134
 30
0.0
 11
247.989809957704
 21
214.046302314134
 31
0.0
  0
LINE
  5
1196
330
1D
100
AcDbEntity
  8
0
100
AcDbLine
 10
248.391309957704
 20
215.633602314134
 30
0.0
 11
248.650009957704
 21
212.543302314134
 31
0.0
  0
LINE
  5
1197
330
1D
100
AcDbEntity
  8
0
100
AcDbLine
 10
248.391309957704
 20
215.633202314134
 30
0.0
 11
248.650109957705
 21
212.543002314134
 31
0.0
  0
LINE
  5
1198
330
1D
100
AcDbEntity
  8
0
100
AcDbLine
 10
248.650009957704
 20
212.543302314134
 30
0.0
 11
249.193809957705
 21
209.470102314134
 31
0.0
  0
LINE
  5
1199
330
1D
100
AcDbEntity
  8
0
100
AcDbLine
 10
248.399909957704
 20
210.916702314134
 30
0.0
 11
248.710509957704
 21
209.362602314134
 31
0.0
  0
LINE
  5
119A
330
1D
100
AcDbEntity
  8
0
100
AcDbLine
 10
248.650109957705
 20
212.543002314134
 30
0.0
 11
249.193809957705
 21
209.469902314134
 31
0.0
  0
LINE
  5
119B
330
1D
100
AcDbEntity
  8
0
100
AcDbLine
 10
248.710509957704
 20
209.362602314134
 30
0.0
 11
249.087009957704
 21
207.821502314134
 31
0.0
  0
LINE
  5
119C
330
1D
100
AcDbEntity
  8
0
100
AcDbLine
 10
248.710409957704
 20
209.362802314134
 30
0.0
 11
249.087109957704
 21
207.821302314134
 31
0.0
  0
LINE
  5
119D
330
1D
100
AcDbEntity
  8
0
100
AcDbLine
 10
248.400009957704
 20
210.916402314134
 30
0.0
 11
248.710409957704
 21
209.362802314134
 31
0.0
  0
LINE
  5
119E
330
1D
100
AcDbEntity
  8
0
100
AcDbLine
 10
248.158809957704
 20
212.478802314134
 30
0.0
 11
248.400009957704
 21
210.916402314134
 31
0.0
  0
LINE
  5
119F
330
1D
100
AcDbEntity
  8
0
100
AcDbLine
 10
248.158609957704
 20
212.478902314134
 30
0.0
 11
248.399909957704
 21
210.916702314134
 31
0.0
  0
LINE
  5
11A0
330
1D
100
AcDbEntity
  8
0
100
AcDbLine
 10
247.989809957704
 20
214.046302314134
 30
0.0
 11
248.158809957704
 21
212.478802314134
 31
0.0
  0
LINE
  5
11A1
330
1D
100
AcDbEntity
  8
0
100
AcDbLine
 10
247.989709957704
 20
214.046602314134
 30
0.0
 11
248.158609957704
 21
212.478902314134
 31
0.0
  0
LINE
  5
11A2
330
1D
100
AcDbEntity
  8
0
100
AcDbLine
 10
247.881309957705
 20
217.419902314134
 30
0.0
 11
247.895309957704
 21
215.615602314134
 31
0.0
  0
LINE
  5
11A3
330
1D
100
AcDbEntity
  8
0
100
AcDbLine
 10
247.881309957705
 20
217.419902314134
 30
0.0
 11
247.978209957704
 21
219.303402314134
 31
0.0
  0
LINE
  5
11A4
330
1D
100
AcDbEntity
  8
0
100
AcDbLine
 10
247.881509957704
 20
217.419902314134
 30
0.0
 11
247.895209957704
 21
215.615502314134
 31
0.0
  0
LINE
  5
11A5
330
1D
100
AcDbEntity
  8
0
100
AcDbLine
 10
247.881509957704
 20
217.419902314134
 30
0.0
 11
247.978209957704
 21
219.303402314134
 31
0.0
  0
LINE
  5
11A6
330
1D
100
AcDbEntity
  8
0
100
AcDbLine
 10
248.378309957704
 20
217.409602314134
 30
0.0
 11
248.474109957704
 21
219.262302314134
 31
0.0
  0
LINE
  5
11A7
330
1D
100
AcDbEntity
  8
0
100
AcDbLine
 10
248.378309957704
 20
217.409602314134
 30
0.0
 11
248.391309957704
 21
215.633602314134
 31
0.0
  0
LINE
  5
11A8
330
1D
100
AcDbEntity
  8
0
100
AcDbLine
 10
248.378009957704
 20
217.409502314134
 30
0.0
 11
248.391109957704
 21
215.633102314134
 31
0.0
  0
LINE
  5
11A9
330
1D
100
AcDbEntity
  8
0
100
AcDbLine
 10
248.378009957704
 20
217.409502314134
 30
0.0
 11
248.473609957704
 21
219.262402314134
 31
0.0
  0
LINE
  5
11AA
330
1D
100
AcDbEntity
  8
0
100
AcDbLine
 10
245.806209957704
 20
228.287602314134
 30
0.0
 11
246.516809957704
 21
229.559002314134
 31
0.0
  0
LINE
  5
11AB
330
1D
100
AcDbEntity
  8
0
100
AcDbLine
 10
245.806509957704
 20
228.287702314134
 30
0.0
 11
246.516809957704
 21
229.559002314134
 31
0.0
  0
LINE
  5
11AC
330
1D
100
AcDbEntity
  8
0
100
AcDbLine
 10
244.599509957704
 20
225.654302314134
 30
0.0
 11
245.165109957704
 21
226.980502314134
 31
0.0
  0
LINE
  5
11AD
330
1D
100
AcDbEntity
  8
0
100
AcDbLine
 10
244.599509957704
 20
225.654302314134
 30
0.0
 11
245.164909957704
 21
226.980302314134
 31
0.0
  0
LINE
  5
11AE
330
1D
100
AcDbEntity
  8
0
100
AcDbLine
 10
245.164909957704
 20
226.980302314134
 30
0.0
 11
245.806509957704
 21
228.287702314134
 31
0.0
  0
LINE
  5
11AF
330
1D
100
AcDbEntity
  8
0
100
AcDbLine
 10
245.165109957704
 20
226.980502314134
 30
0.0
 11
245.806209957704
 21
228.287602314134
 31
0.0
  0
LINE
  5
11B0
330
1D
100
AcDbEntity
  8
0
100
AcDbLine
 10
244.105309957704
 20
224.300502314134
 30
0.0
 11
244.599509957704
 21
225.654302314134
 31
0.0
  0
LINE
  5
11B1
330
1D
100
AcDbEntity
  8
0
100
AcDbLine
 10
244.105109957704
 20
224.300402314134
 30
0.0
 11
244.599509957704
 21
225.654302314134
 31
0.0
  0
LINE
  5
11B2
330
1D
100
AcDbEntity
  8
0
100
AcDbLine
 10
243.334009957704
 20
221.523802314134
 30
0.0
 11
243.682709957704
 21
222.922302314134
 31
0.0
  0
LINE
  5
11B3
330
1D
100
AcDbEntity
  8
0
100
AcDbLine
 10
243.334409957704
 20
221.523902314134
 30
0.0
 11
243.683109957704
 21
222.922502314134
 31
0.0
  0
LINE
  5
11B4
330
1D
100
AcDbEntity
  8
0
100
AcDbLine
 10
243.683109957704
 20
222.922502314134
 30
0.0
 11
244.105109957704
 21
224.300402314134
 31
0.0
  0
LINE
  5
11B5
330
1D
100
AcDbEntity
  8
0
100
AcDbLine
 10
243.682709957704
 20
222.922302314134
 30
0.0
 11
244.105309957704
 21
224.300502314134
 31
0.0
  0
LINE
  5
11B6
330
1D
100
AcDbEntity
  8
0
100
AcDbLine
 10
249.592709957704
 20
226.732702314134
 30
0.0
 11
250.116009957704
 21
228.053502314134
 31
0.0
  0
LINE
  5
11B7
330
1D
100
AcDbEntity
  8
0
100
AcDbLine
 10
249.592509957704
 20
226.732702314134
 30
0.0
 11
250.116209957704
 21
228.053502314134
 31
0.0
  0
LINE
  5
11B8
330
1D
100
AcDbEntity
  8
0
100
AcDbLine
 10
250.060609957704
 20
226.562202314134
 30
0.0
 11
251.154409957705
 21
229.118402314134
 31
0.0
  0
LINE
  5
11B9
330
1D
100
AcDbEntity
  8
0
100
AcDbLine
 10
250.060409957704
 20
226.562002314134
 30
0.0
 11
251.154209957704
 21
229.118602314134
 31
0.0
  0
LINE
  5
11BA
330
1D
100
AcDbEntity
  8
0
100
AcDbLine
 10
249.234809957704
 20
223.877402314134
 30
0.0
 11
250.060609957704
 21
226.562202314134
 31
0.0
  0
LINE
  5
11BB
330
1D
100
AcDbEntity
  8
0
100
AcDbLine
 10
249.137709957704
 20
225.379802314134
 30
0.0
 11
249.592709957704
 21
226.732702314134
 31
0.0
  0
LINE
  5
11BC
330
1D
100
AcDbEntity
  8
0
100
AcDbLine
 10
249.137509957704
 20
225.379802314134
 30
0.0
 11
249.592509957704
 21
226.732702314134
 31
0.0
  0
LINE
  5
11BD
330
1D
100
AcDbEntity
  8
0
100
AcDbLine
 10
249.235009957704
 20
223.877402314134
 30
0.0
 11
250.060409957704
 21
226.562002314134
 31
0.0
  0
LINE
  5
11BE
330
1D
100
AcDbEntity
  8
0
100
AcDbLine
 10
248.752009957705
 20
223.998602314134
 30
0.0
 11
249.137509957704
 21
225.379802314134
 31
0.0
  0
LINE
  5
11BF
330
1D
100
AcDbEntity
  8
0
100
AcDbLine
 10
248.752209957704
 20
223.998802314134
 30
0.0
 11
249.137709957704
 21
225.379802314134
 31
0.0
  0
LINE
  5
11C0
330
1D
100
AcDbEntity
  8
0
100
AcDbLine
 10
248.191309957704
 20
221.167502314134
 30
0.0
 11
248.436209957704
 21
222.593102314134
 31
0.0
  0
LINE
  5
11C1
330
1D
100
AcDbEntity
  8
0
100
AcDbLine
 10
248.190909957704
 20
221.167402314134
 30
0.0
 11
248.436309957704
 21
222.593202314134
 31
0.0
  0
LINE
  5
11C2
330
1D
100
AcDbEntity
  8
0
100
AcDbLine
 10
248.436209957704
 20
222.593102314134
 30
0.0
 11
248.752209957704
 21
223.998802314134
 31
0.0
  0
LINE
  5
11C3
330
1D
100
AcDbEntity
  8
0
100
AcDbLine
 10
248.436309957704
 20
222.593202314134
 30
0.0
 11
248.752009957705
 21
223.998602314134
 31
0.0
  0
LINE
  5
11C4
330
1D
100
AcDbEntity
  8
0
100
AcDbLine
 10
248.683409957704
 20
221.095402314134
 30
0.0
 11
249.234809957704
 21
223.877402314134
 31
0.0
  0
LINE
  5
11C5
330
1D
100
AcDbEntity
  8
0
100
AcDbLine
 10
248.683509957705
 20
221.095602314134
 30
0.0
 11
249.235009957704
 21
223.877402314134
 31
0.0
  0
LINE
  5
11C6
330
1D
100
AcDbEntity
  8
0
100
AcDbLine
 10
251.154409957705
 20
229.118402314134
 30
0.0
 11
252.505509957705
 21
231.514702314134
 31
0.0
  0
LINE
  5
11C7
330
1D
100
AcDbEntity
  8
0
100
AcDbLine
 10
251.154209957704
 20
229.118602314134
 30
0.0
 11
252.505709957704
 21
231.514602314134
 31
0.0
  0
LINE
  5
11C8
330
1D
100
AcDbEntity
  8
0
100
AcDbLine
 10
251.364009957704
 20
230.582402314134
 30
0.0
 11
252.085109957704
 21
231.782402314134
 31
0.0
  0
LINE
  5
11C9
330
1D
100
AcDbEntity
  8
0
100
AcDbLine
 10
251.364009957704
 20
230.582402314134
 30
0.0
 11
252.085209957704
 21
231.782302314134
 31
0.0
  0
LINE
  5
11CA
330
1D
100
AcDbEntity
  8
0
100
AcDbLine
 10
250.707209957704
 20
229.338202314134
 30
0.0
 11
251.364009957704
 21
230.582402314134
 31
0.0
  0
LINE
  5
11CB
330
1D
100
AcDbEntity
  8
0
100
AcDbLine
 10
248.135809957704
 20
231.979202314134
 30
0.0
 11
249.040009957704
 21
233.121102314134
 31
0.0
  0
LINE
  5
11CC
330
1D
100
AcDbEntity
  8
0
100
AcDbLine
 10
248.135609957704
 20
231.979002314134
 30
0.0
 11
249.040109957704
 21
233.121202314134
 31
0.0
  0
LINE
  5
11CD
330
1D
100
AcDbEntity
  8
0
100
AcDbLine
 10
250.707409957704
 20
229.338102314134
 30
0.0
 11
251.364009957704
 21
230.582402314134
 31
0.0
  0
LINE
  5
11CE
330
1D
100
AcDbEntity
  8
0
100
AcDbLine
 10
250.116209957704
 20
228.053502314134
 30
0.0
 11
250.707409957704
 21
229.338102314134
 31
0.0
  0
LINE
  5
11CF
330
1D
100
AcDbEntity
  8
0
100
AcDbLine
 10
250.116009957704
 20
228.053502314134
 30
0.0
 11
250.707209957704
 21
229.338202314134
 31
0.0
  0
LINE
  5
11D0
330
1D
100
AcDbEntity
  8
0
100
AcDbLine
 10
246.516809957704
 20
229.559002314134
 30
0.0
 11
247.293709957704
 21
230.790602314134
 31
0.0
  0
LINE
  5
11D1
330
1D
100
AcDbEntity
  8
0
100
AcDbLine
 10
246.516809957704
 20
229.559002314134
 30
0.0
 11
247.294009957705
 21
230.790602314134
 31
0.0
  0
LINE
  5
11D2
330
1D
100
AcDbEntity
  8
0
100
AcDbLine
 10
247.293709957704
 20
230.790602314134
 30
0.0
 11
248.135809957704
 21
231.979202314134
 31
0.0
  0
LINE
  5
11D3
330
1D
100
AcDbEntity
  8
0
100
AcDbLine
 10
247.294009957705
 20
230.790602314134
 30
0.0
 11
248.135609957704
 21
231.979002314134
 31
0.0
  0
LINE
  5
11D4
330
1D
100
AcDbEntity
  8
0
100
AcDbLine
 10
252.099009957704
 20
236.236302314134
 30
0.0
 11
253.224709957704
 21
237.161402314134
 31
0.0
  0
LINE
  5
11D5
330
1D
100
AcDbEntity
  8
0
100
AcDbLine
 10
252.099309957704
 20
236.236402314134
 30
0.0
 11
253.224809957704
 21
237.161402314134
 31
0.0
  0
LINE
  5
11D6
330
1D
100
AcDbEntity
  8
0
100
AcDbLine
 10
251.024209957704
 20
235.252802314134
 30
0.0
 11
252.099309957704
 21
236.236402314134
 31
0.0
  0
LINE
  5
11D7
330
1D
100
AcDbEntity
  8
0
100
AcDbLine
 10
251.024609957704
 20
235.253002314134
 30
0.0
 11
252.099009957704
 21
236.236302314134
 31
0.0
  0
LINE
  5
11D8
330
1D
100
AcDbEntity
  8
0
100
AcDbLine
 10
250.003709957705
 20
234.213302314134
 30
0.0
 11
251.024609957704
 21
235.253002314134
 31
0.0
  0
LINE
  5
11D9
330
1D
100
AcDbEntity
  8
0
100
AcDbLine
 10
250.003909957704
 20
234.213402314134
 30
0.0
 11
251.024209957704
 21
235.252802314134
 31
0.0
  0
LINE
  5
11DA
330
1D
100
AcDbEntity
  8
0
100
AcDbLine
 10
258.790109957704
 20
238.632002314134
 30
0.0
 11
260.461809957705
 21
239.615602314134
 31
0.0
  0
LINE
  5
11DB
330
1D
100
AcDbEntity
  8
0
100
AcDbLine
 10
258.790109957704
 20
238.632002314134
 30
0.0
 11
260.461709957704
 21
239.615502314134
 31
0.0
  0
LINE
  5
11DC
330
1D
100
AcDbEntity
  8
0
100
AcDbLine
 10
258.304109957704
 20
237.695102314134
 30
0.0
 11
259.475709957704
 21
238.477902314134
 31
0.0
  0
LINE
  5
11DD
330
1D
100
AcDbEntity
  8
0
100
AcDbLine
 10
258.303809957705
 20
237.695202314134
 30
0.0
 11
259.475809957704
 21
238.478102314134
 31
0.0
  0
LINE
  5
11DE
330
1D
100
AcDbEntity
  8
0
100
AcDbLine
 10
257.923409957705
 20
240.103602314134
 30
0.0
 11
259.163109957704
 21
240.676302314134
 31
0.0
  0
LINE
  5
11DF
330
1D
100
AcDbEntity
  8
0
100
AcDbLine
 10
257.923609957704
 20
240.103702314134
 30
0.0
 11
259.163309957704
 21
240.676402314134
 31
0.0
  0
LINE
  5
11E0
330
1D
100
AcDbEntity
  8
0
100
AcDbLine
 10
253.224709957704
 20
237.161402314134
 30
0.0
 11
254.398509957704
 21
238.025002314134
 31
0.0
  0
LINE
  5
11E1
330
1D
100
AcDbEntity
  8
0
100
AcDbLine
 10
254.398509957704
 20
238.025002314134
 30
0.0
 11
255.538209957704
 21
238.776402314134
 31
0.0
  0
LINE
  5
11E2
330
1D
100
AcDbEntity
  8
0
100
AcDbLine
 10
256.714509957704
 20
239.470002314134
 30
0.0
 11
257.923609957704
 21
240.103702314134
 31
0.0
  0
LINE
  5
11E3
330
1D
100
AcDbEntity
  8
0
100
AcDbLine
 10
255.538309957704
 20
238.776502314134
 30
0.0
 11
256.714509957704
 21
239.470002314134
 31
0.0
  0
LINE
  5
11E4
330
1D
100
AcDbEntity
  8
0
100
AcDbLine
 10
256.714209957704
 20
239.469802314134
 30
0.0
 11
257.923409957705
 21
240.103602314134
 31
0.0
  0
LINE
  5
11E5
330
1D
100
AcDbEntity
  8
0
100
AcDbLine
 10
255.538209957704
 20
238.776402314134
 30
0.0
 11
256.714209957704
 21
239.469802314134
 31
0.0
  0
LINE
  5
11E6
330
1D
100
AcDbEntity
  8
0
100
AcDbLine
 10
254.398609957704
 20
238.025002314134
 30
0.0
 11
255.538309957704
 21
238.776502314134
 31
0.0
  0
LINE
  5
11E7
330
1D
100
AcDbEntity
  8
0
100
AcDbLine
 10
253.224809957704
 20
237.161402314134
 30
0.0
 11
254.398609957704
 21
238.025002314134
 31
0.0
  0
LINE
  5
11E8
330
1D
100
AcDbEntity
  8
0
100
AcDbLine
 10
256.071309957704
 20
235.846902314134
 30
0.0
 11
257.159009957704
 21
236.811502314134
 31
0.0
  0
LINE
  5
11E9
330
1D
100
AcDbEntity
  8
0
100
AcDbLine
 10
255.727909957704
 20
236.207902314134
 30
0.0
 11
257.208909957704
 21
237.492602314134
 31
0.0
  0
LINE
  5
11EA
330
1D
100
AcDbEntity
  8
0
100
AcDbLine
 10
255.727909957704
 20
236.207902314134
 30
0.0
 11
257.208809957704
 21
237.492602314134
 31
0.0
  0
LINE
  5
11EB
330
1D
100
AcDbEntity
  8
0
100
AcDbLine
 10
254.688209957704
 20
235.155902314134
 30
0.0
 11
255.727909957704
 21
236.207902314134
 31
0.0
  0
LINE
  5
11EC
330
1D
100
AcDbEntity
  8
0
100
AcDbLine
 10
254.688309957704
 20
235.155902314134
 30
0.0
 11
255.727909957704
 21
236.207902314134
 31
0.0
  0
LINE
  5
11ED
330
1D
100
AcDbEntity
  8
0
100
AcDbLine
 10
257.208809957704
 20
237.492602314134
 30
0.0
 11
258.790109957704
 21
238.632002314134
 31
0.0
  0
LINE
  5
11EE
330
1D
100
AcDbEntity
  8
0
100
AcDbLine
 10
257.208909957704
 20
237.492602314134
 30
0.0
 11
258.790109957704
 21
238.632002314134
 31
0.0
  0
LINE
  5
11EF
330
1D
100
AcDbEntity
  8
0
100
AcDbLine
 10
257.159009957704
 20
236.811502314134
 30
0.0
 11
258.303809957705
 21
237.695202314134
 31
0.0
  0
LINE
  5
11F0
330
1D
100
AcDbEntity
  8
0
100
AcDbLine
 10
257.159009957704
 20
236.811102314134
 30
0.0
 11
258.304109957704
 21
237.695102314134
 31
0.0
  0
LINE
  5
11F1
330
1D
100
AcDbEntity
  8
0
100
AcDbLine
 10
254.099609957705
 20
233.719502314134
 30
0.0
 11
256.071309957704
 21
235.846902314134
 31
0.0
  0
LINE
  5
11F2
330
1D
100
AcDbEntity
  8
0
100
AcDbLine
 10
253.712809957704
 20
234.033502314134
 30
0.0
 11
254.688309957704
 21
235.155902314134
 31
0.0
  0
LINE
  5
11F3
330
1D
100
AcDbEntity
  8
0
100
AcDbLine
 10
261.720909957705
 20
241.632202314134
 30
0.0
 11
263.032109957705
 21
242.013002314134
 31
0.0
  0
LINE
  5
11F4
330
1D
100
AcDbEntity
  8
0
100
AcDbLine
 10
261.721009957704
 20
241.632202314134
 30
0.0
 11
263.032109957705
 21
242.013002314134
 31
0.0
  0
LINE
  5
11F5
330
1D
100
AcDbEntity
  8
0
100
AcDbLine
 10
260.694409957704
 20
239.175302314134
 30
0.0
 11
262.788809957705
 21
240.126302314134
 31
0.0
  0
LINE
  5
11F6
330
1D
100
AcDbEntity
  8
0
100
AcDbLine
 10
260.694609957705
 20
239.175402314134
 30
0.0
 11
262.788509957704
 21
240.126402314134
 31
0.0
  0
LINE
  5
11F7
330
1D
100
AcDbEntity
  8
0
100
AcDbLine
 10
260.461709957704
 20
239.615502314134
 30
0.0
 11
262.609509957705
 21
240.590802314134
 31
0.0
  0
LINE
  5
11F8
330
1D
100
AcDbEntity
  8
0
100
AcDbLine
 10
260.461809957705
 20
239.615602314134
 30
0.0
 11
262.609609957704
 21
240.590902314134
 31
0.0
  0
LINE
  5
11F9
330
1D
100
AcDbEntity
  8
0
100
AcDbLine
 10
259.163109957704
 20
240.676302314134
 30
0.0
 11
260.430109957705
 21
241.186202314134
 31
0.0
  0
LINE
  5
11FA
330
1D
100
AcDbEntity
  8
0
100
AcDbLine
 10
260.430109957705
 20
241.186202314134
 30
0.0
 11
261.720909957705
 21
241.632202314134
 31
0.0
  0
LINE
  5
11FB
330
1D
100
AcDbEntity
  8
0
100
AcDbLine
 10
260.429909957704
 20
241.186302314134
 30
0.0
 11
261.721009957704
 21
241.632202314134
 31
0.0
  0
LINE
  5
11FC
330
1D
100
AcDbEntity
  8
0
100
AcDbLine
 10
259.163309957704
 20
240.676402314134
 30
0.0
 11
260.429909957704
 21
241.186302314134
 31
0.0
  0
LINE
  5
11FD
330
1D
100
AcDbEntity
  8
0
100
AcDbLine
 10
259.475809957704
 20
238.478102314134
 30
0.0
 11
260.694409957704
 21
239.175302314134
 31
0.0
  0
LINE
  5
11FE
330
1D
100
AcDbEntity
  8
0
100
AcDbLine
 10
259.475709957704
 20
238.477902314134
 30
0.0
 11
260.694609957705
 21
239.175402314134
 31
0.0
  0
LINE
  5
11FF
330
1D
100
AcDbEntity
  8
0
100
AcDbLine
 10
263.032109957705
 20
242.013002314134
 30
0.0
 11
264.361209957704
 21
242.327702314134
 31
0.0
  0
LINE
  5
1200
330
1D
100
AcDbEntity
  8
0
100
AcDbLine
 10
263.032109957705
 20
242.013002314134
 30
0.0
 11
264.361109957704
 21
242.327802314134
 31
0.0
  0
LINE
  5
1201
330
1D
100
AcDbEntity
  8
0
100
AcDbLine
 10
262.609509957705
 20
240.590802314134
 30
0.0
 11
264.857909957704
 21
241.306502314134
 31
0.0
  0
LINE
  5
1202
330
1D
100
AcDbEntity
  8
0
100
AcDbLine
 10
262.609609957704
 20
240.590902314134
 30
0.0
 11
264.858309957704
 21
241.306602314134
 31
0.0
  0
LINE
  5
1203
330
1D
100
AcDbEntity
  8
0
100
AcDbLine
 10
262.788809957705
 20
240.126302314134
 30
0.0
 11
264.981009957704
 21
240.824202314134
 31
0.0
  0
LINE
  5
1204
330
1D
100
AcDbEntity
  8
0
100
AcDbLine
 10
262.788509957704
 20
240.126402314134
 30
0.0
 11
264.981109957704
 21
240.823802314134
 31
0.0
  0
LINE
  5
1205
330
1D
100
AcDbEntity
  8
0
100
AcDbLine
 10
291.862009957704
 20
231.979202314134
 30
0.0
 11
290.957809957705
 21
233.121102314134
 31
0.0
  0
LINE
  5
1206
330
1D
100
AcDbEntity
  8
0
100
AcDbLine
 10
291.862209957705
 20
231.979002314134
 30
0.0
 11
290.957709957704
 21
233.121202314134
 31
0.0
  0
LINE
  5
1207
330
1D
100
AcDbEntity
  8
0
100
AcDbLine
 10
291.806509957705
 20
221.167502314134
 30
0.0
 11
291.561609957704
 21
222.593102314134
 31
0.0
  0
LINE
  5
1208
330
1D
100
AcDbEntity
  8
0
100
AcDbLine
 10
291.806909957705
 20
221.167402314134
 30
0.0
 11
291.561509957705
 21
222.593202314134
 31
0.0
  0
LINE
  5
1209
330
1D
100
AcDbEntity
  8
0
100
AcDbLine
 10
291.619509957705
 20
217.409602314134
 30
0.0
 11
291.523709957704
 21
219.262302314134
 31
0.0
  0
LINE
  5
120A
330
1D
100
AcDbEntity
  8
0
100
AcDbLine
 10
291.619809957704
 20
217.409502314134
 30
0.0
 11
291.524209957704
 21
219.262402314134
 31
0.0
  0
LINE
  5
120B
330
1D
100
AcDbEntity
  8
0
100
AcDbLine
 10
291.597909957704
 20
210.916702314134
 30
0.0
 11
291.287309957704
 21
209.362602314134
 31
0.0
  0
LINE
  5
120C
330
1D
100
AcDbEntity
  8
0
100
AcDbLine
 10
291.597809957704
 20
210.916402314134
 30
0.0
 11
291.287409957704
 21
209.362802314134
 31
0.0
  0
LINE
  5
120D
330
1D
100
AcDbEntity
  8
0
100
AcDbLine
 10
291.606509957704
 20
215.633602314134
 30
0.0
 11
291.347809957704
 21
212.543302314134
 31
0.0
  0
LINE
  5
120E
330
1D
100
AcDbEntity
  8
0
100
AcDbLine
 10
291.606509957704
 20
215.633202314134
 30
0.0
 11
291.347709957705
 21
212.543002314134
 31
0.0
  0
LINE
  5
120F
330
1D
100
AcDbEntity
  8
0
100
AcDbLine
 10
287.492109957704
 20
231.514602314134
 30
0.0
 11
285.897909957704
 21
233.719102314134
 31
0.0
  0
LINE
  5
1210
330
1D
100
AcDbEntity
  8
0
100
AcDbLine
 10
287.129009957705
 20
232.934202314134
 30
0.0
 11
286.285009957704
 21
234.033502314134
 31
0.0
  0
LINE
  5
1211
330
1D
100
AcDbEntity
  8
0
100
AcDbLine
 10
287.128709957704
 20
232.934302314134
 30
0.0
 11
286.285209957705
 21
234.033502314134
 31
0.0
  0
LINE
  5
1212
330
1D
100
AcDbEntity
  8
0
100
AcDbLine
 10
287.492309957704
 20
231.514702314134
 30
0.0
 11
285.898209957704
 21
233.719502314134
 31
0.0
  0
LINE
  5
1213
330
1D
100
AcDbEntity
  8
0
100
AcDbLine
 10
290.957709957704
 20
233.121202314134
 30
0.0
 11
289.994109957704
 21
234.213302314134
 31
0.0
  0
LINE
  5
1214
330
1D
100
AcDbEntity
  8
0
100
AcDbLine
 10
290.957809957705
 20
233.121102314134
 30
0.0
 11
289.993909957704
 21
234.213402314134
 31
0.0
  0
LINE
  5
1215
330
1D
100
AcDbEntity
  8
0
100
AcDbLine
 10
291.524209957704
 20
219.262402314134
 30
0.0
 11
291.314409957704
 21
221.095402314134
 31
0.0
  0
LINE
  5
1216
330
1D
100
AcDbEntity
  8
0
100
AcDbLine
 10
291.523709957704
 20
219.262302314134
 30
0.0
 11
291.314309957704
 21
221.095602314134
 31
0.0
  0
LINE
  5
1217
330
1D
100
AcDbEntity
  8
0
100
AcDbLine
 10
291.347809957704
 20
212.543302314134
 30
0.0
 11
290.804009957704
 21
209.470102314134
 31
0.0
  0
LINE
  5
1218
330
1D
100
AcDbEntity
  8
0
100
AcDbLine
 10
291.347709957705
 20
212.543002314134
 30
0.0
 11
290.804009957704
 21
209.469902314134
 31
0.0
  0
LINE
  5
1219
330
1D
100
AcDbEntity
  8
0
100
AcDbLine
 10
291.287309957704
 20
209.362602314134
 30
0.0
 11
290.910809957704
 21
207.821502314134
 31
0.0
  0
LINE
  5
121A
330
1D
100
AcDbEntity
  8
0
100
AcDbLine
 10
291.287409957704
 20
209.362802314134
 30
0.0
 11
290.910709957705
 21
207.821302314134
 31
0.0
  0
LINE
  5
121B
330
1D
100
AcDbEntity
  8
0
100
AcDbLine
 10
290.405109957704
 20
226.732702314134
 30
0.0
 11
289.881809957704
 21
228.053502314134
 31
0.0
  0
LINE
  5
121C
330
1D
100
AcDbEntity
  8
0
100
AcDbLine
 10
290.405309957705
 20
226.732702314134
 30
0.0
 11
289.881609957704
 21
228.053502314134
 31
0.0
  0
LINE
  5
121D
330
1D
100
AcDbEntity
  8
0
100
AcDbLine
 10
289.937209957704
 20
226.562202314134
 30
0.0
 11
288.843409957704
 21
229.118402314134
 31
0.0
  0
LINE
  5
121E
330
1D
100
AcDbEntity
  8
0
100
AcDbLine
 10
289.937409957705
 20
226.562002314134
 30
0.0
 11
288.843609957705
 21
229.118602314134
 31
0.0
  0
LINE
  5
121F
330
1D
100
AcDbEntity
  8
0
100
AcDbLine
 10
291.245809957705
 20
223.998602314134
 30
0.0
 11
290.860309957704
 21
225.379802314134
 31
0.0
  0
LINE
  5
1220
330
1D
100
AcDbEntity
  8
0
100
AcDbLine
 10
291.245609957704
 20
223.998802314134
 30
0.0
 11
290.860109957704
 21
225.379802314134
 31
0.0
  0
LINE
  5
1221
330
1D
100
AcDbEntity
  8
0
100
AcDbLine
 10
290.763009957705
 20
223.877402314134
 30
0.0
 11
289.937209957704
 21
226.562202314134
 31
0.0
  0
LINE
  5
1222
330
1D
100
AcDbEntity
  8
0
100
AcDbLine
 10
290.860109957704
 20
225.379802314134
 30
0.0
 11
290.405109957704
 21
226.732702314134
 31
0.0
  0
LINE
  5
1223
330
1D
100
AcDbEntity
  8
0
100
AcDbLine
 10
290.860309957704
 20
225.379802314134
 30
0.0
 11
290.405309957705
 21
226.732702314134
 31
0.0
  0
LINE
  5
1224
330
1D
100
AcDbEntity
  8
0
100
AcDbLine
 10
290.762809957704
 20
223.877402314134
 30
0.0
 11
289.937409957705
 21
226.562002314134
 31
0.0
  0
LINE
  5
1225
330
1D
100
AcDbEntity
  8
0
100
AcDbLine
 10
291.561609957704
 20
222.593102314134
 30
0.0
 11
291.245609957704
 21
223.998802314134
 31
0.0
  0
LINE
  5
1226
330
1D
100
AcDbEntity
  8
0
100
AcDbLine
 10
291.561509957705
 20
222.593202314134
 30
0.0
 11
291.245809957705
 21
223.998602314134
 31
0.0
  0
LINE
  5
1227
330
1D
100
AcDbEntity
  8
0
100
AcDbLine
 10
291.314409957704
 20
221.095402314134
 30
0.0
 11
290.763009957705
 21
223.877402314134
 31
0.0
  0
LINE
  5
1228
330
1D
100
AcDbEntity
  8
0
100
AcDbLine
 10
291.314309957704
 20
221.095602314134
 30
0.0
 11
290.762809957704
 21
223.877402314134
 31
0.0
  0
LINE
  5
1229
330
1D
100
AcDbEntity
  8
0
100
AcDbLine
 10
289.881609957704
 20
228.053502314134
 30
0.0
 11
289.290409957704
 21
229.338102314134
 31
0.0
  0
LINE
  5
122A
330
1D
100
AcDbEntity
  8
0
100
AcDbLine
 10
289.881809957704
 20
228.053502314134
 30
0.0
 11
289.290609957705
 21
229.338202314134
 31
0.0
  0
LINE
  5
122B
330
1D
100
AcDbEntity
  8
0
100
AcDbLine
 10
288.843409957704
 20
229.118402314134
 30
0.0
 11
287.492309957704
 21
231.514702314134
 31
0.0
  0
LINE
  5
122C
330
1D
100
AcDbEntity
  8
0
100
AcDbLine
 10
288.843609957705
 20
229.118602314134
 30
0.0
 11
287.492109957704
 21
231.514602314134
 31
0.0
  0
LINE
  5
122D
330
1D
100
AcDbEntity
  8
0
100
AcDbLine
 10
287.912609957704
 20
231.782302314134
 30
0.0
 11
287.128709957704
 21
232.934302314134
 31
0.0
  0
LINE
  5
122E
330
1D
100
AcDbEntity
  8
0
100
AcDbLine
 10
287.912709957704
 20
231.782402314134
 30
0.0
 11
287.129009957705
 21
232.934202314134
 31
0.0
  0
LINE
  5
122F
330
1D
100
AcDbEntity
  8
0
100
AcDbLine
 10
288.633809957704
 20
230.582402314134
 30
0.0
 11
287.912709957704
 21
231.782402314134
 31
0.0
  0
LINE
  5
1230
330
1D
100
AcDbEntity
  8
0
100
AcDbLine
 10
288.633809957704
 20
230.582402314134
 30
0.0
 11
287.912609957704
 21
231.782302314134
 31
0.0
  0
LINE
  5
1231
330
1D
100
AcDbEntity
  8
0
100
AcDbLine
 10
289.290609957705
 20
229.338202314134
 30
0.0
 11
288.633809957704
 21
230.582402314134
 31
0.0
  0
LINE
  5
1232
330
1D
100
AcDbEntity
  8
0
100
AcDbLine
 10
289.290409957704
 20
229.338102314134
 30
0.0
 11
288.633809957704
 21
230.582402314134
 31
0.0
  0
LINE
  5
1233
330
1D
100
AcDbEntity
  8
0
100
AcDbLine
 10
279.567709957704
 20
241.186202314134
 30
0.0
 11
278.276909957704
 21
241.632202314134
 31
0.0
  0
LINE
  5
1234
330
1D
100
AcDbEntity
  8
0
100
AcDbLine
 10
279.567909957705
 20
241.186302314134
 30
0.0
 11
278.276809957704
 21
241.632202314134
 31
0.0
  0
LINE
  5
1235
330
1D
100
AcDbEntity
  8
0
100
AcDbLine
 10
279.303409957705
 20
239.175302314134
 30
0.0
 11
277.209009957704
 21
240.126302314134
 31
0.0
  0
LINE
  5
1236
330
1D
100
AcDbEntity
  8
0
100
AcDbLine
 10
279.303209957704
 20
239.175402314134
 30
0.0
 11
277.209309957704
 21
240.126402314134
 31
0.0
  0
LINE
  5
1237
330
1D
100
AcDbEntity
  8
0
100
AcDbLine
 10
279.536109957705
 20
239.615502314134
 30
0.0
 11
277.388309957704
 21
240.590802314134
 31
0.0
  0
LINE
  5
1238
330
1D
100
AcDbEntity
  8
0
100
AcDbLine
 10
279.536009957704
 20
239.615602314134
 30
0.0
 11
277.388209957704
 21
240.590902314134
 31
0.0
  0
LINE
  5
1239
330
1D
100
AcDbEntity
  8
0
100
AcDbLine
 10
272.939309957704
 20
242.756202314134
 30
0.0
 11
270.212309957705
 21
242.913802314134
 31
0.0
  0
LINE
  5
123A
330
1D
100
AcDbEntity
  8
0
100
AcDbLine
 10
272.939209957705
 20
242.756302314134
 30
0.0
 11
270.212509957704
 21
242.913602314134
 31
0.0
  0
LINE
  5
123B
330
1D
100
AcDbEntity
  8
0
100
AcDbLine
 10
272.743709957704
 20
241.261002314134
 30
0.0
 11
269.999209957704
 21
241.439702314134
 31
0.0
  0
LINE
  5
123C
330
1D
100
AcDbEntity
  8
0
100
AcDbLine
 10
272.743809957704
 20
241.261302314134
 30
0.0
 11
269.999009957705
 21
241.439602314134
 31
0.0
  0
LINE
  5
123D
330
1D
100
AcDbEntity
  8
0
100
AcDbLine
 10
272.809409957704
 20
241.754502314134
 30
0.0
 11
270.416509957705
 21
241.933202314134
 31
0.0
  0
LINE
  5
123E
330
1D
100
AcDbEntity
  8
0
100
AcDbLine
 10
272.809209957705
 20
241.754802314134
 30
0.0
 11
270.416609957705
 21
241.933302314134
 31
0.0
  0
LINE
  5
123F
330
1D
100
AcDbEntity
  8
0
100
AcDbLine
 10
270.416609957705
 20
241.933302314134
 30
0.0
 11
269.998909957704
 21
241.937202314134
 31
0.0
  0
LINE
  5
1240
330
1D
100
AcDbEntity
  8
0
100
AcDbLine
 10
270.212509957704
 20
242.913602314134
 30
0.0
 11
269.998909957704
 21
242.914402314134
 31
0.0
  0
LINE
  5
1241
330
1D
100
AcDbEntity
  8
0
100
AcDbLine
 10
270.212309957705
 20
242.913802314134
 30
0.0
 11
269.999009957705
 21
242.914502314134
 31
0.0
  0
LINE
  5
1242
330
1D
100
AcDbEntity
  8
0
100
AcDbLine
 10
270.416509957705
 20
241.933202314134
 30
0.0
 11
269.999009957705
 21
241.937202314134
 31
0.0
  0
LINE
  5
1243
330
1D
100
AcDbEntity
  8
0
100
AcDbLine
 10
269.581209957704
 20
241.933302314134
 30
0.0
 11
269.998909957704
 21
241.937202314134
 31
0.0
  0
LINE
  5
1244
330
1D
100
AcDbEntity
  8
0
100
AcDbLine
 10
269.785309957704
 20
242.913602314134
 30
0.0
 11
269.998909957704
 21
242.914402314134
 31
0.0
  0
LINE
  5
1245
330
1D
100
AcDbEntity
  8
0
100
AcDbLine
 10
269.785509957704
 20
242.913802314134
 30
0.0
 11
269.998809957704
 21
242.914502314134
 31
0.0
  0
LINE
  5
1246
330
1D
100
AcDbEntity
  8
0
100
AcDbLine
 10
269.581309957704
 20
241.933202314134
 30
0.0
 11
269.998809957704
 21
241.937202314134
 31
0.0
  0
LINE
  5
1247
330
1D
100
AcDbEntity
  8
0
100
AcDbLine
 10
267.058509957704
 20
242.756202314134
 30
0.0
 11
269.785509957704
 21
242.913802314134
 31
0.0
  0
LINE
  5
1248
330
1D
100
AcDbEntity
  8
0
100
AcDbLine
 10
267.058609957704
 20
242.756302314134
 30
0.0
 11
269.785309957704
 21
242.913602314134
 31
0.0
  0
LINE
  5
1249
330
1D
100
AcDbEntity
  8
0
100
AcDbLine
 10
267.188409957704
 20
241.754502314134
 30
0.0
 11
269.581309957704
 21
241.933202314134
 31
0.0
  0
LINE
  5
124A
330
1D
100
AcDbEntity
  8
0
100
AcDbLine
 10
267.188609957705
 20
241.754802314134
 30
0.0
 11
269.581209957704
 21
241.933302314134
 31
0.0
  0
LINE
  5
124B
330
1D
100
AcDbEntity
  8
0
100
AcDbLine
 10
267.254109957704
 20
241.261002314134
 30
0.0
 11
269.998609957705
 21
241.439702314134
 31
0.0
  0
LINE
  5
124C
330
1D
100
AcDbEntity
  8
0
100
AcDbLine
 10
267.254009957705
 20
241.261302314134
 30
0.0
 11
269.998809957704
 21
241.439602314134
 31
0.0
  0
LINE
  5
124D
330
1D
100
AcDbEntity
  8
0
100
AcDbLine
 10
276.965709957704
 20
242.013002314134
 30
0.0
 11
275.636609957704
 21
242.327702314134
 31
0.0
  0
LINE
  5
124E
330
1D
100
AcDbEntity
  8
0
100
AcDbLine
 10
276.965709957704
 20
242.013002314134
 30
0.0
 11
275.636709957705
 21
242.327802314134
 31
0.0
  0
LINE
  5
124F
330
1D
100
AcDbEntity
  8
0
100
AcDbLine
 10
277.388309957704
 20
240.590802314134
 30
0.0
 11
275.139909957705
 21
241.306502314134
 31
0.0
  0
LINE
  5
1250
330
1D
100
AcDbEntity
  8
0
100
AcDbLine
 10
277.388209957704
 20
240.590902314134
 30
0.0
 11
275.139509957704
 21
241.306602314134
 31
0.0
  0
LINE
  5
1251
330
1D
100
AcDbEntity
  8
0
100
AcDbLine
 10
277.209009957704
 20
240.126302314134
 30
0.0
 11
275.016809957704
 21
240.824202314134
 31
0.0
  0
LINE
  5
1252
330
1D
100
AcDbEntity
  8
0
100
AcDbLine
 10
277.209309957704
 20
240.126402314134
 30
0.0
 11
275.016709957705
 21
240.823802314134
 31
0.0
  0
LINE
  5
1253
330
1D
100
AcDbEntity
  8
0
100
AcDbLine
 10
278.276909957704
 20
241.632202314134
 30
0.0
 11
276.965709957704
 21
242.013002314134
 31
0.0
  0
LINE
  5
1254
330
1D
100
AcDbEntity
  8
0
100
AcDbLine
 10
278.276809957704
 20
241.632202314134
 30
0.0
 11
276.965709957704
 21
242.013002314134
 31
0.0
  0
LINE
  5
1255
330
1D
100
AcDbEntity
  8
0
100
AcDbLine
 10
275.636709957705
 20
242.327802314134
 30
0.0
 11
272.939309957704
 21
242.756202314134
 31
0.0
  0
LINE
  5
1256
330
1D
100
AcDbEntity
  8
0
100
AcDbLine
 10
275.636609957704
 20
242.327702314134
 30
0.0
 11
272.939209957705
 21
242.756302314134
 31
0.0
  0
LINE
  5
1257
330
1D
100
AcDbEntity
  8
0
100
AcDbLine
 10
275.139909957705
 20
241.306502314134
 30
0.0
 11
272.809409957704
 21
241.754502314134
 31
0.0
  0
LINE
  5
1258
330
1D
100
AcDbEntity
  8
0
100
AcDbLine
 10
275.139509957704
 20
241.306602314134
 30
0.0
 11
272.809209957705
 21
241.754802314134
 31
0.0
  0
LINE
  5
1259
330
1D
100
AcDbEntity
  8
0
100
AcDbLine
 10
275.016809957704
 20
240.824202314134
 30
0.0
 11
272.743809957704
 21
241.261302314134
 31
0.0
  0
LINE
  5
125A
330
1D
100
AcDbEntity
  8
0
100
AcDbLine
 10
275.016709957705
 20
240.823802314134
 30
0.0
 11
272.743709957704
 21
241.261002314134
 31
0.0
  0
LINE
  5
125B
330
1D
100
AcDbEntity
  8
0
100
AcDbLine
 10
285.599309957704
 20
238.025002314134
 30
0.0
 11
284.459609957705
 21
238.776402314134
 31
0.0
  0
LINE
  5
125C
330
1D
100
AcDbEntity
  8
0
100
AcDbLine
 10
285.599209957704
 20
238.025002314134
 30
0.0
 11
284.459509957704
 21
238.776502314134
 31
0.0
  0
LINE
  5
125D
330
1D
100
AcDbEntity
  8
0
100
AcDbLine
 10
285.309609957704
 20
235.155902314134
 30
0.0
 11
284.269909957704
 21
236.207902314134
 31
0.0
  0
LINE
  5
125E
330
1D
100
AcDbEntity
  8
0
100
AcDbLine
 10
285.309509957704
 20
235.155902314134
 30
0.0
 11
284.269909957704
 21
236.207902314134
 31
0.0
  0
LINE
  5
125F
330
1D
100
AcDbEntity
  8
0
100
AcDbLine
 10
285.898209957704
 20
233.719502314134
 30
0.0
 11
283.926509957705
 21
235.846902314134
 31
0.0
  0
LINE
  5
1260
330
1D
100
AcDbEntity
  8
0
100
AcDbLine
 10
282.074409957704
 20
240.103602314134
 30
0.0
 11
280.834709957704
 21
240.676302314134
 31
0.0
  0
LINE
  5
1261
330
1D
100
AcDbEntity
  8
0
100
AcDbLine
 10
282.074209957705
 20
240.103702314134
 30
0.0
 11
280.834509957704
 21
240.676402314134
 31
0.0
  0
LINE
  5
1262
330
1D
100
AcDbEntity
  8
0
100
AcDbLine
 10
281.207709957704
 20
238.632002314134
 30
0.0
 11
279.536009957704
 21
239.615602314134
 31
0.0
  0
LINE
  5
1263
330
1D
100
AcDbEntity
  8
0
100
AcDbLine
 10
281.207709957704
 20
238.632002314134
 30
0.0
 11
279.536109957705
 21
239.615502314134
 31
0.0
  0
LINE
  5
1264
330
1D
100
AcDbEntity
  8
0
100
AcDbLine
 10
280.522009957704
 20
238.478102314134
 30
0.0
 11
279.303409957705
 21
239.175302314134
 31
0.0
  0
LINE
  5
1265
330
1D
100
AcDbEntity
  8
0
100
AcDbLine
 10
280.522109957705
 20
238.477902314134
 30
0.0
 11
279.303209957704
 21
239.175402314134
 31
0.0
  0
LINE
  5
1266
330
1D
100
AcDbEntity
  8
0
100
AcDbLine
 10
282.838809957704
 20
236.811502314134
 30
0.0
 11
281.694009957704
 21
237.695202314134
 31
0.0
  0
LINE
  5
1267
330
1D
100
AcDbEntity
  8
0
100
AcDbLine
 10
282.838809957704
 20
236.811102314134
 30
0.0
 11
281.693709957705
 21
237.695102314134
 31
0.0
  0
LINE
  5
1268
330
1D
100
AcDbEntity
  8
0
100
AcDbLine
 10
283.283309957704
 20
239.470002314134
 30
0.0
 11
282.074209957705
 21
240.103702314134
 31
0.0
  0
LINE
  5
1269
330
1D
100
AcDbEntity
  8
0
100
AcDbLine
 10
283.283609957704
 20
239.469802314134
 30
0.0
 11
282.074409957704
 21
240.103602314134
 31
0.0
  0
LINE
  5
126A
330
1D
100
AcDbEntity
  8
0
100
AcDbLine
 10
281.693709957705
 20
237.695102314134
 30
0.0
 11
280.522109957705
 21
238.477902314134
 31
0.0
  0
LINE
  5
126B
330
1D
100
AcDbEntity
  8
0
100
AcDbLine
 10
281.694009957704
 20
237.695202314134
 30
0.0
 11
280.522009957704
 21
238.478102314134
 31
0.0
  0
LINE
  5
126C
330
1D
100
AcDbEntity
  8
0
100
AcDbLine
 10
282.789009957704
 20
237.492602314134
 30
0.0
 11
281.207709957704
 21
238.632002314134
 31
0.0
  0
LINE
  5
126D
330
1D
100
AcDbEntity
  8
0
100
AcDbLine
 10
282.788909957705
 20
237.492602314134
 30
0.0
 11
281.207709957704
 21
238.632002314134
 31
0.0
  0
LINE
  5
126E
330
1D
100
AcDbEntity
  8
0
100
AcDbLine
 10
284.459509957704
 20
238.776502314134
 30
0.0
 11
283.283309957704
 21
239.470002314134
 31
0.0
  0
LINE
  5
126F
330
1D
100
AcDbEntity
  8
0
100
AcDbLine
 10
284.459609957705
 20
238.776402314134
 30
0.0
 11
283.283609957704
 21
239.469802314134
 31
0.0
  0
LINE
  5
1270
330
1D
100
AcDbEntity
  8
0
100
AcDbLine
 10
283.926509957705
 20
235.846902314134
 30
0.0
 11
282.838809957704
 21
236.811502314134
 31
0.0
  0
LINE
  5
1271
330
1D
100
AcDbEntity
  8
0
100
AcDbLine
 10
284.269909957704
 20
236.207902314134
 30
0.0
 11
282.788909957705
 21
237.492602314134
 31
0.0
  0
LINE
  5
1272
330
1D
100
AcDbEntity
  8
0
100
AcDbLine
 10
284.269909957704
 20
236.207902314134
 30
0.0
 11
282.789009957704
 21
237.492602314134
 31
0.0
  0
LINE
  5
1273
330
1D
100
AcDbEntity
  8
0
100
AcDbLine
 10
280.834709957704
 20
240.676302314134
 30
0.0
 11
279.567709957704
 21
241.186202314134
 31
0.0
  0
LINE
  5
1274
330
1D
100
AcDbEntity
  8
0
100
AcDbLine
 10
280.834509957704
 20
240.676402314134
 30
0.0
 11
279.567909957705
 21
241.186302314134
 31
0.0
  0
LINE
  5
1275
330
1D
100
AcDbEntity
  8
0
100
AcDbLine
 10
287.898809957704
 20
236.236302314134
 30
0.0
 11
286.773109957704
 21
237.161402314134
 31
0.0
  0
LINE
  5
1276
330
1D
100
AcDbEntity
  8
0
100
AcDbLine
 10
287.898509957705
 20
236.236402314134
 30
0.0
 11
286.773009957705
 21
237.161402314134
 31
0.0
  0
LINE
  5
1277
330
1D
100
AcDbEntity
  8
0
100
AcDbLine
 10
288.973609957705
 20
235.252802314134
 30
0.0
 11
287.898509957705
 21
236.236402314134
 31
0.0
  0
LINE
  5
1278
330
1D
100
AcDbEntity
  8
0
100
AcDbLine
 10
288.973209957705
 20
235.253002314134
 30
0.0
 11
287.898809957704
 21
236.236302314134
 31
0.0
  0
LINE
  5
1279
330
1D
100
AcDbEntity
  8
0
100
AcDbLine
 10
289.994109957704
 20
234.213302314134
 30
0.0
 11
288.973209957705
 21
235.253002314134
 31
0.0
  0
LINE
  5
127A
330
1D
100
AcDbEntity
  8
0
100
AcDbLine
 10
289.993909957704
 20
234.213402314134
 30
0.0
 11
288.973609957705
 21
235.252802314134
 31
0.0
  0
LINE
  5
127B
330
1D
100
AcDbEntity
  8
0
100
AcDbLine
 10
286.773109957704
 20
237.161402314134
 30
0.0
 11
285.599309957704
 21
238.025002314134
 31
0.0
  0
LINE
  5
127C
330
1D
100
AcDbEntity
  8
0
100
AcDbLine
 10
286.773009957705
 20
237.161402314134
 30
0.0
 11
285.599209957704
 21
238.025002314134
 31
0.0
  0
LINE
  5
127D
330
1D
100
AcDbEntity
  8
0
100
AcDbLine
 10
286.285009957704
 20
234.033502314134
 30
0.0
 11
285.309509957704
 21
235.155902314134
 31
0.0
  0
LINE
  5
127E
330
1D
100
AcDbEntity
  8
0
100
AcDbLine
 10
296.937909957705
 20
220.108902314134
 30
0.0
 11
296.663409957705
 21
221.523902314134
 31
0.0
  0
LINE
  5
127F
330
1D
100
AcDbEntity
  8
0
100
AcDbLine
 10
296.938109957704
 20
220.108802314134
 30
0.0
 11
296.663809957705
 21
221.523802314134
 31
0.0
  0
LINE
  5
1280
330
1D
100
AcDbEntity
  8
0
100
AcDbLine
 10
292.019609957704
 20
219.303402314134
 30
0.0
 11
291.806509957705
 21
221.167502314134
 31
0.0
  0
LINE
  5
1281
330
1D
100
AcDbEntity
  8
0
100
AcDbLine
 10
292.019609957704
 20
219.303402314134
 30
0.0
 11
291.806909957705
 21
221.167402314134
 31
0.0
  0
LINE
  5
1282
330
1D
100
AcDbEntity
  8
0
100
AcDbLine
 10
297.309609957704
 20
215.615502314134
 30
0.0
 11
297.260409957704
 21
213.979102314134
 31
0.0
  0
LINE
  5
1283
330
1D
100
AcDbEntity
  8
0
100
AcDbLine
 10
297.309609957704
 20
215.615502314134
 30
0.0
 11
297.260409957704
 21
213.979002314134
 31
0.0
  0
LINE
  5
1284
330
1D
100
AcDbEntity
  8
0
100
AcDbLine
 10
292.102509957704
 20
215.615602314134
 30
0.0
 11
292.008009957705
 21
214.046302314134
 31
0.0
  0
LINE
  5
1285
330
1D
100
AcDbEntity
  8
0
100
AcDbLine
 10
297.116009957704
 20
212.370002314134
 30
0.0
 11
296.876809957704
 21
210.772602314134
 31
0.0
  0
LINE
  5
1286
330
1D
100
AcDbEntity
  8
0
100
AcDbLine
 10
297.116109957704
 20
212.369902314134
 30
0.0
 11
296.876909957704
 21
210.772602314134
 31
0.0
  0
LINE
  5
1287
330
1D
100
AcDbEntity
  8
0
100
AcDbLine
 10
296.876909957704
 20
210.772602314134
 30
0.0
 11
296.543209957704
 21
209.191702314134
 31
0.0
  0
LINE
  5
1288
330
1D
100
AcDbEntity
  8
0
100
AcDbLine
 10
296.876809957704
 20
210.772602314134
 30
0.0
 11
296.543109957704
 21
209.191702314134
 31
0.0
  0
LINE
  5
1289
330
1D
100
AcDbEntity
  8
0
100
AcDbLine
 10
297.260409957704
 20
213.979002314134
 30
0.0
 11
297.116109957704
 21
212.369902314134
 31
0.0
  0
LINE
  5
128A
330
1D
100
AcDbEntity
  8
0
100
AcDbLine
 10
297.260409957704
 20
213.979102314134
 30
0.0
 11
297.116009957704
 21
212.370002314134
 31
0.0
  0
LINE
  5
128B
330
1D
100
AcDbEntity
  8
0
100
AcDbLine
 10
291.839009957704
 20
212.478802314134
 30
0.0
 11
291.597809957704
 21
210.916402314134
 31
0.0
  0
LINE
  5
128C
330
1D
100
AcDbEntity
  8
0
100
AcDbLine
 10
291.839209957704
 20
212.478902314134
 30
0.0
 11
291.597909957704
 21
210.916702314134
 31
0.0
  0
LINE
  5
128D
330
1D
100
AcDbEntity
  8
0
100
AcDbLine
 10
292.008009957705
 20
214.046302314134
 30
0.0
 11
291.839009957704
 21
212.478802314134
 31
0.0
  0
LINE
  5
128E
330
1D
100
AcDbEntity
  8
0
100
AcDbLine
 10
292.008109957705
 20
214.046602314134
 30
0.0
 11
291.839209957704
 21
212.478902314134
 31
0.0
  0
LINE
  5
128F
330
1D
100
AcDbEntity
  8
0
100
AcDbLine
 10
297.137409957704
 20
218.681402314134
 30
0.0
 11
296.938109957704
 21
220.108802314134
 31
0.0
  0
LINE
  5
1290
330
1D
100
AcDbEntity
  8
0
100
AcDbLine
 10
297.137109957705
 20
218.681602314134
 30
0.0
 11
296.937909957705
 21
220.108902314134
 31
0.0
  0
LINE
  5
1291
330
1D
100
AcDbEntity
  8
0
100
AcDbLine
 10
297.309609957704
 20
215.615502314134
 30
0.0
 11
297.260809957705
 21
217.245402314134
 31
0.0
  0
LINE
  5
1292
330
1D
100
AcDbEntity
  8
0
100
AcDbLine
 10
297.309509957704
 20
215.615502314134
 30
0.0
 11
297.261109957704
 21
217.245202314134
 31
0.0
  0
LINE
  5
1293
330
1D
100
AcDbEntity
  8
0
100
AcDbLine
 10
297.261109957704
 20
217.245202314134
 30
0.0
 11
297.137409957704
 21
218.681402314134
 31
0.0
  0
LINE
  5
1294
330
1D
100
AcDbEntity
  8
0
100
AcDbLine
 10
297.260809957705
 20
217.245402314134
 30
0.0
 11
297.137109957705
 21
218.681602314134
 31
0.0
  0
LINE
  5
1295
330
1D
100
AcDbEntity
  8
0
100
AcDbLine
 10
292.116509957704
 20
217.419902314134
 30
0.0
 11
292.019609957704
 21
219.303402314134
 31
0.0
  0
LINE
  5
1296
330
1D
100
AcDbEntity
  8
0
100
AcDbLine
 10
292.116309957705
 20
217.419902314134
 30
0.0
 11
292.019609957704
 21
219.303402314134
 31
0.0
  0
LINE
  5
1297
330
1D
100
AcDbEntity
  8
0
100
AcDbLine
 10
292.116309957705
 20
217.419902314134
 30
0.0
 11
292.102609957704
 21
215.615502314134
 31
0.0
  0
LINE
  5
1298
330
1D
100
AcDbEntity
  8
0
100
AcDbLine
 10
291.619509957705
 20
217.409602314134
 30
0.0
 11
291.606509957704
 21
215.633602314134
 31
0.0
  0
LINE
  5
1299
330
1D
100
AcDbEntity
  8
0
100
AcDbLine
 10
291.619809957704
 20
217.409502314134
 30
0.0
 11
291.606709957704
 21
215.633102314134
 31
0.0
  0
LINE
  5
129A
330
1D
100
AcDbEntity
  8
0
100
AcDbLine
 10
295.398309957704
 20
225.654302314134
 30
0.0
 11
294.832709957704
 21
226.980502314134
 31
0.0
  0
LINE
  5
129B
330
1D
100
AcDbEntity
  8
0
100
AcDbLine
 10
295.398309957704
 20
225.654302314134
 30
0.0
 11
294.832909957704
 21
226.980302314134
 31
0.0
  0
LINE
  5
129C
330
1D
100
AcDbEntity
  8
0
100
AcDbLine
 10
294.832909957704
 20
226.980302314134
 30
0.0
 11
294.191309957704
 21
228.287702314134
 31
0.0
  0
LINE
  5
129D
330
1D
100
AcDbEntity
  8
0
100
AcDbLine
 10
294.832709957704
 20
226.980502314134
 30
0.0
 11
294.191609957704
 21
228.287602314134
 31
0.0
  0
LINE
  5
129E
330
1D
100
AcDbEntity
  8
0
100
AcDbLine
 10
295.892509957705
 20
224.300502314134
 30
0.0
 11
295.398309957704
 21
225.654302314134
 31
0.0
  0
LINE
  5
129F
330
1D
100
AcDbEntity
  8
0
100
AcDbLine
 10
295.892709957704
 20
224.300402314134
 30
0.0
 11
295.398309957704
 21
225.654302314134
 31
0.0
  0
LINE
  5
12A0
330
1D
100
AcDbEntity
  8
0
100
AcDbLine
 10
292.704109957705
 20
230.790602314134
 30
0.0
 11
291.862009957704
 21
231.979202314134
 31
0.0
  0
LINE
  5
12A1
330
1D
100
AcDbEntity
  8
0
100
AcDbLine
 10
292.703809957704
 20
230.790602314134
 30
0.0
 11
291.862209957705
 21
231.979002314134
 31
0.0
  0
LINE
  5
12A2
330
1D
100
AcDbEntity
  8
0
100
AcDbLine
 10
293.481009957704
 20
229.559002314134
 30
0.0
 11
292.704109957705
 21
230.790602314134
 31
0.0
  0
LINE
  5
12A3
330
1D
100
AcDbEntity
  8
0
100
AcDbLine
 10
293.481009957704
 20
229.559002314134
 30
0.0
 11
292.703809957704
 21
230.790602314134
 31
0.0
  0
LINE
  5
12A4
330
1D
100
AcDbEntity
  8
0
100
AcDbLine
 10
294.191609957704
 20
228.287602314134
 30
0.0
 11
293.481009957704
 21
229.559002314134
 31
0.0
  0
LINE
  5
12A5
330
1D
100
AcDbEntity
  8
0
100
AcDbLine
 10
294.191309957704
 20
228.287702314134
 30
0.0
 11
293.481009957704
 21
229.559002314134
 31
0.0
  0
LINE
  5
12A6
330
1D
100
AcDbEntity
  8
0
100
AcDbLine
 10
296.663809957705
 20
221.523802314134
 30
0.0
 11
296.315109957705
 21
222.922302314134
 31
0.0
  0
LINE
  5
12A7
330
1D
100
AcDbEntity
  8
0
100
AcDbLine
 10
296.663409957705
 20
221.523902314134
 30
0.0
 11
296.314709957705
 21
222.922502314134
 31
0.0
  0
LINE
  5
12A8
330
1D
100
AcDbEntity
  8
0
100
AcDbLine
 10
296.314709957705
 20
222.922502314134
 30
0.0
 11
295.892709957704
 21
224.300402314134
 31
0.0
  0
LINE
  5
12A9
330
1D
100
AcDbEntity
  8
0
100
AcDbLine
 10
296.315109957705
 20
222.922302314134
 30
0.0
 11
295.892509957705
 21
224.300502314134
 31
0.0
  0
LINE
  5
12AA
330
1D
100
AcDbEntity
  8
0
100
AcDbLine
 10
82.1809
 20
208.75865
 30
0.0
 11
81.4286
 21
205.63565
 31
0.0
  0
LINE
  5
12AB
330
1D
100
AcDbEntity
  8
0
100
AcDbLine
 10
82.1805
 20
208.75865
 30
0.0
 11
81.4286
 21
205.63665
 31
0.0
  0
LINE
  5
12AC
330
1D
100
AcDbEntity
  8
0
100
AcDbLine
 10
84.9376
 20
212.36265
 30
0.0
 11
84.1686
 21
207.42865
 31
0.0
  0
LINE
  5
12AD
330
1D
100
AcDbEntity
  8
0
100
AcDbLine
 10
77.6034
 20
208.53865
 30
0.0
 11
76.6406
 21
205.25965
 31
0.0
  0
LINE
  5
12AE
330
1D
100
AcDbEntity
  8
0
100
AcDbLine
 10
66.0163
 20
183.99865
 30
0.0
 11
66.0163
 21
209.81765
 31
0.0
  0
LINE
  5
12AF
330
1D
100
AcDbEntity
  8
0
100
AcDbLine
 10
66.0163
 20
209.81765
 30
0.0
 11
66.0163
 21
183.99865
 31
0.0
  0
LINE
  5
12B0
330
1D
100
AcDbEntity
  8
0
100
AcDbLine
 10
75.5108
 20
194.31665
 30
0.0
 11
73.3752
 21
191.91665
 31
0.0
  0
LINE
  5
12B1
330
1D
100
AcDbEntity
  8
0
100
AcDbLine
 10
75.2908
 20
202.12065
 30
0.0
 11
73.5715
 21
199.16665
 31
0.0
  0
LINE
  5
12B2
330
1D
100
AcDbEntity
  8
0
100
AcDbLine
 10
75.5105
 20
194.31665
 30
0.0
 11
73.3744
 21
191.91665
 31
0.0
  0
LINE
  5
12B3
330
1D
100
AcDbEntity
  8
0
100
AcDbLine
 10
74.7761
 20
190.10265
 30
0.0
 11
73.405571772314
 21
188.827217816293
 31
0.0
  0
LINE
  5
12B4
330
1D
100
AcDbEntity
  8
0
100
AcDbLine
 10
77.4004
 20
196.91365
 30
0.0
 11
75.5108
 21
194.31665
 31
0.0
  0
LINE
  5
12B5
330
1D
100
AcDbEntity
  8
0
100
AcDbLine
 10
77.4003
 20
196.91365
 30
0.0
 11
75.5105
 21
194.31665
 31
0.0
  0
LINE
  5
12B6
330
1D
100
AcDbEntity
  8
0
100
AcDbLine
 10
79.0131
 20
195.19965
 30
0.0
 11
77.0462
 21
192.54465
 31
0.0
  0
LINE
  5
12B7
330
1D
100
AcDbEntity
  8
0
100
AcDbLine
 10
77.0462
 20
192.54465
 30
0.0
 11
74.7761
 21
190.10265
 31
0.0
  0
LINE
  5
12B8
330
1D
100
AcDbEntity
  8
0
100
AcDbLine
 10
80.6936
 20
198.10865
 30
0.0
 11
79.0131
 21
195.19965
 31
0.0
  0
LINE
  5
12B9
330
1D
100
AcDbEntity
  8
0
100
AcDbLine
 10
81.4286
 20
205.63565
 30
0.0
 11
80.3741
 21
202.60065
 31
0.0
  0
LINE
  5
12BA
330
1D
100
AcDbEntity
  8
0
100
AcDbLine
 10
81.4286
 20
205.63665
 30
0.0
 11
80.3735
 21
202.60065
 31
0.0
  0
LINE
  5
12BB
330
1D
100
AcDbEntity
  8
0
100
AcDbLine
 10
83.3285
 20
204.21165
 30
0.0
 11
82.1465
 21
201.10065
 31
0.0
  0
LINE
  5
12BC
330
1D
100
AcDbEntity
  8
0
100
AcDbLine
 10
82.1465
 20
201.10065
 30
0.0
 11
80.6936
 21
198.10865
 31
0.0
  0
LINE
  5
12BD
330
1D
100
AcDbEntity
  8
0
100
AcDbLine
 10
84.1686
 20
207.42865
 30
0.0
 11
83.3285
 21
204.21165
 31
0.0
  0
LINE
  5
12BE
330
1D
100
AcDbEntity
  8
0
100
AcDbLine
 10
80.3741
 20
202.60065
 30
0.0
 11
79.0269
 21
199.68365
 31
0.0
  0
LINE
  5
12BF
330
1D
100
AcDbEntity
  8
0
100
AcDbLine
 10
80.3735
 20
202.60065
 30
0.0
 11
79.0268
 21
199.68465
 31
0.0
  0
LINE
  5
12C0
330
1D
100
AcDbEntity
  8
0
100
AcDbLine
 10
79.0269
 20
199.68365
 30
0.0
 11
77.4004
 21
196.91365
 31
0.0
  0
LINE
  5
12C1
330
1D
100
AcDbEntity
  8
0
100
AcDbLine
 10
79.0268
 20
199.68465
 30
0.0
 11
77.4003
 21
196.91365
 31
0.0
  0
LINE
  5
12C2
330
1D
100
AcDbEntity
  8
0
100
AcDbLine
 10
76.6406
 20
205.25965
 30
0.0
 11
75.2908
 21
202.12065
 31
0.0
  0
LINE
  5
12C3
330
1D
100
AcDbEntity
  8
0
100
AcDbLine
 10
66.0084
 20
182.76965
 30
0.0
 11
65.980600160789
 21
172.169596505211
 31
0.0
  0
LINE
  5
12C4
330
1D
100
AcDbEntity
  8
0
100
AcDbLine
 10
59.3756
 20
181.44565
 30
0.0
 11
55.5621
 21
182.99865
 31
0.0
  0
LINE
  5
12C5
330
1D
100
AcDbEntity
  8
0
100
AcDbLine
 10
62.2609
 20
179.40865
 30
0.0
 11
59.3756
 21
181.44565
 31
0.0
  0
LINE
  5
12C6
330
1D
100
AcDbEntity
  8
0
100
AcDbLine
 10
64.1953
 20
177.14265
 30
0.0
 11
62.2609
 21
179.40865
 31
0.0
  0
LINE
  5
12C7
330
1D
100
AcDbEntity
  8
0
100
AcDbLine
 10
61.3302
 20
192.66565
 30
0.0
 11
59.421
 21
193.91465
 31
0.0
  0
LINE
  5
12C8
330
1D
100
AcDbEntity
  8
0
100
AcDbLine
 10
71.5094
 20
196.44165
 30
0.0
 11
69.1329
 21
193.98565
 31
0.0
  0
LINE
  5
12C9
330
1D
100
AcDbEntity
  8
0
100
AcDbLine
 10
69.6165
 20
185.85365
 30
0.0
 11
66.7689
 21
184.18365
 31
0.0
  0
LINE
  5
12CA
330
1D
100
AcDbEntity
  8
0
100
AcDbLine
 10
68.4512
 20
187.80065
 30
0.0
 11
66.0163
 21
186.310493332603
 31
0.0
  0
LINE
  5
12CB
330
1D
100
AcDbEntity
  8
0
100
AcDbLine
 10
69.1329
 20
193.98565
 30
0.0
 11
66.4784
 21
191.83365
 31
0.0
  0
LINE
  5
12CC
330
1D
100
AcDbEntity
  8
0
100
AcDbLine
 10
68.4513
 20
187.80065
 30
0.0
 11
66.0163
 21
186.310432132691
 31
0.0
  0
LINE
  5
12CD
330
1D
100
AcDbEntity
  8
0
100
AcDbLine
 10
72.3347
 20
187.83065
 30
0.0
 11
69.6165
 21
185.85365
 31
0.0
  0
LINE
  5
12CE
330
1D
100
AcDbEntity
  8
0
100
AcDbLine
 10
71.0141
 20
189.73665
 30
0.0
 11
68.4513
 21
187.80065
 31
0.0
  0
LINE
  5
12CF
330
1D
100
AcDbEntity
  8
0
100
AcDbLine
 10
71.0141
 20
189.73665
 30
0.0
 11
68.4512
 21
187.80065
 31
0.0
  0
LINE
  5
12D0
330
1D
100
AcDbEntity
  8
0
100
AcDbLine
 10
73.405571772314
 20
188.827217816293
 30
0.0
 11
72.3347
 21
187.83065
 31
0.0
  0
LINE
  5
12D1
330
1D
100
AcDbEntity
  8
0
100
AcDbLine
 10
73.3752
 20
191.91665
 30
0.0
 11
71.0141
 21
189.73665
 31
0.0
  0
LINE
  5
12D2
330
1D
100
AcDbEntity
  8
0
100
AcDbLine
 10
73.3744
 20
191.91665
 30
0.0
 11
71.0141
 21
189.73665
 31
0.0
  0
LINE
  5
12D3
330
1D
100
AcDbEntity
  8
0
100
AcDbLine
 10
65.2331
 20
187.78565
 30
0.0
 11
64.2726
 21
189.56265
 31
0.0
  0
LINE
  5
12D4
330
1D
100
AcDbEntity
  8
0
100
AcDbLine
 10
65.939527978756
 20
184.74647502401
 30
0.0
 11
65.8195
 21
185.91565
 31
0.0
  0
LINE
  5
12D5
330
1D
100
AcDbEntity
  8
0
100
AcDbLine
 10
66.0253
 20
182.77165
 30
0.0
 11
65.9757
 21
184.57965
 31
0.0
  0
LINE
  5
12D6
330
1D
100
AcDbEntity
  8
0
100
AcDbLine
 10
66.0253
 20
182.77165
 30
0.0
 11
66.00579114176
 21
182.663756902157
 31
0.0
  0
LINE
  5
12D7
330
1D
100
AcDbEntity
  8
0
100
AcDbLine
 10
66.0163
 20
183.99865
 30
0.0
 11
65.996839348712
 21
183.809086643708
 31
0.0
  0
LINE
  5
12D8
330
1D
100
AcDbEntity
  8
0
100
AcDbLine
 10
66.7714
 20
184.18565
 30
0.0
 11
65.996873246395
 21
183.807851018518
 31
0.0
  0
LINE
  5
12D9
330
1D
100
AcDbEntity
  8
0
100
AcDbLine
 10
65.8195
 20
185.91565
 30
0.0
 11
65.2331
 21
187.78565
 31
0.0
  0
LINE
  5
12DA
330
1D
100
AcDbEntity
  8
0
100
AcDbLine
 10
66.4784
 20
191.83365
 30
0.0
 11
66.0163
 21
191.543580318524
 31
0.0
  0
LINE
  5
12DB
330
1D
100
AcDbEntity
  8
0
100
AcDbLine
 10
64.2726
 20
189.56265
 30
0.0
 11
62.9606
 21
191.20265
 31
0.0
  0
LINE
  5
12DC
330
1D
100
AcDbEntity
  8
0
100
AcDbLine
 10
62.9606
 20
191.20265
 30
0.0
 11
61.3302
 21
192.66565
 31
0.0
  0
LINE
  5
12DD
330
1D
100
AcDbEntity
  8
0
100
AcDbLine
 10
73.5715
 20
199.16665
 30
0.0
 11
71.5094
 21
196.44165
 31
0.0
  0
LINE
  5
12DE
330
1D
100
AcDbEntity
  8
0
100
AcDbLine
 10
59.421
 20
193.91465
 30
0.0
 11
57.2803
 21
194.91965
 31
0.0
  0
LINE
  5
12DF
330
1D
100
AcDbEntity
  8
0
100
AcDbLine
 10
55.5621
 20
182.99865
 30
0.0
 11
51.7367
 21
183.69265
 31
0.0
  0
LINE
  5
12E0
330
1D
100
AcDbEntity
  8
0
100
AcDbLine
 10
57.2803
 20
194.91965
 30
0.0
 11
54.9605
 21
195.65565
 31
0.0
  0
LINE
  5
12E1
330
1D
100
AcDbEntity
  8
0
100
AcDbLine
 10
54.9605
 20
195.65565
 30
0.0
 11
52.519
 21
196.10465
 31
0.0
  0
LINE
  5
12E2
330
1D
100
AcDbEntity
  8
0
100
AcDbLine
 10
75.1318
 20
235.84965
 30
0.0
 11
72.9525
 21
238.20965
 31
0.0
  0
LINE
  5
12E3
330
1D
100
AcDbEntity
  8
0
100
AcDbLine
 10
75.1314
 20
235.85065
 30
0.0
 11
72.9523
 21
238.21065
 31
0.0
  0
LINE
  5
12E4
330
1D
100
AcDbEntity
  8
0
100
AcDbLine
 10
75.9443
 20
238.43265
 30
0.0
 11
72.6385
 21
241.58465
 31
0.0
  0
LINE
  5
12E5
330
1D
100
AcDbEntity
  8
0
100
AcDbLine
 10
74.8521
 20
228.41965
 30
0.0
 11
73.0352
 21
231.31465
 31
0.0
  0
LINE
  5
12E6
330
1D
100
AcDbEntity
  8
0
100
AcDbLine
 10
79.8845
 20
233.06565
 30
0.0
 11
78.0379
 21
235.83765
 31
0.0
  0
LINE
  5
12E7
330
1D
100
AcDbEntity
  8
0
100
AcDbLine
 10
77.0686
 20
233.28765
 30
0.0
 11
75.1318
 21
235.84965
 31
0.0
  0
LINE
  5
12E8
330
1D
100
AcDbEntity
  8
0
100
AcDbLine
 10
77.0682
 20
233.28765
 30
0.0
 11
75.1314
 21
235.85065
 31
0.0
  0
LINE
  5
12E9
330
1D
100
AcDbEntity
  8
0
100
AcDbLine
 10
84.7782
 20
219.01265
 30
0.0
 11
83.4284
 21
225.20365
 31
0.0
  0
LINE
  5
12EA
330
1D
100
AcDbEntity
  8
0
100
AcDbLine
 10
82.5645
 20
218.35865
 30
0.0
 11
82.0642
 21
221.53065
 31
0.0
  0
LINE
  5
12EB
330
1D
100
AcDbEntity
  8
0
100
AcDbLine
 10
82.5642
 20
218.35865
 30
0.0
 11
82.064
 21
221.53165
 31
0.0
  0
LINE
  5
12EC
330
1D
100
AcDbEntity
  8
0
100
AcDbLine
 10
78.049
 20
218.73165
 30
0.0
 11
77.3771
 21
222.08265
 31
0.0
  0
LINE
  5
12ED
330
1D
100
AcDbEntity
  8
0
100
AcDbLine
 10
82.6229
 20
211.94065
 30
0.0
 11
82.1805
 21
208.75865
 31
0.0
  0
LINE
  5
12EE
330
1D
100
AcDbEntity
  8
0
100
AcDbLine
 10
82.6229
 20
211.94065
 30
0.0
 11
82.1809
 21
208.75865
 31
0.0
  0
LINE
  5
12EF
330
1D
100
AcDbEntity
  8
0
100
AcDbLine
 10
82.7514
 20
215.15065
 30
0.0
 11
82.6229
 21
211.94065
 31
0.0
  0
LINE
  5
12F0
330
1D
100
AcDbEntity
  8
0
100
AcDbLine
 10
82.7514
 20
215.15065
 30
0.0
 11
82.5645
 21
218.35865
 31
0.0
  0
LINE
  5
12F1
330
1D
100
AcDbEntity
  8
0
100
AcDbLine
 10
82.751
 20
215.15165
 30
0.0
 11
82.5642
 21
218.35865
 31
0.0
  0
LINE
  5
12F2
330
1D
100
AcDbEntity
  8
0
100
AcDbLine
 10
82.751
 20
215.15165
 30
0.0
 11
82.6229
 21
211.94065
 31
0.0
  0
LINE
  5
12F3
330
1D
100
AcDbEntity
  8
0
100
AcDbLine
 10
84.9376
 20
212.36265
 30
0.0
 11
84.7782
 21
219.01265
 31
0.0
  0
LINE
  5
12F4
330
1D
100
AcDbEntity
  8
0
100
AcDbLine
 10
78.163
 20
211.90965
 30
0.0
 11
77.6034
 21
208.53865
 31
0.0
  0
LINE
  5
12F5
330
1D
100
AcDbEntity
  8
0
100
AcDbLine
 10
78.3123
 20
215.32465
 30
0.0
 11
78.049
 21
218.73165
 31
0.0
  0
LINE
  5
12F6
330
1D
100
AcDbEntity
  8
0
100
AcDbLine
 10
78.3123
 20
215.32465
 30
0.0
 11
78.163
 21
211.90965
 31
0.0
  0
LINE
  5
12F7
330
1D
100
AcDbEntity
  8
0
100
AcDbLine
 10
81.255
 20
224.63965
 30
0.0
 11
80.145
 21
227.65565
 31
0.0
  0
LINE
  5
12F8
330
1D
100
AcDbEntity
  8
0
100
AcDbLine
 10
81.2551
 20
224.64065
 30
0.0
 11
80.1452
 21
227.65565
 31
0.0
  0
LINE
  5
12F9
330
1D
100
AcDbEntity
  8
0
100
AcDbLine
 10
81.4803
 20
230.14465
 30
0.0
 11
79.8845
 21
233.06565
 31
0.0
  0
LINE
  5
12FA
330
1D
100
AcDbEntity
  8
0
100
AcDbLine
 10
82.0642
 20
221.53065
 30
0.0
 11
81.255
 21
224.63965
 31
0.0
  0
LINE
  5
12FB
330
1D
100
AcDbEntity
  8
0
100
AcDbLine
 10
82.064
 20
221.53165
 30
0.0
 11
81.2551
 21
224.64065
 31
0.0
  0
LINE
  5
12FC
330
1D
100
AcDbEntity
  8
0
100
AcDbLine
 10
83.4284
 20
225.20365
 30
0.0
 11
82.1771
 21
228.66065
 31
0.0
  0
LINE
  5
12FD
330
1D
100
AcDbEntity
  8
0
100
AcDbLine
 10
82.1771
 20
228.66065
 30
0.0
 11
81.4803
 21
230.14465
 31
0.0
  0
LINE
  5
12FE
330
1D
100
AcDbEntity
  8
0
100
AcDbLine
 10
80.145
 20
227.65565
 30
0.0
 11
78.7454
 21
230.54665
 31
0.0
  0
LINE
  5
12FF
330
1D
100
AcDbEntity
  8
0
100
AcDbLine
 10
80.1452
 20
227.65565
 30
0.0
 11
78.7447
 21
230.54665
 31
0.0
  0
LINE
  5
1300
330
1D
100
AcDbEntity
  8
0
100
AcDbLine
 10
78.7454
 20
230.54665
 30
0.0
 11
77.0686
 21
233.28765
 31
0.0
  0
LINE
  5
1301
330
1D
100
AcDbEntity
  8
0
100
AcDbLine
 10
78.7447
 20
230.54665
 30
0.0
 11
77.0682
 21
233.28765
 31
0.0
  0
LINE
  5
1302
330
1D
100
AcDbEntity
  8
0
100
AcDbLine
 10
76.3064
 20
225.32765
 30
0.0
 11
74.8521
 21
228.41965
 31
0.0
  0
LINE
  5
1303
330
1D
100
AcDbEntity
  8
0
100
AcDbLine
 10
77.3771
 20
222.08265
 30
0.0
 11
76.3064
 21
225.32765
 31
0.0
  0
LINE
  5
1304
330
1D
100
AcDbEntity
  8
0
100
AcDbLine
 10
78.0379
 20
235.83765
 30
0.0
 11
75.9443
 21
238.43265
 31
0.0
  0
LINE
  5
1305
330
1D
100
AcDbEntity
  8
0
100
AcDbLine
 10
73.0352
 20
231.31465
 30
0.0
 11
70.8833
 21
233.96865
 31
0.0
  0
LINE
  5
1306
330
1D
100
AcDbEntity
  8
0
100
AcDbLine
 10
61.5738
 20
224.26065
 30
0.0
 11
60.3125
 21
225.80465
 31
0.0
  0
LINE
  5
1307
330
1D
100
AcDbEntity
  8
0
100
AcDbLine
 10
61.5743
 20
224.26065
 30
0.0
 11
60.3121
 21
225.80465
 31
0.0
  0
LINE
  5
1308
330
1D
100
AcDbEntity
  8
0
100
AcDbLine
 10
63.7075
 20
220.62665
 30
0.0
 11
62.672555459479
 21
222.496511631519
 31
0.0
  0
LINE
  5
1309
330
1D
100
AcDbEntity
  8
0
100
AcDbLine
 10
65.9255
 20
212.03965
 30
0.0
 11
65.2319
 21
216.58065
 31
0.0
  0
LINE
  5
130A
330
1D
100
AcDbEntity
  8
0
100
AcDbLine
 10
66.0163
 20
209.81765
 30
0.0
 11
66.0065
 21
210.55665
 31
0.0
  0
LINE
  5
130B
330
1D
100
AcDbEntity
  8
0
100
AcDbLine
 10
66.0065
 20
210.55665
 30
0.0
 11
65.9255
 21
212.03965
 31
0.0
  0
LINE
  5
130C
330
1D
100
AcDbEntity
  8
0
100
AcDbLine
 10
65.2319
 20
216.58065
 30
0.0
 11
63.7077
 21
220.62665
 31
0.0
  0
LINE
  5
130D
330
1D
100
AcDbEntity
  8
0
100
AcDbLine
 10
62.672555459479
 20
222.496511631519
 30
0.0
 11
61.5738
 21
224.26065
 31
0.0
  0
LINE
  5
130E
330
1D
100
AcDbEntity
  8
0
100
AcDbLine
 10
60.3121
 20
225.80465
 30
0.0
 11
58.8892
 21
227.19865
 31
0.0
  0
LINE
  5
130F
330
1D
100
AcDbEntity
  8
0
100
AcDbLine
 10
60.3125
 20
225.80465
 30
0.0
 11
58.8891
 21
227.19865
 31
0.0
  0
LINE
  5
1310
330
1D
100
AcDbEntity
  8
0
100
AcDbLine
 10
58.8891
 20
227.19865
 30
0.0
 11
57.3477
 21
228.38265
 31
0.0
  0
LINE
  5
1311
330
1D
100
AcDbEntity
  8
0
100
AcDbLine
 10
57.3477
 20
228.38265
 30
0.0
 11
56.444838150679
 21
228.907066762779
 31
0.0
  0
LINE
  5
1312
330
1D
100
AcDbEntity
  8
0
100
AcDbLine
 10
53.889
 20
230.08265
 30
0.0
 11
53.05734334055
 21
230.29588192936
 31
0.0
  0
LINE
  5
1313
330
1D
100
AcDbEntity
  8
0
100
AcDbLine
 10
55.6777
 20
229.35265
 30
0.0
 11
53.889
 21
230.08265
 31
0.0
  0
LINE
  5
1314
330
1D
100
AcDbEntity
  8
0
100
AcDbLine
 10
56.435010031165
 20
228.91277531124
 30
0.0
 11
55.6777
 21
229.35265
 31
0.0
  0
LINE
  5
1315
330
1D
100
AcDbEntity
  8
0
100
AcDbLine
 10
53.048718675446
 20
230.298093243319
 30
0.0
 11
52.2938
 21
230.49165
 31
0.0
  0
LINE
  5
1316
330
1D
100
AcDbEntity
  8
0
100
AcDbLine
 10
62.7479
 20
240.12665
 30
0.0
 11
59.6089
 21
241.47665
 31
0.0
  0
LINE
  5
1317
330
1D
100
AcDbEntity
  8
0
100
AcDbLine
 10
62.2675
 20
245.20965
 30
0.0
 11
59.2332
 21
246.26465
 31
0.0
  0
LINE
  5
1318
330
1D
100
AcDbEntity
  8
0
100
AcDbLine
 10
62.2673
 20
245.20965
 30
0.0
 11
59.2332
 21
246.26365
 31
0.0
  0
LINE
  5
1319
330
1D
100
AcDbEntity
  8
0
100
AcDbLine
 10
62.2197
 20
247.68665
 30
0.0
 11
59.0703
 21
248.66865
 31
0.0
  0
LINE
  5
131A
330
1D
100
AcDbEntity
  8
0
100
AcDbLine
 10
65.2808
 20
246.29165
 30
0.0
 11
62.2197
 21
247.68665
 31
0.0
  0
LINE
  5
131B
330
1D
100
AcDbEntity
  8
0
100
AcDbLine
 10
68.4266
 20
236.34565
 30
0.0
 11
65.7021
 21
238.40765
 31
0.0
  0
LINE
  5
131C
330
1D
100
AcDbEntity
  8
0
100
AcDbLine
 10
67.9547
 20
242.23665
 30
0.0
 11
65.1842
 21
243.86265
 31
0.0
  0
LINE
  5
131D
330
1D
100
AcDbEntity
  8
0
100
AcDbLine
 10
67.9541
 20
242.23665
 30
0.0
 11
65.1842
 21
243.86265
 31
0.0
  0
LINE
  5
131E
330
1D
100
AcDbEntity
  8
0
100
AcDbLine
 10
68.2673
 20
244.75165
 30
0.0
 11
65.2808
 21
246.29165
 31
0.0
  0
LINE
  5
131F
330
1D
100
AcDbEntity
  8
0
100
AcDbLine
 10
72.9525
 20
238.20965
 30
0.0
 11
70.5522
 21
240.34565
 31
0.0
  0
LINE
  5
1320
330
1D
100
AcDbEntity
  8
0
100
AcDbLine
 10
70.8833
 20
233.96865
 30
0.0
 11
68.4266
 21
236.34565
 31
0.0
  0
LINE
  5
1321
330
1D
100
AcDbEntity
  8
0
100
AcDbLine
 10
72.9523
 20
238.21065
 30
0.0
 11
70.5521
 21
240.34565
 31
0.0
  0
LINE
  5
1322
330
1D
100
AcDbEntity
  8
0
100
AcDbLine
 10
70.5522
 20
240.34565
 30
0.0
 11
67.9547
 21
242.23665
 31
0.0
  0
LINE
  5
1323
330
1D
100
AcDbEntity
  8
0
100
AcDbLine
 10
70.5521
 20
240.34565
 30
0.0
 11
67.9541
 21
242.23665
 31
0.0
  0
LINE
  5
1324
330
1D
100
AcDbEntity
  8
0
100
AcDbLine
 10
72.6385
 20
241.58465
 30
0.0
 11
71.013
 21
242.91365
 31
0.0
  0
LINE
  5
1325
330
1D
100
AcDbEntity
  8
0
100
AcDbLine
 10
71.013
 20
242.91365
 30
0.0
 11
68.2673
 21
244.75165
 31
0.0
  0
LINE
  5
1326
330
1D
100
AcDbEntity
  8
0
100
AcDbLine
 10
65.7021
 20
238.40765
 30
0.0
 11
62.7479
 21
240.12665
 31
0.0
  0
LINE
  5
1327
330
1D
100
AcDbEntity
  8
0
100
AcDbLine
 10
65.1842
 20
243.86265
 30
0.0
 11
62.2673
 21
245.20965
 31
0.0
  0
LINE
  5
1328
330
1D
100
AcDbEntity
  8
0
100
AcDbLine
 10
65.1842
 20
243.86265
 30
0.0
 11
62.2675
 21
245.20965
 31
0.0
  0
LINE
  5
1329
330
1D
100
AcDbEntity
  8
0
100
AcDbLine
 10
59.2332
 20
246.26465
 30
0.0
 11
56.1095
 21
247.01565
 31
0.0
  0
LINE
  5
132A
330
1D
100
AcDbEntity
  8
0
100
AcDbLine
 10
59.2332
 20
246.26365
 30
0.0
 11
56.1092
 21
247.01565
 31
0.0
  0
LINE
  5
132B
330
1D
100
AcDbEntity
  8
0
100
AcDbLine
 10
56.3301
 20
242.43965
 30
0.0
 11
52.9588
 21
242.99865
 31
0.0
  0
LINE
  5
132C
330
1D
100
AcDbEntity
  8
0
100
AcDbLine
 10
59.6089
 20
241.47665
 30
0.0
 11
56.3301
 21
242.43965
 31
0.0
  0
LINE
  5
132D
330
1D
100
AcDbEntity
  8
0
100
AcDbLine
 10
56.1095
 20
247.01565
 30
0.0
 11
52.9282
 21
247.45865
 31
0.0
  0
LINE
  5
132E
330
1D
100
AcDbEntity
  8
0
100
AcDbLine
 10
56.1092
 20
247.01565
 30
0.0
 11
52.9274
 21
247.45865
 31
0.0
  0
LINE
  5
132F
330
1D
100
AcDbEntity
  8
0
100
AcDbLine
 10
57.452
 20
249.07665
 30
0.0
 11
55.0455
 21
249.51765
 31
0.0
  0
LINE
  5
1330
330
1D
100
AcDbEntity
  8
0
100
AcDbLine
 10
59.0703
 20
248.66865
 30
0.0
 11
57.452
 21
249.07665
 31
0.0
  0
LINE
  5
1331
330
1D
100
AcDbEntity
  8
0
100
AcDbLine
 10
46.938
 20
177.72265
 30
0.0
 11
48.921060222639
 21
178.029403706968
 31
0.0
  0
LINE
  5
1332
330
1D
100
AcDbEntity
  8
0
100
AcDbLine
 10
48.921060222639
 20
178.029403706968
 30
0.0
 11
50.460918119073
 21
178.029403706968
 31
0.0
  0
LINE
  5
1333
330
1D
100
AcDbEntity
  8
0
100
AcDbLine
 10
50.460918119073
 20
178.029403706968
 30
0.0
 11
52.385740489616
 21
177.64443923286
 31
0.0
  0
LINE
  5
1334
330
1D
100
AcDbEntity
  8
0
100
AcDbLine
 10
52.385740489616
 20
177.64443923286
 30
0.0
 11
55.360448365177
 21
176.839984391422
 31
0.0
  0
LINE
  5
1335
330
1D
100
AcDbEntity
  8
0
100
AcDbLine
 10
55.360448365177
 20
176.839984391422
 30
0.0
 11
57.349103913621
 21
176.021126224415
 31
0.0
  0
LINE
  5
1336
330
1D
100
AcDbEntity
  8
0
100
AcDbLine
 10
57.349103913621
 20
176.021126224415
 30
0.0
 11
58.458
 21
175.41865
 31
0.0
  0
LINE
  5
1337
330
1D
100
AcDbEntity
  8
0
100
AcDbLine
 10
48.2633
 20
183.69265
 30
0.0
 11
49.971635072432
 21
183.856186900671
 31
0.0
  0
LINE
  5
1338
330
1D
100
AcDbEntity
  8
0
100
AcDbLine
 10
49.971635072432
 20
183.856186900671
 30
0.0
 11
51.7367
 21
183.69265
 31
0.0
  0
LINE
  5
1339
330
1D
100
AcDbEntity
  8
0
100
AcDbLine
 10
47.481
 20
196.10465
 30
0.0
 11
50.049749273005
 21
196.298060903033
 31
0.0
  0
LINE
  5
133A
330
1D
100
AcDbEntity
  8
0
100
AcDbLine
 10
50.049749273005
 20
196.298060903033
 30
0.0
 11
52.519
 21
196.10465
 31
0.0
  0
LINE
  5
133B
330
1D
100
AcDbEntity
  8
0
100
AcDbLine
 10
47.7062
 20
230.49165
 30
0.0
 11
50.106188258384
 21
230.734801774585
 31
0.0
  0
LINE
  5
133C
330
1D
100
AcDbEntity
  8
0
100
AcDbLine
 10
50.106188258384
 20
230.734801774585
 30
0.0
 11
52.2938
 21
230.49165
 31
0.0
  0
LINE
  5
133D
330
1D
100
AcDbEntity
  8
0
100
AcDbLine
 10
47.0412
 20
242.99865
 30
0.0
 11
50.226996496178
 21
243.277295742755
 31
0.0
  0
LINE
  5
133E
330
1D
100
AcDbEntity
  8
0
100
AcDbLine
 10
50.226996496178
 20
243.277295742755
 30
0.0
 11
52.9588
 21
242.99865
 31
0.0
  0
LINE
  5
133F
330
1D
100
AcDbEntity
  8
0
100
AcDbLine
 10
47.0726
 20
247.45865
 30
0.0
 11
50.041450571759
 21
247.668020017464
 31
0.0
  0
LINE
  5
1340
330
1D
100
AcDbEntity
  8
0
100
AcDbLine
 10
50.041450571759
 20
247.668020017464
 30
0.0
 11
52.9282
 21
247.45865
 31
0.0
  0
LINE
  5
1341
330
1D
100
AcDbEntity
  8
0
100
AcDbLine
 10
44.9545
 20
249.51765
 30
0.0
 11
49.567768244975
 21
249.781010121667
 31
0.0
  0
LINE
  5
1342
330
1D
100
AcDbEntity
  8
0
100
AcDbLine
 10
49.567768244975
 20
249.781010121667
 30
0.0
 11
55.0455
 21
249.51765
 31
0.0
  0
LINE
  5
1343
330
1D
100
AcDbEntity
  8
0
100
AcDbLine
 10
65.018
 20
175.70065
 30
0.0
 11
64.1953
 21
177.14265
 31
0.0
  0
LINE
  5
1344
330
1D
100
AcDbEntity
  8
0
100
AcDbLine
 10
357.837
 20
28.41575
 30
0.0
 11
359.288174124793
 21
20.754749534634
 31
0.0
  0
LINE
  5
1345
330
1D
100
AcDbEntity
  8
0
100
AcDbLine
 10
359.288174124793
 20
20.754749534634
 30
0.0
 11
360.245152584209
 21
18.33779255437
 31
0.0
  0
LINE
  5
1346
330
1D
100
AcDbEntity
  8
0
100
AcDbLine
 10
360.245152584209
 20
18.33779255437
 30
0.0
 11
361.2178046367
 21
16.642598977172
 31
0.0
  0
LINE
  5
1347
330
1D
100
AcDbEntity
  8
0
100
AcDbLine
 10
361.2178046367
 20
16.642598977172
 30
0.0
 11
362.162666630548
 21
15.392046338255
 31
0.0
  0
LINE
  5
1348
330
1D
100
AcDbEntity
  8
0
100
AcDbLine
 10
362.162666630548
 20
15.392046338255
 30
0.0
 11
363.385429210822
 21
14.197073816623
 31
0.0
  0
LINE
  5
1349
330
1D
100
AcDbEntity
  8
0
100
AcDbLine
 10
363.385429210822
 20
14.197073816623
 30
0.0
 11
364.215
 21
13.57535
 31
0.0
  0
LINE
  5
134A
330
1D
100
AcDbEntity
  8
0
100
AcDbLine
 10
394.366
 20
22.64375
 30
0.0
 11
394.407
 21
40.22475
 31
0.0
  0
LINE
  5
134B
330
1D
100
AcDbEntity
  8
0
100
AcDbLine
 10
352.792895922551
 20
71.710353824067
 30
0.0
 11
350.478
 21
91.55585
 31
0.0
  0
LINE
  5
134C
330
1D
100
AcDbEntity
  8
0
100
AcDbLine
 10
402.628920214956
 20
188.104809570063
 30
0.0
 11
405.92048562764
 21
191.693772826463
 31
0.0
  0
LINE
  5
134D
330
1D
100
AcDbEntity
  8
0
100
AcDbLine
 10
405.92048562764
 20
191.693772826463
 30
0.0
 11
408.509626615491
 21
195.269253238257
 31
0.0
  0
LINE
  5
134E
330
1D
100
AcDbEntity
  8
0
100
AcDbLine
 10
408.509626615491
 20
195.269253238257
 30
0.0
 11
410.913828961353
 21
199.92354239499
 31
0.0
  0
LINE
  5
134F
330
1D
100
AcDbEntity
  8
0
100
AcDbLine
 10
410.913828961353
 20
199.92354239499
 30
0.0
 11
413.294233308477
 21
206.208424779995
 31
0.0
  0
LINE
  5
1350
330
1D
100
AcDbEntity
  8
0
100
AcDbLine
 10
413.294233308477
 20
206.208424779995
 30
0.0
 11
414.568494441422
 21
210.855730088384
 31
0.0
  0
LINE
  5
1351
330
1D
100
AcDbEntity
  8
0
100
AcDbLine
 10
414.568494441422
 20
210.855730088384
 30
0.0
 11
414.943277127582
 21
213.679092990792
 31
0.0
  0
LINE
  5
1352
330
1D
100
AcDbEntity
  8
0
100
AcDbLine
 10
414.943277127582
 20
213.679092990792
 30
0.0
 11
414.99
 21
215.58365
 31
0.0
  0
LINE
  5
1353
330
1D
100
AcDbEntity
  8
0
100
AcDbLine
 10
401.283
 20
198.66665
 30
0.0
 11
403.685563821654
 21
199.306195350155
 31
0.0
  0
LINE
  5
1354
330
1D
100
AcDbEntity
  8
0
100
AcDbLine
 10
403.685563821654
 20
199.306195350155
 30
0.0
 11
404.846104686114
 21
199.720410396822
 31
0.0
  0
LINE
  5
1355
330
1D
100
AcDbEntity
  8
0
100
AcDbLine
 10
362.338
 20
218.05565
 30
0.0
 11
368.315
 21
222.882688056749
 31
0.0
  0
LINE
  5
1356
330
1D
100
AcDbEntity
  8
0
100
AcDbLine
 10
368.315
 20
222.882688056749
 30
0.0
 11
372.579
 21
225.96665
 31
0.0
  0
LINE
  5
1357
330
1D
100
AcDbEntity
  8
0
100
AcDbLine
 10
376.677
 20
227.23665
 30
0.0
 11
377.976030675639
 21
229.701342427051
 31
0.0
  0
LINE
  5
1358
330
1D
100
AcDbEntity
  8
0
100
AcDbLine
 10
377.976030675639
 20
229.701342427051
 30
0.0
 11
378.463060143808
 21
230.713431136151
 31
0.0
  0
LINE
  5
1359
330
1D
100
AcDbEntity
  8
0
100
AcDbLine
 10
377.263345365555
 20
238.557144624831
 30
0.0
 11
377.503
 21
236.44165
 31
0.0
  0
LINE
  5
135A
330
1D
100
AcDbEntity
  8
0
100
AcDbLine
 10
406.994
 20
237.03665
 30
0.0
 11
405.819963868225
 21
238.328613868226
 31
0.0
  0
LINE
  5
135B
330
1D
100
AcDbEntity
  8
0
100
AcDbLine
 10
408.13485585587
 20
235.511505855837
 30
0.0
 11
406.994
 21
237.03665
 31
0.0
  0
ENDSEC
  0
SECTION
  2
OBJECTS
  0
DICTIONARY
  5
C
330
0
100
AcDbDictionary
281
     1
  3
ACAD_GROUP
350
D
  3
ACAD_LAYOUT
350
1A
  3
ACAD_MLEADERSTYLE
350
135E
  3
ACAD_MLINESTYLE
350
17
  3
ACAD_PLOTSETTINGS
350
19
  3
ACAD_PLOTSTYLENAME
350
E
  3
ACAD_SCALELIST
350
C6C
  3
AcDbVariableDictionary
350
135C
  3
DWGPROPS
350
1363
  0
DICTIONARY
  5
D
102
{ACAD_REACTORS
330
C
102
}
330
C
100
AcDbDictionary
281
     1
  0
DICTIONARY
  5
1A
102
{ACAD_REACTORS
330
C
102
}
330
C
100
AcDbDictionary
281
     1
  3
Layout1
350
1C
  3
Model
350
1E
  0
DICTIONARY
  5
135E
102
{ACAD_REACTORS
330
C
102
}
330
C
100
AcDbDictionary
281
     1
  0
DICTIONARY
  5
17
102
{ACAD_REACTORS
330
C
102
}
330
C
100
AcDbDictionary
281
     1
  3
Standard
350
18
  0
DICTIONARY
  5
19
102
{ACAD_REACTORS
330
C
102
}
330
C
100
AcDbDictionary
281
     1
  0
ACDBDICTIONARYWDFLT
  5
E
102
{ACAD_REACTORS
330
C
102
}
330
C
100
AcDbDictionary
281
     1
  3
Normal
350
F
100
AcDbDictionaryWithDefault
340
F
  0
DICTIONARY
  5
C6C
102
{ACAD_REACTORS
330
C
102
}
330
C
100
AcDbDictionary
281
     1
  3
A0
350
C6D
  3
A1
350
C6E
  3
A2
350
C6F
  3
A3
350
C70
  3
A4
350
C71
  3
A5
350
C72
  3
A6
350
C73
  3
A7
350
C74
  3
A8
350
C75
  3
A9
350
C76
  3
B0
350
C77
  3
B1
350
C78
  3
B2
350
C79
  3
B3
350
C7A
  3
B4
350
C7B
  3
B5
350
C7C
  3
B6
350
C7D
  3
B7
350
C7E
  3
B8
350
C7F
  3
B9
350
C80
  3
C0
350
C81
  3
C1
350
C82
  3
C2
350
C83
  3
C3
350
C84
  3
C4
350
C85
  3
C5
350
C86
  3
C6
350
C87
  3
C7
350
C88
  3
C8
350
C89
  3
C9
350
C8A
  3
D0
350
C8B
  3
D1
350
C8C
  3
D2
350
C8D
  0
DICTIONARY
  5
135C
102
{ACAD_REACTORS
330
C
102
}
330
C
100
AcDbDictionary
281
     1
  3
CANNOSCALE
350
135F
  0
XRECORD
  5
1363
102
{ACAD_REACTORS
330
C
102
}
330
C
100
AcDbXrecord
280
     1
  1
DWGPROPS COOKIE
  2

  3

  4

  6

  7

  8
MARTIN
  9

300
=
301
=
302
=
303
=
304
=
305
=
306
=
307
=
308
=
309
=
 40
0.0
 41
2456184.817648183
 42
2456184.831082072
  1

 90
        0
  0
LAYOUT
  5
1C
102
{ACAD_REACTORS
330
1A
102
}
330
1A
100
AcDbPlotSettings
  1

  2
none_device
  4

  6

 40
0.0
 41
0.0
 42
0.0
 43
0.0
 44
0.0
 45
0.0
 46
0.0
 47
0.0
 48
0.0
 49
0.0
140
0.0
141
0.0
142
1.0
143
1.0
 70
   688
 72
     0
 73
     0
 74
     5
  7

 75
    16
147
1.0
148
0.0
149
0.0
100
AcDbLayout
  1
Layout1
 70
     1
 71
     1
 10
0.0
 20
0.0
 11
12.0
 21
9.0
 12
0.0
 22
0.0
 32
0.0
 14
1.000000000000E+20
 24
1.000000000000E+20
 34
1.000000000000E+20
 15
-1.000000000000E+20
 25
-1.000000000000E+20
 35
-1.000000000000E+20
146
0.0
 13
0.0
 23
0.0
 33
0.0
 16
1.0
 26
0.0
 36
0.0
 17
0.0
 27
1.0
 37
0.0
 76
     0
330
1B
  0
LAYOUT
  5
1E
102
{ACAD_REACTORS
330
1A
102
}
330
1A
100
AcDbPlotSettings
  1

  2
none_device
  4

  6

 40
0.0
 41
0.0
 42
0.0
 43
0.0
 44
0.0
 45
0.0
 46
0.0
 47
0.0
 48
0.0
 49
0.0
140
0.0
141
0.0
142
1.0
143
1.0
 70
  1712
 72
     0
 73
     0
 74
     0
  7

 75
     0
147
1.0
148
0.0
149
0.0
100
AcDbLayout
  1
Model
 70
     1
 71
     0
 10
0.0
 20
0.0
 11
12.0
 21
9.0
 12
0.0
 22
0.0
 32
0.0
 14
0.01
 24
0.24235
 34
0.0
 15
414.99
 25
254.75765
 35
0.0
146
0.0
 13
0.0
 23
0.0
 33
0.0
 16
1.0
 26
0.0
 36
0.0
 17
0.0
 27
1.0
 37
0.0
 76
     0
330
1D
331
C67
  0
MLINESTYLE
  5
18
102
{ACAD_REACTORS
330
17
102
}
330
17
100
AcDbMlineStyle
  2
Standard
 70
     0
  3

 62
   256
 51
90.0
 52
90.0
 71
     2
 49
0.5
 62
   256
  6
BYLAYER
 49
-0.5
 62
   256
  6
BYLAYER
  0
ACDBPLACEHOLDER
  5
F
102
{ACAD_REACTORS
330
E
102
}
330
E
  0
SCALE
  5
C6D
102
{ACAD_REACTORS
330
C6C
102
}
330
C6C
100
AcDbScale
 70
     0
300
1:1
140
1.0
141
1.0
290
     1
  0
SCALE
  5
C6E
102
{ACAD_REACTORS
330
C6C
102
}
330
C6C
100
AcDbScale
 70
     0
300
1:2
140
1.0
141
2.0
290
     0
  0
SCALE
  5
C6F
102
{ACAD_REACTORS
330
C6C
102
}
330
C6C
100
AcDbScale
 70
     0
300
1:4
140
1.0
141
4.0
290
     0
  0
SCALE
  5
C70
102
{ACAD_REACTORS
330
C6C
102
}
330
C6C
100
AcDbScale
 70
     0
300
1:5
140
1.0
141
5.0
290
     0
  0
SCALE
  5
C71
102
{ACAD_REACTORS
330
C6C
102
}
330
C6C
100
AcDbScale
 70
     0
300
1:8
140
1.0
141
8.0
290
     0
  0
SCALE
  5
C72
102
{ACAD_REACTORS
330
C6C
102
}
330
C6C
100
AcDbScale
 70
     0
300
1:10
140
1.0
141
10.0
290
     0
  0
SCALE
  5
C73
102
{ACAD_REACTORS
330
C6C
102
}
330
C6C
100
AcDbScale
 70
     0
300
1:16
140
1.0
141
16.0
290
     0
  0
SCALE
  5
C74
102
{ACAD_REACTORS
330
C6C
102
}
330
C6C
100
AcDbScale
 70
     0
300
1:20
140
1.0
141
20.0
290
     0
  0
SCALE
  5
C75
102
{ACAD_REACTORS
330
C6C
102
}
330
C6C
100
AcDbScale
 70
     0
300
1:30
140
1.0
141
30.0
290
     0
  0
SCALE
  5
C76
102
{ACAD_REACTORS
330
C6C
102
}
330
C6C
100
AcDbScale
 70
     0
300
1:40
140
1.0
141
40.0
290
     0
  0
SCALE
  5
C77
102
{ACAD_REACTORS
330
C6C
102
}
330
C6C
100
AcDbScale
 70
     0
300
1:50
140
1.0
141
50.0
290
     0
  0
SCALE
  5
C78
102
{ACAD_REACTORS
330
C6C
102
}
330
C6C
100
AcDbScale
 70
     0
300
1:100
140
1.0
141
100.0
290
     0
  0
SCALE
  5
C79
102
{ACAD_REACTORS
330
C6C
102
}
330
C6C
100
AcDbScale
 70
     0
300
2:1
140
2.0
141
1.0
290
     0
  0
SCALE
  5
C7A
102
{ACAD_REACTORS
330
C6C
102
}
330
C6C
100
AcDbScale
 70
     0
300
4:1
140
4.0
141
1.0
290
     0
  0
SCALE
  5
C7B
102
{ACAD_REACTORS
330
C6C
102
}
330
C6C
100
AcDbScale
 70
     0
300
8:1
140
8.0
141
1.0
290
     0
  0
SCALE
  5
C7C
102
{ACAD_REACTORS
330
C6C
102
}
330
C6C
100
AcDbScale
 70
     0
300
10:1
140
10.0
141
1.0
290
     0
  0
SCALE
  5
C7D
102
{ACAD_REACTORS
330
C6C
102
}
330
C6C
100
AcDbScale
 70
     0
300
100:1
140
100.0
141
1.0
290
     0
  0
SCALE
  5
C7E
102
{ACAD_REACTORS
330
C6C
102
}
330
C6C
100
AcDbScale
 70
     0
300
1/128" = 1'-0"
140
0.0078125
141
12.0
290
     0
  0
SCALE
  5
C7F
102
{ACAD_REACTORS
330
C6C
102
}
330
C6C
100
AcDbScale
 70
     0
300
1/64" = 1'-0"
140
0.015625
141
12.0
290
     0
  0
SCALE
  5
C80
102
{ACAD_REACTORS
330
C6C
102
}
330
C6C
100
AcDbScale
 70
     0
300
1/32" = 1'-0"
140
0.03125
141
12.0
290
     0
  0
SCALE
  5
C81
102
{ACAD_REACTORS
330
C6C
102
}
330
C6C
100
AcDbScale
 70
     0
300
1/16" = 1'-0"
140
0.0625
141
12.0
290
     0
  0
SCALE
  5
C82
102
{ACAD_REACTORS
330
C6C
102
}
330
C6C
100
AcDbScale
 70
     0
300
3/32" = 1'-0"
140
0.09375
141
12.0
290
     0
  0
SCALE
  5
C83
102
{ACAD_REACTORS
330
C6C
102
}
330
C6C
100
AcDbScale
 70
     0
300
1/8" = 1'-0"
140
0.125
141
12.0
290
     0
  0
SCALE
  5
C84
102
{ACAD_REACTORS
330
C6C
102
}
330
C6C
100
AcDbScale
 70
     0
300
3/16" = 1'-0"
140
0.1875
141
12.0
290
     0
  0
SCALE
  5
C85
102
{ACAD_REACTORS
330
C6C
102
}
330
C6C
100
AcDbScale
 70
     0
300
1/4" = 1'-0"
140
0.25
141
12.0
290
     0
  0
SCALE
  5
C86
102
{ACAD_REACTORS
330
C6C
102
}
330
C6C
100
AcDbScale
 70
     0
300
3/8" = 1'-0"
140
0.375
141
12.0
290
     0
  0
SCALE
  5
C87
102
{ACAD_REACTORS
330
C6C
102
}
330
C6C
100
AcDbScale
 70
     0
300
1/2" = 1'-0"
140
0.5
141
12.0
290
     0
  0
SCALE
  5
C88
102
{ACAD_REACTORS
330
C6C
102
}
330
C6C
100
AcDbScale
 70
     0
300
3/4" = 1'-0"
140
0.75
141
12.0
290
     0
  0
SCALE
  5
C89
102
{ACAD_REACTORS
330
C6C
102
}
330
C6C
100
AcDbScale
 70
     0
300
1" = 1'-0"
140
1.0
141
12.0
290
     0
  0
SCALE
  5
C8A
102
{ACAD_REACTORS
330
C6C
102
}
330
C6C
100
AcDbScale
 70
     0
300
1-1/2" = 1'-0"
140
1.5
141
12.0
290
     0
  0
SCALE
  5
C8B
102
{ACAD_REACTORS
330
C6C
102
}
330
C6C
100
AcDbScale
 70
     0
300
3" = 1'-0"
140
3.0
141
12.0
290
     0
  0
SCALE
  5
C8C
102
{ACAD_REACTORS
330
C6C
102
}
330
C6C
100
AcDbScale
 70
     0
300
6" = 1'-0"
140
6.0
141
12.0
290
     0
  0
SCALE
  5
C8D
102
{ACAD_REACTORS
330
C6C
102
}
330
C6C
100
AcDbScale
 70
     0
300
1'-0" = 1'-0"
140
12.0
141
12.0
290
     0
  0
DICTIONARYVAR
  5
135F
102
{ACAD_REACTORS
330
135C
102
}
330
135C
100
DictionaryVariables
280
     0
  1
1:1
  0
ENDSEC
  0
SECTION
  2
THUMBNAILIMAGE
 90
    16364
310
28000000B40000005500000001000800000000000000000000000000000000000000000000000000FFFFFF000000FF0000FFFF0000FF0000FFFF0000FF000000FF00FF000000000080808000C0C0C0000000FF007F7FFF000000A5005252A50000007F003F3F7F0000004C0026264C000000260013132600003FFF007F9FFF
310
000029A5005267A500001F7F003F4F7F0000134C00262F4C000009260013172600007FFF007FBFFF000052A500527CA500003F7F003F5F7F0000264C0026394C0000132600131C260000BFFF007FDFFF00007CA5005291A500005F7F003F6F7F0000394C0026424C00001C26001321260000FFFF007FFFFF0000A5A50052A5
310
A500007F7F003F7F7F00004C4C00264C4C00002626001326260000FFBF007FFFDF0000A57C0052A59100007F5F003F7F6F00004C3900264C420000261C001326210000FF7F007FFFBF0000A5520052A57C00007F3F003F7F5F00004C2600264C39000026130013261C0000FF3F007FFF9F0000A5290052A56700007F1F003F
310
7F4F00004C1300264C2F00002609001326170000FF00007FFF7F0000A5000052A55200007F00003F7F3F00004C0000264C260000260000132613003FFF00009FFF7F0029A5000067A552001F7F00004F7F3F00134C00002F4C260009260000172613007FFF0000BFFF7F0052A500007CA552003F7F00005F7F3F00264C0000
310
394C2600132600001C261300BFFF0000DFFF7F007CA5000091A552005F7F00006F7F3F00394C0000424C26001C26000021261300FFFF0000FFFF7F00A5A50000A5A552007F7F00007F7F3F004C4C00004C4C26002626000026261300FFBF0000FFDF7F00A57C0000A59152007F5F00007F6F3F004C3900004C422600261C00
310
0026211300FF7F0000FFBF7F00A5520000A57C52007F3F00007F5F3F004C2600004C39260026130000261C1300FF3F0000FF9F7F00A5290000A56752007F1F00007F4F3F004C1300004C2F26002609000026171300FF000000FF7F7F00A5000000A55252007F0000007F3F3F004C0000004C2626002600000026131300FF00
310
3F00FF7F9F00A5002900A55267007F001F007F3F4F004C0013004C262F002600090026131700FF007F00FF7FBF00A5005200A5527C007F003F007F3F5F004C0026004C2639002600130026131C00FF00BF00FF7FDF00A5007C00A55291007F005F007F3F6F004C0039004C26420026001C0026132100FF00FF00FF7FFF00A5
310
00A500A552A5007F007F007F3F7F004C004C004C264C002600260026132600BF00FF00DF7FFF007C00A5009152A5005F007F006F3F7F0039004C0042264C001C002600211326007F00FF00BF7FFF005200A5007C52A5003F007F005F3F7F0026004C0039264C00130026001C1326003F00FF009F7FFF002900A5006752A500
310
1F007F004F3F7F0013004C002F264C000900260017132600000000002D2D2D005B5B5B0089898900B7B7B700B3B3B30000000000000000000000000000000000000000000000000000000000000000000000070707070707070707070000000000000000000000000000000000000000000000000000000000000000000000
310
00000000000000000000000000000000000000000000000000000000000000000000000000000000000000000000000000000000000000000000000000000000000000000000000000000000000000000000000000000000000000000000000000000000000000000000000000000000000000000000000000000000000000
310
00000000000007070000000000000000000007070000000000000000000000000000000000000000000000000000000000000000000000000000000000000000000000000000000000000000000000000000000000000000000000000000000000000000000000000000000000000000000000000000000000000000000000
310
00000000000000000000000000000000000000000000000000000000000000000000000000000000000000000000000000000000000000000007070000000000000000000000000000070700000000000000000000000000000000000000000000000000000000000000000000000000000000000000000000000000000000
310
00000000000000000000000000000000000000000000000000000000000000000000000000000000000000000000000000000000000000000000000000000000000000000000000000000000000000000000000000000000000000000000000000000000000000000000000000070000000007070707070707070707000000
310
00070000000000000000000000000000000000000000000000000000000000000000000000000000000000000000000000000000000000000000000000000000000000000000000000000000000000000000000000000000000000000000000000070707070000000000000000000000000000000000000000000000000000
310
00000000000000000000000000000000000000000000000000000000000000000007070000000707070700000000000007070707000000070700000000000000000000000000000000000000000000000000000000000000000000000000000000000000000000000000000000000000000000000000000000000000000000
310
00000000000000000000000000000000000000000707070000000007070000000000000000000000000000000000000000000000000000000000000000000000000000000000000000000000000000000000000000070000000707000000000000000000000000000007070000070000000000000000000000000000000000
310
00000000000000000000000000000000000000000000000000000000000000000000000000000000000000000000000000000000000000000000000000000000000000000000000007070000000000000000070700000000000000000000000000000000000000000000000000000000000000000000000000000000000000
310
00000000000000000000000700000700000000000000000000000000000000000007000007000000000000000000000000000000000000000000000000000000000000000000000000000000000000000000000000000000000000000000000000000000000000000000000000000000000000000000000000000000000700
310
00000000000000000007000000000000000000000000000000000000000000000000000000000000000000000000000000000000000000000000000000000707000707000000000000000000000000000000000000000007070007070000000000000000000000000000000000000000000000000000000000000000000000
310
00000000000000000000000000000000000000000000000000000000000000000000000000000000000000000000000000000007000000000000000000000700000000000000000000000000000000000000000000000000000000000000000000000000000000000000000000000000000007000007000000000000000000
310
00000000000000000000000000000700000700000000000000000000000000000000000000000000000000000000000000000000000000000000000000000000000000000000000000000000000000000000000000000000000000000000000000000000000000070000000000000000000000070000000000000000000000
310
00000000000000000000000000000000000000000000000000000000000000000000000000000000070000070000000000000000000000000000000000000000000000000700000700000000000000000000000000000000000000000000000000000000000000000000000000000000000000000000000000000000000000
310
00000000000000000000000000000000000000000000000000000000000700000000000000000000000700000000000000000000000000000000000000000000000000000000000000000000000000000000000000000000000000000007070700000000000000000000000000000000000000000000000000070707070000
310
00000000000000000000000000000000000000000000000000000000000000000000000000000000000000000000000000000000000000000000000000000000000000000000000000000000000000000000070000000000000000000000070000000000000000000000000000000000000000000000000000000000000000
310
00000000000000000000000000000000000000070007000000000000000000000000000000000000000000000000000007070700000000000000000000000000000000000000000000000000000000000000000000000000000000000000000000000000000000000000000000000000000000000000000000000000000000
310
00000000000000000700000000000000000000000700000000000000000000000000000000000000000000000000000000000000000000000000000000000000000000000000000707070000000000000000000000000000000000000000000000000000000007070000000000000000000000000000000000000000000000
310
00000000000000000000000000000000000000000000000000000000000000000000000000000000000000000000000000000000000000000000000000070000000000000000000000070000000000000000000000000000000000000000000000000000000000000000000000000000000000000000000000000000070700
310
00000000000000000000000000000000000000000000000000000000070707000000000000000000000000000000000000000000000000000000000000000000000000000000000000000000000000000000000000000000000000000000000000000000000000000000000000000000000007000000000000000000000000
310
00000000000000000000000000000000000000000000000000000000000000000000000000000000000000000000000000000707000000000000000000000000000000000000000000000000000000000000070700000000000000000000000000000000000000000000000000000000000000000000000000000000000000
310
00000000000000000000000000000000000000000000000000000000000000000000000000000000070000000000000000000000070000000000000000000000000000000000000000000000000000000000000000000000000000000000000000000000000000070700000000000000000000000000000000000000000000
310
00000000000000000707000000000000000000000000000000000000000000000000000000000000000000000000000000000000000000000000000000000000000000000000000000000000000000000000000000000000000000000007000000000000000000000007000000000000000000000000000000000000000000
310
00000000000000000000000000000000000000000000000000000000000707000000000000000000000000000000000000000000000000000000000000070700000000000000000000000000000000000000000000000000000000000000000000000000000000000000000000000000000000000000000000000000000000
310
00000000000000000000000000000000000000070000000000000000000000070000000000000000000000000000000000000000000000000000000000000000000000000000000000000000000000000000070000000000000000000000000000000000000000000000000000000000000007070000000000000000000000
310
00000000000000000000000000000000000000000000000000000000000000000000000000000000000000000000000000000000000000000000000000000000000000000000000007000000000000000000000007000000000000000000000000000000000000000000000000000000000000000000000000000000000000
310
00000000000000000700000000000000000000000000000000000000000000000000000000000000000700000000000000000000000000000000000000000000000000000000000000000000000000000000000000000000000000000000000000000000000000000000000000000000000000000000000000000000070000
310
00000000000000000000070000000000000000000000000000000000000000000000000000000000000000000000000000000000000000000000000000070000000000000000000000000000000000000000000000000000000000000007070000000000000000000000000000000000000000000000000000000000000000
310
00000000000000000000000000000000000000000000000000000000000000000000000000000000000000000000000000000700000000000000000000000007000000000000000000000000000000000000000000000000000000000000000000000000000000000000000000000000000007070000000000000000000000
310
00000000000000000000000000000000000000070700000000000000000000000000000000000000000000000000000000000000000000000000000000000000000000000000000000000000000000000000000000000000000000000000000000000000000000070000000000000000000000000700000000000000000000
310
00000000000000000000000000000000000000000000000000000000000000000000000000000000000700000000000000000000000000000000000000000000000000000000000007000000000000000000000000000000000000000000000000000000000000000000000000000000000000000000000000000000000000
310
00000000000000000000000000000000000000000000000000000000000700000000000000000000000007000000000000000000000000000000000000000000000000000000000000000000000000000000000000000000000000000000070000000000000000000000000000000000000000000000000000000000070700
310
00000000000000000000000000000000000000000000000000000000000000000000000000000000000000000000000000000000000000000000000000000000000000000000000000000000000000000000070000000000000000000000000700000000000000000000000000000000000000000000000000000000000000
310
00000000000000000000000000000000000000000707000000000000000000000000000000000000000000000000000000000707000000000000000000000000000000000000000000000000000000000000000000000000000000000000000000000000000000000000000000000000000000000000000000000000000000
310
00000000000000000700000000000000000000000007000000000000000000000000000000000000000000000000000000000000000000000000000000000000000000000000000000070700000000000000000000000000000000000000000000000000000007070000000000000000000000000000000000000000000000
310
00000000000000000000000000000000000000000000000000000000000000000000000000000000000000000000000000000000000000000000000000070000000000000000000000000700000000000000000000000000000000000000000000000000000000000000000000000000000000000000000000000000000000
310
07070000000000000000000000000000000000000000000000000000070700000000000000000000000000000000000000000000000000000000000000000000000000000000000000000000000000000000000000000000000000000000000000000000000000000000000000000000000007000000000000000000000000
310
07000000000000000000000000000000000000000000000000000000000000000000000000000000000000000000000000000000000007000000000000000000000000000000000000000000000000000707000000000000000000000000000000000000000000000000000000000000000000000000000000000000000000
310
00000000000000000000000000000000000000000000000000000000000000000000000000000000070000000000000000000000000700000000000000000000000000000000000000000000000000000000000000000000000000000000000000000000000000000000000007000000000000000000000000000000000000
310
00000000000007000000000000000000000000000000000000000000000000000000000000000000000000000000000000000000000000000000000000000000000000000000000000000000000000000000000000000000000000000700000000000000000000000000070000000000000000000000000000000000000000
310
00000000000000000000000000000000000000000000000000000000000000000000000700000000000000000000000000000000000000000000070000000000000000000000000000000000000000000000000000000000000000000000000000000000000000000000000000000000000000000000000000000000000000
310
00000000000000000000000000000000000007000000000000000000000000000700000000000000000000000000000000000000000000000000000000000000000000000000000000000000000000000000000000000000000707000000000000000000000000000000000000070700000000000000000000000000000000
310
00000000000000000000000000000000000000000000000000000000000000000000000000000000000000000000000000000000000000000000000000000000000000000000000700000000000000000000000000070000000000000000000000000000000000000000000000000000000000000000000000000000000000
310
00000000000000000000000000000000000700000000000000000000000000000000070000000000000000000000000000000000000000000000000000000000000000000000000000000000000000000000000000000000000000000000000000000000000000000000000000000000000000000000000000000000000000
310
00000000000000000000000700000000000000000000000000000000000000000000000000000000000000000000000000000000000000000000000000000000000000000000000707000000000000000000000000070700000000000000000000000000000000000000000000000000000000000000000000000000000000
310
00000000000000000000000000000000000000000000000000000000000000000000000000000000000000000000000000000700000000000000000000000000070000000000000000000000000000000000000000000000000000000000000000000000000000000000000000000000000000000000000000000000000007
310
07070707070707070707070000000000000000000000000000000000000000000000000000000000000000000000000000000000000000000000000000000000000000000000000000000000000000000000000000000000000000000000000000000000000000070000000000000000000000000007000000000000000000
310
00000000000000000000000000000000000000000000000000000000000000000000000000000000000000000000000000000000000000070000000007000000000000000000000000000000000000000000000000000000000000000000000000000000000000000000000000000000000000000000000000000000000000
310
00000000000000000000000000000000000000000000000000000000000700000000000000000000000000070000000000000000000000000000000000000000000000000000000000000000000000000000000000000000000000000000000000000000000000000000000707000000000707000000000000000000000000
310
00000000000000000000000000000000000000000000000000000000000000000000000000000000000000000000000000000000000000000000000000000000000000000000000000000000000000000007000000000000000000000000000007000000000000000000000000000000000000000000000000000000000000
310
00000000000000000000000000000000000000000000000000000000000000000007070000000007070000000000000000000000000000000000000000000000000000000000000000000000000000000000000000000000000000000000000000000000000000000000000000000000000000000000000000000000000000
310
00000000000000070000000000000000000000000000070000000000000000000000000000000000000000000000000000000000000000000000000000000000000000000000000000000000000000000000000000000707070000070707000000000000000000000000000000000000000000000000000000000000000000
310
00000000000000000000000000000000000000000000000000000000000000000000000000000000000000000000000000000000000000000000000007000000000000000000000000000007000000000000000000000000000000000000000000000000000000000000000000000000000000000000000000000000000000
310
00000000000000000000000007070707070707070000000000000000000000000000000000000000000000000000000000000000000000000000000000000000000000000000000000000000000000000000000000000000000000000000000000000000000000000000000000000000000700000000000000000000000000
310
00070000000000000000000000000000000000000000000000000000000000000000000000000000000000000000000000000000000000000000000000000000000700000000000007000000000000000000000000000000000000000000000000000000000000000000000000000000000000000000000000000000000000
310
00000000000000000000000000000000000000000000000000000000000000000000000000000007000000000000000000000000000007000000000000000000000000000000000000000000000000000000000000000000000000000000000000000000000000000000000000000000000000000000070000000000000700
310
00000000000000000000000000000000000000000000000000000000000000000000000000000000000000000000000000000000000000000000000000000000000000000000000000000000000000000000000000000000000000000700000000000000000000000000000700000000000000000000000000000000000000
310
00000000000000000000000000000000000000000000000000000000000000000000000000000000000000000700000000000007000000000000000000000000000000000000000000000000000000000000000000000000000000000000000000000000000000000000000000000000000000000000000000000000000000
310
00000000000000000000000000000000000007000000000000000000000000000007000000000000000000000000000000000000000000000000000000000000000000000000000000000000000000000000000000000000000000000000000000070000000000000700000000000000000000000000000000000000000000
310
00000000000000000000000000000000000000000000000000000000000000000000000000000000000000000000000000000000000000000000000000000000000000000000000700000000000000000000000000000700000000000000000000000000000000000000000000000000000000000000000000000000000000
310
00000000000000000000000000000000000000000000000700000000000007000000000000000000000000000000000000000000000000000000000000000000000000000000000000000000000000000000000000000000000000000000000000000000000000000000000000000000000000000000000000000007000000
310
00000000000000000000000007000000000000000000000000000000000000000000000000000000000000000000000000000000000000000000000000000000000000000000000000000000070000000000000700000000000000000000000000000000000000000000000000000000000000000000000000000000000000
310
00000000000000000000000000000000000000000000000000000000000000000000000000000000000000000000000000070000000000000000000000000000000700000000000000000000000000000000000000000000000000000000000000000000000000000000000000000000000000000000000000000000000000
310
00000700000000000007000000000000000000000000000000000000000000000000000000000000000000000000000000000000000000000000000000000000000000000000000000000000000000000000000000000000000000000000000000000000000007000000000000000000000000000000070000000000000000
310
00000000000000000000000000000000000000000000000000000000000000000000000000000000000000000000000000000000000000070000000000000700000000000000000000000000000000000000000000000000000000000000000000000000000000000000000000000000000000000000000000000000000000
310
00000000000000000000000000000000000000000000000000000000070000000000000000000000000000000700000000000000000000000000000000000000000000000000000000000000000000000000000000000000000000000000000000000000000000000000000007000000000000070000000000000000000000
310
00000000000000000000000000000000000000000000000000000000000000000000000000000000000000000000000000000000000000000000000000000000000000000000000000000000000000000007000000000000000000000000000000070000000000000000000000000000000000000000000000000000000000
310
00000000000000000000000000000000000000000000000000000000000000000000070000000000000700000000000000000000000000000000000000000000000000000000000000000000000000000000000000000000000000000000000000000000000000000000000000000000000000000000000000000000000000
310
00000000000000070000000000000000000000000000000700000000000000000000000000000000000000000000000000000000000000000000000000000000000000000000000000000000000000000000000000000007000000000000070000000000000000000000000000000000000000000000000000000000000000
310
00000000000000000000000000000000000000000000000000000000000000000000000000000000000000000000000000000000000000000000000007000000000000000000000000000000070000000000000000000000000000000000000000000000000000000000000000000000000000000000000000000000000000
310
00000000000000000000000000070000000000000700000000000000000000000000000000000000000000000000000000000000000000000000000000000000000000000000000000000000000000000000000000000000000000000000000000000000000000000000000000000000070000000000000000000000000000
310
00000700000000000000000000000000000000000000000000000000000000000000000000000000000000000000000000000000000000000000000000000000000007000000000000070000000000000000000000000000000000000000000000000000000000000000000000000000000000000000000000000000000000
310
00000000000000000000000000000000000000000000000000000000000000000000000000000700000000000000000000000000000000070000000000000000000000000000000000000000000000000000000000000000000000000000000000000000000000000000000000000000000000000000000700000000000007
310
00000000000000000000000000000000000000000000000000000000000000000000000000000000000000000000000000000000000000000000000000000000000000000000000000000000000000000000000000000000000000070000000000000000000000000000000007000000000000000000000000000000000000
310
00000000000000000000000000000000000000000000000000000000000000000000000000000000000000000007000000000000070000000000000000000000000000000000000000000000000000000000000000000000000000000000000000000000000000000000000000000000000000000000000000000000000000
310
00000000000000000000000000000000000700000000000000000000000000000000070000000000000000000000000000000000000000000000000000000000000000000000000000000000000000000000000000000000000000000000000000070700000000000007070000000000000000000000000000000000000000
310
00000000000000000000000000000000000000000000000000000000000000000000000000000000000000000000000000000000000000000000000000000000000000000000070000000000000000000000000000000007000000000000000000000000000000000000000000000000000000000000000000000000000000
310
00000000000000000000000000000000000000000000000707000000000000070700000000000000000000000000000000000000000000000000000000000000000000000000000000000000000000000000000000000000000000000000000000000000000000000000000000000000000000000000000000000007000000
310
00000000000000000000000000070000000000000000000000000000000000000000000000000000000000000000000000000000000000000000000000000000000000000000000000000007070700000000000007000700000000000000000000000000000000000000000000000000000000000000000000000000000000
310
00000000000000000000000000000000000000000000000000000000000000000000000000000000000000000000000000070000000000000000000000000000000007000000000000000000000000000000000000000000000000000000000000000000000000000000000000000000000000000000000000000000000000
310
00070007000000000000070000000000000000000000000000000000000000000000000000000000000000000000000000000000000000000000000000000000000000000000000000000000000000000000000000000000000000000000000000000000000007000000000000000000000000000000000700000000000000
310
00000000000000000000000000000000000000000000000000000000000000000000000000000000000000000000000000000000000007000707000000000707070700000000000000000000000000000000000000000000000000000000000000000000000000000000000000000000000000000000000000000000000000
310
00000000000000000000000000000000000000000000000000000000070000000000000000000000000000000007000000000000000000000000000000000000000000000000000000000000000000000000000000000000000000000000000000000000000000000000000707000007070707000007070000000000000000
310
00000000000000000000000000000000000000000000000000000000000000000000000000000000000000000000000000000000000000000000000000000000000000000000000000000000000000000007000000000000000000000000000000000007000000000000000000000000000000000000000000000000000000
310
00000000000000000000000000000000000000000000000000000000000000000007070700000000000007000700000000000000000000000000000000000000000000000000000000000707070000000000000000000000000000000000000000000000000000000000000000000707070000000000000000000000000000
310
00000000000000070000000000000000000000000000000000070000000000000000000000000000000000000000000000000000000000000000000000000000000000000000000000000000000000000000000000000700000707070007070000070000000000000000000000000000000000000000000000000007070707
310
07070707070000000000000000000000000000000000000000000000000000000707070707070707070000000000000000000000000000000000000000070000000000000000000707070000000007000000000000000000000000000000000000000000000000000000000000000000000000000000000000000000000000
310
00000000000000000000070707000000000000000000070707070000000000000000000000000000000000000000000007000007000000000700070700000000000000000000000000000000000000000000000007000007000000000700070700000000000000000000000000000000000007000000000000070707000000
310
07070700070707000000000000000000000000000000000000000000000000000000000000000000000000000000000000000000000000000000000000000707070707000000000000000007070707070000000000000000000000000000000000000007070000070000000000000700000707000000000000000000000000
310
00000000000000000707000007000000000000070000070700000000000000000000000000000000070000000000070700000000000000000707070700000000000000000000000000000000000000000000000000000000000000000000000000000000000000000000000000000000000000070707070007000000000000
310
07000707070700000000000000000000000000000000000007000007070000000000000000070700000700000000000000000000000000000000000007000007070000000000000000070700000700000000000000000000000000000007000000000700000000000000000000000700000700000000000000000000000000
310
00000000000000000000000000000000000000000000000000000000000000000000000000000000070707000700000707070007070000070007070700000000000000000000000000000000070000070707000000000000000007070700070000000000000000000000000000000000070000070707000000000000000007
310
07070007000000000000000000000000000000070000000700000000000000000000000000070007070000000000000000000000000000000000000000000000000000000000000000000000000000000000000000000000000000000707000700070000000000000000000007000700070700000000000000000000000000
310
00000700070707000000000000000000000707070007000000000000000000000000000000000700070707000000000000000000000707070007000000000000000000000000000000070007070000000000000000000707070707070007070000000000000000000000000000000000000000000000000000000000000000
310
00000000000000000000000000000000000007070700000700000000000000000000070000070707000000000000000000000000000007000007070000000000000000000000000707000700000000000000000000000000000007000707070000000000000000000000000707000700000000000000000000000000000007
310
07070000000000000000000700000000000007070700000000000000000000000000000000000000000000000000000000000000000000000000000000000000000000000000000700070000070000000000000000000007000007000700000000000000000000000000000700070007000000000000000000000000070007
310
00070000000000000000000000000000070007000700000000000000000000000007000700070000000000000000000000000000070707000000000000000707000000000000000007070000000000000000000000000000000000000000000000000000000000000000000000000000000000000000000000000007070700
310
00000700000000000000000000070000000707070000000000000000000000000007000707070000000000000000000000000700070007000000000000000000000000000007000707070000000000000000000000000700070007000000000000000000000000000700070007000000000000070000000000000000000007
310
00000000000000000000000000000000000000000000000000000000000000000000000000000000000000000000000000070707000000070000000000000000000007000000070707000000000000000000000000070000070700000000000000000000000000070707000700000000000000000000000000070000070700
310
00000000000000000000000007070700070000000000000000000000000007000007070000000000070700000000000000000000070700000000000000000000000000000000000000000000000000000000000000000000000000000000000000000000000007070700000007000000000000000000070000000007070700
310
00000000000000000000000700000707000000000000000000000000000007070007000000000000000000000000000700000707000000000000000000000000000007070007000000000000000000000000000700000700070000000007000000000000000000000000070000000000000000000000000000000000000000
310
00000000000000000000000000000000000000000000000000000000070707000000070000000000000000000700000000070707000000000000000000000000070000070700000000000000000000000000000707000700000000000000000000000000070000070700000000000000000000000000000707000700000000
310
00000000000000000007000007000707000000070000000000000000000000070700000000000000000000000000000000000000000000000000000000000000000000000000000000000000000000000007070007000000070000000000000000070000000700070000000000000000000000000000070007070000000000
310
00000000000000000707070007000000000000000000000000000007000707000000000000000000000000000707070007000000000000000000000000000700000700000007000007000000000000000000000007070000000000000000000000000000000000000000000000000000000000000000000000000000000000
310
00000000000000000700070000000707000000000000070700000007000700000000000000000000000000000700070707000000000000000000000000070707000700000000000000000000000000000700070707000000000000000000000000070007000700000000000000000000000000070000000700000007000700
310
00000000000000000007070700000000000000000000000000000000000000000000000000000000000000000000000000000000000000000000000000070707000000000707000000000707000000000707070000000000000000000000000000070007000700000000000000000000000007000707000000000000000000
310
00000000000007000700070000000000000000000000000700070700000000000000000000000000000007000007000000000707000000000000000000000707000000000000000000000000000000000000000000000000000000000000000000000000000000000000000000000000000007070707000000000707070707
310
07000000000707070700000000000000000000000000000007000707000000000000000000000000070700070000000000000000000000000000000007000707000000000000000000000000070700070000000000000000000000000000000700000700000000000707000000000000000007000700000000000000000000
310
00000000000000000000000000000000000000000000000000000000000000000000000000000000000707000700000000000000000000000007000707000000000000000000000000000000000700070707000000000000000000000707070700000000000000000000000000000000000700070707000000000000000000
310
00070707070000000000000000000000000000000000070000070700000000000700000000000007000700000000000000000000000000000000000000000000000000000000000000000000000000000000000000000000000000000000070700070000000000000000000000000700070700000000000000000000000000
310
00000000070007070700000000000000000707070007000000000000000000000000000000000000070007070700000000000000000707070007000000000000000000000000000000000007000000070700000007070707070707070007070000000000000000000000000000000000000000000000000000000000000000
310
00000000000000000000000000000000000000000007070707070000000000000000070707070700000000000000000000000000000000000000070007070707000000000707070700070000000000000000000000000000000000000000070007070707000000000707070700070000000000000000000000000000000000
310
00000700000000070707070707070707000000070000000000000000000000000000000000000000000000000000000000000000000000000000000000000000000000000000000000000007070700070707070707070700070707000000000000000000000000000000000000000000070000070707070707070700000707
310
00000000000000000000000000000000000000000007000007070707070707070000070700000000000000000000000000000000000000000707000000000700070700000000000700000000000000000000000000000000000000000000000000000000000000000000000000000000000000000000000000000000000000
310
00000007070700000000000007070700000000000000000000000000000000000000000000000007000000000000000007070700000000000000000000000000000000000000000000000007000000000000000007070700000000000000000000000000000000000000000000000707000000070000070000000707000000
310
00000000000000000000000000000000000000000000000000000000000000000000000000000000000000000000000000000000000000000007070707070007070700000000000000000000000000000000000000000000000000000007070707070707070000000000000000000000000000000000000000000000000000
310
00000707070707070707000000000000000000000000000000000000000000000000000000000707070700000707070700000000000000000000000000000000000000000000000000000000000000000000000000000000000000000000000000000000000000000000000000000000000007070000000000000000000000
310
00000000000000000000000000000000000000000000000000000000000000000000000000000000000000000000000000000000000000000000000000000000000000000000000000000000000000000000000000000000000000000000070000070000000000000000000000000000000000000000000000000000000000
310
00000000000000000000000000000000000000000000000000000000000000000000000000000000000000000000000000000000000000000000000000000000000000000000000000000000000000000000000000000000000000000000000000000000000000000000000000000000000000000000000000000000000000
310
00000000000000000000000000000000000000000707070000000000000000000000000000000000000000000000000000000000000000000000000000000000000000000000000000000000000000000000000000000000000000000000000000000000000000000000000000000000000000000000000000000000000000
310
000000000000000000000000000000000000000000000000000000000000000000000000000000000000000000000000000000000000000000000000000000000000000000000000000000000000000000000000000000000000000000000000000000000000000000000000
  0
ENDSEC
  0
EOF
