  0
SECTION
  2
HEADER
  9
$ACADVER
  1
AC1015
  9
$ACADMAINTVER
 70
     6
  9
$DWGCODEPAGE
  3
ANSI_1252
  9
$INSBASE
 10
0.0
 20
0.0
 30
0.0
  9
$EXTMIN
 10
-179.9363
 20
0.0
 30
0.0
  9
$EXTMAX
 10
74.579
 20
310.012980524523
 30
0.0
  9
$LIMMIN
 10
0.0
 20
0.0
  9
$LIMMAX
 10
12.0
 20
9.0
  9
$ORTHOMODE
 70
     0
  9
$REGENMODE
 70
     1
  9
$FILLMODE
 70
     1
  9
$QTEXTMODE
 70
     0
  9
$MIRRTEXT
 70
     1
  9
$LTSCALE
 40
1.0
  9
$ATTMODE
 70
     1
  9
$TEXTSIZE
 40
0.2
  9
$TRACEWID
 40
0.05
  9
$TEXTSTYLE
  7
Standard
  9
$CLAYER
  8
0
  9
$CELTYPE
  6
ByBlock
  9
$CECOLOR
 62
   256
  9
$CELTSCALE
 40
1.0
  9
$DISPSILH
 70
     0
  9
$DIMSCALE
 40
1.0
  9
$DIMASZ
 40
0.18
  9
$DIMEXO
 40
0.0625
  9
$DIMDLI
 40
0.38
  9
$DIMRND
 40
0.0
  9
$DIMDLE
 40
0.0
  9
$DIMEXE
 40
0.18
  9
$DIMTP
 40
0.0
  9
$DIMTM
 40
0.0
  9
$DIMTXT
 40
0.18
  9
$DIMCEN
 40
0.09
  9
$DIMTSZ
 40
0.0
  9
$DIMTOL
 70
     0
  9
$DIMLIM
 70
     0
  9
$DIMTIH
 70
     1
  9
$DIMTOH
 70
     1
  9
$DIMSE1
 70
     0
  9
$DIMSE2
 70
     0
  9
$DIMTAD
 70
     0
  9
$DIMZIN
 70
     0
  9
$DIMBLK
  1

  9
$DIMASO
 70
     1
  9
$DIMSHO
 70
     1
  9
$DIMPOST
  1

  9
$DIMAPOST
  1

  9
$DIMALT
 70
     0
  9
$DIMALTD
 70
     2
  9
$DIMALTF
 40
25.4
  9
$DIMLFAC
 40
1.0
  9
$DIMTOFL
 70
     0
  9
$DIMTVP
 40
0.0
  9
$DIMTIX
 70
     0
  9
$DIMSOXD
 70
     0
  9
$DIMSAH
 70
     0
  9
$DIMBLK1
  1

  9
$DIMBLK2
  1

  9
$DIMSTYLE
  2
Standard
  9
$DIMCLRD
 70
     0
  9
$DIMCLRE
 70
     0
  9
$DIMCLRT
 70
     0
  9
$DIMTFAC
 40
1.0
  9
$DIMGAP
 40
0.09
  9
$DIMJUST
 70
     0
  9
$DIMSD1
 70
     0
  9
$DIMSD2
 70
     0
  9
$DIMTOLJ
 70
     1
  9
$DIMTZIN
 70
     0
  9
$DIMALTZ
 70
     0
  9
$DIMALTTZ
 70
     0
  9
$DIMUPT
 70
     0
  9
$DIMDEC
 70
     4
  9
$DIMTDEC
 70
     4
  9
$DIMALTU
 70
     2
  9
$DIMALTTD
 70
     2
  9
$DIMTXSTY
  7
Standard
  9
$DIMAUNIT
 70
     0
  9
$DIMADEC
 70
     0
  9
$DIMALTRND
 40
0.0
  9
$DIMAZIN
 70
     0
  9
$DIMDSEP
 70
    46
  9
$DIMATFIT
 70
     3
  9
$DIMFRAC
 70
     0
  9
$DIMLDRBLK
  1

  9
$DIMLUNIT
 70
     2
  9
$DIMLWD
 70
    -2
  9
$DIMLWE
 70
    -2
  9
$DIMTMOVE
 70
     2
  9
$LUNITS
 70
     2
  9
$LUPREC
 70
     4
  9
$SKETCHINC
 40
0.1
  9
$FILLETRAD
 40
0.5
  9
$AUNITS
 70
     0
  9
$AUPREC
 70
     0
  9
$MENU
  1
.
  9
$ELEVATION
 40
0.0
  9
$PELEVATION
 40
0.0
  9
$THICKNESS
 40
0.0
  9
$LIMCHECK
 70
     0
  9
$CHAMFERA
 40
0.5
  9
$CHAMFERB
 40
0.5
  9
$CHAMFERC
 40
1.0
  9
$CHAMFERD
 40
0.0
  9
$SKPOLY
 70
     0
  9
$TDCREATE
 40
2456184.899302558
  9
$TDUCREATE
 40
2456184.815969225
  9
$TDUPDATE
 40
2456184.900555625
  9
$TDUUPDATE
 40
2456184.817222292
  9
$TDINDWG
 40
0.0012527199
  9
$TDUSRTIMER
 40
0.0012527199
  9
$USRTIMER
 70
     1
  9
$ANGBASE
 50
0.0
  9
$ANGDIR
 70
     0
  9
$PDMODE
 70
     0
  9
$PDSIZE
 40
0.0
  9
$PLINEWID
 40
0.0
  9
$SPLFRAME
 70
     0
  9
$SPLINETYPE
 70
     6
  9
$SPLINESEGS
 70
     8
  9
$HANDSEED
  5
1189
  9
$SURFTAB1
 70
     6
  9
$SURFTAB2
 70
     6
  9
$SURFTYPE
 70
     6
  9
$SURFU
 70
     6
  9
$SURFV
 70
     6
  9
$UCSBASE
  2

  9
$UCSNAME
  2

  9
$UCSORG
 10
0.0
 20
0.0
 30
0.0
  9
$UCSXDIR
 10
1.0
 20
0.0
 30
0.0
  9
$UCSYDIR
 10
0.0
 20
1.0
 30
0.0
  9
$UCSORTHOREF
  2

  9
$UCSORTHOVIEW
 70
     0
  9
$UCSORGTOP
 10
0.0
 20
0.0
 30
0.0
  9
$UCSORGBOTTOM
 10
0.0
 20
0.0
 30
0.0
  9
$UCSORGLEFT
 10
0.0
 20
0.0
 30
0.0
  9
$UCSORGRIGHT
 10
0.0
 20
0.0
 30
0.0
  9
$UCSORGFRONT
 10
0.0
 20
0.0
 30
0.0
  9
$UCSORGBACK
 10
0.0
 20
0.0
 30
0.0
  9
$PUCSBASE
  2

  9
$PUCSNAME
  2

  9
$PUCSORG
 10
0.0
 20
0.0
 30
0.0
  9
$PUCSXDIR
 10
1.0
 20
0.0
 30
0.0
  9
$PUCSYDIR
 10
0.0
 20
1.0
 30
0.0
  9
$PUCSORTHOREF
  2

  9
$PUCSORTHOVIEW
 70
     0
  9
$PUCSORGTOP
 10
0.0
 20
0.0
 30
0.0
  9
$PUCSORGBOTTOM
 10
0.0
 20
0.0
 30
0.0
  9
$PUCSORGLEFT
 10
0.0
 20
0.0
 30
0.0
  9
$PUCSORGRIGHT
 10
0.0
 20
0.0
 30
0.0
  9
$PUCSORGFRONT
 10
0.0
 20
0.0
 30
0.0
  9
$PUCSORGBACK
 10
0.0
 20
0.0
 30
0.0
  9
$USERI1
 70
     0
  9
$USERI2
 70
     0
  9
$USERI3
 70
     0
  9
$USERI4
 70
     0
  9
$USERI5
 70
     0
  9
$USERR1
 40
0.0
  9
$USERR2
 40
0.0
  9
$USERR3
 40
0.0
  9
$USERR4
 40
0.0
  9
$USERR5
 40
0.0
  9
$WORLDVIEW
 70
     1
  9
$SHADEDGE
 70
     3
  9
$SHADEDIF
 70
    70
  9
$TILEMODE
 70
     1
  9
$MAXACTVP
 70
    64
  9
$PINSBASE
 10
0.0
 20
0.0
 30
0.0
  9
$PLIMCHECK
 70
     0
  9
$PEXTMIN
 10
1.000000000000E+20
 20
1.000000000000E+20
 30
1.000000000000E+20
  9
$PEXTMAX
 10
-1.000000000000E+20
 20
-1.000000000000E+20
 30
-1.000000000000E+20
  9
$PLIMMIN
 10
0.0
 20
0.0
  9
$PLIMMAX
 10
12.0
 20
9.0
  9
$UNITMODE
 70
     0
  9
$VISRETAIN
 70
     1
  9
$PLINEGEN
 70
     0
  9
$PSLTSCALE
 70
     1
  9
$TREEDEPTH
 70
  3020
  9
$CMLSTYLE
  2
Standard
  9
$CMLJUST
 70
     0
  9
$CMLSCALE
 40
1.0
  9
$PROXYGRAPHICS
 70
     1
  9
$MEASUREMENT
 70
     0
  9
$CELWEIGHT
370
    -1
  9
$ENDCAPS
280
     0
  9
$JOINSTYLE
280
     0
  9
$LWDISPLAY
290
     0
  9
$INSUNITS
 70
     0
  9
$HYPERLINKBASE
  1

  9
$STYLESHEET
  1

  9
$XEDIT
290
     1
  9
$CEPSNTYPE
380
     0
  9
$PSTYLEMODE
290
     1
  9
$FINGERPRINTGUID
  2
{CD2DF5E0-1A3F-4C10-A1F5-A24463B89DF7}
  9
$VERSIONGUID
  2
{FAEB1C32-E019-11D5-929B-00C0DF256EC4}
  9
$EXTNAMES
290
     1
  9
$PSVPSCALE
 40
0.0
  9
$OLESTARTUP
290
     0
  0
ENDSEC
  0
SECTION
  2
CLASSES
  0
CLASS
  1
ACDBDICTIONARYWDFLT
  2
AcDbDictionaryWithDefault
  3
ObjectDBX Classes
 90
        0
280
     0
281
     0
  0
CLASS
  1
SCALE
  2
AcDbScale
  3
ObjectDBX Classes
 90
     1153
280
     0
281
     0
  0
CLASS
  1
DICTIONARYVAR
  2
AcDbDictionaryVar
  3
ObjectDBX Classes
 90
        0
280
     0
281
     0
  0
CLASS
  1
ACDBPLACEHOLDER
  2
AcDbPlaceHolder
  3
ObjectDBX Classes
 90
        0
280
     0
281
     0
  0
CLASS
  1
LAYOUT
  2
AcDbLayout
  3
ObjectDBX Classes
 90
        0
280
     0
281
     0
  0
ENDSEC
  0
SECTION
  2
TABLES
  0
TABLE
  2
VPORT
  5
8
330
0
100
AcDbSymbolTable
 70
     1
  0
VPORT
  5
9A5
330
8
100
AcDbSymbolTableRecord
100
AcDbViewportTableRecord
  2
*Active
 70
     0
 10
0.0
 20
0.0
 11
1.0
 21
1.0
 12
-52.67865
 22
155.006490262261
 13
0.0
 23
0.0
 14
0.5
 24
0.5
 15
0.5
 25
0.5
 16
0.0
 26
0.0
 36
1.0
 17
0.0
 27
0.0
 37
0.0
 40
316.213240135013
 41
1.863448275862
 42
50.0
 43
0.0
 44
0.0
 50
0.0
 51
0.0
 71
    16
 72
   100
 73
     1
 74
     3
 75
     0
 76
     0
 77
     0
 78
     0
281
     0
 65
     1
110
0.0
120
0.0
130
0.0
111
1.0
121
0.0
131
0.0
112
0.0
122
1.0
132
0.0
 79
     0
146
0.0
  0
ENDTAB
  0
TABLE
  2
LTYPE
  5
5
330
0
100
AcDbSymbolTable
 70
     1
  0
LTYPE
  5
14
330
5
100
AcDbSymbolTableRecord
100
AcDbLinetypeTableRecord
  2
ByBlock
 70
     0
  3

 72
    65
 73
     0
 40
0.0
  0
LTYPE
  5
15
330
5
100
AcDbSymbolTableRecord
100
AcDbLinetypeTableRecord
  2
ByLayer
 70
     0
  3

 72
    65
 73
     0
 40
0.0
  0
LTYPE
  5
16
330
5
100
AcDbSymbolTableRecord
100
AcDbLinetypeTableRecord
  2
Continuous
 70
     0
  3
Solid line
 72
    65
 73
     0
 40
0.0
  0
ENDTAB
  0
TABLE
  2
LAYER
  5
2
330
0
100
AcDbSymbolTable
 70
     1
  0
LAYER
  5
10
330
2
100
AcDbSymbolTableRecord
100
AcDbLayerTableRecord
  2
0
 70
     0
 62
     7
  6
Continuous
370
    -3
390
F
  0
ENDTAB
  0
TABLE
  2
STYLE
  5
3
330
0
100
AcDbSymbolTable
 70
     1
  0
STYLE
  5
11
330
3
100
AcDbSymbolTableRecord
100
AcDbTextStyleTableRecord
  2
Standard
 70
     0
 40
0.0
 41
1.0
 50
0.0
 71
     0
 42
0.2
  3
txt
  4

  0
ENDTAB
  0
TABLE
  2
VIEW
  5
6
330
0
100
AcDbSymbolTable
 70
     0
  0
ENDTAB
  0
TABLE
  2
UCS
  5
7
330
0
100
AcDbSymbolTable
 70
     0
  0
ENDTAB
  0
TABLE
  2
APPID
  5
9
330
0
100
AcDbSymbolTable
 70
     1
  0
APPID
  5
12
330
9
100
AcDbSymbolTableRecord
100
AcDbRegAppTableRecord
  2
ACAD
 70
     0
  0
ENDTAB
  0
TABLE
  2
DIMSTYLE
  5
A
330
0
100
AcDbSymbolTable
 70
     1
100
AcDbDimStyleTable
  0
DIMSTYLE
105
20
330
A
100
AcDbSymbolTableRecord
100
AcDbDimStyleTableRecord
  2
Standard
 70
     0
340
11
  0
ENDTAB
  0
TABLE
  2
BLOCK_RECORD
  5
1
330
0
100
AcDbSymbolTable
 70
     1
  0
BLOCK_RECORD
  5
1D
330
1
100
AcDbSymbolTableRecord
100
AcDbBlockTableRecord
  2
*Model_Space
340
1E
  0
BLOCK_RECORD
  5
1B
330
1
100
AcDbSymbolTableRecord
100
AcDbBlockTableRecord
  2
*Paper_Space
340
1C
  0
ENDTAB
  0
ENDSEC
  0
SECTION
  2
BLOCKS
  0
BLOCK
  5
9A8
330
1D
100
AcDbEntity
  8
0
100
AcDbBlockBegin
  2
*Model_Space
 70
     0
 10
0.0
 20
0.0
 30
0.0
  3
*Model_Space
  1
*Model_Space
  0
ENDBLK
  5
9A9
330
1D
100
AcDbEntity
  8
0
100
AcDbBlockEnd
  0
BLOCK
  5
9A6
330
1B
100
AcDbEntity
 67
     1
  8
0
100
AcDbBlockBegin
  2
*Paper_Space
 70
     0
 10
0.0
 20
0.0
 30
0.0
  3
*Paper_Space
  1
*Paper_Space
  0
ENDBLK
  5
9A7
330
1B
100
AcDbEntity
 67
     1
  8
0
100
AcDbBlockEnd
  0
ENDSEC
  0
SECTION
  2
ENTITIES
  0
LINE
  5
4BC
330
1D
100
AcDbEntity
  8
0
100
AcDbLine
 10
-0.431
 20
0.0
 30
0.0
 11
-0.352
 21
0.0
 31
0.0
  0
LINE
  5
4BE
330
1D
100
AcDbEntity
  8
0
100
AcDbLine
 10
-0.431
 20
0.0
 30
0.0
 11
-0.192
 21
0.0
 31
0.0
  0
LINE
  5
4BF
330
1D
100
AcDbEntity
  8
0
100
AcDbLine
 10
-0.431
 20
0.0
 30
0.0
 11
-0.193
 21
0.0
 31
0.0
  0
LINE
  5
4C0
330
1D
100
AcDbEntity
  8
0
100
AcDbLine
 10
-0.352
 20
0.0
 30
0.0
 11
0.042
 21
0.0
 31
0.0
  0
LINE
  5
4C1
330
1D
100
AcDbEntity
  8
0
100
AcDbLine
 10
-0.41
 20
0.0
 30
0.0
 11
-0.332
 21
0.0
 31
0.0
  0
LINE
  5
4C3
330
1D
100
AcDbEntity
  8
0
100
AcDbLine
 10
-0.41
 20
0.0
 30
0.0
 11
-0.172
 21
0.0
 31
0.0
  0
LINE
  5
4C4
330
1D
100
AcDbEntity
  8
0
100
AcDbLine
 10
-0.41
 20
0.0
 30
0.0
 11
-0.331
 21
0.0
 31
0.0
  0
LINE
  5
4C5
330
1D
100
AcDbEntity
  8
0
100
AcDbLine
 10
-0.193
 20
0.0
 30
0.0
 11
0.361
 21
0.0
 31
0.0
  0
LINE
  5
4C6
330
1D
100
AcDbEntity
  8
0
100
AcDbLine
 10
-0.192
 20
0.0
 30
0.0
 11
0.36
 21
0.0
 31
0.0
  0
LINE
  5
4C7
330
1D
100
AcDbEntity
  8
0
100
AcDbLine
 10
0.042
 20
0.0
 30
0.0
 11
0.75
 21
0.0
 31
0.0
  0
LINE
  5
4C8
330
1D
100
AcDbEntity
  8
0
100
AcDbLine
 10
-0.331
 20
0.0
 30
0.0
 11
0.063
 21
0.0
 31
0.0
  0
LINE
  5
4C9
330
1D
100
AcDbEntity
  8
0
100
AcDbLine
 10
-0.172
 20
0.0
 30
0.0
 11
0.381
 21
0.0
 31
0.0
  0
LINE
  5
4CA
330
1D
100
AcDbEntity
  8
0
100
AcDbLine
 10
-0.332
 20
0.0
 30
0.0
 11
0.063
 21
0.0
 31
0.0
  0
LINE
  5
4CB
330
1D
100
AcDbEntity
  8
0
100
AcDbLine
 10
0.063
 20
0.0
 30
0.0
 11
0.771
 21
0.0
 31
0.0
  0
LINE
  5
4CC
330
1D
100
AcDbEntity
  8
0
100
AcDbLine
 10
0.36
 20
0.0
 30
0.0
 11
1.224
 21
0.0
 31
0.0
  0
LINE
  5
4CD
330
1D
100
AcDbEntity
  8
0
100
AcDbLine
 10
0.361
 20
0.0
 30
0.0
 11
1.223
 21
0.0
 31
0.0
  0
LINE
  5
4CE
330
1D
100
AcDbEntity
  8
0
100
AcDbLine
 10
0.381
 20
0.0
 30
0.0
 11
1.244
 21
0.0
 31
0.0
  0
LINE
  5
4CF
330
1D
100
AcDbEntity
  8
0
100
AcDbLine
 10
0.703
 20
0.0
 30
0.0
 11
0.779
 21
0.0
 31
0.0
  0
LINE
  5
4D0
330
1D
100
AcDbEntity
  8
0
100
AcDbLine
 10
0.703
 20
0.0
 30
0.0
 11
0.934
 21
0.0
 31
0.0
  0
LINE
  5
4D1
330
1D
100
AcDbEntity
  8
0
100
AcDbLine
 10
0.723
 20
0.0
 30
0.0
 11
0.954
 21
0.0
 31
0.0
  0
LINE
  5
4D2
330
1D
100
AcDbEntity
  8
0
100
AcDbLine
 10
0.723
 20
0.0
 30
0.0
 11
0.799
 21
0.0
 31
0.0
  0
LINE
  5
4D3
330
1D
100
AcDbEntity
  8
0
100
AcDbLine
 10
0.934
 20
0.0
 30
0.0
 11
1.469
 21
0.0
 31
0.0
  0
LINE
  5
4D4
330
1D
100
AcDbEntity
  8
0
100
AcDbLine
 10
0.779
 20
0.0
 30
0.0
 11
1.161
 21
0.0
 31
0.0
  0
LINE
  5
4D5
330
1D
100
AcDbEntity
  8
0
100
AcDbLine
 10
0.75
 20
0.0
 30
0.0
 11
1.764
 21
0.0
 31
0.0
  0
LINE
  5
4D6
330
1D
100
AcDbEntity
  8
0
100
AcDbLine
 10
1.161
 20
0.0
 30
0.0
 11
1.846
 21
0.0
 31
0.0
  0
LINE
  5
4D7
330
1D
100
AcDbEntity
  8
0
100
AcDbLine
 10
0.954
 20
0.0
 30
0.0
 11
1.489
 21
0.0
 31
0.0
  0
LINE
  5
4D8
330
1D
100
AcDbEntity
  8
0
100
AcDbLine
 10
0.799
 20
0.0
 30
0.0
 11
1.182
 21
0.0
 31
0.0
  0
LINE
  5
4D9
330
1D
100
AcDbEntity
  8
0
100
AcDbLine
 10
0.799
 20
0.0
 30
0.0
 11
1.181
 21
0.0
 31
0.0
  0
LINE
  5
4DA
330
1D
100
AcDbEntity
  8
0
100
AcDbLine
 10
0.724
 20
0.0
 30
0.0
 11
0.799
 21
0.0
 31
0.0
  0
LINE
  5
4DB
330
1D
100
AcDbEntity
  8
0
100
AcDbLine
 10
0.724
 20
0.0
 30
0.0
 11
0.954
 21
0.0
 31
0.0
  0
LINE
  5
4DC
330
1D
100
AcDbEntity
  8
0
100
AcDbLine
 10
0.771
 20
0.0
 30
0.0
 11
1.784
 21
0.0
 31
0.0
  0
LINE
  5
4DF
330
1D
100
AcDbEntity
  8
0
100
AcDbLine
 10
1.223
 20
0.0
 30
0.0
 11
2.388
 21
0.0
 31
0.0
  0
LINE
  5
4E0
330
1D
100
AcDbEntity
  8
0
100
AcDbLine
 10
1.224
 20
0.0
 30
0.0
 11
2.388
 21
0.0
 31
0.0
  0
LINE
  5
4E1
330
1D
100
AcDbEntity
  8
0
100
AcDbLine
 10
1.181
 20
0.0
 30
0.0
 11
1.866
 21
0.0
 31
0.0
  0
LINE
  5
4E2
330
1D
100
AcDbEntity
  8
0
100
AcDbLine
 10
1.182
 20
0.0
 30
0.0
 11
1.866
 21
0.0
 31
0.0
  0
LINE
  5
4E3
330
1D
100
AcDbEntity
  8
0
100
AcDbLine
 10
1.469
 20
0.0
 30
0.0
 11
2.303
 21
0.0
 31
0.0
  0
LINE
  5
4E4
330
1D
100
AcDbEntity
  8
0
100
AcDbLine
 10
1.846
 20
0.0
 30
0.0
 11
2.826
 21
0.0
 31
0.0
  0
LINE
  5
4E5
330
1D
100
AcDbEntity
  8
0
100
AcDbLine
 10
1.764
 20
0.0
 30
0.0
 11
3.074
 21
0.0
 31
0.0
  0
LINE
  5
4E6
330
1D
100
AcDbEntity
  8
0
100
AcDbLine
 10
2.303
 20
0.0
 30
0.0
 11
3.337
 21
0.0
 31
0.0
  0
LINE
  5
4E7
330
1D
100
AcDbEntity
  8
0
100
AcDbLine
 10
1.866
 20
0.0
 30
0.0
 11
2.847
 21
0.0
 31
0.0
  0
LINE
  5
4E8
330
1D
100
AcDbEntity
  8
0
100
AcDbLine
 10
1.866
 20
0.0
 30
0.0
 11
2.846
 21
0.0
 31
0.0
  0
LINE
  5
4E9
330
1D
100
AcDbEntity
  8
0
100
AcDbLine
 10
1.489
 20
0.0
 30
0.0
 11
2.324
 21
0.0
 31
0.0
  0
LINE
  5
4EA
330
1D
100
AcDbEntity
  8
0
100
AcDbLine
 10
1.489
 20
0.0
 30
0.0
 11
2.323
 21
0.0
 31
0.0
  0
LINE
  5
4EB
330
1D
100
AcDbEntity
  8
0
100
AcDbLine
 10
2.388
 20
0.0
 30
0.0
 11
3.337
 21
0.0
 31
0.0
  0
LINE
  5
4EC
330
1D
100
AcDbEntity
  8
0
100
AcDbLine
 10
2.324
 20
0.0
 30
0.0
 11
3.337
 21
0.0
 31
0.0
  0
LINE
  5
4ED
330
1D
100
AcDbEntity
  8
0
100
AcDbLine
 10
2.323
 20
0.0
 30
0.0
 11
3.337
 21
0.0
 31
0.0
  0
LINE
  5
4EE
330
1D
100
AcDbEntity
  8
0
100
AcDbLine
 10
1.244
 20
0.0
 30
0.0
 11
2.408
 21
0.0
 31
0.0
  0
LINE
  5
4EF
330
1D
100
AcDbEntity
  8
0
100
AcDbLine
 10
1.244
 20
0.0
 30
0.0
 11
2.409
 21
0.0
 31
0.0
  0
LINE
  5
4F0
330
1D
100
AcDbEntity
  8
0
100
AcDbLine
 10
1.784
 20
0.0
 30
0.0
 11
3.095
 21
0.0
 31
0.0
  0
LINE
  5
4F1
330
1D
100
AcDbEntity
  8
0
100
AcDbLine
 10
1.784
 20
0.0
 30
0.0
 11
3.094
 21
0.0
 31
0.0
  0
LINE
  5
4F9
330
1D
100
AcDbEntity
  8
0
100
AcDbLine
 10
2.826
 20
0.0
 30
0.0
 11
3.337
 21
0.0
 31
0.0
  0
LINE
  5
4FA
330
1D
100
AcDbEntity
  8
0
100
AcDbLine
 10
2.846
 20
0.0
 30
0.0
 11
4.114
 21
0.0
 31
0.0
  0
LINE
  5
4FB
330
1D
100
AcDbEntity
  8
0
100
AcDbLine
 10
3.074
 20
0.0
 30
0.0
 11
3.337
 21
0.0
 31
0.0
  0
LINE
  5
4FC
330
1D
100
AcDbEntity
  8
0
100
AcDbLine
 10
3.094
 20
0.0
 30
0.0
 11
4.689
 21
0.0
 31
0.0
  0
LINE
  5
4FD
330
1D
100
AcDbEntity
  8
0
100
AcDbLine
 10
2.847
 20
0.0
 30
0.0
 11
4.115
 21
0.0
 31
0.0
  0
LINE
  5
4FE
330
1D
100
AcDbEntity
  8
0
100
AcDbLine
 10
2.409
 20
0.0
 30
0.0
 11
3.337
 21
0.0
 31
0.0
  0
LINE
  5
4FF
330
1D
100
AcDbEntity
  8
0
100
AcDbLine
 10
3.337
 20
0.0
 30
0.0
 11
4.489
 21
0.0
 31
0.0
  0
LINE
  5
503
330
1D
100
AcDbEntity
  8
0
100
AcDbLine
 10
4.489
 20
0.0
 30
0.0
 11
7.561
 21
0.0
 31
0.0
  0
LINE
  5
507
330
1D
100
AcDbEntity
  8
0
100
AcDbLine
 10
4.114
 20
0.0
 30
0.0
 11
5.658
 21
0.0
 31
0.0
  0
LINE
  5
508
330
1D
100
AcDbEntity
  8
0
100
AcDbLine
 10
6.556
 20
0.0
 30
0.0
 11
8.677
 21
0.0
 31
0.0
  0
LINE
  5
509
330
1D
100
AcDbEntity
  8
0
100
AcDbLine
 10
4.689
 20
0.0
 30
0.0
 11
6.556
 21
0.0
 31
0.0
  0
LINE
  5
50A
330
1D
100
AcDbEntity
  8
0
100
AcDbLine
 10
4.115
 20
0.0
 30
0.0
 11
5.658
 21
0.0
 31
0.0
  0
LINE
  5
50B
330
1D
100
AcDbEntity
  8
0
100
AcDbLine
 10
3.095
 20
0.0
 30
0.0
 11
4.69
 21
0.0
 31
0.0
  0
LINE
  5
50C
330
1D
100
AcDbEntity
  8
0
100
AcDbLine
 10
4.69
 20
0.0
 30
0.0
 11
6.557
 21
0.0
 31
0.0
  0
LINE
  5
512
330
1D
100
AcDbEntity
  8
0
100
AcDbLine
 10
7.561
 20
0.0
 30
0.0
 11
12.553
 21
0.0
 31
0.0
  0
LINE
  5
516
330
1D
100
AcDbEntity
  8
0
100
AcDbLine
 10
9.515
 20
0.0
 30
0.0
 11
11.794
 21
0.0
 31
0.0
  0
LINE
  5
517
330
1D
100
AcDbEntity
  8
0
100
AcDbLine
 10
7.465
 20
0.0
 30
0.0
 11
9.515
 21
0.0
 31
0.0
  0
LINE
  5
518
330
1D
100
AcDbEntity
  8
0
100
AcDbLine
 10
7.465
 20
0.0
 30
0.0
 11
9.516
 21
0.0
 31
0.0
  0
LINE
  5
519
330
1D
100
AcDbEntity
  8
0
100
AcDbLine
 10
9.516
 20
0.0
 30
0.0
 11
11.794
 21
0.0
 31
0.0
  0
LINE
  5
51A
330
1D
100
AcDbEntity
  8
0
100
AcDbLine
 10
8.677
 20
0.0
 30
0.0
 11
11.031
 21
0.0
 31
0.0
  0
LINE
  5
51B
330
1D
100
AcDbEntity
  8
0
100
AcDbLine
 10
6.557
 20
0.0
 30
0.0
 11
8.676
 21
0.0
 31
0.0
  0
LINE
  5
51C
330
1D
100
AcDbEntity
  8
0
100
AcDbLine
 10
8.676
 20
0.0
 30
0.0
 11
11.031
 21
0.0
 31
0.0
  0
LINE
  5
51F
330
1D
100
AcDbEntity
  8
0
100
AcDbLine
 10
12.553
 20
0.0
 30
0.0
 11
19.081
 21
0.0
 31
0.0
  0
LINE
  5
523
330
1D
100
AcDbEntity
  8
0
100
AcDbLine
 10
14.279
 20
0.0
 30
0.0
 11
16.947
 21
0.0
 31
0.0
  0
LINE
  5
524
330
1D
100
AcDbEntity
  8
0
100
AcDbLine
 10
11.794
 20
0.0
 30
0.0
 11
14.279
 21
0.0
 31
0.0
  0
LINE
  5
525
330
1D
100
AcDbEntity
  8
0
100
AcDbLine
 10
11.031
 20
0.0
 30
0.0
 11
13.599
 21
0.0
 31
0.0
  0
LINE
  5
526
330
1D
100
AcDbEntity
  8
0
100
AcDbLine
 10
13.599
 20
0.0
 30
0.0
 11
16.357
 21
0.0
 31
0.0
  0
LINE
  5
527
330
1D
100
AcDbEntity
  8
0
100
AcDbLine
 10
13.599
 20
0.0
 30
0.0
 11
16.358
 21
0.0
 31
0.0
  0
LINE
  5
529
330
1D
100
AcDbEntity
  8
0
100
AcDbLine
 10
19.081
 20
0.0
 30
0.0
 11
26.505
 21
0.0
 31
0.0
  0
LINE
  5
52D
330
1D
100
AcDbEntity
  8
0
100
AcDbLine
 10
19.775
 20
0.0
 30
0.0
 11
22.738
 21
0.0
 31
0.0
  0
LINE
  5
52E
330
1D
100
AcDbEntity
  8
0
100
AcDbLine
 10
19.776
 20
0.0
 30
0.0
 11
22.738
 21
0.0
 31
0.0
  0
LINE
  5
52F
330
1D
100
AcDbEntity
  8
0
100
AcDbLine
 10
16.947
 20
0.0
 30
0.0
 11
19.776
 21
0.0
 31
0.0
  0
LINE
  5
530
330
1D
100
AcDbEntity
  8
0
100
AcDbLine
 10
16.947
 20
0.0
 30
0.0
 11
19.775
 21
0.0
 31
0.0
  0
LINE
  5
531
330
1D
100
AcDbEntity
  8
0
100
AcDbLine
 10
16.358
 20
0.0
 30
0.0
 11
19.28
 21
0.0
 31
0.0
  0
LINE
  5
532
330
1D
100
AcDbEntity
  8
0
100
AcDbLine
 10
16.357
 20
0.0
 30
0.0
 11
19.28
 21
0.0
 31
0.0
  0
LINE
  5
533
330
1D
100
AcDbEntity
  8
0
100
AcDbLine
 10
19.28
 20
0.0
 30
0.0
 11
22.342
 21
0.0
 31
0.0
  0
LINE
  5
534
330
1D
100
AcDbEntity
  8
0
100
AcDbLine
 10
25.807
 20
0.0
 30
0.0
 11
28.956
 21
0.0
 31
0.0
  0
LINE
  5
537
330
1D
100
AcDbEntity
  8
0
100
AcDbLine
 10
26.505
 20
0.0
 30
0.0
 11
34.569
 21
0.0
 31
0.0
  0
LINE
  5
53A
330
1D
100
AcDbEntity
  8
0
100
AcDbLine
 10
25.808
 20
0.0
 30
0.0
 11
28.957
 21
0.0
 31
0.0
  0
LINE
  5
53B
330
1D
100
AcDbEntity
  8
0
100
AcDbLine
 10
22.738
 20
0.0
 30
0.0
 11
25.808
 21
0.0
 31
0.0
  0
LINE
  5
53C
330
1D
100
AcDbEntity
  8
0
100
AcDbLine
 10
22.738
 20
0.0
 30
0.0
 11
25.807
 21
0.0
 31
0.0
  0
LINE
  5
53D
330
1D
100
AcDbEntity
  8
0
100
AcDbLine
 10
22.342
 20
0.0
 30
0.0
 11
25.514
 21
0.0
 31
0.0
  0
LINE
  5
53E
330
1D
100
AcDbEntity
  8
0
100
AcDbLine
 10
25.514
 20
0.0
 30
0.0
 11
28.768
 21
0.0
 31
0.0
  0
LINE
  5
53F
330
1D
100
AcDbEntity
  8
0
100
AcDbLine
 10
25.514
 20
0.0
 30
0.0
 11
28.769
 21
0.0
 31
0.0
  0
LINE
  5
540
330
1D
100
AcDbEntity
  8
0
100
AcDbLine
 10
28.956
 20
0.0
 30
0.0
 11
32.157
 21
0.0
 31
0.0
  0
LINE
  5
554
330
1D
100
AcDbEntity
  8
0
100
AcDbLine
 10
34.569
 20
0.0
 30
0.0
 11
42.633
 21
0.0
 31
0.0
  0
LINE
  5
558
330
1D
100
AcDbEntity
  8
0
100
AcDbLine
 10
35.379
 20
0.0
 30
0.0
 11
38.593
 21
0.0
 31
0.0
  0
LINE
  5
559
330
1D
100
AcDbEntity
  8
0
100
AcDbLine
 10
35.379
 20
0.0
 30
0.0
 11
38.594
 21
0.0
 31
0.0
  0
LINE
  5
55A
330
1D
100
AcDbEntity
  8
0
100
AcDbLine
 10
32.157
 20
0.0
 30
0.0
 11
35.379
 21
0.0
 31
0.0
  0
LINE
  5
55B
330
1D
100
AcDbEntity
  8
0
100
AcDbLine
 10
28.957
 20
0.0
 30
0.0
 11
32.157
 21
0.0
 31
0.0
  0
LINE
  5
55C
330
1D
100
AcDbEntity
  8
0
100
AcDbLine
 10
28.769
 20
0.0
 30
0.0
 11
32.076
 21
0.0
 31
0.0
  0
LINE
  5
55D
330
1D
100
AcDbEntity
  8
0
100
AcDbLine
 10
28.768
 20
0.0
 30
0.0
 11
32.076
 21
0.0
 31
0.0
  0
LINE
  5
55E
330
1D
100
AcDbEntity
  8
0
100
AcDbLine
 10
32.076
 20
0.0
 30
0.0
 11
35.405
 21
0.0
 31
0.0
  0
LINE
  5
56A
330
1D
100
AcDbEntity
  8
0
100
AcDbLine
 10
38.594
 20
0.0
 30
0.0
 11
41.772
 21
0.0
 31
0.0
  0
LINE
  5
56B
330
1D
100
AcDbEntity
  8
0
100
AcDbLine
 10
42.012
 20
0.0
 30
0.0
 11
45.229
 21
0.0
 31
0.0
  0
LINE
  5
56C
330
1D
100
AcDbEntity
  8
0
100
AcDbLine
 10
38.593
 20
0.0
 30
0.0
 11
41.772
 21
0.0
 31
0.0
  0
LINE
  5
56D
330
1D
100
AcDbEntity
  8
0
100
AcDbLine
 10
38.727
 20
0.0
 30
0.0
 11
42.012
 21
0.0
 31
0.0
  0
LINE
  5
56E
330
1D
100
AcDbEntity
  8
0
100
AcDbLine
 10
35.405
 20
0.0
 30
0.0
 11
38.728
 21
0.0
 31
0.0
  0
LINE
  5
56F
330
1D
100
AcDbEntity
  8
0
100
AcDbLine
 10
35.405
 20
0.0
 30
0.0
 11
38.727
 21
0.0
 31
0.0
  0
LINE
  5
570
330
1D
100
AcDbEntity
  8
0
100
AcDbLine
 10
38.728
 20
0.0
 30
0.0
 11
42.013
 21
0.0
 31
0.0
  0
LINE
  5
573
330
1D
100
AcDbEntity
  8
0
100
AcDbLine
 10
42.633
 20
0.0
 30
0.0
 11
50.057
 21
0.0
 31
0.0
  0
LINE
  5
576
330
1D
100
AcDbEntity
  8
0
100
AcDbLine
 10
47.905
 20
0.0
 30
0.0
 11
50.803
 21
0.0
 31
0.0
  0
LINE
  5
577
330
1D
100
AcDbEntity
  8
0
100
AcDbLine
 10
47.904
 20
0.0
 30
0.0
 11
50.803
 21
0.0
 31
0.0
  0
LINE
  5
578
330
1D
100
AcDbEntity
  8
0
100
AcDbLine
 10
44.885
 20
0.0
 30
0.0
 11
47.904
 21
0.0
 31
0.0
  0
LINE
  5
579
330
1D
100
AcDbEntity
  8
0
100
AcDbLine
 10
44.885
 20
0.0
 30
0.0
 11
47.905
 21
0.0
 31
0.0
  0
LINE
  5
57A
330
1D
100
AcDbEntity
  8
0
100
AcDbLine
 10
45.229
 20
0.0
 30
0.0
 11
48.351
 21
0.0
 31
0.0
  0
LINE
  5
57B
330
1D
100
AcDbEntity
  8
0
100
AcDbLine
 10
42.013
 20
0.0
 30
0.0
 11
45.23
 21
0.0
 31
0.0
  0
LINE
  5
57C
330
1D
100
AcDbEntity
  8
0
100
AcDbLine
 10
45.23
 20
0.0
 30
0.0
 11
48.351
 21
0.0
 31
0.0
  0
LINE
  5
580
330
1D
100
AcDbEntity
  8
0
100
AcDbLine
 10
50.057
 20
0.0
 30
0.0
 11
56.585
 21
0.0
 31
0.0
  0
LINE
  5
582
330
1D
100
AcDbEntity
  8
0
100
AcDbLine
 10
53.556
 20
0.0
 30
0.0
 11
56.136
 21
0.0
 31
0.0
  0
LINE
  5
583
330
1D
100
AcDbEntity
  8
0
100
AcDbLine
 10
50.803
 20
0.0
 30
0.0
 11
53.556
 21
0.0
 31
0.0
  0
LINE
  5
584
330
1D
100
AcDbEntity
  8
0
100
AcDbLine
 10
48.351
 20
0.0
 30
0.0
 11
51.347
 21
0.0
 31
0.0
  0
LINE
  5
585
330
1D
100
AcDbEntity
  8
0
100
AcDbLine
 10
51.347
 20
0.0
 30
0.0
 11
54.191
 21
0.0
 31
0.0
  0
LINE
  5
586
330
1D
100
AcDbEntity
  8
0
100
AcDbLine
 10
51.347
 20
0.0
 30
0.0
 11
54.192
 21
0.0
 31
0.0
  0
LINE
  5
58A
330
1D
100
AcDbEntity
  8
0
100
AcDbLine
 10
56.585
 20
0.0
 30
0.0
 11
61.577
 21
0.0
 31
0.0
  0
LINE
  5
58C
330
1D
100
AcDbEntity
  8
0
100
AcDbLine
 10
58.522
 20
0.0
 30
0.0
 11
60.689
 21
0.0
 31
0.0
  0
LINE
  5
58D
330
1D
100
AcDbEntity
  8
0
100
AcDbLine
 10
58.522
 20
0.0
 30
0.0
 11
60.69
 21
0.0
 31
0.0
  0
LINE
  5
58E
330
1D
100
AcDbEntity
  8
0
100
AcDbLine
 10
54.192
 20
0.0
 30
0.0
 11
56.858
 21
0.0
 31
0.0
  0
LINE
  5
58F
330
1D
100
AcDbEntity
  8
0
100
AcDbLine
 10
54.191
 20
0.0
 30
0.0
 11
56.858
 21
0.0
 31
0.0
  0
LINE
  5
590
330
1D
100
AcDbEntity
  8
0
100
AcDbLine
 10
56.858
 20
0.0
 30
0.0
 11
59.323
 21
0.0
 31
0.0
  0
LINE
  5
591
330
1D
100
AcDbEntity
  8
0
100
AcDbLine
 10
56.858
 20
0.0
 30
0.0
 11
59.324
 21
0.0
 31
0.0
  0
LINE
  5
596
330
1D
100
AcDbEntity
  8
0
100
AcDbLine
 10
61.577
 20
0.0
 30
0.0
 11
64.649
 21
0.0
 31
0.0
  0
LINE
  5
59A
330
1D
100
AcDbEntity
  8
0
100
AcDbLine
 10
60.69
 20
0.0
 30
0.0
 11
62.621
 21
0.0
 31
0.0
  0
LINE
  5
59B
330
1D
100
AcDbEntity
  8
0
100
AcDbLine
 10
60.689
 20
0.0
 30
0.0
 11
62.622
 21
0.0
 31
0.0
  0
LINE
  5
59C
330
1D
100
AcDbEntity
  8
0
100
AcDbLine
 10
59.324
 20
0.0
 30
0.0
 11
61.564
 21
0.0
 31
0.0
  0
LINE
  5
59D
330
1D
100
AcDbEntity
  8
0
100
AcDbLine
 10
59.323
 20
0.0
 30
0.0
 11
61.564
 21
0.0
 31
0.0
  0
LINE
  5
59E
330
1D
100
AcDbEntity
  8
0
100
AcDbLine
 10
61.564
 20
0.0
 30
0.0
 11
63.56
 21
0.0
 31
0.0
  0
LINE
  5
59F
330
1D
100
AcDbEntity
  8
0
100
AcDbLine
 10
61.564
 20
0.0
 30
0.0
 11
63.561
 21
0.0
 31
0.0
  0
LINE
  5
5A0
330
1D
100
AcDbEntity
  8
0
100
AcDbLine
 10
62.622
 20
0.0
 30
0.0
 11
64.3
 21
0.0
 31
0.0
  0
LINE
  5
5A6
330
1D
100
AcDbEntity
  8
0
100
AcDbLine
 10
64.649
 20
0.0
 30
0.0
 11
65.801
 21
0.0
 31
0.0
  0
LINE
  5
5AA
330
1D
100
AcDbEntity
  8
0
100
AcDbLine
 10
65.709
 20
0.0
 30
0.0
 11
66.835
 21
0.0
 31
0.0
  0
LINE
  5
5AB
330
1D
100
AcDbEntity
  8
0
100
AcDbLine
 10
65.708
 20
0.0
 30
0.0
 11
66.836
 21
0.0
 31
0.0
  0
LINE
  5
5AC
330
1D
100
AcDbEntity
  8
0
100
AcDbLine
 10
63.561
 20
0.0
 30
0.0
 11
65.295
 21
0.0
 31
0.0
  0
LINE
  5
5AD
330
1D
100
AcDbEntity
  8
0
100
AcDbLine
 10
64.3
 20
0.0
 30
0.0
 11
65.709
 21
0.0
 31
0.0
  0
LINE
  5
5AE
330
1D
100
AcDbEntity
  8
0
100
AcDbLine
 10
64.3
 20
0.0
 30
0.0
 11
65.708
 21
0.0
 31
0.0
  0
LINE
  5
5AF
330
1D
100
AcDbEntity
  8
0
100
AcDbLine
 10
62.621
 20
0.0
 30
0.0
 11
64.3
 21
0.0
 31
0.0
  0
LINE
  5
5B0
330
1D
100
AcDbEntity
  8
0
100
AcDbLine
 10
65.295
 20
0.0
 30
0.0
 11
66.751
 21
0.0
 31
0.0
  0
LINE
  5
5B1
330
1D
100
AcDbEntity
  8
0
100
AcDbLine
 10
65.295
 20
0.0
 30
0.0
 11
66.75
 21
0.0
 31
0.0
  0
LINE
  5
5B2
330
1D
100
AcDbEntity
  8
0
100
AcDbLine
 10
2.408
 20
0.0
 30
0.0
 11
3.337
 21
0.0
 31
0.0
  0
LINE
  5
5B3
330
1D
100
AcDbEntity
  8
0
100
AcDbLine
 10
63.56
 20
0.0
 30
0.0
 11
65.295
 21
0.0
 31
0.0
  0
LINE
  5
5B4
330
1D
100
AcDbEntity
  8
0
100
AcDbLine
 10
65.874
 20
0.0
 30
0.0
 11
67.173
 21
0.0
 31
0.0
  0
LINE
  5
5B5
330
1D
100
AcDbEntity
  8
0
100
AcDbLine
 10
2.174
 20
0.0
 30
0.0
 11
3.337
 21
0.0
 31
0.0
  0
LINE
  5
5B7
330
1D
100
AcDbEntity
  8
0
100
AcDbLine
 10
1.17
 20
0.0
 30
0.0
 11
2.174
 21
0.0
 31
0.0
  0
LINE
  5
5B8
330
1D
100
AcDbEntity
  8
0
100
AcDbLine
 10
0.469
 20
0.0
 30
0.0
 11
1.17
 21
0.0
 31
0.0
  0
LINE
  5
5B9
330
1D
100
AcDbEntity
  8
0
100
AcDbLine
 10
0.078
 20
0.0
 30
0.0
 11
0.469
 21
0.0
 31
0.0
  0
LINE
  5
5BB
330
1D
100
AcDbEntity
  8
0
100
AcDbLine
 10
0.0
 20
0.0
 30
0.0
 11
0.078
 21
0.0
 31
0.0
  0
LINE
  5
5BC
330
1D
100
AcDbEntity
  8
0
100
AcDbLine
 10
66.292
 20
0.0
 30
0.0
 11
67.273
 21
0.0
 31
0.0
  0
LINE
  5
5BD
330
1D
100
AcDbEntity
  8
0
100
AcDbLine
 10
66.045
 20
0.0
 30
0.0
 11
67.355
 21
0.0
 31
0.0
  0
LINE
  5
5BE
330
1D
100
AcDbEntity
  8
0
100
AcDbLine
 10
66.044
 20
0.0
 30
0.0
 11
67.355
 21
0.0
 31
0.0
  0
LINE
  5
5BF
330
1D
100
AcDbEntity
  8
0
100
AcDbLine
 10
66.065
 20
0.0
 30
0.0
 11
67.375
 21
0.0
 31
0.0
  0
LINE
  5
5C0
330
1D
100
AcDbEntity
  8
0
100
AcDbLine
 10
66.313
 20
0.0
 30
0.0
 11
67.293
 21
0.0
 31
0.0
  0
LINE
  5
5C1
330
1D
100
AcDbEntity
  8
0
100
AcDbLine
 10
66.312
 20
0.0
 30
0.0
 11
67.293
 21
0.0
 31
0.0
  0
LINE
  5
5C2
330
1D
100
AcDbEntity
  8
0
100
AcDbLine
 10
66.064
 20
0.0
 30
0.0
 11
67.375
 21
0.0
 31
0.0
  0
LINE
  5
5C3
330
1D
100
AcDbEntity
  8
0
100
AcDbLine
 10
65.875
 20
0.0
 30
0.0
 11
67.173
 21
0.0
 31
0.0
  0
LINE
  5
5C4
330
1D
100
AcDbEntity
  8
0
100
AcDbLine
 10
66.251
 20
0.0
 30
0.0
 11
67.227
 21
0.0
 31
0.0
  0
LINE
  5
5C7
330
1D
100
AcDbEntity
  8
0
100
AcDbLine
 10
66.73
 20
0.0
 30
0.0
 11
67.895
 21
0.0
 31
0.0
  0
LINE
  5
5C8
330
1D
100
AcDbEntity
  8
0
100
AcDbLine
 10
66.731
 20
0.0
 30
0.0
 11
67.895
 21
0.0
 31
0.0
  0
LINE
  5
5C9
330
1D
100
AcDbEntity
  8
0
100
AcDbLine
 10
66.816
 20
0.0
 30
0.0
 11
67.65
 21
0.0
 31
0.0
  0
LINE
  5
5CA
330
1D
100
AcDbEntity
  8
0
100
AcDbLine
 10
66.835
 20
0.0
 30
0.0
 11
67.67
 21
0.0
 31
0.0
  0
LINE
  5
5CB
330
1D
100
AcDbEntity
  8
0
100
AcDbLine
 10
66.836
 20
0.0
 30
0.0
 11
67.67
 21
0.0
 31
0.0
  0
LINE
  5
5CC
330
1D
100
AcDbEntity
  8
0
100
AcDbLine
 10
66.75
 20
0.0
 30
0.0
 11
67.915
 21
0.0
 31
0.0
  0
LINE
  5
5CD
330
1D
100
AcDbEntity
  8
0
100
AcDbLine
 10
66.751
 20
0.0
 30
0.0
 11
67.915
 21
0.0
 31
0.0
  0
LINE
  5
5CE
330
1D
100
AcDbEntity
  8
0
100
AcDbLine
 10
66.555
 20
0.0
 30
0.0
 11
67.709
 21
0.0
 31
0.0
  0
LINE
  5
5CF
330
1D
100
AcDbEntity
  8
0
100
AcDbLine
 10
66.772
 20
0.0
 30
0.0
 11
67.602
 21
0.0
 31
0.0
  0
LINE
  5
5D0
330
1D
100
AcDbEntity
  8
0
100
AcDbLine
 10
66.554
 20
0.0
 30
0.0
 11
67.708
 21
0.0
 31
0.0
  0
LINE
  5
6F9
330
1D
100
AcDbEntity
  8
0
100
AcDbLine
 10
65.801
 20
0.0
 30
0.0
 11
66.554
 21
0.0
 31
0.0
  0
LINE
  5
6FA
330
1D
100
AcDbEntity
  8
0
100
AcDbLine
 10
65.801
 20
0.0
 30
0.0
 11
66.772
 21
0.0
 31
0.0
  0
LINE
  5
6FB
330
1D
100
AcDbEntity
  8
0
100
AcDbLine
 10
65.801
 20
0.0
 30
0.0
 11
66.251
 21
0.0
 31
0.0
  0
LINE
  5
6FC
330
1D
100
AcDbEntity
  8
0
100
AcDbLine
 10
65.801
 20
0.0
 30
0.0
 11
65.875
 21
0.0
 31
0.0
  0
LINE
  5
6FD
330
1D
100
AcDbEntity
  8
0
100
AcDbLine
 10
65.801
 20
0.0
 30
0.0
 11
65.874
 21
0.0
 31
0.0
  0
LINE
  5
6FE
330
1D
100
AcDbEntity
  8
0
100
AcDbLine
 10
65.801
 20
0.0
 30
0.0
 11
66.555
 21
0.0
 31
0.0
  0
LINE
  5
6FF
330
1D
100
AcDbEntity
  8
0
100
AcDbLine
 10
65.801
 20
0.0
 30
0.0
 11
66.064
 21
0.0
 31
0.0
  0
LINE
  5
700
330
1D
100
AcDbEntity
  8
0
100
AcDbLine
 10
65.801
 20
0.0
 30
0.0
 11
66.312
 21
0.0
 31
0.0
  0
LINE
  5
701
330
1D
100
AcDbEntity
  8
0
100
AcDbLine
 10
65.801
 20
0.0
 30
0.0
 11
66.313
 21
0.0
 31
0.0
  0
LINE
  5
702
330
1D
100
AcDbEntity
  8
0
100
AcDbLine
 10
65.801
 20
0.0
 30
0.0
 11
66.065
 21
0.0
 31
0.0
  0
LINE
  5
703
330
1D
100
AcDbEntity
  8
0
100
AcDbLine
 10
65.801
 20
0.0
 30
0.0
 11
66.731
 21
0.0
 31
0.0
  0
LINE
  5
704
330
1D
100
AcDbEntity
  8
0
100
AcDbLine
 10
65.801
 20
0.0
 30
0.0
 11
66.044
 21
0.0
 31
0.0
  0
LINE
  5
705
330
1D
100
AcDbEntity
  8
0
100
AcDbLine
 10
65.801
 20
0.0
 30
0.0
 11
66.73
 21
0.0
 31
0.0
  0
LINE
  5
706
330
1D
100
AcDbEntity
  8
0
100
AcDbLine
 10
65.801
 20
0.0
 30
0.0
 11
66.816
 21
0.0
 31
0.0
  0
LINE
  5
707
330
1D
100
AcDbEntity
  8
0
100
AcDbLine
 10
65.801
 20
0.0
 30
0.0
 11
66.045
 21
0.0
 31
0.0
  0
LINE
  5
708
330
1D
100
AcDbEntity
  8
0
100
AcDbLine
 10
65.801
 20
0.0
 30
0.0
 11
66.292
 21
0.0
 31
0.0
  0
LINE
  5
70A
330
1D
100
AcDbEntity
  8
0
100
AcDbLine
 10
67.273
 20
0.0
 30
0.0
 11
67.957
 21
0.0
 31
0.0
  0
LINE
  5
70B
330
1D
100
AcDbEntity
  8
0
100
AcDbLine
 10
67.355
 20
0.0
 30
0.0
 11
68.368
 21
0.0
 31
0.0
  0
LINE
  5
70C
330
1D
100
AcDbEntity
  8
0
100
AcDbLine
 10
67.293
 20
0.0
 30
0.0
 11
67.978
 21
0.0
 31
0.0
  0
LINE
  5
70D
330
1D
100
AcDbEntity
  8
0
100
AcDbLine
 10
67.293
 20
0.0
 30
0.0
 11
67.977
 21
0.0
 31
0.0
  0
LINE
  5
70E
330
1D
100
AcDbEntity
  8
0
100
AcDbLine
 10
67.65
 20
0.0
 30
0.0
 11
68.184
 21
0.0
 31
0.0
  0
LINE
  5
70F
330
1D
100
AcDbEntity
  8
0
100
AcDbLine
 10
67.957
 20
0.0
 30
0.0
 11
68.339
 21
0.0
 31
0.0
  0
LINE
  5
710
330
1D
100
AcDbEntity
  8
0
100
AcDbLine
 10
67.895
 20
0.0
 30
0.0
 11
68.758
 21
0.0
 31
0.0
  0
LINE
  5
711
330
1D
100
AcDbEntity
  8
0
100
AcDbLine
 10
67.977
 20
0.0
 30
0.0
 11
68.36
 21
0.0
 31
0.0
  0
LINE
  5
712
330
1D
100
AcDbEntity
  8
0
100
AcDbLine
 10
67.978
 20
0.0
 30
0.0
 11
68.36
 21
0.0
 31
0.0
  0
LINE
  5
713
330
1D
100
AcDbEntity
  8
0
100
AcDbLine
 10
67.67
 20
0.0
 30
0.0
 11
68.205
 21
0.0
 31
0.0
  0
LINE
  5
714
330
1D
100
AcDbEntity
  8
0
100
AcDbLine
 10
67.915
 20
0.0
 30
0.0
 11
68.778
 21
0.0
 31
0.0
  0
LINE
  5
715
330
1D
100
AcDbEntity
  8
0
100
AcDbLine
 10
67.375
 20
0.0
 30
0.0
 11
68.388
 21
0.0
 31
0.0
  0
LINE
  5
716
330
1D
100
AcDbEntity
  8
0
100
AcDbLine
 10
67.709
 20
0.0
 30
0.0
 11
68.564
 21
0.0
 31
0.0
  0
LINE
  5
717
330
1D
100
AcDbEntity
  8
0
100
AcDbLine
 10
67.227
 20
0.0
 30
0.0
 11
67.908
 21
0.0
 31
0.0
  0
LINE
  5
718
330
1D
100
AcDbEntity
  8
0
100
AcDbLine
 10
67.908
 20
0.0
 30
0.0
 11
68.288
 21
0.0
 31
0.0
  0
LINE
  5
719
330
1D
100
AcDbEntity
  8
0
100
AcDbLine
 10
68.184
 20
0.0
 30
0.0
 11
68.415
 21
0.0
 31
0.0
  0
LINE
  5
71A
330
1D
100
AcDbEntity
  8
0
100
AcDbLine
 10
68.339
 20
0.0
 30
0.0
 11
68.415
 21
0.0
 31
0.0
  0
LINE
  5
71B
330
1D
100
AcDbEntity
  8
0
100
AcDbLine
 10
68.368
 20
0.0
 30
0.0
 11
69.076
 21
0.0
 31
0.0
  0
LINE
  5
71C
330
1D
100
AcDbEntity
  8
0
100
AcDbLine
 10
68.205
 20
0.0
 30
0.0
 11
68.436
 21
0.0
 31
0.0
  0
LINE
  5
71D
330
1D
100
AcDbEntity
  8
0
100
AcDbLine
 10
68.205
 20
0.0
 30
0.0
 11
68.435
 21
0.0
 31
0.0
  0
LINE
  5
71E
330
1D
100
AcDbEntity
  8
0
100
AcDbLine
 10
68.36
 20
0.0
 30
0.0
 11
68.435
 21
0.0
 31
0.0
  0
LINE
  5
71F
330
1D
100
AcDbEntity
  8
0
100
AcDbLine
 10
68.36
 20
0.0
 30
0.0
 11
68.436
 21
0.0
 31
0.0
  0
LINE
  5
720
330
1D
100
AcDbEntity
  8
0
100
AcDbLine
 10
68.388
 20
0.0
 30
0.0
 11
69.096
 21
0.0
 31
0.0
  0
LINE
  5
722
330
1D
100
AcDbEntity
  8
0
100
AcDbLine
 10
68.177
 20
0.0
 30
0.0
 11
68.879
 21
0.0
 31
0.0
  0
LINE
  5
723
330
1D
100
AcDbEntity
  8
0
100
AcDbLine
 10
68.288
 20
0.0
 30
0.0
 11
68.363
 21
0.0
 31
0.0
  0
LINE
  5
724
330
1D
100
AcDbEntity
  8
0
100
AcDbLine
 10
68.135
 20
0.0
 30
0.0
 11
68.363
 21
0.0
 31
0.0
  0
LINE
  5
725
330
1D
100
AcDbEntity
  8
0
100
AcDbLine
 10
67.602
 20
0.0
 30
0.0
 11
68.135
 21
0.0
 31
0.0
  0
LINE
  5
726
330
1D
100
AcDbEntity
  8
0
100
AcDbLine
 10
68.758
 20
0.0
 30
0.0
 11
69.311
 21
0.0
 31
0.0
  0
LINE
  5
727
330
1D
100
AcDbEntity
  8
0
100
AcDbLine
 10
68.778
 20
0.0
 30
0.0
 11
69.331
 21
0.0
 31
0.0
  0
LINE
  5
728
330
1D
100
AcDbEntity
  8
0
100
AcDbLine
 10
68.564
 20
0.0
 30
0.0
 11
69.112
 21
0.0
 31
0.0
  0
LINE
  5
729
330
1D
100
AcDbEntity
  8
0
100
AcDbLine
 10
69.076
 20
0.0
 30
0.0
 11
69.471
 21
0.0
 31
0.0
  0
LINE
  5
72A
330
1D
100
AcDbEntity
  8
0
100
AcDbLine
 10
69.076
 20
0.0
 30
0.0
 11
69.47
 21
0.0
 31
0.0
  0
LINE
  5
72B
330
1D
100
AcDbEntity
  8
0
100
AcDbLine
 10
69.096
 20
0.0
 30
0.0
 11
69.491
 21
0.0
 31
0.0
  0
LINE
  5
72C
330
1D
100
AcDbEntity
  8
0
100
AcDbLine
 10
69.096
 20
0.0
 30
0.0
 11
69.49
 21
0.0
 31
0.0
  0
LINE
  5
72D
330
1D
100
AcDbEntity
  8
0
100
AcDbLine
 10
69.112
 20
0.0
 30
0.0
 11
69.347
 21
0.0
 31
0.0
  0
LINE
  5
72F
330
1D
100
AcDbEntity
  8
0
100
AcDbLine
 10
68.879
 20
0.0
 30
0.0
 11
69.269
 21
0.0
 31
0.0
  0
LINE
  5
730
330
1D
100
AcDbEntity
  8
0
100
AcDbLine
 10
69.47
 20
0.0
 30
0.0
 11
69.549
 21
0.0
 31
0.0
  0
LINE
  5
731
330
1D
100
AcDbEntity
  8
0
100
AcDbLine
 10
69.311
 20
0.0
 30
0.0
 11
69.549
 21
0.0
 31
0.0
  0
LINE
  5
732
330
1D
100
AcDbEntity
  8
0
100
AcDbLine
 10
69.471
 20
0.0
 30
0.0
 11
69.549
 21
0.0
 31
0.0
  0
LINE
  5
736
330
1D
100
AcDbEntity
  8
0
100
AcDbLine
 10
69.49
 20
0.0
 30
0.0
 11
69.569
 21
0.0
 31
0.0
  0
LINE
  5
737
330
1D
100
AcDbEntity
  8
0
100
AcDbLine
 10
69.331
 20
0.0
 30
0.0
 11
69.569
 21
0.0
 31
0.0
  0
LINE
  5
74E
330
1D
100
AcDbEntity
  8
0
100
AcDbLine
 10
69.491
 20
0.0
 30
0.0
 11
69.569
 21
0.0
 31
0.0
  0
LINE
  5
74F
330
1D
100
AcDbEntity
  8
0
100
AcDbLine
 10
69.269
 20
0.0
 30
0.0
 11
69.348
 21
0.0
 31
0.0
  0
LINE
  5
750
330
1D
100
AcDbEntity
  8
0
100
AcDbLine
 10
69.269
 20
0.0
 30
0.0
 11
69.347
 21
0.0
 31
0.0
  0
LINE
  5
751
330
1D
100
AcDbEntity
  8
0
100
AcDbLine
 10
69.111
 20
0.0
 30
0.0
 11
69.348
 21
0.0
 31
0.0
  0
LINE
  5
752
330
1D
100
AcDbEntity
  8
0
100
AcDbLine
 10
68.563
 20
0.0
 30
0.0
 11
69.111
 21
0.0
 31
0.0
  0
LINE
  5
761
330
1D
100
AcDbEntity
  8
0
100
AcDbLine
 10
67.708
 20
0.0
 30
0.0
 11
68.563
 21
0.0
 31
0.0
  0
LINE
  5
762
330
1D
100
AcDbEntity
  8
0
100
AcDbLine
 10
67.173
 20
0.0
 30
0.0
 11
68.178
 21
0.0
 31
0.0
  0
LINE
  5
763
330
1D
100
AcDbEntity
  8
0
100
AcDbLine
 10
67.173
 20
0.0
 30
0.0
 11
68.177
 21
0.0
 31
0.0
  0
LINE
  5
DA8
330
1D
100
AcDbEntity
  8
0
100
AcDbLine
 10
-0.431
 20
0.0
 30
0.0
 11
-0.431
 21
8.0
 31
0.0
  0
LINE
  5
DA9
330
1D
100
AcDbEntity
  8
0
100
AcDbLine
 10
-0.431
 20
8.0
 30
0.0
 11
-0.431
 21
0.0
 31
0.0
  0
LINE
  5
DAA
330
1D
100
AcDbEntity
  8
0
100
AcDbLine
 10
69.569
 20
0.0
 30
0.0
 11
69.569
 21
8.0
 31
0.0
  0
LINE
  5
DAB
330
1D
100
AcDbEntity
  8
0
100
AcDbLine
 10
69.569
 20
8.0
 30
0.0
 11
69.569
 21
0.0
 31
0.0
  0
LINE
  5
DAC
330
1D
100
AcDbEntity
  8
0
100
AcDbLine
 10
-0.373
 20
0.0
 30
0.0
 11
0.021
 21
0.0
 31
0.0
  0
LINE
  5
DAD
330
1D
100
AcDbEntity
  8
0
100
AcDbLine
 10
-0.214
 20
0.0
 30
0.0
 11
0.34
 21
0.0
 31
0.0
  0
LINE
  5
DAE
330
1D
100
AcDbEntity
  8
0
100
AcDbLine
 10
-0.213
 20
0.0
 30
0.0
 11
0.339
 21
0.0
 31
0.0
  0
LINE
  5
DAF
330
1D
100
AcDbEntity
  8
0
100
AcDbLine
 10
-0.352
 20
0.0
 30
0.0
 11
0.042
 21
0.0
 31
0.0
  0
LINE
  5
DB0
330
1D
100
AcDbEntity
  8
0
100
AcDbLine
 10
-0.193
 20
0.0
 30
0.0
 11
0.36
 21
0.0
 31
0.0
  0
LINE
  5
DB1
330
1D
100
AcDbEntity
  8
0
100
AcDbLine
 10
-0.353
 20
0.0
 30
0.0
 11
0.042
 21
0.0
 31
0.0
  0
LINE
  5
DB2
330
1D
100
AcDbEntity
  8
0
100
AcDbLine
 10
-0.431
 20
0.0
 30
0.0
 11
69.569
 21
0.0
 31
0.0
  0
LINE
  5
DB6
330
1D
100
AcDbEntity
  8
0
100
AcDbLine
 10
-0.431
 20
0.0
 30
0.0
 11
-0.353
 21
0.0
 31
0.0
  0
LINE
  5
DB7
330
1D
100
AcDbEntity
  8
0
100
AcDbLine
 10
-0.431
 20
0.0
 30
0.0
 11
-0.193
 21
0.0
 31
0.0
  0
LINE
  5
DB8
330
1D
100
AcDbEntity
  8
0
100
AcDbLine
 10
-0.431
 20
0.0
 30
0.0
 11
-0.352
 21
0.0
 31
0.0
  0
LINE
  5
DB9
330
1D
100
AcDbEntity
  8
0
100
AcDbLine
 10
0.021
 20
0.0
 30
0.0
 11
0.729
 21
0.0
 31
0.0
  0
LINE
  5
DBA
330
1D
100
AcDbEntity
  8
0
100
AcDbLine
 10
0.042
 20
0.0
 30
0.0
 11
0.75
 21
0.0
 31
0.0
  0
LINE
  5
DBB
330
1D
100
AcDbEntity
  8
0
100
AcDbLine
 10
0.339
 20
0.0
 30
0.0
 11
1.203
 21
0.0
 31
0.0
  0
LINE
  5
DBC
330
1D
100
AcDbEntity
  8
0
100
AcDbLine
 10
0.34
 20
0.0
 30
0.0
 11
1.202
 21
0.0
 31
0.0
  0
LINE
  5
DBD
330
1D
100
AcDbEntity
  8
0
100
AcDbLine
 10
0.36
 20
0.0
 30
0.0
 11
1.223
 21
0.0
 31
0.0
  0
LINE
  5
DBE
330
1D
100
AcDbEntity
  8
0
100
AcDbLine
 10
0.682
 20
0.0
 30
0.0
 11
0.758
 21
0.0
 31
0.0
  0
LINE
  5
DBF
330
1D
100
AcDbEntity
  8
0
100
AcDbLine
 10
0.682
 20
0.0
 30
0.0
 11
0.913
 21
0.0
 31
0.0
  0
LINE
  5
DC0
330
1D
100
AcDbEntity
  8
0
100
AcDbLine
 10
0.702
 20
0.0
 30
0.0
 11
0.933
 21
0.0
 31
0.0
  0
LINE
  5
DC1
330
1D
100
AcDbEntity
  8
0
100
AcDbLine
 10
0.702
 20
0.0
 30
0.0
 11
0.778
 21
0.0
 31
0.0
  0
LINE
  5
DC2
330
1D
100
AcDbEntity
  8
0
100
AcDbLine
 10
0.913
 20
0.0
 30
0.0
 11
1.448
 21
0.0
 31
0.0
  0
LINE
  5
DC3
330
1D
100
AcDbEntity
  8
0
100
AcDbLine
 10
0.758
 20
0.0
 30
0.0
 11
1.14
 21
0.0
 31
0.0
  0
LINE
  5
DC4
330
1D
100
AcDbEntity
  8
0
100
AcDbLine
 10
0.729
 20
0.0
 30
0.0
 11
1.743
 21
0.0
 31
0.0
  0
LINE
  5
DC5
330
1D
100
AcDbEntity
  8
0
100
AcDbLine
 10
1.14
 20
0.0
 30
0.0
 11
1.825
 21
0.0
 31
0.0
  0
LINE
  5
DC6
330
1D
100
AcDbEntity
  8
0
100
AcDbLine
 10
0.933
 20
0.0
 30
0.0
 11
1.468
 21
0.0
 31
0.0
  0
LINE
  5
DC7
330
1D
100
AcDbEntity
  8
0
100
AcDbLine
 10
0.778
 20
0.0
 30
0.0
 11
1.161
 21
0.0
 31
0.0
  0
LINE
  5
DC8
330
1D
100
AcDbEntity
  8
0
100
AcDbLine
 10
0.778
 20
0.0
 30
0.0
 11
1.16
 21
0.0
 31
0.0
  0
LINE
  5
DC9
330
1D
100
AcDbEntity
  8
0
100
AcDbLine
 10
0.703
 20
0.0
 30
0.0
 11
0.778
 21
0.0
 31
0.0
  0
LINE
  5
DCA
330
1D
100
AcDbEntity
  8
0
100
AcDbLine
 10
0.703
 20
0.0
 30
0.0
 11
0.933
 21
0.0
 31
0.0
  0
LINE
  5
DCB
330
1D
100
AcDbEntity
  8
0
100
AcDbLine
 10
0.75
 20
0.0
 30
0.0
 11
1.763
 21
0.0
 31
0.0
  0
LINE
  5
DCC
330
1D
100
AcDbEntity
  8
0
100
AcDbLine
 10
1.202
 20
0.0
 30
0.0
 11
2.367
 21
0.0
 31
0.0
  0
LINE
  5
DCD
330
1D
100
AcDbEntity
  8
0
100
AcDbLine
 10
1.203
 20
0.0
 30
0.0
 11
2.367
 21
0.0
 31
0.0
  0
LINE
  5
DCE
330
1D
100
AcDbEntity
  8
0
100
AcDbLine
 10
1.16
 20
0.0
 30
0.0
 11
1.845
 21
0.0
 31
0.0
  0
LINE
  5
DCF
330
1D
100
AcDbEntity
  8
0
100
AcDbLine
 10
1.161
 20
0.0
 30
0.0
 11
1.845
 21
0.0
 31
0.0
  0
LINE
  5
DD0
330
1D
100
AcDbEntity
  8
0
100
AcDbLine
 10
1.448
 20
0.0
 30
0.0
 11
2.282
 21
0.0
 31
0.0
  0
LINE
  5
DD1
330
1D
100
AcDbEntity
  8
0
100
AcDbLine
 10
1.825
 20
0.0
 30
0.0
 11
2.805
 21
0.0
 31
0.0
  0
LINE
  5
DD2
330
1D
100
AcDbEntity
  8
0
100
AcDbLine
 10
1.743
 20
0.0
 30
0.0
 11
3.053
 21
0.0
 31
0.0
  0
LINE
  5
DD3
330
1D
100
AcDbEntity
  8
0
100
AcDbLine
 10
2.282
 20
0.0
 30
0.0
 11
3.316
 21
0.0
 31
0.0
  0
LINE
  5
DD4
330
1D
100
AcDbEntity
  8
0
100
AcDbLine
 10
1.845
 20
0.0
 30
0.0
 11
2.826
 21
0.0
 31
0.0
  0
LINE
  5
DD5
330
1D
100
AcDbEntity
  8
0
100
AcDbLine
 10
1.845
 20
0.0
 30
0.0
 11
2.825
 21
0.0
 31
0.0
  0
LINE
  5
DD6
330
1D
100
AcDbEntity
  8
0
100
AcDbLine
 10
1.468
 20
0.0
 30
0.0
 11
2.303
 21
0.0
 31
0.0
  0
LINE
  5
DD7
330
1D
100
AcDbEntity
  8
0
100
AcDbLine
 10
1.468
 20
0.0
 30
0.0
 11
2.302
 21
0.0
 31
0.0
  0
LINE
  5
DD8
330
1D
100
AcDbEntity
  8
0
100
AcDbLine
 10
2.367
 20
0.0
 30
0.0
 11
3.316
 21
0.0
 31
0.0
  0
LINE
  5
DD9
330
1D
100
AcDbEntity
  8
0
100
AcDbLine
 10
2.303
 20
0.0
 30
0.0
 11
3.316
 21
0.0
 31
0.0
  0
LINE
  5
DDA
330
1D
100
AcDbEntity
  8
0
100
AcDbLine
 10
2.302
 20
0.0
 30
0.0
 11
3.316
 21
0.0
 31
0.0
  0
LINE
  5
DDB
330
1D
100
AcDbEntity
  8
0
100
AcDbLine
 10
1.223
 20
0.0
 30
0.0
 11
2.387
 21
0.0
 31
0.0
  0
LINE
  5
DDC
330
1D
100
AcDbEntity
  8
0
100
AcDbLine
 10
1.223
 20
0.0
 30
0.0
 11
2.388
 21
0.0
 31
0.0
  0
LINE
  5
DDD
330
1D
100
AcDbEntity
  8
0
100
AcDbLine
 10
1.763
 20
0.0
 30
0.0
 11
3.074
 21
0.0
 31
0.0
  0
LINE
  5
DDE
330
1D
100
AcDbEntity
  8
0
100
AcDbLine
 10
1.763
 20
0.0
 30
0.0
 11
3.073
 21
0.0
 31
0.0
  0
LINE
  5
DDF
330
1D
100
AcDbEntity
  8
0
100
AcDbLine
 10
2.805
 20
0.0
 30
0.0
 11
3.316
 21
0.0
 31
0.0
  0
LINE
  5
DE0
330
1D
100
AcDbEntity
  8
0
100
AcDbLine
 10
2.825
 20
0.0
 30
0.0
 11
4.093
 21
0.0
 31
0.0
  0
LINE
  5
DE1
330
1D
100
AcDbEntity
  8
0
100
AcDbLine
 10
3.053
 20
0.0
 30
0.0
 11
3.316
 21
0.0
 31
0.0
  0
LINE
  5
DE2
330
1D
100
AcDbEntity
  8
0
100
AcDbLine
 10
3.073
 20
0.0
 30
0.0
 11
4.668
 21
0.0
 31
0.0
  0
LINE
  5
DE3
330
1D
100
AcDbEntity
  8
0
100
AcDbLine
 10
2.826
 20
0.0
 30
0.0
 11
4.094
 21
0.0
 31
0.0
  0
LINE
  5
DE4
330
1D
100
AcDbEntity
  8
0
100
AcDbLine
 10
2.388
 20
0.0
 30
0.0
 11
3.316
 21
0.0
 31
0.0
  0
LINE
  5
DE5
330
1D
100
AcDbEntity
  8
0
100
AcDbLine
 10
3.316
 20
0.0
 30
0.0
 11
4.468
 21
0.0
 31
0.0
  0
LINE
  5
DE6
330
1D
100
AcDbEntity
  8
0
100
AcDbLine
 10
4.468
 20
0.0
 30
0.0
 11
7.54
 21
0.0
 31
0.0
  0
LINE
  5
DE7
330
1D
100
AcDbEntity
  8
0
100
AcDbLine
 10
4.093
 20
0.0
 30
0.0
 11
5.637
 21
0.0
 31
0.0
  0
LINE
  5
DE8
330
1D
100
AcDbEntity
  8
0
100
AcDbLine
 10
6.535
 20
0.0
 30
0.0
 11
8.656
 21
0.0
 31
0.0
  0
LINE
  5
DE9
330
1D
100
AcDbEntity
  8
0
100
AcDbLine
 10
4.668
 20
0.0
 30
0.0
 11
6.535
 21
0.0
 31
0.0
  0
LINE
  5
DEA
330
1D
100
AcDbEntity
  8
0
100
AcDbLine
 10
4.094
 20
0.0
 30
0.0
 11
5.637
 21
0.0
 31
0.0
  0
LINE
  5
DEB
330
1D
100
AcDbEntity
  8
0
100
AcDbLine
 10
3.074
 20
0.0
 30
0.0
 11
4.669
 21
0.0
 31
0.0
  0
LINE
  5
DEC
330
1D
100
AcDbEntity
  8
0
100
AcDbLine
 10
4.669
 20
0.0
 30
0.0
 11
6.536
 21
0.0
 31
0.0
  0
LINE
  5
DED
330
1D
100
AcDbEntity
  8
0
100
AcDbLine
 10
7.54
 20
0.0
 30
0.0
 11
12.532
 21
0.0
 31
0.0
  0
LINE
  5
DEE
330
1D
100
AcDbEntity
  8
0
100
AcDbLine
 10
9.494
 20
0.0
 30
0.0
 11
11.773
 21
0.0
 31
0.0
  0
LINE
  5
DEF
330
1D
100
AcDbEntity
  8
0
100
AcDbLine
 10
7.444
 20
0.0
 30
0.0
 11
9.494
 21
0.0
 31
0.0
  0
LINE
  5
DF0
330
1D
100
AcDbEntity
  8
0
100
AcDbLine
 10
7.444
 20
0.0
 30
0.0
 11
9.495
 21
0.0
 31
0.0
  0
LINE
  5
DF1
330
1D
100
AcDbEntity
  8
0
100
AcDbLine
 10
9.495
 20
0.0
 30
0.0
 11
11.773
 21
0.0
 31
0.0
  0
LINE
  5
DF2
330
1D
100
AcDbEntity
  8
0
100
AcDbLine
 10
8.656
 20
0.0
 30
0.0
 11
11.01
 21
0.0
 31
0.0
  0
LINE
  5
DF3
330
1D
100
AcDbEntity
  8
0
100
AcDbLine
 10
6.536
 20
0.0
 30
0.0
 11
8.655
 21
0.0
 31
0.0
  0
LINE
  5
DF4
330
1D
100
AcDbEntity
  8
0
100
AcDbLine
 10
8.655
 20
0.0
 30
0.0
 11
11.01
 21
0.0
 31
0.0
  0
LINE
  5
DF5
330
1D
100
AcDbEntity
  8
0
100
AcDbLine
 10
12.532
 20
0.0
 30
0.0
 11
19.06
 21
0.0
 31
0.0
  0
LINE
  5
DF6
330
1D
100
AcDbEntity
  8
0
100
AcDbLine
 10
14.258
 20
0.0
 30
0.0
 11
16.926
 21
0.0
 31
0.0
  0
LINE
  5
DF7
330
1D
100
AcDbEntity
  8
0
100
AcDbLine
 10
11.773
 20
0.0
 30
0.0
 11
14.258
 21
0.0
 31
0.0
  0
LINE
  5
DF8
330
1D
100
AcDbEntity
  8
0
100
AcDbLine
 10
11.01
 20
0.0
 30
0.0
 11
13.578
 21
0.0
 31
0.0
  0
LINE
  5
DF9
330
1D
100
AcDbEntity
  8
0
100
AcDbLine
 10
13.578
 20
0.0
 30
0.0
 11
16.336
 21
0.0
 31
0.0
  0
LINE
  5
DFA
330
1D
100
AcDbEntity
  8
0
100
AcDbLine
 10
13.578
 20
0.0
 30
0.0
 11
16.337
 21
0.0
 31
0.0
  0
LINE
  5
DFB
330
1D
100
AcDbEntity
  8
0
100
AcDbLine
 10
19.06
 20
0.0
 30
0.0
 11
26.484
 21
0.0
 31
0.0
  0
LINE
  5
DFC
330
1D
100
AcDbEntity
  8
0
100
AcDbLine
 10
19.754
 20
0.0
 30
0.0
 11
22.717
 21
0.0
 31
0.0
  0
LINE
  5
DFD
330
1D
100
AcDbEntity
  8
0
100
AcDbLine
 10
19.755
 20
0.0
 30
0.0
 11
22.717
 21
0.0
 31
0.0
  0
LINE
  5
DFE
330
1D
100
AcDbEntity
  8
0
100
AcDbLine
 10
16.926
 20
0.0
 30
0.0
 11
19.755
 21
0.0
 31
0.0
  0
LINE
  5
DFF
330
1D
100
AcDbEntity
  8
0
100
AcDbLine
 10
16.926
 20
0.0
 30
0.0
 11
19.754
 21
0.0
 31
0.0
  0
LINE
  5
E00
330
1D
100
AcDbEntity
  8
0
100
AcDbLine
 10
16.337
 20
0.0
 30
0.0
 11
19.259
 21
0.0
 31
0.0
  0
LINE
  5
E01
330
1D
100
AcDbEntity
  8
0
100
AcDbLine
 10
16.336
 20
0.0
 30
0.0
 11
19.259
 21
0.0
 31
0.0
  0
LINE
  5
E02
330
1D
100
AcDbEntity
  8
0
100
AcDbLine
 10
19.259
 20
0.0
 30
0.0
 11
22.321
 21
0.0
 31
0.0
  0
LINE
  5
E03
330
1D
100
AcDbEntity
  8
0
100
AcDbLine
 10
25.786
 20
0.0
 30
0.0
 11
28.935
 21
0.0
 31
0.0
  0
LINE
  5
E04
330
1D
100
AcDbEntity
  8
0
100
AcDbLine
 10
26.484
 20
0.0
 30
0.0
 11
34.548
 21
0.0
 31
0.0
  0
LINE
  5
E05
330
1D
100
AcDbEntity
  8
0
100
AcDbLine
 10
25.787
 20
0.0
 30
0.0
 11
28.936
 21
0.0
 31
0.0
  0
LINE
  5
E06
330
1D
100
AcDbEntity
  8
0
100
AcDbLine
 10
22.717
 20
0.0
 30
0.0
 11
25.787
 21
0.0
 31
0.0
  0
LINE
  5
E07
330
1D
100
AcDbEntity
  8
0
100
AcDbLine
 10
22.717
 20
0.0
 30
0.0
 11
25.786
 21
0.0
 31
0.0
  0
LINE
  5
E08
330
1D
100
AcDbEntity
  8
0
100
AcDbLine
 10
22.321
 20
0.0
 30
0.0
 11
25.493
 21
0.0
 31
0.0
  0
LINE
  5
E09
330
1D
100
AcDbEntity
  8
0
100
AcDbLine
 10
25.493
 20
0.0
 30
0.0
 11
28.747
 21
0.0
 31
0.0
  0
LINE
  5
E0A
330
1D
100
AcDbEntity
  8
0
100
AcDbLine
 10
25.493
 20
0.0
 30
0.0
 11
28.748
 21
0.0
 31
0.0
  0
LINE
  5
E0B
330
1D
100
AcDbEntity
  8
0
100
AcDbLine
 10
28.935
 20
0.0
 30
0.0
 11
32.136
 21
0.0
 31
0.0
  0
LINE
  5
E0C
330
1D
100
AcDbEntity
  8
0
100
AcDbLine
 10
34.548
 20
0.0
 30
0.0
 11
42.612
 21
0.0
 31
0.0
  0
LINE
  5
E0D
330
1D
100
AcDbEntity
  8
0
100
AcDbLine
 10
35.358
 20
0.0
 30
0.0
 11
38.572
 21
0.0
 31
0.0
  0
LINE
  5
E0E
330
1D
100
AcDbEntity
  8
0
100
AcDbLine
 10
35.358
 20
0.0
 30
0.0
 11
38.573
 21
0.0
 31
0.0
  0
LINE
  5
E0F
330
1D
100
AcDbEntity
  8
0
100
AcDbLine
 10
32.136
 20
0.0
 30
0.0
 11
35.358
 21
0.0
 31
0.0
  0
LINE
  5
E10
330
1D
100
AcDbEntity
  8
0
100
AcDbLine
 10
28.936
 20
0.0
 30
0.0
 11
32.136
 21
0.0
 31
0.0
  0
LINE
  5
E11
330
1D
100
AcDbEntity
  8
0
100
AcDbLine
 10
28.748
 20
0.0
 30
0.0
 11
32.055
 21
0.0
 31
0.0
  0
LINE
  5
E12
330
1D
100
AcDbEntity
  8
0
100
AcDbLine
 10
28.747
 20
0.0
 30
0.0
 11
32.055
 21
0.0
 31
0.0
  0
LINE
  5
E13
330
1D
100
AcDbEntity
  8
0
100
AcDbLine
 10
32.055
 20
0.0
 30
0.0
 11
35.384
 21
0.0
 31
0.0
  0
LINE
  5
E14
330
1D
100
AcDbEntity
  8
0
100
AcDbLine
 10
38.573
 20
0.0
 30
0.0
 11
41.751
 21
0.0
 31
0.0
  0
LINE
  5
E15
330
1D
100
AcDbEntity
  8
0
100
AcDbLine
 10
41.991
 20
0.0
 30
0.0
 11
45.208
 21
0.0
 31
0.0
  0
LINE
  5
E16
330
1D
100
AcDbEntity
  8
0
100
AcDbLine
 10
38.572
 20
0.0
 30
0.0
 11
41.751
 21
0.0
 31
0.0
  0
LINE
  5
E17
330
1D
100
AcDbEntity
  8
0
100
AcDbLine
 10
38.706
 20
0.0
 30
0.0
 11
41.991
 21
0.0
 31
0.0
  0
LINE
  5
E18
330
1D
100
AcDbEntity
  8
0
100
AcDbLine
 10
35.384
 20
0.0
 30
0.0
 11
38.707
 21
0.0
 31
0.0
  0
LINE
  5
E19
330
1D
100
AcDbEntity
  8
0
100
AcDbLine
 10
35.384
 20
0.0
 30
0.0
 11
38.706
 21
0.0
 31
0.0
  0
LINE
  5
E1A
330
1D
100
AcDbEntity
  8
0
100
AcDbLine
 10
38.707
 20
0.0
 30
0.0
 11
41.992
 21
0.0
 31
0.0
  0
LINE
  5
E1B
330
1D
100
AcDbEntity
  8
0
100
AcDbLine
 10
42.612
 20
0.0
 30
0.0
 11
50.036
 21
0.0
 31
0.0
  0
LINE
  5
E1C
330
1D
100
AcDbEntity
  8
0
100
AcDbLine
 10
47.884
 20
0.0
 30
0.0
 11
50.782
 21
0.0
 31
0.0
  0
LINE
  5
E1D
330
1D
100
AcDbEntity
  8
0
100
AcDbLine
 10
47.883
 20
0.0
 30
0.0
 11
50.782
 21
0.0
 31
0.0
  0
LINE
  5
E1E
330
1D
100
AcDbEntity
  8
0
100
AcDbLine
 10
44.864
 20
0.0
 30
0.0
 11
47.883
 21
0.0
 31
0.0
  0
LINE
  5
E1F
330
1D
100
AcDbEntity
  8
0
100
AcDbLine
 10
44.864
 20
0.0
 30
0.0
 11
47.884
 21
0.0
 31
0.0
  0
LINE
  5
E20
330
1D
100
AcDbEntity
  8
0
100
AcDbLine
 10
45.208
 20
0.0
 30
0.0
 11
48.33
 21
0.0
 31
0.0
  0
LINE
  5
E21
330
1D
100
AcDbEntity
  8
0
100
AcDbLine
 10
41.992
 20
0.0
 30
0.0
 11
45.209
 21
0.0
 31
0.0
  0
LINE
  5
E22
330
1D
100
AcDbEntity
  8
0
100
AcDbLine
 10
45.209
 20
0.0
 30
0.0
 11
48.33
 21
0.0
 31
0.0
  0
LINE
  5
E23
330
1D
100
AcDbEntity
  8
0
100
AcDbLine
 10
50.036
 20
0.0
 30
0.0
 11
56.564
 21
0.0
 31
0.0
  0
LINE
  5
E24
330
1D
100
AcDbEntity
  8
0
100
AcDbLine
 10
53.535
 20
0.0
 30
0.0
 11
56.115
 21
0.0
 31
0.0
  0
LINE
  5
E25
330
1D
100
AcDbEntity
  8
0
100
AcDbLine
 10
50.782
 20
0.0
 30
0.0
 11
53.535
 21
0.0
 31
0.0
  0
LINE
  5
E26
330
1D
100
AcDbEntity
  8
0
100
AcDbLine
 10
48.33
 20
0.0
 30
0.0
 11
51.326
 21
0.0
 31
0.0
  0
LINE
  5
E27
330
1D
100
AcDbEntity
  8
0
100
AcDbLine
 10
51.326
 20
0.0
 30
0.0
 11
54.17
 21
0.0
 31
0.0
  0
LINE
  5
E28
330
1D
100
AcDbEntity
  8
0
100
AcDbLine
 10
51.326
 20
0.0
 30
0.0
 11
54.171
 21
0.0
 31
0.0
  0
LINE
  5
E29
330
1D
100
AcDbEntity
  8
0
100
AcDbLine
 10
56.564
 20
0.0
 30
0.0
 11
61.556
 21
0.0
 31
0.0
  0
LINE
  5
E2A
330
1D
100
AcDbEntity
  8
0
100
AcDbLine
 10
58.501
 20
0.0
 30
0.0
 11
60.668
 21
0.0
 31
0.0
  0
LINE
  5
E2B
330
1D
100
AcDbEntity
  8
0
100
AcDbLine
 10
58.501
 20
0.0
 30
0.0
 11
60.669
 21
0.0
 31
0.0
  0
LINE
  5
E2C
330
1D
100
AcDbEntity
  8
0
100
AcDbLine
 10
54.171
 20
0.0
 30
0.0
 11
56.837
 21
0.0
 31
0.0
  0
LINE
  5
E2D
330
1D
100
AcDbEntity
  8
0
100
AcDbLine
 10
54.17
 20
0.0
 30
0.0
 11
56.837
 21
0.0
 31
0.0
  0
LINE
  5
E2E
330
1D
100
AcDbEntity
  8
0
100
AcDbLine
 10
56.837
 20
0.0
 30
0.0
 11
59.302
 21
0.0
 31
0.0
  0
LINE
  5
E2F
330
1D
100
AcDbEntity
  8
0
100
AcDbLine
 10
56.837
 20
0.0
 30
0.0
 11
59.303
 21
0.0
 31
0.0
  0
LINE
  5
E30
330
1D
100
AcDbEntity
  8
0
100
AcDbLine
 10
61.556
 20
0.0
 30
0.0
 11
64.628
 21
0.0
 31
0.0
  0
LINE
  5
E31
330
1D
100
AcDbEntity
  8
0
100
AcDbLine
 10
60.669
 20
0.0
 30
0.0
 11
62.6
 21
0.0
 31
0.0
  0
LINE
  5
E32
330
1D
100
AcDbEntity
  8
0
100
AcDbLine
 10
60.668
 20
0.0
 30
0.0
 11
62.601
 21
0.0
 31
0.0
  0
LINE
  5
E33
330
1D
100
AcDbEntity
  8
0
100
AcDbLine
 10
59.303
 20
0.0
 30
0.0
 11
61.543
 21
0.0
 31
0.0
  0
LINE
  5
E34
330
1D
100
AcDbEntity
  8
0
100
AcDbLine
 10
59.302
 20
0.0
 30
0.0
 11
61.543
 21
0.0
 31
0.0
  0
LINE
  5
E35
330
1D
100
AcDbEntity
  8
0
100
AcDbLine
 10
61.543
 20
0.0
 30
0.0
 11
63.539
 21
0.0
 31
0.0
  0
LINE
  5
E36
330
1D
100
AcDbEntity
  8
0
100
AcDbLine
 10
61.543
 20
0.0
 30
0.0
 11
63.54
 21
0.0
 31
0.0
  0
LINE
  5
E37
330
1D
100
AcDbEntity
  8
0
100
AcDbLine
 10
62.601
 20
0.0
 30
0.0
 11
64.279
 21
0.0
 31
0.0
  0
LINE
  5
E38
330
1D
100
AcDbEntity
  8
0
100
AcDbLine
 10
64.628
 20
0.0
 30
0.0
 11
65.78
 21
0.0
 31
0.0
  0
LINE
  5
E39
330
1D
100
AcDbEntity
  8
0
100
AcDbLine
 10
65.688
 20
0.0
 30
0.0
 11
66.814
 21
0.0
 31
0.0
  0
LINE
  5
E3A
330
1D
100
AcDbEntity
  8
0
100
AcDbLine
 10
65.687
 20
0.0
 30
0.0
 11
66.815
 21
0.0
 31
0.0
  0
LINE
  5
E3B
330
1D
100
AcDbEntity
  8
0
100
AcDbLine
 10
63.54
 20
0.0
 30
0.0
 11
65.274
 21
0.0
 31
0.0
  0
LINE
  5
E3C
330
1D
100
AcDbEntity
  8
0
100
AcDbLine
 10
64.279
 20
0.0
 30
0.0
 11
65.688
 21
0.0
 31
0.0
  0
LINE
  5
E3D
330
1D
100
AcDbEntity
  8
0
100
AcDbLine
 10
64.279
 20
0.0
 30
0.0
 11
65.687
 21
0.0
 31
0.0
  0
LINE
  5
E3E
330
1D
100
AcDbEntity
  8
0
100
AcDbLine
 10
62.6
 20
0.0
 30
0.0
 11
64.279
 21
0.0
 31
0.0
  0
LINE
  5
E3F
330
1D
100
AcDbEntity
  8
0
100
AcDbLine
 10
65.274
 20
0.0
 30
0.0
 11
66.73
 21
0.0
 31
0.0
  0
LINE
  5
E40
330
1D
100
AcDbEntity
  8
0
100
AcDbLine
 10
65.274
 20
0.0
 30
0.0
 11
66.729
 21
0.0
 31
0.0
  0
LINE
  5
E41
330
1D
100
AcDbEntity
  8
0
100
AcDbLine
 10
2.387
 20
0.0
 30
0.0
 11
3.316
 21
0.0
 31
0.0
  0
LINE
  5
E42
330
1D
100
AcDbEntity
  8
0
100
AcDbLine
 10
63.539
 20
0.0
 30
0.0
 11
65.274
 21
0.0
 31
0.0
  0
LINE
  5
E43
330
1D
100
AcDbEntity
  8
0
100
AcDbLine
 10
65.853
 20
0.0
 30
0.0
 11
67.152
 21
0.0
 31
0.0
  0
LINE
  5
E44
330
1D
100
AcDbEntity
  8
0
100
AcDbLine
 10
2.153
 20
0.0
 30
0.0
 11
3.316
 21
0.0
 31
0.0
  0
LINE
  5
E45
330
1D
100
AcDbEntity
  8
0
100
AcDbLine
 10
1.149
 20
0.0
 30
0.0
 11
2.153
 21
0.0
 31
0.0
  0
LINE
  5
E46
330
1D
100
AcDbEntity
  8
0
100
AcDbLine
 10
0.448
 20
0.0
 30
0.0
 11
1.149
 21
0.0
 31
0.0
  0
LINE
  5
E47
330
1D
100
AcDbEntity
  8
0
100
AcDbLine
 10
0.057
 20
0.0
 30
0.0
 11
0.448
 21
0.0
 31
0.0
  0
LINE
  5
E48
330
1D
100
AcDbEntity
  8
0
100
AcDbLine
 10
-0.021
 20
0.0
 30
0.0
 11
0.057
 21
0.0
 31
0.0
  0
LINE
  5
E49
330
1D
100
AcDbEntity
  8
0
100
AcDbLine
 10
66.271
 20
0.0
 30
0.0
 11
67.252
 21
0.0
 31
0.0
  0
LINE
  5
E4A
330
1D
100
AcDbEntity
  8
0
100
AcDbLine
 10
66.024
 20
0.0
 30
0.0
 11
67.334
 21
0.0
 31
0.0
  0
LINE
  5
E4B
330
1D
100
AcDbEntity
  8
0
100
AcDbLine
 10
66.023
 20
0.0
 30
0.0
 11
67.334
 21
0.0
 31
0.0
  0
LINE
  5
E4C
330
1D
100
AcDbEntity
  8
0
100
AcDbLine
 10
66.044
 20
0.0
 30
0.0
 11
67.354
 21
0.0
 31
0.0
  0
LINE
  5
E4D
330
1D
100
AcDbEntity
  8
0
100
AcDbLine
 10
66.292
 20
0.0
 30
0.0
 11
67.272
 21
0.0
 31
0.0
  0
LINE
  5
E4E
330
1D
100
AcDbEntity
  8
0
100
AcDbLine
 10
66.291
 20
0.0
 30
0.0
 11
67.272
 21
0.0
 31
0.0
  0
LINE
  5
E4F
330
1D
100
AcDbEntity
  8
0
100
AcDbLine
 10
66.043
 20
0.0
 30
0.0
 11
67.354
 21
0.0
 31
0.0
  0
LINE
  5
E50
330
1D
100
AcDbEntity
  8
0
100
AcDbLine
 10
65.854
 20
0.0
 30
0.0
 11
67.152
 21
0.0
 31
0.0
  0
LINE
  5
E51
330
1D
100
AcDbEntity
  8
0
100
AcDbLine
 10
66.23
 20
0.0
 30
0.0
 11
67.206
 21
0.0
 31
0.0
  0
LINE
  5
E52
330
1D
100
AcDbEntity
  8
0
100
AcDbLine
 10
66.709
 20
0.0
 30
0.0
 11
67.874
 21
0.0
 31
0.0
  0
LINE
  5
E53
330
1D
100
AcDbEntity
  8
0
100
AcDbLine
 10
66.71
 20
0.0
 30
0.0
 11
67.874
 21
0.0
 31
0.0
  0
LINE
  5
E54
330
1D
100
AcDbEntity
  8
0
100
AcDbLine
 10
66.795
 20
0.0
 30
0.0
 11
67.629
 21
0.0
 31
0.0
  0
LINE
  5
E55
330
1D
100
AcDbEntity
  8
0
100
AcDbLine
 10
66.814
 20
0.0
 30
0.0
 11
67.649
 21
0.0
 31
0.0
  0
LINE
  5
E56
330
1D
100
AcDbEntity
  8
0
100
AcDbLine
 10
66.815
 20
0.0
 30
0.0
 11
67.649
 21
0.0
 31
0.0
  0
LINE
  5
E57
330
1D
100
AcDbEntity
  8
0
100
AcDbLine
 10
66.729
 20
0.0
 30
0.0
 11
67.894
 21
0.0
 31
0.0
  0
LINE
  5
E58
330
1D
100
AcDbEntity
  8
0
100
AcDbLine
 10
66.73
 20
0.0
 30
0.0
 11
67.894
 21
0.0
 31
0.0
  0
LINE
  5
E59
330
1D
100
AcDbEntity
  8
0
100
AcDbLine
 10
66.534
 20
0.0
 30
0.0
 11
67.688
 21
0.0
 31
0.0
  0
LINE
  5
E5A
330
1D
100
AcDbEntity
  8
0
100
AcDbLine
 10
66.751
 20
0.0
 30
0.0
 11
67.581
 21
0.0
 31
0.0
  0
LINE
  5
E5B
330
1D
100
AcDbEntity
  8
0
100
AcDbLine
 10
66.533
 20
0.0
 30
0.0
 11
67.687
 21
0.0
 31
0.0
  0
LINE
  5
E5C
330
1D
100
AcDbEntity
  8
0
100
AcDbLine
 10
65.78
 20
0.0
 30
0.0
 11
66.533
 21
0.0
 31
0.0
  0
LINE
  5
E5D
330
1D
100
AcDbEntity
  8
0
100
AcDbLine
 10
65.78
 20
0.0
 30
0.0
 11
66.751
 21
0.0
 31
0.0
  0
LINE
  5
E5E
330
1D
100
AcDbEntity
  8
0
100
AcDbLine
 10
65.78
 20
0.0
 30
0.0
 11
66.23
 21
0.0
 31
0.0
  0
LINE
  5
E5F
330
1D
100
AcDbEntity
  8
0
100
AcDbLine
 10
65.78
 20
0.0
 30
0.0
 11
65.854
 21
0.0
 31
0.0
  0
LINE
  5
E60
330
1D
100
AcDbEntity
  8
0
100
AcDbLine
 10
65.78
 20
0.0
 30
0.0
 11
65.853
 21
0.0
 31
0.0
  0
LINE
  5
E61
330
1D
100
AcDbEntity
  8
0
100
AcDbLine
 10
65.78
 20
0.0
 30
0.0
 11
66.534
 21
0.0
 31
0.0
  0
LINE
  5
E62
330
1D
100
AcDbEntity
  8
0
100
AcDbLine
 10
65.78
 20
0.0
 30
0.0
 11
66.043
 21
0.0
 31
0.0
  0
LINE
  5
E63
330
1D
100
AcDbEntity
  8
0
100
AcDbLine
 10
65.78
 20
0.0
 30
0.0
 11
66.291
 21
0.0
 31
0.0
  0
LINE
  5
E64
330
1D
100
AcDbEntity
  8
0
100
AcDbLine
 10
65.78
 20
0.0
 30
0.0
 11
66.292
 21
0.0
 31
0.0
  0
LINE
  5
E65
330
1D
100
AcDbEntity
  8
0
100
AcDbLine
 10
65.78
 20
0.0
 30
0.0
 11
66.044
 21
0.0
 31
0.0
  0
LINE
  5
E66
330
1D
100
AcDbEntity
  8
0
100
AcDbLine
 10
65.78
 20
0.0
 30
0.0
 11
66.71
 21
0.0
 31
0.0
  0
LINE
  5
E67
330
1D
100
AcDbEntity
  8
0
100
AcDbLine
 10
65.78
 20
0.0
 30
0.0
 11
66.023
 21
0.0
 31
0.0
  0
LINE
  5
E68
330
1D
100
AcDbEntity
  8
0
100
AcDbLine
 10
65.78
 20
0.0
 30
0.0
 11
66.709
 21
0.0
 31
0.0
  0
LINE
  5
E69
330
1D
100
AcDbEntity
  8
0
100
AcDbLine
 10
65.78
 20
0.0
 30
0.0
 11
66.795
 21
0.0
 31
0.0
  0
LINE
  5
E6A
330
1D
100
AcDbEntity
  8
0
100
AcDbLine
 10
65.78
 20
0.0
 30
0.0
 11
66.024
 21
0.0
 31
0.0
  0
LINE
  5
E6B
330
1D
100
AcDbEntity
  8
0
100
AcDbLine
 10
65.78
 20
0.0
 30
0.0
 11
66.271
 21
0.0
 31
0.0
  0
LINE
  5
E6C
330
1D
100
AcDbEntity
  8
0
100
AcDbLine
 10
67.252
 20
0.0
 30
0.0
 11
67.936
 21
0.0
 31
0.0
  0
LINE
  5
E6D
330
1D
100
AcDbEntity
  8
0
100
AcDbLine
 10
67.334
 20
0.0
 30
0.0
 11
68.347
 21
0.0
 31
0.0
  0
LINE
  5
E6E
330
1D
100
AcDbEntity
  8
0
100
AcDbLine
 10
67.272
 20
0.0
 30
0.0
 11
67.957
 21
0.0
 31
0.0
  0
LINE
  5
E6F
330
1D
100
AcDbEntity
  8
0
100
AcDbLine
 10
67.272
 20
0.0
 30
0.0
 11
67.956
 21
0.0
 31
0.0
  0
LINE
  5
E70
330
1D
100
AcDbEntity
  8
0
100
AcDbLine
 10
67.629
 20
0.0
 30
0.0
 11
68.163
 21
0.0
 31
0.0
  0
LINE
  5
E71
330
1D
100
AcDbEntity
  8
0
100
AcDbLine
 10
67.936
 20
0.0
 30
0.0
 11
68.318
 21
0.0
 31
0.0
  0
LINE
  5
E72
330
1D
100
AcDbEntity
  8
0
100
AcDbLine
 10
67.874
 20
0.0
 30
0.0
 11
68.737
 21
0.0
 31
0.0
  0
LINE
  5
E73
330
1D
100
AcDbEntity
  8
0
100
AcDbLine
 10
67.956
 20
0.0
 30
0.0
 11
68.339
 21
0.0
 31
0.0
  0
LINE
  5
E74
330
1D
100
AcDbEntity
  8
0
100
AcDbLine
 10
67.957
 20
0.0
 30
0.0
 11
68.339
 21
0.0
 31
0.0
  0
LINE
  5
E75
330
1D
100
AcDbEntity
  8
0
100
AcDbLine
 10
67.649
 20
0.0
 30
0.0
 11
68.184
 21
0.0
 31
0.0
  0
LINE
  5
E76
330
1D
100
AcDbEntity
  8
0
100
AcDbLine
 10
67.894
 20
0.0
 30
0.0
 11
68.757
 21
0.0
 31
0.0
  0
LINE
  5
E77
330
1D
100
AcDbEntity
  8
0
100
AcDbLine
 10
67.354
 20
0.0
 30
0.0
 11
68.367
 21
0.0
 31
0.0
  0
LINE
  5
E78
330
1D
100
AcDbEntity
  8
0
100
AcDbLine
 10
67.688
 20
0.0
 30
0.0
 11
68.543
 21
0.0
 31
0.0
  0
LINE
  5
E79
330
1D
100
AcDbEntity
  8
0
100
AcDbLine
 10
67.206
 20
0.0
 30
0.0
 11
67.887
 21
0.0
 31
0.0
  0
LINE
  5
E7A
330
1D
100
AcDbEntity
  8
0
100
AcDbLine
 10
67.887
 20
0.0
 30
0.0
 11
68.267
 21
0.0
 31
0.0
  0
LINE
  5
E7B
330
1D
100
AcDbEntity
  8
0
100
AcDbLine
 10
68.163
 20
0.0
 30
0.0
 11
68.394
 21
0.0
 31
0.0
  0
LINE
  5
E7C
330
1D
100
AcDbEntity
  8
0
100
AcDbLine
 10
68.318
 20
0.0
 30
0.0
 11
68.394
 21
0.0
 31
0.0
  0
LINE
  5
E7D
330
1D
100
AcDbEntity
  8
0
100
AcDbLine
 10
68.347
 20
0.0
 30
0.0
 11
69.055
 21
0.0
 31
0.0
  0
LINE
  5
E7E
330
1D
100
AcDbEntity
  8
0
100
AcDbLine
 10
68.184
 20
0.0
 30
0.0
 11
68.415
 21
0.0
 31
0.0
  0
LINE
  5
E7F
330
1D
100
AcDbEntity
  8
0
100
AcDbLine
 10
68.184
 20
0.0
 30
0.0
 11
68.414
 21
0.0
 31
0.0
  0
LINE
  5
E80
330
1D
100
AcDbEntity
  8
0
100
AcDbLine
 10
68.339
 20
0.0
 30
0.0
 11
68.414
 21
0.0
 31
0.0
  0
LINE
  5
E81
330
1D
100
AcDbEntity
  8
0
100
AcDbLine
 10
68.339
 20
0.0
 30
0.0
 11
68.415
 21
0.0
 31
0.0
  0
LINE
  5
E82
330
1D
100
AcDbEntity
  8
0
100
AcDbLine
 10
68.367
 20
0.0
 30
0.0
 11
69.075
 21
0.0
 31
0.0
  0
LINE
  5
E83
330
1D
100
AcDbEntity
  8
0
100
AcDbLine
 10
68.156
 20
0.0
 30
0.0
 11
68.858
 21
0.0
 31
0.0
  0
LINE
  5
E84
330
1D
100
AcDbEntity
  8
0
100
AcDbLine
 10
68.267
 20
0.0
 30
0.0
 11
68.342
 21
0.0
 31
0.0
  0
LINE
  5
E85
330
1D
100
AcDbEntity
  8
0
100
AcDbLine
 10
68.114
 20
0.0
 30
0.0
 11
68.342
 21
0.0
 31
0.0
  0
LINE
  5
E86
330
1D
100
AcDbEntity
  8
0
100
AcDbLine
 10
67.581
 20
0.0
 30
0.0
 11
68.114
 21
0.0
 31
0.0
  0
LINE
  5
E87
330
1D
100
AcDbEntity
  8
0
100
AcDbLine
 10
68.737
 20
0.0
 30
0.0
 11
69.29
 21
0.0
 31
0.0
  0
LINE
  5
E88
330
1D
100
AcDbEntity
  8
0
100
AcDbLine
 10
68.757
 20
0.0
 30
0.0
 11
69.31
 21
0.0
 31
0.0
  0
LINE
  5
E89
330
1D
100
AcDbEntity
  8
0
100
AcDbLine
 10
68.543
 20
0.0
 30
0.0
 11
69.091
 21
0.0
 31
0.0
  0
LINE
  5
E8A
330
1D
100
AcDbEntity
  8
0
100
AcDbLine
 10
69.055
 20
0.0
 30
0.0
 11
69.45
 21
0.0
 31
0.0
  0
LINE
  5
E8B
330
1D
100
AcDbEntity
  8
0
100
AcDbLine
 10
69.055
 20
0.0
 30
0.0
 11
69.449
 21
0.0
 31
0.0
  0
LINE
  5
E8C
330
1D
100
AcDbEntity
  8
0
100
AcDbLine
 10
69.075
 20
0.0
 30
0.0
 11
69.47
 21
0.0
 31
0.0
  0
LINE
  5
E8D
330
1D
100
AcDbEntity
  8
0
100
AcDbLine
 10
69.075
 20
0.0
 30
0.0
 11
69.469
 21
0.0
 31
0.0
  0
LINE
  5
E8E
330
1D
100
AcDbEntity
  8
0
100
AcDbLine
 10
69.091
 20
0.0
 30
0.0
 11
69.326
 21
0.0
 31
0.0
  0
LINE
  5
E8F
330
1D
100
AcDbEntity
  8
0
100
AcDbLine
 10
68.858
 20
0.0
 30
0.0
 11
69.248
 21
0.0
 31
0.0
  0
LINE
  5
E90
330
1D
100
AcDbEntity
  8
0
100
AcDbLine
 10
69.449
 20
0.0
 30
0.0
 11
69.528
 21
0.0
 31
0.0
  0
LINE
  5
E91
330
1D
100
AcDbEntity
  8
0
100
AcDbLine
 10
69.29
 20
0.0
 30
0.0
 11
69.528
 21
0.0
 31
0.0
  0
LINE
  5
E92
330
1D
100
AcDbEntity
  8
0
100
AcDbLine
 10
69.45
 20
0.0
 30
0.0
 11
69.528
 21
0.0
 31
0.0
  0
LINE
  5
E93
330
1D
100
AcDbEntity
  8
0
100
AcDbLine
 10
69.469
 20
0.0
 30
0.0
 11
69.548
 21
0.0
 31
0.0
  0
LINE
  5
E94
330
1D
100
AcDbEntity
  8
0
100
AcDbLine
 10
69.31
 20
0.0
 30
0.0
 11
69.548
 21
0.0
 31
0.0
  0
LINE
  5
E95
330
1D
100
AcDbEntity
  8
0
100
AcDbLine
 10
69.47
 20
0.0
 30
0.0
 11
69.548
 21
0.0
 31
0.0
  0
LINE
  5
E96
330
1D
100
AcDbEntity
  8
0
100
AcDbLine
 10
69.248
 20
0.0
 30
0.0
 11
69.327
 21
0.0
 31
0.0
  0
LINE
  5
E97
330
1D
100
AcDbEntity
  8
0
100
AcDbLine
 10
69.248
 20
0.0
 30
0.0
 11
69.326
 21
0.0
 31
0.0
  0
LINE
  5
E98
330
1D
100
AcDbEntity
  8
0
100
AcDbLine
 10
69.09
 20
0.0
 30
0.0
 11
69.327
 21
0.0
 31
0.0
  0
LINE
  5
E99
330
1D
100
AcDbEntity
  8
0
100
AcDbLine
 10
68.542
 20
0.0
 30
0.0
 11
69.09
 21
0.0
 31
0.0
  0
LINE
  5
E9A
330
1D
100
AcDbEntity
  8
0
100
AcDbLine
 10
67.687
 20
0.0
 30
0.0
 11
68.542
 21
0.0
 31
0.0
  0
LINE
  5
E9B
330
1D
100
AcDbEntity
  8
0
100
AcDbLine
 10
67.152
 20
0.0
 30
0.0
 11
68.157
 21
0.0
 31
0.0
  0
LINE
  5
E9C
330
1D
100
AcDbEntity
  8
0
100
AcDbLine
 10
67.152
 20
0.0
 30
0.0
 11
68.156
 21
0.0
 31
0.0
  0
LINE
  5
E9D
330
1D
100
AcDbEntity
  8
0
100
AcDbLine
 10
-8.437
 20
34.6857
 30
0.0
 11
7.067326368536
 21
16.235236401331
 31
0.0
  0
LINE
  5
E9E
330
1D
100
AcDbEntity
  8
0
100
AcDbLine
 10
-8.437
 20
34.6857
 30
0.0
 11
7.067326368536
 21
16.235236401331
 31
0.0
  0
LINE
  5
E9F
330
1D
100
AcDbEntity
  8
0
100
AcDbLine
 10
-0.297
 20
8.76672
 30
0.0
 11
0.196
 21
9.41555
 31
0.0
  0
LINE
  5
EA0
330
1D
100
AcDbEntity
  8
0
100
AcDbLine
 10
-1.843
 20
185.207
 30
0.0
 11
0.243
 21
185.141
 31
0.0
  0
LINE
  5
EA1
330
1D
100
AcDbEntity
  8
0
100
AcDbLine
 10
-3.007
 20
261.622
 30
0.0
 11
4.688
 21
276.265
 31
0.0
  0
LINE
  5
EA2
330
1D
100
AcDbEntity
  8
0
100
AcDbLine
 10
-19.975
 20
52.9025
 30
0.0
 11
1.383
 21
70.835
 31
0.0
  0
LINE
  5
EA3
330
1D
100
AcDbEntity
  8
0
100
AcDbLine
 10
3.514
 20
70.1704
 30
0.0
 11
-21.005
 21
49.5998
 31
0.0
  0
LINE
  5
EA4
330
1D
100
AcDbEntity
  8
0
100
AcDbLine
 10
3.608
 20
45.4454
 30
0.0
 11
-8.437
 21
34.6857
 31
0.0
  0
LINE
  5
EA5
330
1D
100
AcDbEntity
  8
0
100
AcDbLine
 10
-20.965
 20
49.6285
 30
0.0
 11
-8.941
 21
35.3064
 31
0.0
  0
LINE
  5
EA6
330
1D
100
AcDbEntity
  8
0
100
AcDbLine
 10
-21.356
 20
51.6564
 30
0.0
 11
-20.92
 21
52.1108
 31
0.0
  0
LINE
  5
EA7
330
1D
100
AcDbEntity
  8
0
100
AcDbLine
 10
-21.403
 20
50.8073
 30
0.0
 11
-21.005
 21
49.5998
 31
0.0
  0
LINE
  5
EA8
330
1D
100
AcDbEntity
  8
0
100
AcDbLine
 10
-21.403
 20
50.8073
 30
0.0
 11
-21.356
 21
51.6564
 31
0.0
  0
LINE
  5
EA9
330
1D
100
AcDbEntity
  8
0
100
AcDbLine
 10
-20.92
 20
52.1108
 30
0.0
 11
-19.975
 21
52.9025
 31
0.0
  0
LINE
  5
EAA
330
1D
100
AcDbEntity
  8
0
100
AcDbLine
 10
-20.45
 20
53.3769
 30
0.0
 11
-20.074
 21
53.7314
 31
0.0
  0
LINE
  5
EAB
330
1D
100
AcDbEntity
  8
0
100
AcDbLine
 10
-20.45
 20
53.3769
 30
0.0
 11
-19.506671464905
 21
53.291937959753
 31
0.0
  0
LINE
  5
EAC
330
1D
100
AcDbEntity
  8
0
100
AcDbLine
 10
-20.074
 20
53.7314
 30
0.0
 11
-19.194
 21
54.4855
 31
0.0
  0
LINE
  5
EAD
330
1D
100
AcDbEntity
  8
0
100
AcDbLine
 10
-19.194
 20
54.4855
 30
0.0
 11
-17.77
 21
55.7272
 31
0.0
  0
LINE
  5
EAE
330
1D
100
AcDbEntity
  8
0
100
AcDbLine
 10
-17.77
 20
55.7272
 30
0.0
 11
-15.88
 21
57.2802
 31
0.0
  0
LINE
  5
EAF
330
1D
100
AcDbEntity
  8
0
100
AcDbLine
 10
-15.88
 20
57.2802
 30
0.0
 11
-13.614
 21
59.1877
 31
0.0
  0
LINE
  5
EB0
330
1D
100
AcDbEntity
  8
0
100
AcDbLine
 10
-13.614
 20
59.1877
 30
0.0
 11
-11.31
 21
61.1835
 31
0.0
  0
LINE
  5
EB1
330
1D
100
AcDbEntity
  8
0
100
AcDbLine
 10
-11.31
 20
61.1835
 30
0.0
 11
-8.916
 21
63.136
 31
0.0
  0
LINE
  5
EB2
330
1D
100
AcDbEntity
  8
0
100
AcDbLine
 10
-8.916
 20
63.136
 30
0.0
 11
-6.69
 21
64.9553
 31
0.0
  0
LINE
  5
EB3
330
1D
100
AcDbEntity
  8
0
100
AcDbLine
 10
-6.69
 20
64.9553
 30
0.0
 11
-4.76
 21
66.5965
 31
0.0
  0
LINE
  5
EB4
330
1D
100
AcDbEntity
  8
0
100
AcDbLine
 10
-170.0785
 20
109.531
 30
0.0
 11
-169.9559
 21
109.753
 31
0.0
  0
LINE
  5
EB5
330
1D
100
AcDbEntity
  8
0
100
AcDbLine
 10
-169.9198
 20
108.324
 30
0.0
 11
-169.857109621452
 21
108.261422712935
 31
0.0
  0
LINE
  5
EB6
330
1D
100
AcDbEntity
  8
0
100
AcDbLine
 10
-169.9559
 20
109.753
 30
0.0
 11
-159.9296
 21
118.569
 31
0.0
  0
LINE
  5
EB7
330
1D
100
AcDbEntity
  8
0
100
AcDbLine
 10
-169.9559
 20
109.753
 30
0.0
 11
-159.9295
 21
118.568
 31
0.0
  0
LINE
  5
EB8
330
1D
100
AcDbEntity
  8
0
100
AcDbLine
 10
-170.0784
 20
109.531
 30
0.0
 11
-169.9197
 21
108.324
 31
0.0
  0
LINE
  5
EB9
330
1D
100
AcDbEntity
  8
0
100
AcDbLine
 10
-179.6975
 20
181.224
 30
0.0
 11
-179.2348
 21
181.007
 31
0.0
  0
LINE
  5
EBA
330
1D
100
AcDbEntity
  8
0
100
AcDbLine
 10
-176.7408
 20
178.741
 30
0.0
 11
-176.351964450569
 21
179.575073415899
 31
0.0
  0
LINE
  5
EBB
330
1D
100
AcDbEntity
  8
0
100
AcDbLine
 10
-176.7408
 20
178.741
 30
0.0
 11
-176.0794
 21
178.432
 31
0.0
  0
LINE
  5
EBC
330
1D
100
AcDbEntity
  8
0
100
AcDbLine
 10
-177.712888642969
 20
180.297770805118
 30
0.0
 11
-176.365126105862
 21
179.546840948973
 31
0.0
  0
LINE
  5
EBD
330
1D
100
AcDbEntity
  8
0
100
AcDbLine
 10
-177.712888642969
 20
180.297770805118
 30
0.0
 11
-176.365126105862
 21
179.546840948973
 31
0.0
  0
LINE
  5
EBE
330
1D
100
AcDbEntity
  8
0
100
AcDbLine
 10
-178.1099
 20
180.483
 30
0.0
 11
-176.1916
 21
179.588
 31
0.0
  0
LINE
  5
EBF
330
1D
100
AcDbEntity
  8
0
100
AcDbLine
 10
-178.1099
 20
180.483
 30
0.0
 11
-177.712888642969
 21
180.297770805118
 31
0.0
  0
LINE
  5
EC0
330
1D
100
AcDbEntity
  8
0
100
AcDbLine
 10
-179.2348
 20
181.007
 30
0.0
 11
-178.1099
 21
180.483
 31
0.0
  0
LINE
  5
EC1
330
1D
100
AcDbEntity
  8
0
100
AcDbLine
 10
-173.706988746175
 20
177.32612000005
 30
0.0
 11
-173.54164
 21
177.249
 31
0.0
  0
LINE
  5
EC2
330
1D
100
AcDbEntity
  8
0
100
AcDbLine
 10
-173.54164
 20
177.249
 30
0.0
 11
-173.476445560087
 21
177.218686617815
 31
0.0
  0
LINE
  5
EC3
330
1D
100
AcDbEntity
  8
0
100
AcDbLine
 10
-173.54164
 20
177.249
 30
0.0
 11
-173.476445560087
 21
177.218686617815
 31
0.0
  0
LINE
  5
EC4
330
1D
100
AcDbEntity
  8
0
100
AcDbLine
 10
-173.16583719499
 20
177.074263410964
 30
0.0
 11
-172.87923
 21
176.941
 31
0.0
  0
LINE
  5
EC5
330
1D
100
AcDbEntity
  8
0
100
AcDbLine
 10
-173.165723879305
 20
177.074506467772
 30
0.0
 11
-172.87923
 21
176.941
 31
0.0
  0
LINE
  5
EC6
330
1D
100
AcDbEntity
  8
0
100
AcDbLine
 10
-173.16596
 20
177.074
 30
0.0
 11
-172.803819109078
 21
177.850775158821
 31
0.0
  0
LINE
  5
EC7
330
1D
100
AcDbEntity
  8
0
100
AcDbLine
 10
-174.31188
 20
177.608
 30
0.0
 11
-173.907762814636
 21
178.474802078751
 31
0.0
  0
LINE
  5
EC8
330
1D
100
AcDbEntity
  8
0
100
AcDbLine
 10
-174.31188
 20
177.608
 30
0.0
 11
-173.16596
 21
177.074
 31
0.0
  0
LINE
  5
EC9
330
1D
100
AcDbEntity
  8
0
100
AcDbLine
 10
-172.87923
 20
176.941
 30
0.0
 11
-172.633533110176
 21
177.467717576501
 31
0.0
  0
LINE
  5
ECA
330
1D
100
AcDbEntity
  8
0
100
AcDbLine
 10
-172.910468568544
 20
177.622017090093
 30
0.0
 11
-171.400683436469
 21
176.780813464955
 31
0.0
  0
LINE
  5
ECB
330
1D
100
AcDbEntity
  8
0
100
AcDbLine
 10
-175.686870761502
 20
178.249076147486
 30
0.0
 11
-175.5175
 21
178.17
 31
0.0
  0
LINE
  5
ECC
330
1D
100
AcDbEntity
  8
0
100
AcDbLine
 10
-175.686870761502
 20
178.249076147485
 30
0.0
 11
-175.5175
 21
178.17
 31
0.0
  0
LINE
  5
ECD
330
1D
100
AcDbEntity
  8
0
100
AcDbLine
 10
-175.5175
 20
178.17
 30
0.0
 11
-175.126953184378
 21
177.988147100034
 31
0.0
  0
LINE
  5
ECE
330
1D
100
AcDbEntity
  8
0
100
AcDbLine
 10
-176.0794
 20
178.432
 30
0.0
 11
-175.709650891112
 21
179.22512257831
 31
0.0
  0
LINE
  5
ECF
330
1D
100
AcDbEntity
  8
0
100
AcDbLine
 10
-176.0794
 20
178.432
 30
0.0
 11
-174.93351
 21
177.898
 31
0.0
  0
LINE
  5
ED0
330
1D
100
AcDbEntity
  8
0
100
AcDbLine
 10
-174.68656
 20
177.783
 30
0.0
 11
-174.626443393369
 21
177.75496112572
 31
0.0
  0
LINE
  5
ED1
330
1D
100
AcDbEntity
  8
0
100
AcDbLine
 10
-174.68656
 20
177.783
 30
0.0
 11
-174.626443393369
 21
177.75496112572
 31
0.0
  0
LINE
  5
ED2
330
1D
100
AcDbEntity
  8
0
100
AcDbLine
 10
-174.933482087106
 20
177.898059871842
 30
0.0
 11
-174.85604
 21
177.862
 31
0.0
  0
LINE
  5
ED3
330
1D
100
AcDbEntity
  8
0
100
AcDbLine
 10
-174.933471758408
 20
177.898082026414
 30
0.0
 11
-174.85604
 21
177.862
 31
0.0
  0
LINE
  5
ED4
330
1D
100
AcDbEntity
  8
0
100
AcDbLine
 10
-174.97328
 20
177.917
 30
0.0
 11
-174.602613429459
 21
178.711623806043
 31
0.0
  0
LINE
  5
ED5
330
1D
100
AcDbEntity
  8
0
100
AcDbLine
 10
-174.97328
 20
177.917
 30
0.0
 11
-174.31188
 21
177.608
 31
0.0
  0
LINE
  5
ED6
330
1D
100
AcDbEntity
  8
0
100
AcDbLine
 10
-172.910468568544
 20
177.622017090093
 30
0.0
 11
-171.400683436469
 21
176.780813464955
 31
0.0
  0
LINE
  5
ED7
330
1D
100
AcDbEntity
  8
0
100
AcDbLine
 10
-170.94211
 20
176.037
 30
0.0
 11
-170.567681468448
 21
176.840131569381
 31
0.0
  0
LINE
  5
ED8
330
1D
100
AcDbEntity
  8
0
100
AcDbLine
 10
-170.94211
 20
176.037
 30
0.0
 11
-169.79619
 21
175.503
 31
0.0
  0
LINE
  5
ED9
330
1D
100
AcDbEntity
  8
0
100
AcDbLine
 10
-171.60351
 20
176.346
 30
0.0
 11
-171.213458992876
 21
177.182179576107
 31
0.0
  0
LINE
  5
EDA
330
1D
100
AcDbEntity
  8
0
100
AcDbLine
 10
-171.60351
 20
176.346
 30
0.0
 11
-170.94211
 21
176.037
 31
0.0
  0
LINE
  5
EDB
330
1D
100
AcDbEntity
  8
0
100
AcDbLine
 10
-171.60351
 20
176.346
 30
0.0
 11
-170.45859
 21
175.811
 31
0.0
  0
LINE
  5
EDC
330
1D
100
AcDbEntity
  8
0
100
AcDbLine
 10
-171.60351
 20
176.346
 30
0.0
 11
-171.400683436469
 21
176.780813464955
 31
0.0
  0
LINE
  5
EDD
330
1D
100
AcDbEntity
  8
0
100
AcDbLine
 10
-172.129016527356
 20
177.694282662244
 30
0.0
 11
-172.02336
 21
177.645
 31
0.0
  0
LINE
  5
EDE
330
1D
100
AcDbEntity
  8
0
100
AcDbLine
 10
-172.129016527357
 20
177.694282662244
 30
0.0
 11
-171.180765694591
 21
177.252266482184
 31
0.0
  0
LINE
  5
EDF
330
1D
100
AcDbEntity
  8
0
100
AcDbLine
 10
-172.129016527356
 20
177.694282662244
 30
0.0
 11
-171.180765694591
 21
177.252266482184
 31
0.0
  0
LINE
  5
EE0
330
1D
100
AcDbEntity
  8
0
100
AcDbLine
 10
-172.02336
 20
177.645
 30
0.0
 11
-168.84821
 21
176.164
 31
0.0
  0
LINE
  5
EE1
330
1D
100
AcDbEntity
  8
0
100
AcDbLine
 10
-172.129016527357
 20
177.694282662244
 30
0.0
 11
-172.02336
 21
177.645
 31
0.0
  0
LINE
  5
EE2
330
1D
100
AcDbEntity
  8
0
100
AcDbLine
 10
-173.74381
 20
178.447
 30
0.0
 11
-170.43578
 21
176.905
 31
0.0
  0
LINE
  5
EE3
330
1D
100
AcDbEntity
  8
0
100
AcDbLine
 10
-176.1916
 20
179.588
 30
0.0
 11
-173.74381
 21
178.447
 31
0.0
  0
LINE
  5
EE4
330
1D
100
AcDbEntity
  8
0
100
AcDbLine
 10
-173.85072
 20
179.6
 30
0.0
 11
-170.54268
 21
178.058
 31
0.0
  0
LINE
  5
EE5
330
1D
100
AcDbEntity
  8
0
100
AcDbLine
 10
-176.4304
 20
180.803
 30
0.0
 11
-173.85072
 21
179.6
 31
0.0
  0
LINE
  5
EE6
330
1D
100
AcDbEntity
  8
0
100
AcDbLine
 10
-178.2827
 20
181.667
 30
0.0
 11
-176.4304
 21
180.803
 31
0.0
  0
LINE
  5
EE7
330
1D
100
AcDbEntity
  8
0
100
AcDbLine
 10
-179.4736
 20
182.222
 30
0.0
 11
-178.2827
 21
181.667
 31
0.0
  0
LINE
  5
EE8
330
1D
100
AcDbEntity
  8
0
100
AcDbLine
 10
-179.9363
 20
182.439
 30
0.0
 11
-179.4736
 21
182.222
 31
0.0
  0
LINE
  5
EE9
330
1D
100
AcDbEntity
  8
0
100
AcDbLine
 10
-179.9363
 20
182.439
 30
0.0
 11
-171.06123
 21
201.471
 31
0.0
  0
LINE
  5
EEA
330
1D
100
AcDbEntity
  8
0
100
AcDbLine
 10
-179.9363
 20
182.439
 30
0.0
 11
-179.6975
 21
181.224
 31
0.0
  0
LINE
  5
EEB
330
1D
100
AcDbEntity
  8
0
100
AcDbLine
 10
-170.45859
 20
175.811
 30
0.0
 11
-169.79619
 21
175.503
 31
0.0
  0
LINE
  5
EEC
330
1D
100
AcDbEntity
  8
0
100
AcDbLine
 10
-170.43578
 20
176.905
 30
0.0
 11
-166.59922
 21
175.115
 31
0.0
  0
LINE
  5
EED
330
1D
100
AcDbEntity
  8
0
100
AcDbLine
 10
-170.54268
 20
178.058
 30
0.0
 11
-166.63923
 21
176.238
 31
0.0
  0
LINE
  5
EEE
330
1D
100
AcDbEntity
  8
0
100
AcDbLine
 10
-170.59868
 20
201.255
 30
0.0
 11
-169.40775
 21
200.7
 31
0.0
  0
LINE
  5
EEF
330
1D
100
AcDbEntity
  8
0
100
AcDbLine
 10
-171.06123
 20
201.471
 30
0.0
 11
-170.59868
 21
201.255
 31
0.0
  0
LINE
  5
EF0
330
1D
100
AcDbEntity
  8
0
100
AcDbLine
 10
-171.06123
 20
201.471
 30
0.0
 11
-169.9772
 21
202.068
 31
0.0
  0
LINE
  5
EF1
330
1D
100
AcDbEntity
  8
0
100
AcDbLine
 10
-169.79619
 20
175.503
 30
0.0
 11
-169.458678706228
 21
176.226945832673
 31
0.0
  0
LINE
  5
EF2
330
1D
100
AcDbEntity
  8
0
100
AcDbLine
 10
-169.654138082797
 20
175.807694673571
 30
0.0
 11
-167.818565774473
 21
174.784972931807
 31
0.0
  0
LINE
  5
EF3
330
1D
100
AcDbEntity
  8
0
100
AcDbLine
 10
-168.98506
 20
174.573
 30
0.0
 11
-168.657966342597
 21
175.2746004932
 31
0.0
  0
LINE
  5
EF4
330
1D
100
AcDbEntity
  8
0
100
AcDbLine
 10
-168.98506
 20
174.573
 30
0.0
 11
-168.32366
 21
174.265
 31
0.0
  0
LINE
  5
EF5
330
1D
100
AcDbEntity
  8
0
100
AcDbLine
 10
-168.98506
 20
174.573
 30
0.0
 11
-168.107948161971
 21
174.164261336835
 31
0.0
  0
LINE
  5
EF6
330
1D
100
AcDbEntity
  8
0
100
AcDbLine
 10
-169.654138082797
 20
175.807694673571
 30
0.0
 11
-167.818565774473
 21
174.784972931807
 31
0.0
  0
LINE
  5
EF7
330
1D
100
AcDbEntity
  8
0
100
AcDbLine
 10
-169.373603976627
 20
176.409427121735
 30
0.0
 11
-168.351272529765
 21
175.932444280366
 31
0.0
  0
LINE
  5
EF8
330
1D
100
AcDbEntity
  8
0
100
AcDbLine
 10
-168.84821
 20
176.164
 30
0.0
 11
-165.14353
 21
174.436
 31
0.0
  0
LINE
  5
EF9
330
1D
100
AcDbEntity
  8
0
100
AcDbLine
 10
-169.40775
 20
200.7
 30
0.0
 11
-167.55541
 21
199.836
 31
0.0
  0
LINE
  5
EFA
330
1D
100
AcDbEntity
  8
0
100
AcDbLine
 10
-168.32366
 20
174.265
 30
0.0
 11
-168.015262750875
 21
174.926132714277
 31
0.0
  0
LINE
  5
EFB
330
1D
100
AcDbEntity
  8
0
100
AcDbLine
 10
-168.32366
 20
174.265
 30
0.0
 11
-168.107937264492
 21
174.164284711414
 31
0.0
  0
LINE
  5
EFC
330
1D
100
AcDbEntity
  8
0
100
AcDbLine
 10
-167.44666
 20
173.855
 30
0.0
 11
-167.235191822005
 21
174.30858928435
 31
0.0
  0
LINE
  5
EFD
330
1D
100
AcDbEntity
  8
0
100
AcDbLine
 10
-167.44666
 20
173.855
 30
0.0
 11
-166.301742
 21
173.321
 31
0.0
  0
LINE
  5
EFE
330
1D
100
AcDbEntity
  8
0
100
AcDbLine
 10
-168.10807
 20
174.164
 30
0.0
 11
-167.778833107191
 21
174.870197632226
 31
0.0
  0
LINE
  5
EFF
330
1D
100
AcDbEntity
  8
0
100
AcDbLine
 10
-168.10807
 20
174.164
 30
0.0
 11
-167.44666
 21
173.855
 31
0.0
  0
LINE
  5
F00
330
1D
100
AcDbEntity
  8
0
100
AcDbLine
 10
-167.25108
 20
174.316
 30
0.0
 11
-166.828667837592
 21
175.222052054259
 31
0.0
  0
LINE
  5
F01
330
1D
100
AcDbEntity
  8
0
100
AcDbLine
 10
-167.25108
 20
174.316
 30
0.0
 11
-165.928265
 21
173.699
 31
0.0
  0
LINE
  5
F02
330
1D
100
AcDbEntity
  8
0
100
AcDbLine
 10
-167.25108
 20
174.316
 30
0.0
 11
-166.896472583124
 21
175.076614411964
 31
0.0
  0
LINE
  5
F03
330
1D
100
AcDbEntity
  8
0
100
AcDbLine
 10
-166.301276845723
 20
173.321997732841
 30
0.0
 11
-165.992052
 21
173.178
 31
0.0
  0
LINE
  5
F04
330
1D
100
AcDbEntity
  8
0
100
AcDbLine
 10
-165.992052
 20
173.178
 30
0.0
 11
-165.773868926086
 21
173.645733735031
 31
0.0
  0
LINE
  5
F05
330
1D
100
AcDbEntity
  8
0
100
AcDbLine
 10
-166.301237916566
 20
173.322081233951
 30
0.0
 11
-165.992052
 21
173.178
 31
0.0
  0
LINE
  5
F06
330
1D
100
AcDbEntity
  8
0
100
AcDbLine
 10
-166.301742
 20
173.321
 30
0.0
 11
-166.090282647378
 21
173.774569817724
 31
0.0
  0
LINE
  5
F07
330
1D
100
AcDbEntity
  8
0
100
AcDbLine
 10
-165.928265
 20
173.699
 30
0.0
 11
-165.50575106177
 21
174.60527143029
 31
0.0
  0
LINE
  5
F08
330
1D
100
AcDbEntity
  8
0
100
AcDbLine
 10
-165.916141824622
 20
173.725003609575
 30
0.0
 11
-165.566151
 21
173.53
 31
0.0
  0
LINE
  5
F09
330
1D
100
AcDbEntity
  8
0
100
AcDbLine
 10
-165.566151
 20
173.53
 30
0.0
 11
-164.748010819421
 21
173.098592240622
 31
0.0
  0
LINE
  5
F0A
330
1D
100
AcDbEntity
  8
0
100
AcDbLine
 10
-165.566151
 20
173.53
 30
0.0
 11
-164.748010819421
 21
173.098592240622
 31
0.0
  0
LINE
  5
F0B
330
1D
100
AcDbEntity
  8
0
100
AcDbLine
 10
-165.916141824622
 20
173.725003609575
 30
0.0
 11
-165.566151
 21
173.53
 31
0.0
  0
LINE
  5
F0C
330
1D
100
AcDbEntity
  8
0
100
AcDbLine
 10
-165.358330945639
 20
174.536550461349
 30
0.0
 11
-164.306501831946
 21
174.046232601411
 31
0.0
  0
LINE
  5
F0D
330
1D
100
AcDbEntity
  8
0
100
AcDbLine
 10
-165.358330945639
 20
174.536550461349
 30
0.0
 11
-164.306501831946
 21
174.046232601411
 31
0.0
  0
LINE
  5
F0E
330
1D
100
AcDbEntity
  8
0
100
AcDbLine
 10
-165.14353
 20
174.436
 30
0.0
 11
-160.97631
 21
172.493
 31
0.0
  0
LINE
  5
F0F
330
1D
100
AcDbEntity
  8
0
100
AcDbLine
 10
-166.59922
 20
175.115
 30
0.0
 11
-162.16724
 21
173.049
 31
0.0
  0
LINE
  5
F10
330
1D
100
AcDbEntity
  8
0
100
AcDbLine
 10
-166.63923
 20
176.238
 30
0.0
 11
-162.14127
 21
174.14
 31
0.0
  0
LINE
  5
F11
330
1D
100
AcDbEntity
  8
0
100
AcDbLine
 10
-164.27892
 20
172.379
 30
0.0
 11
-163.914037841808
 21
173.161223357441
 31
0.0
  0
LINE
  5
F12
330
1D
100
AcDbEntity
  8
0
100
AcDbLine
 10
-164.27892
 20
172.379
 30
0.0
 11
-163.13292
 21
171.844
 31
0.0
  0
LINE
  5
F13
330
1D
100
AcDbEntity
  8
0
100
AcDbLine
 10
-164.940239
 20
172.686
 30
0.0
 11
-164.604922959304
 21
173.405711314598
 31
0.0
  0
LINE
  5
F14
330
1D
100
AcDbEntity
  8
0
100
AcDbLine
 10
-164.940239
 20
172.686
 30
0.0
 11
-164.27892
 21
172.379
 31
0.0
  0
LINE
  5
F15
330
1D
100
AcDbEntity
  8
0
100
AcDbLine
 10
-164.940239
 20
172.686
 30
0.0
 11
-163.79432
 21
172.152
 31
0.0
  0
LINE
  5
F16
330
1D
100
AcDbEntity
  8
0
100
AcDbLine
 10
-164.940239
 20
172.686
 30
0.0
 11
-164.748010819421
 21
173.098592240622
 31
0.0
  0
LINE
  5
F17
330
1D
100
AcDbEntity
  8
0
100
AcDbLine
 10
-164.975773
 20
198.633
 30
0.0
 11
-161.66774
 21
197.091
 31
0.0
  0
LINE
  5
F18
330
1D
100
AcDbEntity
  8
0
100
AcDbLine
 10
-167.55541
 20
199.836
 30
0.0
 11
-164.975773
 21
198.633
 31
0.0
  0
LINE
  5
F19
330
1D
100
AcDbEntity
  8
0
100
AcDbLine
 10
-163.79432
 20
172.152
 30
0.0
 11
-163.13292
 21
171.844
 31
0.0
  0
LINE
  5
F1A
330
1D
100
AcDbEntity
  8
0
100
AcDbLine
 10
-163.13292
 20
171.844
 30
0.0
 11
-162.867552949295
 21
172.412885873689
 31
0.0
  0
LINE
  5
F1B
330
1D
100
AcDbEntity
  8
0
100
AcDbLine
 10
-162.9820629997
 20
172.167402683905
 30
0.0
 11
-160.305104709634
 21
170.755834586796
 31
0.0
  0
LINE
  5
F1C
330
1D
100
AcDbEntity
  8
0
100
AcDbLine
 10
-162.498741833316
 20
173.203532012246
 30
0.0
 11
-162.16724
 21
173.049
 31
0.0
  0
LINE
  5
F1D
330
1D
100
AcDbEntity
  8
0
100
AcDbLine
 10
-162.16724
 20
173.049
 30
0.0
 11
-157.27164
 21
170.766
 31
0.0
  0
LINE
  5
F1E
330
1D
100
AcDbEntity
  8
0
100
AcDbLine
 10
-162.16724
 20
173.049
 30
0.0
 11
-160.722012785309
 21
172.375036904335
 31
0.0
  0
LINE
  5
F1F
330
1D
100
AcDbEntity
  8
0
100
AcDbLine
 10
-162.14127
 20
174.14
 30
0.0
 11
-157.17976
 21
171.827
 31
0.0
  0
LINE
  5
F20
330
1D
100
AcDbEntity
  8
0
100
AcDbLine
 10
-160.55008
 20
170.088
 30
0.0
 11
-160.169200000023
 21
169.910634916326
 31
0.0
  0
LINE
  5
F21
330
1D
100
AcDbEntity
  8
0
100
AcDbLine
 10
-160.55008
 20
170.088
 30
0.0
 11
-160.169200000023
 21
169.910634916326
 31
0.0
  0
LINE
  5
F22
330
1D
100
AcDbEntity
  8
0
100
AcDbLine
 10
-160.55008
 20
170.088
 30
0.0
 11
-160.063146459622
 21
169.861088426276
 31
0.0
  0
LINE
  5
F23
330
1D
100
AcDbEntity
  8
0
100
AcDbLine
 10
-160.55008
 20
170.088
 30
0.0
 11
-160.063146459621
 21
169.861088426276
 31
0.0
  0
LINE
  5
F24
330
1D
100
AcDbEntity
  8
0
100
AcDbLine
 10
-159.94309
 20
169.805
 30
0.0
 11
-159.731795219779
 21
170.258217354291
 31
0.0
  0
LINE
  5
F25
330
1D
100
AcDbEntity
  8
0
100
AcDbLine
 10
-159.94309
 20
169.805
 30
0.0
 11
-158.79717
 21
169.271
 31
0.0
  0
LINE
  5
F26
330
1D
100
AcDbEntity
  8
0
100
AcDbLine
 10
-160.6045
 20
170.114
 30
0.0
 11
-160.284731115308
 21
170.799510883372
 31
0.0
  0
LINE
  5
F27
330
1D
100
AcDbEntity
  8
0
100
AcDbLine
 10
-160.6045
 20
170.114
 30
0.0
 11
-159.94309
 21
169.805
 31
0.0
  0
LINE
  5
F28
330
1D
100
AcDbEntity
  8
0
100
AcDbLine
 10
-161.14465
 20
171.469
 30
0.0
 11
-160.736353287602
 21
172.34429416836
 31
0.0
  0
LINE
  5
F29
330
1D
100
AcDbEntity
  8
0
100
AcDbLine
 10
-161.14465
 20
171.469
 30
0.0
 11
-159.82084
 21
170.852
 31
0.0
  0
LINE
  5
F2A
330
1D
100
AcDbEntity
  8
0
100
AcDbLine
 10
-160.97631
 20
172.493
 30
0.0
 11
-156.27957
 21
170.303
 31
0.0
  0
LINE
  5
F2B
330
1D
100
AcDbEntity
  8
0
100
AcDbLine
 10
-161.66774
 20
197.091
 30
0.0
 11
-157.7642
 21
195.27
 31
0.0
  0
LINE
  5
F2C
330
1D
100
AcDbEntity
  8
0
100
AcDbLine
 10
-160.7156
 20
197.75
 30
0.0
 11
-156.87904
 21
195.961
 31
0.0
  0
LINE
  5
F2D
330
1D
100
AcDbEntity
  8
0
100
AcDbLine
 10
-164.02363
 20
199.293
 30
0.0
 11
-160.7156
 21
197.75
 31
0.0
  0
LINE
  5
F2E
330
1D
100
AcDbEntity
  8
0
100
AcDbLine
 10
-166.47139
 20
200.434
 30
0.0
 11
-164.02363
 21
199.293
 31
0.0
  0
LINE
  5
F2F
330
1D
100
AcDbEntity
  8
0
100
AcDbLine
 10
-168.38962
 20
201.328
 30
0.0
 11
-166.47139
 21
200.434
 31
0.0
  0
LINE
  5
F30
330
1D
100
AcDbEntity
  8
0
100
AcDbLine
 10
-169.51466
 20
201.853
 30
0.0
 11
-168.38962
 21
201.328
 31
0.0
  0
LINE
  5
F31
330
1D
100
AcDbEntity
  8
0
100
AcDbLine
 10
-169.9772
 20
202.068
 30
0.0
 11
-169.51466
 21
201.853
 31
0.0
  0
LINE
  5
F32
330
1D
100
AcDbEntity
  8
0
100
AcDbLine
 10
-169.9772
 20
202.068
 30
0.0
 11
-124.4782
 21
183.058
 31
0.0
  0
LINE
  5
F33
330
1D
100
AcDbEntity
  8
0
100
AcDbLine
 10
-169.9772
 20
202.068
 30
0.0
 11
-124.4782
 21
183.058
 31
0.0
  0
LINE
  5
F34
330
1D
100
AcDbEntity
  8
0
100
AcDbLine
 10
-159.708160000036
 20
169.695522357598
 30
0.0
 11
-159.45858
 21
169.579
 31
0.0
  0
LINE
  5
F35
330
1D
100
AcDbEntity
  8
0
100
AcDbLine
 10
-159.708160000036
 20
169.695522357598
 30
0.0
 11
-159.45858
 21
169.579
 31
0.0
  0
LINE
  5
F36
330
1D
100
AcDbEntity
  8
0
100
AcDbLine
 10
-159.88355
 20
170.329
 30
0.0
 11
-159.530841141808
 21
171.085543892743
 31
0.0
  0
LINE
  5
F37
330
1D
100
AcDbEntity
  8
0
100
AcDbLine
 10
-159.88355
 20
170.329
 30
0.0
 11
-158.56073
 21
169.712
 31
0.0
  0
LINE
  5
F38
330
1D
100
AcDbEntity
  8
0
100
AcDbLine
 10
-159.88355
 20
170.329
 30
0.0
 11
-159.572511482335
 21
170.996162974453
 31
0.0
  0
LINE
  5
F39
330
1D
100
AcDbEntity
  8
0
100
AcDbLine
 10
-159.82084
 20
170.852
 30
0.0
 11
-159.459623834501
 21
171.626364312958
 31
0.0
  0
LINE
  5
F3A
330
1D
100
AcDbEntity
  8
0
100
AcDbLine
 10
-159.9296
 20
118.569
 30
0.0
 11
-153.3199
 21
124.11
 31
0.0
  0
LINE
  5
F3B
330
1D
100
AcDbEntity
  8
0
100
AcDbLine
 10
-159.9295
 20
118.568
 30
0.0
 11
-153.3199
 21
124.11
 31
0.0
  0
LINE
  5
F3C
330
1D
100
AcDbEntity
  8
0
100
AcDbLine
 10
-159.45858
 20
169.579
 30
0.0
 11
-158.79717
 21
169.271
 31
0.0
  0
LINE
  5
F3D
330
1D
100
AcDbEntity
  8
0
100
AcDbLine
 10
-158.797040629018
 20
169.271277341605
 30
0.0
 11
-158.74276
 21
169.246
 31
0.0
  0
LINE
  5
F3E
330
1D
100
AcDbEntity
  8
0
100
AcDbLine
 10
-158.74276
 20
169.246
 30
0.0
 11
-158.484612157456
 21
169.799409553132
 31
0.0
  0
LINE
  5
F3F
330
1D
100
AcDbEntity
  8
0
100
AcDbLine
 10
-158.797033841886
 20
169.271291891655
 30
0.0
 11
-158.74276
 21
169.246
 31
0.0
  0
LINE
  5
F40
330
1D
100
AcDbEntity
  8
0
100
AcDbLine
 10
-158.79717
 20
169.271
 30
0.0
 11
-158.58596676196
 21
169.723771126933
 31
0.0
  0
LINE
  5
F41
330
1D
100
AcDbEntity
  8
0
100
AcDbLine
 10
-158.56073
 20
169.712
 30
0.0
 11
-158.27098790653
 21
170.333483147344
 31
0.0
  0
LINE
  5
F42
330
1D
100
AcDbEntity
  8
0
100
AcDbLine
 10
-158.27705
 20
169.028
 30
0.0
 11
-157.946428221549
 21
169.737168146718
 31
0.0
  0
LINE
  5
F43
330
1D
100
AcDbEntity
  8
0
100
AcDbLine
 10
-158.27705
 20
169.028
 30
0.0
 11
-157.61565
 21
168.72
 31
0.0
  0
LINE
  5
F44
330
1D
100
AcDbEntity
  8
0
100
AcDbLine
 10
-158.27705
 20
169.028
 30
0.0
 11
-157.13114
 21
168.494
 31
0.0
  0
LINE
  5
F45
330
1D
100
AcDbEntity
  8
0
100
AcDbLine
 10
-158.27705
 20
169.028
 30
0.0
 11
-158.030653206497
 21
169.556509519924
 31
0.0
  0
LINE
  5
F46
330
1D
100
AcDbEntity
  8
0
100
AcDbLine
 10
-158.514319551238
 20
169.811548227256
 30
0.0
 11
-158.030653206497
 21
169.556509519924
 31
0.0
  0
LINE
  5
F47
330
1D
100
AcDbEntity
  8
0
100
AcDbLine
 10
-158.514319551238
 20
169.811548227256
 30
0.0
 11
-158.030653206497
 21
169.556509519924
 31
0.0
  0
LINE
  5
F48
330
1D
100
AcDbEntity
  8
0
100
AcDbLine
 10
-157.897569394119
 20
171.057894110379
 30
0.0
 11
-157.431927483557
 21
170.840748003301
 31
0.0
  0
LINE
  5
F49
330
1D
100
AcDbEntity
  8
0
100
AcDbLine
 10
-157.61565
 20
168.72
 30
0.0
 11
-157.301604576029
 21
169.393233136038
 31
0.0
  0
LINE
  5
F4A
330
1D
100
AcDbEntity
  8
0
100
AcDbLine
 10
-157.61565
 20
168.72
 30
0.0
 11
-156.46973
 21
168.186
 31
0.0
  0
LINE
  5
F4B
330
1D
100
AcDbEntity
  8
0
100
AcDbLine
 10
-157.13114
 20
168.494
 30
0.0
 11
-156.46973
 21
168.186
 31
0.0
  0
LINE
  5
F4C
330
1D
100
AcDbEntity
  8
0
100
AcDbLine
 10
-156.46973
 20
168.186
 30
0.0
 11
-156.184527563368
 21
168.797408375346
 31
0.0
  0
LINE
  5
F4D
330
1D
100
AcDbEntity
  8
0
100
AcDbLine
 10
-156.26478236496
 20
168.625360554034
 30
0.0
 11
-152.700847026865
 21
166.746086811861
 31
0.0
  0
LINE
  5
F4E
330
1D
100
AcDbEntity
  8
0
100
AcDbLine
 10
-156.26478236496
 20
168.625360554034
 30
0.0
 11
-152.700847026865
 21
166.746086811862
 31
0.0
  0
LINE
  5
F4F
330
1D
100
AcDbEntity
  8
0
100
AcDbLine
 10
-155.62893703549
 20
170.000077614101
 30
0.0
 11
-153.363986974428
 21
168.94402792515
 31
0.0
  0
LINE
  5
F50
330
1D
100
AcDbEntity
  8
0
100
AcDbLine
 10
-155.62893703549
 20
170.000077614101
 30
0.0
 11
-153.363986974428
 21
168.94402792515
 31
0.0
  0
LINE
  5
F51
330
1D
100
AcDbEntity
  8
0
100
AcDbLine
 10
-157.086852584041
 20
170.679841502954
 30
0.0
 11
-156.7704
 21
170.532
 31
0.0
  0
LINE
  5
F52
330
1D
100
AcDbEntity
  8
0
100
AcDbLine
 10
-157.086852584041
 20
170.679841502954
 30
0.0
 11
-156.7704
 21
170.532
 31
0.0
  0
LINE
  5
F53
330
1D
100
AcDbEntity
  8
0
100
AcDbLine
 10
-156.7704
 20
170.532
 30
0.0
 11
-155.62449
 21
169.998
 31
0.0
  0
LINE
  5
F54
330
1D
100
AcDbEntity
  8
0
100
AcDbLine
 10
-156.27957
 20
170.303
 30
0.0
 11
-151.3181
 21
167.99
 31
0.0
  0
LINE
  5
F55
330
1D
100
AcDbEntity
  8
0
100
AcDbLine
 10
-157.27164
 20
170.766
 30
0.0
 11
-152.1114
 21
168.36
 31
0.0
  0
LINE
  5
F56
330
1D
100
AcDbEntity
  8
0
100
AcDbLine
 10
-157.17976
 20
171.827
 30
0.0
 11
-151.9535
 21
169.39
 31
0.0
  0
LINE
  5
F57
330
1D
100
AcDbEntity
  8
0
100
AcDbLine
 10
-157.7642
 20
195.27
 30
0.0
 11
-153.2663
 21
193.173
 31
0.0
  0
LINE
  5
F58
330
1D
100
AcDbEntity
  8
0
100
AcDbLine
 10
-156.87904
 20
195.961
 30
0.0
 11
-152.4471
 21
193.894
 31
0.0
  0
LINE
  5
F59
330
1D
100
AcDbEntity
  8
0
100
AcDbLine
 10
-153.8503
 20
167.515
 30
0.0
 11
-153.638653753765
 21
167.968992717019
 31
0.0
  0
LINE
  5
F5A
330
1D
100
AcDbEntity
  8
0
100
AcDbLine
 10
-153.8503
 20
167.515
 30
0.0
 11
-152.5275
 21
166.898
 31
0.0
  0
LINE
  5
F5B
330
1D
100
AcDbEntity
  8
0
100
AcDbLine
 10
-152.7733
 20
165.91
 30
0.0
 11
-152.562168071703
 21
166.362889477049
 31
0.0
  0
LINE
  5
F5C
330
1D
100
AcDbEntity
  8
0
100
AcDbLine
 10
-152.7733
 20
165.91
 30
0.0
 11
-151.6273
 21
165.375
 31
0.0
  0
LINE
  5
F5D
330
1D
100
AcDbEntity
  8
0
100
AcDbLine
 10
-153.4347
 20
166.219
 30
0.0
 11
-153.087753799553
 21
166.962807992439
 31
0.0
  0
LINE
  5
F5E
330
1D
100
AcDbEntity
  8
0
100
AcDbLine
 10
-153.4347
 20
166.219
 30
0.0
 11
-152.7733
 21
165.91
 31
0.0
  0
LINE
  5
F5F
330
1D
100
AcDbEntity
  8
0
100
AcDbLine
 10
-153.4347
 20
166.219
 30
0.0
 11
-152.2887
 21
165.683
 31
0.0
  0
LINE
  5
F60
330
1D
100
AcDbEntity
  8
0
100
AcDbLine
 10
-152.8111
 20
166.479
 30
0.0
 11
-152.599981194457
 21
166.931807753992
 31
0.0
  0
LINE
  5
F61
330
1D
100
AcDbEntity
  8
0
100
AcDbLine
 10
-152.8111
 20
166.479
 30
0.0
 11
-151.4883
 21
165.862
 31
0.0
  0
LINE
  5
F62
330
1D
100
AcDbEntity
  8
0
100
AcDbLine
 10
-152.5275
 20
166.898
 30
0.0
 11
-152.191447454993
 21
167.618850998695
 31
0.0
  0
LINE
  5
F63
330
1D
100
AcDbEntity
  8
0
100
AcDbLine
 10
-152.4638
 20
167.421
 30
0.0
 11
-152.041099553768
 21
168.327215343791
 31
0.0
  0
LINE
  5
F64
330
1D
100
AcDbEntity
  8
0
100
AcDbLine
 10
-153.7866
 20
168.038
 30
0.0
 11
-153.363986974428
 21
168.94402792515
 31
0.0
  0
LINE
  5
F65
330
1D
100
AcDbEntity
  8
0
100
AcDbLine
 10
-153.7866
 20
168.038
 30
0.0
 11
-152.4638
 21
167.421
 31
0.0
  0
LINE
  5
F66
330
1D
100
AcDbEntity
  8
0
100
AcDbLine
 10
-153.7866
 20
168.038
 30
0.0
 11
-153.490905085482
 21
168.671931832828
 31
0.0
  0
LINE
  5
F67
330
1D
100
AcDbEntity
  8
0
100
AcDbLine
 10
-153.2663
 20
193.173
 30
0.0
 11
-148.3047
 21
190.858
 31
0.0
  0
LINE
  5
F68
330
1D
100
AcDbEntity
  8
0
100
AcDbLine
 10
-152.2887
 20
165.683
 30
0.0
 11
-151.6273
 21
165.375
 31
0.0
  0
LINE
  5
F69
330
1D
100
AcDbEntity
  8
0
100
AcDbLine
 10
-151.6273
 20
165.375
 30
0.0
 11
-151.317231228365
 21
166.040193093095
 31
0.0
  0
LINE
  5
F6A
330
1D
100
AcDbEntity
  8
0
100
AcDbLine
 10
-151.4883
 20
165.862
 30
0.0
 11
-151.167119528335
 21
166.550488128069
 31
0.0
  0
LINE
  5
F6B
330
1D
100
AcDbEntity
  8
0
100
AcDbLine
 10
-151.6128
 20
165.369
 30
0.0
 11
-151.257639782549
 21
166.130747869678
 31
0.0
  0
LINE
  5
F6C
330
1D
100
AcDbEntity
  8
0
100
AcDbLine
 10
-151.6128
 20
165.369
 30
0.0
 11
-150.9514
 21
165.061
 31
0.0
  0
LINE
  5
F6D
330
1D
100
AcDbEntity
  8
0
100
AcDbLine
 10
-151.6128
 20
165.369
 30
0.0
 11
-150.4679
 21
164.835
 31
0.0
  0
LINE
  5
F6E
330
1D
100
AcDbEntity
  8
0
100
AcDbLine
 10
-151.6128
 20
165.369
 30
0.0
 11
-151.312154339225
 21
166.013825012403
 31
0.0
  0
LINE
  5
F6F
330
1D
100
AcDbEntity
  8
0
100
AcDbLine
 10
-151.396680974758
 20
166.058396159633
 30
0.0
 11
-151.312154339225
 21
166.013825012403
 31
0.0
  0
LINE
  5
F70
330
1D
100
AcDbEntity
  8
0
100
AcDbLine
 10
-151.396680974758
 20
166.058396159633
 30
0.0
 11
-151.312154339225
 21
166.013825012403
 31
0.0
  0
LINE
  5
F71
330
1D
100
AcDbEntity
  8
0
100
AcDbLine
 10
-151.893340049348
 20
168.258307608296
 30
0.0
 11
-146.2896
 21
165.645
 31
0.0
  0
LINE
  5
F72
330
1D
100
AcDbEntity
  8
0
100
AcDbLine
 10
-152.1114
 20
168.36
 30
0.0
 11
-146.2896
 21
165.645
 31
0.0
  0
LINE
  5
F73
330
1D
100
AcDbEntity
  8
0
100
AcDbLine
 10
-151.9535
 20
169.39
 30
0.0
 11
-146.3305
 21
166.767
 31
0.0
  0
LINE
  5
F74
330
1D
100
AcDbEntity
  8
0
100
AcDbLine
 10
-152.4471
 20
193.894
 30
0.0
 11
-147.5515
 21
191.611
 31
0.0
  0
LINE
  5
F75
330
1D
100
AcDbEntity
  8
0
100
AcDbLine
 10
-153.3197
 20
124.111
 30
0.0
 11
-101.1291
 21
167.333
 31
0.0
  0
LINE
  5
F76
330
1D
100
AcDbEntity
  8
0
100
AcDbLine
 10
-151.3181
 20
167.99
 30
0.0
 11
-145.3634
 21
165.213
 31
0.0
  0
LINE
  5
F77
330
1D
100
AcDbEntity
  8
0
100
AcDbLine
 10
-150.4679
 20
164.835
 30
0.0
 11
-149.8065
 21
164.526
 31
0.0
  0
LINE
  5
F78
330
1D
100
AcDbEntity
  8
0
100
AcDbLine
 10
-149.8065
 20
164.526
 30
0.0
 11
-149.481836804545
 21
165.222337836696
 31
0.0
  0
LINE
  5
F79
330
1D
100
AcDbEntity
  8
0
100
AcDbLine
 10
-150.9514
 20
165.061
 30
0.0
 11
-150.598328461701
 21
165.8178503814
 31
0.0
  0
LINE
  5
F7A
330
1D
100
AcDbEntity
  8
0
100
AcDbLine
 10
-150.9514
 20
165.061
 30
0.0
 11
-149.8065
 21
164.526
 31
0.0
  0
LINE
  5
F7B
330
1D
100
AcDbEntity
  8
0
100
AcDbLine
 10
-144.9145
 20
84.3673
 30
0.0
 11
-144.684
 21
84.5026
 31
0.0
  0
LINE
  5
F7C
330
1D
100
AcDbEntity
  8
0
100
AcDbLine
 10
-144.716028085735
 20
84.4838
 30
0.0
 11
-133.5348
 21
92.1441
 31
0.0
  0
LINE
  5
F7D
330
1D
100
AcDbEntity
  8
0
100
AcDbLine
 10
-144.716028085735
 20
84.4838
 30
0.0
 11
-133.5349
 21
92.1441
 31
0.0
  0
LINE
  5
F7E
330
1D
100
AcDbEntity
  8
0
100
AcDbLine
 10
-145.545
 20
84.2418
 30
0.0
 11
-144.9145
 21
84.3673
 31
0.0
  0
LINE
  5
F7F
330
1D
100
AcDbEntity
  8
0
100
AcDbLine
 10
-146.1213
 20
84.5262
 30
0.0
 11
-145.545
 21
84.2418
 31
0.0
  0
LINE
  5
F80
330
1D
100
AcDbEntity
  8
0
100
AcDbLine
 10
-133.5349
 20
92.1441
 30
0.0
 11
-126.4363
 21
97.2265
 31
0.0
  0
LINE
  5
F81
330
1D
100
AcDbEntity
  8
0
100
AcDbLine
 10
-4.76
 20
66.5965
 30
0.0
 11
-3.336
 21
67.8382
 31
0.0
  0
LINE
  5
F82
330
1D
100
AcDbEntity
  8
0
100
AcDbLine
 10
-133.5348
 20
92.1441
 30
0.0
 11
-126.4363
 21
97.2264
 31
0.0
  0
LINE
  5
F83
330
1D
100
AcDbEntity
  8
0
100
AcDbLine
 10
-149.546821081639
 20
165.082959516134
 30
0.0
 11
-147.910351711672
 21
164.220044332468
 31
0.0
  0
LINE
  5
F84
330
1D
100
AcDbEntity
  8
0
100
AcDbLine
 10
-149.546821081639
 20
165.082959516134
 30
0.0
 11
-147.910351711672
 21
164.220044332468
 31
0.0
  0
LINE
  5
F85
330
1D
100
AcDbEntity
  8
0
100
AcDbLine
 10
-147.1992
 20
162.617
 30
0.0
 11
-146.7355
 21
162.401
 31
0.0
  0
LINE
  5
F86
330
1D
100
AcDbEntity
  8
0
100
AcDbLine
 10
-147.5842
 20
162.796
 30
0.0
 11
-147.1992
 21
162.617
 31
0.0
  0
LINE
  5
F87
330
1D
100
AcDbEntity
  8
0
100
AcDbLine
 10
-147.8155
 20
162.905
 30
0.0
 11
-147.5842
 21
162.796
 31
0.0
  0
LINE
  5
F88
330
1D
100
AcDbEntity
  8
0
100
AcDbLine
 10
-147.8961
 20
162.942
 30
0.0
 11
-147.8155
 21
162.905
 31
0.0
  0
LINE
  5
F89
330
1D
100
AcDbEntity
  8
0
100
AcDbLine
 10
-146.7355
 20
162.401
 30
0.0
 11
-146.1914
 21
162.147
 31
0.0
  0
LINE
  5
F8A
330
1D
100
AcDbEntity
  8
0
100
AcDbLine
 10
-147.0688
 20
163.801
 30
0.0
 11
-146.5403
 21
163.554
 31
0.0
  0
LINE
  5
F8B
330
1D
100
AcDbEntity
  8
0
100
AcDbLine
 10
-147.910626608041
 20
164.244696090388
 30
0.0
 11
-147.8961
 21
162.942
 31
0.0
  0
LINE
  5
F8C
330
1D
100
AcDbEntity
  8
0
100
AcDbLine
 10
-147.3336
 20
163.925
 30
0.0
 11
-147.0688
 21
163.801
 31
0.0
  0
LINE
  5
F8D
330
1D
100
AcDbEntity
  8
0
100
AcDbLine
 10
-146.1914
 20
162.147
 30
0.0
 11
-145.575
 21
161.86
 31
0.0
  0
LINE
  5
F8E
330
1D
100
AcDbEntity
  8
0
100
AcDbLine
 10
-145.575
 20
161.86
 30
0.0
 11
-144.9596
 21
161.573
 31
0.0
  0
LINE
  5
F8F
330
1D
100
AcDbEntity
  8
0
100
AcDbLine
 10
-145.3703
 20
162.458
 30
0.0
 11
-144.998804617274
 21
163.25487781458
 31
0.0
  0
LINE
  5
F90
330
1D
100
AcDbEntity
  8
0
100
AcDbLine
 10
-145.3703
 20
162.458
 30
0.0
 11
-144.0475
 21
161.841
 31
0.0
  0
LINE
  5
F91
330
1D
100
AcDbEntity
  8
0
100
AcDbLine
 10
-145.3703
 20
162.458
 30
0.0
 11
-145.040975655332
 21
163.164418642787
 31
0.0
  0
LINE
  5
F92
330
1D
100
AcDbEntity
  8
0
100
AcDbLine
 10
-144.9596
 20
161.573
 30
0.0
 11
-144.4154
 21
161.319
 31
0.0
  0
LINE
  5
F93
330
1D
100
AcDbEntity
  8
0
100
AcDbLine
 10
-144.4154
 20
161.319
 30
0.0
 11
-143.9518
 21
161.103
 31
0.0
  0
LINE
  5
F94
330
1D
100
AcDbEntity
  8
0
100
AcDbLine
 10
-143.9518
 20
161.103
 30
0.0
 11
-143.5677
 21
160.923
 31
0.0
  0
LINE
  5
F95
330
1D
100
AcDbEntity
  8
0
100
AcDbLine
 10
-144.6441
 20
162.671
 30
0.0
 11
-144.432793505222
 21
163.124263931653
 31
0.0
  0
LINE
  5
F96
330
1D
100
AcDbEntity
  8
0
100
AcDbLine
 10
-144.6441
 20
162.671
 30
0.0
 11
-143.3213
 21
162.054
 31
0.0
  0
LINE
  5
F97
330
1D
100
AcDbEntity
  8
0
100
AcDbLine
 10
-144.0475
 20
161.841
 30
0.0
 11
-143.836231669039
 21
162.294182068187
 31
0.0
  0
LINE
  5
F98
330
1D
100
AcDbEntity
  8
0
100
AcDbLine
 10
-143.7714
 20
162.816
 30
0.0
 11
-143.502172008867
 21
163.393190156097
 31
0.0
  0
LINE
  5
F99
330
1D
100
AcDbEntity
  8
0
100
AcDbLine
 10
-145.0952
 20
163.433
 30
0.0
 11
-144.884027457602
 21
163.885726747309
 31
0.0
  0
LINE
  5
F9A
330
1D
100
AcDbEntity
  8
0
100
AcDbLine
 10
-145.0952
 20
163.433
 30
0.0
 11
-143.7714
 21
162.816
 31
0.0
  0
LINE
  5
F9B
330
1D
100
AcDbEntity
  8
0
100
AcDbLine
 10
-143.5677
 20
160.923
 30
0.0
 11
-143.3354
 21
160.815
 31
0.0
  0
LINE
  5
F9C
330
1D
100
AcDbEntity
  8
0
100
AcDbLine
 10
-143.2558
 20
160.778
 30
0.0
 11
-142.287852030143
 21
161.571831707244
 31
0.0
  0
LINE
  5
F9D
330
1D
100
AcDbEntity
  8
0
100
AcDbLine
 10
-143.3354
 20
160.815
 30
0.0
 11
-143.2558
 21
160.778
 31
0.0
  0
LINE
  5
F9E
330
1D
100
AcDbEntity
  8
0
100
AcDbLine
 10
-143.3213
 20
162.054
 30
0.0
 11
-142.925987959525
 21
162.901965841671
 31
0.0
  0
LINE
  5
F9F
330
1D
100
AcDbEntity
  8
0
100
AcDbLine
 10
-143.7076
 20
163.337
 30
0.0
 11
-143.284818704808
 21
164.243888888054
 31
0.0
  0
LINE
  5
FA0
330
1D
100
AcDbEntity
  8
0
100
AcDbLine
 10
-145.0304
 20
163.954
 30
0.0
 11
-144.65749291355
 21
164.753905995899
 31
0.0
  0
LINE
  5
FA1
330
1D
100
AcDbEntity
  8
0
100
AcDbLine
 10
-145.0304
 20
163.954
 30
0.0
 11
-143.7076
 21
163.337
 31
0.0
  0
LINE
  5
FA2
330
1D
100
AcDbEntity
  8
0
100
AcDbLine
 10
-145.3634
 20
165.213
 30
0.0
 11
-140.6667
 21
163.023
 31
0.0
  0
LINE
  5
FA3
330
1D
100
AcDbEntity
  8
0
100
AcDbLine
 10
-146.2896
 20
165.645
 30
0.0
 11
-140.7995
 21
163.085
 31
0.0
  0
LINE
  5
FA4
330
1D
100
AcDbEntity
  8
0
100
AcDbLine
 10
-146.2896
 20
165.645
 30
0.0
 11
-144.607690109647
 21
164.860735720788
 31
0.0
  0
LINE
  5
FA5
330
1D
100
AcDbEntity
  8
0
100
AcDbLine
 10
-146.3305
 20
166.767
 30
0.0
 11
-140.4428
 21
164.022
 31
0.0
  0
LINE
  5
FA6
330
1D
100
AcDbEntity
  8
0
100
AcDbLine
 10
-148.3047
 20
190.858
 30
0.0
 11
-143.0785
 21
188.422
 31
0.0
  0
LINE
  5
FA7
330
1D
100
AcDbEntity
  8
0
100
AcDbLine
 10
-142.9016
 20
161.858
 30
0.0
 11
-141.6448
 21
161.272
 31
0.0
  0
LINE
  5
FA8
330
1D
100
AcDbEntity
  8
0
100
AcDbLine
 10
-142.476181065453
 20
163.866826110191
 30
0.0
 11
-140.7995
 21
163.085
 31
0.0
  0
LINE
  5
FA9
330
1D
100
AcDbEntity
  8
0
100
AcDbLine
 10
-143.0785
 20
188.422
 30
0.0
 11
-137.4556
 21
185.8
 31
0.0
  0
LINE
  5
FAA
330
1D
100
AcDbEntity
  8
0
100
AcDbLine
 10
-147.5515
 20
191.611
 30
0.0
 11
-142.3911
 21
189.205
 31
0.0
  0
LINE
  5
FAB
330
1D
100
AcDbEntity
  8
0
100
AcDbLine
 10
-142.287852030143
 20
161.571831707244
 30
0.0
 11
-141.6448
 21
161.272
 31
0.0
  0
LINE
  5
FAC
330
1D
100
AcDbEntity
  8
0
100
AcDbLine
 10
-142.3911
 20
189.205
 30
0.0
 11
-136.5694
 21
186.491
 31
0.0
  0
LINE
  5
FAD
330
1D
100
AcDbEntity
  8
0
100
AcDbLine
 10
-141.615
 20
160.565
 30
0.0
 11
-141.4193
 21
160.474
 31
0.0
  0
LINE
  5
FAE
330
1D
100
AcDbEntity
  8
0
100
AcDbLine
 10
-141.615
 20
160.565
 30
0.0
 11
-141.349555956113
 21
161.134391920926
 31
0.0
  0
LINE
  5
FAF
330
1D
100
AcDbEntity
  8
0
100
AcDbLine
 10
-141.4193
 20
160.474
 30
0.0
 11
-140.8971
 21
160.231
 31
0.0
  0
LINE
  5
FB0
330
1D
100
AcDbEntity
  8
0
100
AcDbLine
 10
-140.8971
 20
160.231
 30
0.0
 11
-140.0275
 21
159.825
 31
0.0
  0
LINE
  5
FB1
330
1D
100
AcDbEntity
  8
0
100
AcDbLine
 10
-140.6667
 20
163.023
 30
0.0
 11
-135.0438
 21
160.401
 31
0.0
  0
LINE
  5
FB2
330
1D
100
AcDbEntity
  8
0
100
AcDbLine
 10
-140.7995
 20
163.085
 30
0.0
 11
-135.0438
 21
160.401
 31
0.0
  0
LINE
  5
FB3
330
1D
100
AcDbEntity
  8
0
100
AcDbLine
 10
-140.7995
 20
163.085
 30
0.0
 11
-135.705420468138
 21
160.709527083844
 31
0.0
  0
LINE
  5
FB4
330
1D
100
AcDbEntity
  8
0
100
AcDbLine
 10
-140.0275
 20
159.825
 30
0.0
 11
-138.8742
 21
159.287
 31
0.0
  0
LINE
  5
FB5
330
1D
100
AcDbEntity
  8
0
100
AcDbLine
 10
-140.4428
 20
164.022
 30
0.0
 11
-134.6211
 21
161.308
 31
0.0
  0
LINE
  5
FB6
330
1D
100
AcDbEntity
  8
0
100
AcDbLine
 10
-138.8742
 20
159.287
 30
0.0
 11
-137.5692
 21
158.679
 31
0.0
  0
LINE
  5
FB7
330
1D
100
AcDbEntity
  8
0
100
AcDbLine
 10
-137.5692
 20
158.679
 30
0.0
 11
-136.1774
 21
158.03
 31
0.0
  0
LINE
  5
FB8
330
1D
100
AcDbEntity
  8
0
100
AcDbLine
 10
-138.8663
 20
159.977
 30
0.0
 11
-137.4106
 21
159.298
 31
0.0
  0
LINE
  5
FB9
330
1D
100
AcDbEntity
  8
0
100
AcDbLine
 10
-136.1774
 20
158.03
 30
0.0
 11
-134.7855
 21
157.38
 31
0.0
  0
LINE
  5
FBA
330
1D
100
AcDbEntity
  8
0
100
AcDbLine
 10
-135.2276
 20
158.28
 30
0.0
 11
-135.016375205773
 21
158.733035078592
 31
0.0
  0
LINE
  5
FBB
330
1D
100
AcDbEntity
  8
0
100
AcDbLine
 10
-135.4389
 20
157.827
 30
0.0
 11
-135.227695730817
 21
158.280044652188
 31
0.0
  0
LINE
  5
FBC
330
1D
100
AcDbEntity
  8
0
100
AcDbLine
 10
-136.5504
 20
158.897
 30
0.0
 11
-135.2276
 21
158.28
 31
0.0
  0
LINE
  5
FBD
330
1D
100
AcDbEntity
  8
0
100
AcDbLine
 10
-136.5504
 20
158.897
 30
0.0
 11
-136.127844236217
 21
159.803405110907
 31
0.0
  0
LINE
  5
FBE
330
1D
100
AcDbEntity
  8
0
100
AcDbLine
 10
-136.7616
 20
158.443
 30
0.0
 11
-135.4389
 21
157.827
 31
0.0
  0
LINE
  5
FBF
330
1D
100
AcDbEntity
  8
0
100
AcDbLine
 10
-136.7616
 20
158.443
 30
0.0
 11
-136.550147031959
 21
158.896882006894
 31
0.0
  0
LINE
  5
FC0
330
1D
100
AcDbEntity
  8
0
100
AcDbLine
 10
-135.227446165196
 20
158.280329944989
 30
0.0
 11
-134.3673
 21
157.879
 31
0.0
  0
LINE
  5
FC1
330
1D
100
AcDbEntity
  8
0
100
AcDbLine
 10
-136.3391
 20
159.35
 30
0.0
 11
-135.0163
 21
158.733
 31
0.0
  0
LINE
  5
FC2
330
1D
100
AcDbEntity
  8
0
100
AcDbLine
 10
-136.3391
 20
159.35
 30
0.0
 11
-136.127512807549
 21
159.803866043437
 31
0.0
  0
LINE
  5
FC3
330
1D
100
AcDbEntity
  8
0
100
AcDbLine
 10
-136.1278
 20
159.804
 30
0.0
 11
-134.805
 21
159.187
 31
0.0
  0
LINE
  5
FC4
330
1D
100
AcDbEntity
  8
0
100
AcDbLine
 10
-136.1278
 20
159.804
 30
0.0
 11
-135.705379523058
 21
160.709507990321
 31
0.0
  0
LINE
  5
FC5
330
1D
100
AcDbEntity
  8
0
100
AcDbLine
 10
-137.4106
 20
159.298
 30
0.0
 11
-136.550329573119
 21
158.897151069493
 31
0.0
  0
LINE
  5
FC6
330
1D
100
AcDbEntity
  8
0
100
AcDbLine
 10
-134.7855
 20
157.38
 30
0.0
 11
-134.120934572772
 21
157.070378712832
 31
0.0
  0
LINE
  5
FC7
330
1D
100
AcDbEntity
  8
0
100
AcDbLine
 10
-135.0163
 20
158.733
 30
0.0
 11
-134.755197565837
 21
159.29301267377
 31
0.0
  0
LINE
  5
FC8
330
1D
100
AcDbEntity
  8
0
100
AcDbLine
 10
-134.805
 20
159.187
 30
0.0
 11
-134.382517389487
 21
160.092641180942
 31
0.0
  0
LINE
  5
FC9
330
1D
100
AcDbEntity
  8
0
100
AcDbLine
 10
-134.3673
 20
157.879
 30
0.0
 11
-132.9116
 21
157.2
 31
0.0
  0
LINE
  5
FCA
330
1D
100
AcDbEntity
  8
0
100
AcDbLine
 10
-135.0438
 20
160.401
 30
0.0
 11
-129.2879
 21
157.717
 31
0.0
  0
LINE
  5
FCB
330
1D
100
AcDbEntity
  8
0
100
AcDbLine
 10
-135.0438
 20
160.401
 30
0.0
 11
-129.4208
 21
157.778
 31
0.0
  0
LINE
  5
FCC
330
1D
100
AcDbEntity
  8
0
100
AcDbLine
 10
-134.6211
 20
161.308
 30
0.0
 11
-128.7994
 21
158.593
 31
0.0
  0
LINE
  5
FCD
330
1D
100
AcDbEntity
  8
0
100
AcDbLine
 10
-137.4556
 20
185.8
 30
0.0
 11
-131.5679
 21
183.055
 31
0.0
  0
LINE
  5
FCE
330
1D
100
AcDbEntity
  8
0
100
AcDbLine
 10
-136.5694
 20
186.491
 30
0.0
 11
-131.0793
 21
183.929
 31
0.0
  0
LINE
  5
FCF
330
1D
100
AcDbEntity
  8
0
100
AcDbLine
 10
-133.4312
 20
156.197
 30
0.0
 11
-132.9581
 21
155.976
 31
0.0
  0
LINE
  5
FD0
330
1D
100
AcDbEntity
  8
0
100
AcDbLine
 10
-133.858528196147
 20
156.396180385289
 30
0.0
 11
-133.8006
 21
156.369
 31
0.0
  0
LINE
  5
FD1
330
1D
100
AcDbEntity
  8
0
100
AcDbLine
 10
-134.0099
 20
156.466
 30
0.0
 11
-133.7996
 21
156.369
 31
0.0
  0
LINE
  5
FD2
330
1D
100
AcDbEntity
  8
0
100
AcDbLine
 10
-134.0476
 20
156.484
 30
0.0
 11
-133.8079
 21
156.373
 31
0.0
  0
LINE
  5
FD3
330
1D
100
AcDbEntity
  8
0
100
AcDbLine
 10
-134.1177
 20
156.517
 30
0.0
 11
-134.0476
 21
156.484
 31
0.0
  0
LINE
  5
FD4
330
1D
100
AcDbEntity
  8
0
100
AcDbLine
 10
-134.1250004629
 20
157.765981255966
 30
0.0
 11
-134.1177
 21
156.517
 31
0.0
  0
LINE
  5
FD5
330
1D
100
AcDbEntity
  8
0
100
AcDbLine
 10
-133.8006
 20
156.369
 30
0.0
 11
-133.671801940159
 21
156.309323906613
 31
0.0
  0
LINE
  5
FD6
330
1D
100
AcDbEntity
  8
0
100
AcDbLine
 10
-133.8079
 20
156.373
 30
0.0
 11
-133.4531
 21
156.207
 31
0.0
  0
LINE
  5
FD7
330
1D
100
AcDbEntity
  8
0
100
AcDbLine
 10
-133.8079
 20
156.373
 30
0.0
 11
-133.4312
 21
156.197
 31
0.0
  0
LINE
  5
FD8
330
1D
100
AcDbEntity
  8
0
100
AcDbLine
 10
-133.4531
 20
156.207
 30
0.0
 11
-133.294393272328
 21
156.133093242833
 31
0.0
  0
LINE
  5
FD9
330
1D
100
AcDbEntity
  8
0
100
AcDbLine
 10
-130.684409436714
 20
154.916094367224
 30
0.0
 11
-130.6307
 21
154.891
 31
0.0
  0
LINE
  5
FDA
330
1D
100
AcDbEntity
  8
0
100
AcDbLine
 10
-130.048278298672
 20
154.619233270319
 30
0.0
 11
-129.782
 21
154.495
 31
0.0
  0
LINE
  5
FDB
330
1D
100
AcDbEntity
  8
0
100
AcDbLine
 10
-130.018036582277
 20
154.605250632911
 30
0.0
 11
-129.782
 21
154.495
 31
0.0
  0
LINE
  5
FDC
330
1D
100
AcDbEntity
  8
0
100
AcDbLine
 10
-129.921708090283
 20
154.56071194476
 30
0.0
 11
-129.7903
 21
154.499
 31
0.0
  0
LINE
  5
FDD
330
1D
100
AcDbEntity
  8
0
100
AcDbLine
 10
-129.4722
 20
154.351
 30
0.0
 11
-128.511682075049
 21
155.147609582376
 31
0.0
  0
LINE
  5
FDE
330
1D
100
AcDbEntity
  8
0
100
AcDbLine
 10
-129.782
 20
154.495
 30
0.0
 11
-129.5434
 21
154.384
 31
0.0
  0
LINE
  5
FDF
330
1D
100
AcDbEntity
  8
0
100
AcDbLine
 10
-129.7903
 20
154.499
 30
0.0
 11
-129.5508
 21
154.388
 31
0.0
  0
LINE
  5
FE0
330
1D
100
AcDbEntity
  8
0
100
AcDbLine
 10
-129.5508
 20
154.388
 30
0.0
 11
-129.4795
 21
154.354
 31
0.0
  0
LINE
  5
FE1
330
1D
100
AcDbEntity
  8
0
100
AcDbLine
 10
-129.5801
 20
154.402
 30
0.0
 11
-129.4795
 21
154.354
 31
0.0
  0
LINE
  5
FE2
330
1D
100
AcDbEntity
  8
0
100
AcDbLine
 10
-129.4795
 20
154.354
 30
0.0
 11
-128.518671705663
 21
155.150866988532
 31
0.0
  0
LINE
  5
FE3
330
1D
100
AcDbEntity
  8
0
100
AcDbLine
 10
-129.7904
 20
154.5
 30
0.0
 11
-129.5801
 21
154.402
 31
0.0
  0
LINE
  5
FE4
330
1D
100
AcDbEntity
  8
0
100
AcDbLine
 10
-130.6307
 20
154.891
 30
0.0
 11
-130.557556023364
 21
154.85686911214
 31
0.0
  0
LINE
  5
FE5
330
1D
100
AcDbEntity
  8
0
100
AcDbLine
 10
-130.1451
 20
154.664
 30
0.0
 11
-129.7904
 21
154.5
 31
0.0
  0
LINE
  5
FE6
330
1D
100
AcDbEntity
  8
0
100
AcDbLine
 10
-130.6391
 20
154.895
 30
0.0
 11
-130.1451
 21
154.664
 31
0.0
  0
LINE
  5
FE7
330
1D
100
AcDbEntity
  8
0
100
AcDbLine
 10
-131.7997
 20
155.436
 30
0.0
 11
-131.2126
 21
155.162
 31
0.0
  0
LINE
  5
FE8
330
1D
100
AcDbEntity
  8
0
100
AcDbLine
 10
-131.2126
 20
155.162
 30
0.0
 11
-130.6391
 21
154.895
 31
0.0
  0
LINE
  5
FE9
330
1D
100
AcDbEntity
  8
0
100
AcDbLine
 10
-126.8302
 20
153.812
 30
0.0
 11
-126.458543756278
 21
154.609222870169
 31
0.0
  0
LINE
  5
FEA
330
1D
100
AcDbEntity
  8
0
100
AcDbLine
 10
-127.1339
 20
154.506
 30
0.0
 11
-126.922759612846
 21
154.958854042246
 31
0.0
  0
LINE
  5
FEB
330
1D
100
AcDbEntity
  8
0
100
AcDbLine
 10
-126.2601
 20
154.65
 30
0.0
 11
-126.048729930925
 21
155.103346664182
 31
0.0
  0
LINE
  5
FEC
330
1D
100
AcDbEntity
  8
0
100
AcDbLine
 10
-127.5839
 20
155.267
 30
0.0
 11
-126.2601
 21
154.65
 31
0.0
  0
LINE
  5
FED
330
1D
100
AcDbEntity
  8
0
100
AcDbLine
 10
-127.5839
 20
155.267
 30
0.0
 11
-127.314362745014
 21
155.845103683058
 31
0.0
  0
LINE
  5
FEE
330
1D
100
AcDbEntity
  8
0
100
AcDbLine
 10
-125.9022
 20
155.035
 30
0.0
 11
-125.52964688237
 21
155.83370592658
 31
0.0
  0
LINE
  5
FEF
330
1D
100
AcDbEntity
  8
0
100
AcDbLine
 10
-128.4576
 20
155.122
 30
0.0
 11
-127.941826562458
 21
154.881978516639
 31
0.0
  0
LINE
  5
FF0
330
1D
100
AcDbEntity
  8
0
100
AcDbLine
 10
-128.4576
 20
155.122
 30
0.0
 11
-127.1339
 21
154.506
 31
0.0
  0
LINE
  5
FF1
330
1D
100
AcDbEntity
  8
0
100
AcDbLine
 10
-128.4576
 20
155.122
 30
0.0
 11
-128.062002497915
 21
155.971046224304
 31
0.0
  0
LINE
  5
FF2
330
1D
100
AcDbEntity
  8
0
100
AcDbLine
 10
-128.4576
 20
155.122
 30
0.0
 11
-128.236773311637
 21
155.595946536547
 31
0.0
  0
LINE
  5
FF3
330
1D
100
AcDbEntity
  8
0
100
AcDbLine
 10
-128.153
 20
154.429
 30
0.0
 11
-126.8302
 21
153.812
 31
0.0
  0
LINE
  5
FF4
330
1D
100
AcDbEntity
  8
0
100
AcDbLine
 10
-128.153
 20
154.429
 30
0.0
 11
-127.941826562458
 21
154.881978516639
 31
0.0
  0
LINE
  5
FF5
330
1D
100
AcDbEntity
  8
0
100
AcDbLine
 10
-128.511682075049
 20
155.147609582376
 30
0.0
 11
-128.45744477432
 21
155.122333151186
 31
0.0
  0
LINE
  5
FF6
330
1D
100
AcDbEntity
  8
0
100
AcDbLine
 10
-125.834
 20
153.899
 30
0.0
 11
-125.2386
 21
153.622
 31
0.0
  0
LINE
  5
FF7
330
1D
100
AcDbEntity
  8
0
100
AcDbLine
 10
-124.7091
 20
153.375
 30
0.0
 11
-124.4443
 21
153.252
 31
0.0
  0
LINE
  5
FF8
330
1D
100
AcDbEntity
  8
0
100
AcDbLine
 10
-124.3124
 20
153.19
 30
0.0
 11
-122.135020674753
 21
152.30151063214
 31
0.0
  0
LINE
  5
FF9
330
1D
100
AcDbEntity
  8
0
100
AcDbLine
 10
-128.8773
 20
155.318
 30
0.0
 11
-128.45744477432
 21
155.122333151186
 31
0.0
  0
LINE
  5
FFA
330
1D
100
AcDbEntity
  8
0
100
AcDbLine
 10
-132.3857
 20
155.709
 30
0.0
 11
-131.936085081665
 21
155.499894595051
 31
0.0
  0
LINE
  5
FFB
330
1D
100
AcDbEntity
  8
0
100
AcDbLine
 10
-132.822704041279
 20
155.913214617372
 30
0.0
 11
-132.3857
 21
155.709
 31
0.0
  0
LINE
  5
FFC
330
1D
100
AcDbEntity
  8
0
100
AcDbLine
 10
-132.9581
 20
155.976
 30
0.0
 11
-132.3931
 21
155.714
 31
0.0
  0
LINE
  5
FFD
330
1D
100
AcDbEntity
  8
0
100
AcDbLine
 10
-132.3931
 20
155.714
 30
0.0
 11
-131.7997
 21
155.436
 31
0.0
  0
LINE
  5
FFE
330
1D
100
AcDbEntity
  8
0
100
AcDbLine
 10
-127.225
 20
155.652
 30
0.0
 11
-125.9022
 21
155.035
 31
0.0
  0
LINE
  5
FFF
330
1D
100
AcDbEntity
  8
0
100
AcDbLine
 10
-127.225
 20
155.652
 30
0.0
 11
-126.80238981861
 21
156.558021827588
 31
0.0
  0
LINE
  5
1000
330
1D
100
AcDbEntity
  8
0
100
AcDbLine
 10
-127.225
 20
155.652
 30
0.0
 11
-126.939660390475
 21
156.263731391931
 31
0.0
  0
LINE
  5
1001
330
1D
100
AcDbEntity
  8
0
100
AcDbLine
 10
-124.724
 20
155.588
 30
0.0
 11
-118.77
 21
152.813
 31
0.0
  0
LINE
  5
1002
330
1D
100
AcDbEntity
  8
0
100
AcDbLine
 10
-123.7978
 20
155.157
 30
0.0
 11
-118.700855980016
 21
152.780830893528
 31
0.0
  0
LINE
  5
1003
330
1D
100
AcDbEntity
  8
0
100
AcDbLine
 10
-129.4208
 20
157.778
 30
0.0
 11
-124.724
 21
155.588
 31
0.0
  0
LINE
  5
1004
330
1D
100
AcDbEntity
  8
0
100
AcDbLine
 10
-129.2879
 20
157.717
 30
0.0
 11
-123.7978
 21
155.157
 31
0.0
  0
LINE
  5
1005
330
1D
100
AcDbEntity
  8
0
100
AcDbLine
 10
-121.7337
 20
151.435
 30
0.0
 11
-120.832829415481
 21
151.015222607214
 31
0.0
  0
LINE
  5
1006
330
1D
100
AcDbEntity
  8
0
100
AcDbLine
 10
-120.318634676208
 20
151.441056474249
 30
0.0
 11
-120.263238057962
 21
151.559885235347
 31
0.0
  0
LINE
  5
1007
330
1D
100
AcDbEntity
  8
0
100
AcDbLine
 10
-120.318634676208
 20
151.441056474249
 30
0.0
 11
-120.263238057962
 21
151.559885235347
 31
0.0
  0
LINE
  5
1008
330
1D
100
AcDbEntity
  8
0
100
AcDbLine
 10
-120.346809447203
 20
151.417723346216
 30
0.0
 11
-120.232423531
 21
151.663087361922
 31
0.0
  0
LINE
  5
1009
330
1D
100
AcDbEntity
  8
0
100
AcDbLine
 10
-121.2492
 20
151.21
 30
0.0
 11
-120.832611477682
 21
151.015403093883
 31
0.0
  0
LINE
  5
100A
330
1D
100
AcDbEntity
  8
0
100
AcDbLine
 10
-121.2492
 20
151.21
 30
0.0
 11
-120.895978471594
 21
151.96717190284
 31
0.0
  0
LINE
  5
100B
330
1D
100
AcDbEntity
  8
0
100
AcDbLine
 10
-121.2492
 20
151.21
 30
0.0
 11
-120.832611477682
 21
151.015403093883
 31
0.0
  0
LINE
  5
100C
330
1D
100
AcDbEntity
  8
0
100
AcDbLine
 10
-120.17565713642
 20
151.559464295288
 30
0.0
 11
-119.969064806599
 21
152.002319259957
 31
0.0
  0
LINE
  5
100D
330
1D
100
AcDbEntity
  8
0
100
AcDbLine
 10
-120.17565713642
 20
151.559464295288
 30
0.0
 11
-120.034958224702
 21
151.861068965858
 31
0.0
  0
LINE
  5
100E
330
1D
100
AcDbEntity
  8
0
100
AcDbLine
 10
-122.3951
 20
151.744
 30
0.0
 11
-121.2492
 21
151.21
 31
0.0
  0
LINE
  5
100F
330
1D
100
AcDbEntity
  8
0
100
AcDbLine
 10
-122.3951
 20
151.744
 30
0.0
 11
-122.070428984019
 21
152.439970520476
 31
0.0
  0
LINE
  5
1010
330
1D
100
AcDbEntity
  8
0
100
AcDbLine
 10
-122.3951
 20
151.744
 30
0.0
 11
-121.7337
 21
151.435
 31
0.0
  0
LINE
  5
1011
330
1D
100
AcDbEntity
  8
0
100
AcDbLine
 10
-120.286451778789
 20
151.547193829928
 30
0.0
 11
-120.22215462121
 21
151.520957087331
 31
0.0
  0
LINE
  5
1012
330
1D
100
AcDbEntity
  8
0
100
AcDbLine
 10
-80.581675582975
 20
130.364154554827
 30
0.0
 11
-75.6955
 21
124.481
 31
0.0
  0
LINE
  5
1013
330
1D
100
AcDbEntity
  8
0
100
AcDbLine
 10
-118.77
 20
152.813
 30
0.0
 11
-118.700927301439
 21
152.780771828207
 31
0.0
  0
LINE
  5
1014
330
1D
100
AcDbEntity
  8
0
100
AcDbLine
 10
-122.9117
 20
155.847
 30
0.0
 11
-117.84912342155
 21
153.486198998934
 31
0.0
  0
LINE
  5
1015
330
1D
100
AcDbEntity
  8
0
100
AcDbLine
 10
-128.7994
 20
158.593
 30
0.0
 11
-122.9117
 21
155.847
 31
0.0
  0
LINE
  5
1016
330
1D
100
AcDbEntity
  8
0
100
AcDbLine
 10
-77.2336
 20
121.039
 30
0.0
 11
-77.0364
 21
121.48
 31
0.0
  0
LINE
  5
1017
330
1D
100
AcDbEntity
  8
0
100
AcDbLine
 10
-77.2336
 20
121.039
 30
0.0
 11
-20.45
 21
53.3769
 31
0.0
  0
LINE
  5
1018
330
1D
100
AcDbEntity
  8
0
100
AcDbLine
 10
-77.0364
 20
121.48
 30
0.0
 11
-76.4843
 21
122.716
 31
0.0
  0
LINE
  5
1019
330
1D
100
AcDbEntity
  8
0
100
AcDbLine
 10
-76.4843
 20
122.716
 30
0.0
 11
-75.6166
 21
124.657
 31
0.0
  0
LINE
  5
101A
330
1D
100
AcDbEntity
  8
0
100
AcDbLine
 10
-75.6166
 20
124.657
 30
0.0
 11
-74.473
 21
127.217
 31
0.0
  0
LINE
  5
101B
330
1D
100
AcDbEntity
  8
0
100
AcDbLine
 10
-75.6166
 20
124.657
 30
0.0
 11
-75.245191095889
 21
125.488415525118
 31
0.0
  0
LINE
  5
101C
330
1D
100
AcDbEntity
  8
0
100
AcDbLine
 10
-75.6166
 20
124.657
 30
0.0
 11
-75.245191095888
 21
125.488415525118
 31
0.0
  0
LINE
  5
101D
330
1D
100
AcDbEntity
  8
0
100
AcDbLine
 10
-75.6955
 20
124.481
 30
0.0
 11
-75.5377
 21
124.834
 31
0.0
  0
LINE
  5
101E
330
1D
100
AcDbEntity
  8
0
100
AcDbLine
 10
-75.5377
 20
124.834
 30
0.0
 11
-75.245191095889
 21
125.488415525118
 31
0.0
  0
LINE
  5
101F
330
1D
100
AcDbEntity
  8
0
100
AcDbLine
 10
-75.5377
 20
124.834
 30
0.0
 11
-75.245191095889
 21
125.488415525118
 31
0.0
  0
LINE
  5
1020
330
1D
100
AcDbEntity
  8
0
100
AcDbLine
 10
-69.582040360116
 20
138.161313932372
 30
0.0
 11
-69.481707646616
 21
138.385696746067
 31
0.0
  0
LINE
  5
1021
330
1D
100
AcDbEntity
  8
0
100
AcDbLine
 10
-63.868340409103
 20
142.442272619871
 30
0.0
 11
-2.119
 21
68.8585
 31
0.0
  0
LINE
  5
1022
330
1D
100
AcDbEntity
  8
0
100
AcDbLine
 10
-63.868340409103
 20
142.442272619871
 30
0.0
 11
-2.119
 21
68.8585
 31
0.0
  0
LINE
  5
1023
330
1D
100
AcDbEntity
  8
0
100
AcDbLine
 10
-69.582040360116
 20
138.161313932372
 30
0.0
 11
-69.481813934853
 21
138.385619935433
 31
0.0
  0
LINE
  5
1024
330
1D
100
AcDbEntity
  8
0
100
AcDbLine
 10
-69.582040360116
 20
138.161313932372
 30
0.0
 11
-69.481707646616
 21
138.385696746067
 31
0.0
  0
LINE
  5
1025
330
1D
100
AcDbEntity
  8
0
100
AcDbLine
 10
-69.582040360116
 20
138.161313932372
 30
0.0
 11
-69.481813934853
 21
138.385619935433
 31
0.0
  0
LINE
  5
1026
330
1D
100
AcDbEntity
  8
0
100
AcDbLine
 10
-32.691
 20
164.973
 30
0.0
 11
-4.955
 21
184.176
 31
0.0
  0
LINE
  5
1027
330
1D
100
AcDbEntity
  8
0
100
AcDbLine
 10
-103.1878
 20
169.821
 30
0.0
 11
-99.954460999813
 21
168.313029497252
 31
0.0
  0
LINE
  5
1028
330
1D
100
AcDbEntity
  8
0
100
AcDbLine
 10
-108.4138
 20
172.257
 30
0.0
 11
-103.1878
 21
169.821
 31
0.0
  0
LINE
  5
1029
330
1D
100
AcDbEntity
  8
0
100
AcDbLine
 10
-103.0959
 20
170.881
 30
0.0
 11
-99.105891051483
 21
169.021011762197
 31
0.0
  0
LINE
  5
102A
330
1D
100
AcDbEntity
  8
0
100
AcDbLine
 10
-131.5679
 20
183.055
 30
0.0
 11
-125.7461
 21
180.34
 31
0.0
  0
LINE
  5
102B
330
1D
100
AcDbEntity
  8
0
100
AcDbLine
 10
-119.9246
 20
177.625
 30
0.0
 11
-114.037
 21
174.879
 31
0.0
  0
LINE
  5
102C
330
1D
100
AcDbEntity
  8
0
100
AcDbLine
 10
-125.7461
 20
180.34
 30
0.0
 11
-119.9246
 21
177.625
 31
0.0
  0
LINE
  5
102D
330
1D
100
AcDbEntity
  8
0
100
AcDbLine
 10
-114.037
 20
174.879
 30
0.0
 11
-108.4138
 21
172.257
 31
0.0
  0
LINE
  5
102E
330
1D
100
AcDbEntity
  8
0
100
AcDbLine
 10
-108.2559
 20
173.287
 30
0.0
 11
-103.0959
 21
170.881
 31
0.0
  0
LINE
  5
102F
330
1D
100
AcDbEntity
  8
0
100
AcDbLine
 10
-114.0775
 20
176.002
 30
0.0
 11
-108.2559
 21
173.287
 31
0.0
  0
LINE
  5
1030
330
1D
100
AcDbEntity
  8
0
100
AcDbLine
 10
-119.5682
 20
178.562
 30
0.0
 11
-114.0775
 21
176.002
 31
0.0
  0
LINE
  5
1031
330
1D
100
AcDbEntity
  8
0
100
AcDbLine
 10
-124.4782
 20
183.058
 30
0.0
 11
-98.419306469788
 21
169.593845749757
 31
0.0
  0
LINE
  5
1032
330
1D
100
AcDbEntity
  8
0
100
AcDbLine
 10
-125.3235
 20
181.246
 30
0.0
 11
-119.5682
 21
178.562
 31
0.0
  0
LINE
  5
1033
330
1D
100
AcDbEntity
  8
0
100
AcDbLine
 10
-131.0793
 20
183.929
 30
0.0
 11
-125.3235
 21
181.246
 31
0.0
  0
LINE
  5
1034
330
1D
100
AcDbEntity
  8
0
100
AcDbLine
 10
-41.538
 20
217.377
 30
0.0
 11
-32.428
 21
225.532
 31
0.0
  0
LINE
  5
1035
330
1D
100
AcDbEntity
  8
0
100
AcDbLine
 10
-60.163
 20
201.512
 30
0.0
 11
-41.538
 21
217.377
 31
0.0
  0
LINE
  5
1036
330
1D
100
AcDbEntity
  8
0
100
AcDbLine
 10
-32.428
 20
225.532
 30
0.0
 11
-23.051
 21
234.689
 31
0.0
  0
LINE
  5
1037
330
1D
100
AcDbEntity
  8
0
100
AcDbLine
 10
-23.051
 20
234.689
 30
0.0
 11
-14.862241993056
 21
244.361495881579
 31
0.0
  0
LINE
  5
1038
330
1D
100
AcDbEntity
  8
0
100
AcDbLine
 10
-23.051
 20
234.689
 30
0.0
 11
-14.862241993056
 21
244.361495881579
 31
0.0
  0
LINE
  5
1039
330
1D
100
AcDbEntity
  8
0
100
AcDbLine
 10
-8.842
 20
252.432
 30
0.0
 11
-3.007
 21
261.622
 31
0.0
  0
LINE
  5
103A
330
1D
100
AcDbEntity
  8
0
100
AcDbLine
 10
-101.1291
 20
167.333
 30
0.0
 11
-60.163
 21
201.512
 31
0.0
  0
LINE
  5
103B
330
1D
100
AcDbEntity
  8
0
100
AcDbLine
 10
-3.336
 20
67.8382
 30
0.0
 11
-2.456
 21
68.5922
 31
0.0
  0
LINE
  5
103C
330
1D
100
AcDbEntity
  8
0
100
AcDbLine
 10
-3.289418595399
 20
184.975374204311
 30
0.0
 11
-1.843
 21
185.207
 31
0.0
  0
LINE
  5
103D
330
1D
100
AcDbEntity
  8
0
100
AcDbLine
 10
-0.431
 20
8.0
 30
0.0
 11
-0.297
 21
8.76672
 31
0.0
  0
LINE
  5
103E
330
1D
100
AcDbEntity
  8
0
100
AcDbLine
 10
-2.456
 20
68.5922
 30
0.0
 11
-2.119
 21
68.8585
 31
0.0
  0
LINE
  5
103F
330
1D
100
AcDbEntity
  8
0
100
AcDbLine
 10
-2.170686898683
 20
67.806093027108
 30
0.0
 11
-2.119
 21
68.8585
 31
0.0
  0
LINE
  5
1040
330
1D
100
AcDbEntity
  8
0
100
AcDbLine
 10
-14.862241993056
 20
244.361495881579
 30
0.0
 11
-8.842
 21
252.432
 31
0.0
  0
LINE
  5
1041
330
1D
100
AcDbEntity
  8
0
100
AcDbLine
 10
-126.4367
 20
97.2264
 30
0.0
 11
-32.691
 21
164.973
 31
0.0
  0
LINE
  5
1042
330
1D
100
AcDbEntity
  8
0
100
AcDbLine
 10
-4.955
 20
184.176
 30
0.0
 11
-3.289418595399
 21
184.975374204311
 31
0.0
  0
LINE
  5
1043
330
1D
100
AcDbEntity
  8
0
100
AcDbLine
 10
-8.437
 20
34.6857
 30
0.0
 11
-8.941
 21
35.3064
 31
0.0
  0
LINE
  5
1044
330
1D
100
AcDbEntity
  8
0
100
AcDbLine
 10
-74.473
 20
127.217
 30
0.0
 11
-69.582040360116
 21
138.161313932372
 31
0.0
  0
LINE
  5
1045
330
1D
100
AcDbEntity
  8
0
100
AcDbLine
 10
-169.857109621452
 20
108.261422712935
 30
0.0
 11
-146.1213
 21
84.5262
 31
0.0
  0
LINE
  5
1046
330
1D
100
AcDbEntity
  8
0
100
AcDbLine
 10
0.196
 20
9.41555
 30
0.0
 11
0.843
 21
9.84775
 31
0.0
  0
LINE
  5
1047
330
1D
100
AcDbEntity
  8
0
100
AcDbLine
 10
0.843284428505
 20
9.84794
 30
0.0
 11
1.561
 21
10.0
 31
0.0
  0
LINE
  5
1048
330
1D
100
AcDbEntity
  8
0
100
AcDbLine
 10
1.71
 20
10.0
 30
0.0
 11
2.156
 21
10.0
 31
0.0
  0
LINE
  5
1049
330
1D
100
AcDbEntity
  8
0
100
AcDbLine
 10
2.156
 20
10.0
 30
0.0
 11
2.914
 21
10.0
 31
0.0
  0
LINE
  5
104A
330
1D
100
AcDbEntity
  8
0
100
AcDbLine
 10
2.914
 20
10.0
 30
0.0
 11
3.978
 21
10.0
 31
0.0
  0
LINE
  5
104B
330
1D
100
AcDbEntity
  8
0
100
AcDbLine
 10
1.581
 20
10.0
 30
0.0
 11
1.71
 21
10.0
 31
0.0
  0
LINE
  5
104C
330
1D
100
AcDbEntity
  8
0
100
AcDbLine
 10
3.978
 20
10.0
 30
0.0
 11
5.335
 21
10.0
 31
0.0
  0
LINE
  5
104D
330
1D
100
AcDbEntity
  8
0
100
AcDbLine
 10
5.335
 20
10.0
 30
0.0
 11
6.975
 21
10.0
 31
0.0
  0
LINE
  5
104E
330
1D
100
AcDbEntity
  8
0
100
AcDbLine
 10
6.975
 20
10.0
 30
0.0
 11
8.881
 21
10.0
 31
0.0
  0
LINE
  5
104F
330
1D
100
AcDbEntity
  8
0
100
AcDbLine
 10
6.975
 20
10.0
 30
0.0
 11
8.88
 21
10.0
 31
0.0
  0
LINE
  5
1050
330
1D
100
AcDbEntity
  8
0
100
AcDbLine
 10
8.88
 20
10.0
 30
0.0
 11
11.033
 21
10.0
 31
0.0
  0
LINE
  5
1051
330
1D
100
AcDbEntity
  8
0
100
AcDbLine
 10
8.881
 20
10.0
 30
0.0
 11
11.033
 21
10.0
 31
0.0
  0
LINE
  5
1052
330
1D
100
AcDbEntity
  8
0
100
AcDbLine
 10
8.72
 20
10.0382
 30
0.0
 11
8.866
 21
10.0
 31
0.0
  0
LINE
  5
1053
330
1D
100
AcDbEntity
  8
0
100
AcDbLine
 10
8.566
 20
10.2881
 30
0.0
 11
8.61
 21
10.1432
 31
0.0
  0
LINE
  5
1054
330
1D
100
AcDbEntity
  8
0
100
AcDbLine
 10
8.61
 20
10.1432
 30
0.0
 11
8.72
 21
10.0382
 31
0.0
  0
LINE
  5
1055
330
1D
100
AcDbEntity
  8
0
100
AcDbLine
 10
13.413
 20
10.0
 30
0.0
 11
15.996
 21
10.0
 31
0.0
  0
LINE
  5
1056
330
1D
100
AcDbEntity
  8
0
100
AcDbLine
 10
11.033
 20
10.0
 30
0.0
 11
13.412
 21
10.0
 31
0.0
  0
LINE
  5
1057
330
1D
100
AcDbEntity
  8
0
100
AcDbLine
 10
11.033
 20
10.0
 30
0.0
 11
13.413
 21
10.0
 31
0.0
  0
LINE
  5
1058
330
1D
100
AcDbEntity
  8
0
100
AcDbLine
 10
13.412
 20
10.0
 30
0.0
 11
15.996
 21
10.0
 31
0.0
  0
LINE
  5
1059
330
1D
100
AcDbEntity
  8
0
100
AcDbLine
 10
7.598
 20
10.4
 30
0.0
 11
8.009
 21
10.4
 31
0.0
  0
LINE
  5
105A
330
1D
100
AcDbEntity
  8
0
100
AcDbLine
 10
7.459
 20
10.4
 30
0.0
 11
7.598
 21
10.4
 31
0.0
  0
LINE
  5
105B
330
1D
100
AcDbEntity
  8
0
100
AcDbLine
 10
7.459
 20
10.4
 30
0.0
 11
7.566
 21
10.4
 31
0.0
  0
LINE
  5
105C
330
1D
100
AcDbEntity
  8
0
100
AcDbLine
 10
6.753146056805
 20
23.3398
 30
0.0
 11
6.769
 21
23.1186
 31
0.0
  0
LINE
  5
105D
330
1D
100
AcDbEntity
  8
0
100
AcDbLine
 10
6.769
 20
23.1186
 30
0.0
 11
6.981
 21
18.9842
 31
0.0
  0
LINE
  5
105E
330
1D
100
AcDbEntity
  8
0
100
AcDbLine
 10
6.769
 20
23.1186
 30
0.0
 11
6.982
 21
18.9842
 31
0.0
  0
LINE
  5
105F
330
1D
100
AcDbEntity
  8
0
100
AcDbLine
 10
6.982
 20
18.9842
 30
0.0
 11
7.112
 21
14.8445
 31
0.0
  0
LINE
  5
1060
330
1D
100
AcDbEntity
  8
0
100
AcDbLine
 10
6.981
 20
18.9842
 30
0.0
 11
7.111
 21
14.8445
 31
0.0
  0
LINE
  5
1061
330
1D
100
AcDbEntity
  8
0
100
AcDbLine
 10
6.753145672914
 20
23.3398
 30
0.0
 11
6.769
 21
23.1186
 31
0.0
  0
LINE
  5
1062
330
1D
100
AcDbEntity
  8
0
100
AcDbLine
 10
7.199
 20
10.5497
 30
0.0
 11
7.309
 21
10.4401
 31
0.0
  0
LINE
  5
1063
330
1D
100
AcDbEntity
  8
0
100
AcDbLine
 10
7.309
 20
10.4401
 30
0.0
 11
7.459
 21
10.4
 31
0.0
  0
LINE
  5
1064
330
1D
100
AcDbEntity
  8
0
100
AcDbLine
 10
7.112
 20
14.8445
 30
0.0
 11
7.159
 21
10.6996
 31
0.0
  0
LINE
  5
1065
330
1D
100
AcDbEntity
  8
0
100
AcDbLine
 10
7.159
 20
10.6996
 30
0.0
 11
7.199
 21
10.5497
 31
0.0
  0
LINE
  5
1066
330
1D
100
AcDbEntity
  8
0
100
AcDbLine
 10
7.111
 20
14.8445
 30
0.0
 11
7.159
 21
10.6996
 31
0.0
  0
LINE
  5
1067
330
1D
100
AcDbEntity
  8
0
100
AcDbLine
 10
8.009
 20
10.4
 30
0.0
 11
8.562299594298
 21
10.4
 31
0.0
  0
LINE
  5
1068
330
1D
100
AcDbEntity
  8
0
100
AcDbLine
 10
6.095
 20
31.3731
 30
0.0
 11
6.28133777002
 21
29.3398
 31
0.0
  0
LINE
  5
1069
330
1D
100
AcDbEntity
  8
0
100
AcDbLine
 10
7.787
 20
33.8031
 30
0.0
 11
8.566
 21
10.2883
 31
0.0
  0
LINE
  5
106A
330
1D
100
AcDbEntity
  8
0
100
AcDbLine
 10
7.787
 20
33.8034
 30
0.0
 11
8.566
 21
10.2886
 31
0.0
  0
LINE
  5
106B
330
1D
100
AcDbEntity
  8
0
100
AcDbLine
 10
15.996
 20
10.0
 30
0.0
 11
18.758
 21
10.0
 31
0.0
  0
LINE
  5
106C
330
1D
100
AcDbEntity
  8
0
100
AcDbLine
 10
18.758
 20
10.0
 30
0.0
 11
21.673
 21
10.0
 31
0.0
  0
LINE
  5
106D
330
1D
100
AcDbEntity
  8
0
100
AcDbLine
 10
18.758
 20
10.0
 30
0.0
 11
21.674
 21
10.0
 31
0.0
  0
LINE
  5
106E
330
1D
100
AcDbEntity
  8
0
100
AcDbLine
 10
21.674
 20
10.0
 30
0.0
 11
24.712
 21
10.0
 31
0.0
  0
LINE
  5
106F
330
1D
100
AcDbEntity
  8
0
100
AcDbLine
 10
24.712
 20
10.0
 30
0.0
 11
27.847
 21
10.0
 31
0.0
  0
LINE
  5
1070
330
1D
100
AcDbEntity
  8
0
100
AcDbLine
 10
31.045
 20
10.0
 30
0.0
 11
34.278
 21
10.0
 31
0.0
  0
LINE
  5
1071
330
1D
100
AcDbEntity
  8
0
100
AcDbLine
 10
27.847
 20
10.0
 30
0.0
 11
31.045
 21
10.0
 31
0.0
  0
LINE
  5
1072
330
1D
100
AcDbEntity
  8
0
100
AcDbLine
 10
24.713
 20
10.0
 30
0.0
 11
27.847
 21
10.0
 31
0.0
  0
LINE
  5
1073
330
1D
100
AcDbEntity
  8
0
100
AcDbLine
 10
21.673
 20
10.0
 30
0.0
 11
24.713
 21
10.0
 31
0.0
  0
LINE
  5
1074
330
1D
100
AcDbEntity
  8
0
100
AcDbLine
 10
20.438
 20
10.039
 30
0.0
 11
20.518
 21
10.0
 31
0.0
  0
LINE
  5
1075
330
1D
100
AcDbEntity
  8
0
100
AcDbLine
 10
20.438
 20
10.039
 30
0.0
 11
20.519
 21
10.0
 31
0.0
  0
LINE
  5
1076
330
1D
100
AcDbEntity
  8
0
100
AcDbLine
 10
34.278
 20
10.0
 30
0.0
 11
37.514
 21
10.0
 31
0.0
  0
LINE
  5
1077
330
1D
100
AcDbEntity
  8
0
100
AcDbLine
 10
34.278
 20
10.0
 30
0.0
 11
37.515
 21
10.0
 31
0.0
  0
LINE
  5
1078
330
1D
100
AcDbEntity
  8
0
100
AcDbLine
 10
37.515
 20
10.0
 30
0.0
 11
40.722
 21
10.0
 31
0.0
  0
LINE
  5
1079
330
1D
100
AcDbEntity
  8
0
100
AcDbLine
 10
37.514
 20
10.0
 30
0.0
 11
40.722
 21
10.0
 31
0.0
  0
LINE
  5
107A
330
1D
100
AcDbEntity
  8
0
100
AcDbLine
 10
40.722
 20
10.0
 30
0.0
 11
43.87
 21
10.0
 31
0.0
  0
LINE
  5
107B
330
1D
100
AcDbEntity
  8
0
100
AcDbLine
 10
43.87
 20
10.0
 30
0.0
 11
46.929
 21
10.0
 31
0.0
  0
LINE
  5
107C
330
1D
100
AcDbEntity
  8
0
100
AcDbLine
 10
46.929
 20
10.0
 30
0.0
 11
49.869
 21
10.0
 31
0.0
  0
LINE
  5
107D
330
1D
100
AcDbEntity
  8
0
100
AcDbLine
 10
49.869
 20
10.0
 30
0.0
 11
52.662
 21
10.0
 31
0.0
  0
LINE
  5
107E
330
1D
100
AcDbEntity
  8
0
100
AcDbLine
 10
52.662
 20
10.0
 30
0.0
 11
55.281
 21
10.0
 31
0.0
  0
LINE
  5
107F
330
1D
100
AcDbEntity
  8
0
100
AcDbLine
 10
55.281
 20
10.0
 30
0.0
 11
57.7
 21
10.0
 31
0.0
  0
LINE
  5
1080
330
1D
100
AcDbEntity
  8
0
100
AcDbLine
 10
57.7
 20
10.0
 30
0.0
 11
59.897
 21
10.0
 31
0.0
  0
LINE
  5
1081
330
1D
100
AcDbEntity
  8
0
100
AcDbLine
 10
57.7
 20
10.0
 30
0.0
 11
59.896
 21
10.0
 31
0.0
  0
LINE
  5
1082
330
1D
100
AcDbEntity
  8
0
100
AcDbLine
 10
59.896
 20
10.0
 30
0.0
 11
61.85
 21
10.0
 31
0.0
  0
LINE
  5
1083
330
1D
100
AcDbEntity
  8
0
100
AcDbLine
 10
59.897
 20
10.0
 30
0.0
 11
61.85
 21
10.0
 31
0.0
  0
LINE
  5
1084
330
1D
100
AcDbEntity
  8
0
100
AcDbLine
 10
60.11002014218
 20
16.881166469195
 30
0.0
 11
60.124
 21
16.8076
 31
0.0
  0
LINE
  5
1085
330
1D
100
AcDbEntity
  8
0
100
AcDbLine
 10
61.85
 20
10.0
 30
0.0
 11
62.184
 21
10.0
 31
0.0
  0
LINE
  5
1086
330
1D
100
AcDbEntity
  8
0
100
AcDbLine
 10
61.85
 20
10.0
 30
0.0
 11
63.539
 21
10.0
 31
0.0
  0
LINE
  5
1087
330
1D
100
AcDbEntity
  8
0
100
AcDbLine
 10
61.85
 20
10.0
 30
0.0
 11
63.54
 21
10.0
 31
0.0
  0
LINE
  5
1088
330
1D
100
AcDbEntity
  8
0
100
AcDbLine
 10
66.07
 20
10.0
 30
0.0
 11
66.885
 21
10.0
 31
0.0
  0
LINE
  5
1089
330
1D
100
AcDbEntity
  8
0
100
AcDbLine
 10
64.951
 20
10.0
 30
0.0
 11
66.069
 21
10.0
 31
0.0
  0
LINE
  5
108A
330
1D
100
AcDbEntity
  8
0
100
AcDbLine
 10
64.951
 20
10.0
 30
0.0
 11
66.07
 21
10.0
 31
0.0
  0
LINE
  5
108B
330
1D
100
AcDbEntity
  8
0
100
AcDbLine
 10
66.069
 20
10.0
 30
0.0
 11
66.885
 21
10.0
 31
0.0
  0
LINE
  5
108C
330
1D
100
AcDbEntity
  8
0
100
AcDbLine
 10
68.275
 20
9.84771
 30
0.0
 11
69.002
 21
9.41529
 31
0.0
  0
LINE
  5
108D
330
1D
100
AcDbEntity
  8
0
100
AcDbLine
 10
67.597688230625
 20
9.991570264098
 30
0.0
 11
68.275
 21
9.84771
 31
0.0
  0
LINE
  5
108E
330
1D
100
AcDbEntity
  8
0
100
AcDbLine
 10
69.002
 20
9.41529
 30
0.0
 11
69.397
 21
8.76536
 31
0.0
  0
LINE
  5
108F
330
1D
100
AcDbEntity
  8
0
100
AcDbLine
 10
67.39
 20
10.0
 30
0.0
 11
67.578
 21
10.0
 31
0.0
  0
LINE
  5
1090
330
1D
100
AcDbEntity
  8
0
100
AcDbLine
 10
66.885
 20
10.0
 30
0.0
 11
67.39
 21
10.0
 31
0.0
  0
LINE
  5
1091
330
1D
100
AcDbEntity
  8
0
100
AcDbLine
 10
63.54
 20
10.0
 30
0.0
 11
64.951
 21
10.0
 31
0.0
  0
LINE
  5
1092
330
1D
100
AcDbEntity
  8
0
100
AcDbLine
 10
69.397
 20
8.76536
 30
0.0
 11
69.569
 21
8.0
 31
0.0
  0
LINE
  5
1093
330
1D
100
AcDbEntity
  8
0
100
AcDbLine
 10
62.184
 20
10.0
 30
0.0
 11
63.824
 21
10.0
 31
0.0
  0
LINE
  5
1094
330
1D
100
AcDbEntity
  8
0
100
AcDbLine
 10
60.446
 20
10.0439
 30
0.0
 11
60.557
 21
10.1626
 31
0.0
  0
LINE
  5
1095
330
1D
100
AcDbEntity
  8
0
100
AcDbLine
 10
60.583372629729
 20
10.4
 30
0.0
 11
61.045
 21
10.4
 31
0.0
  0
LINE
  5
1096
330
1D
100
AcDbEntity
  8
0
100
AcDbLine
 10
61.045
 20
10.4
 30
0.0
 11
61.506
 21
10.4
 31
0.0
  0
LINE
  5
1097
330
1D
100
AcDbEntity
  8
0
100
AcDbLine
 10
61.659
 20
10.4
 30
0.0
 11
61.809
 21
10.4402
 31
0.0
  0
LINE
  5
1098
330
1D
100
AcDbEntity
  8
0
100
AcDbLine
 10
61.809
 20
10.4402
 30
0.0
 11
61.919
 21
10.55
 31
0.0
  0
LINE
  5
1099
330
1D
100
AcDbEntity
  8
0
100
AcDbLine
 10
61.919
 20
10.55
 30
0.0
 11
61.959
 21
10.7001
 31
0.0
  0
LINE
  5
109A
330
1D
100
AcDbEntity
  8
0
100
AcDbLine
 10
61.506
 20
10.4
 30
0.0
 11
61.659
 21
10.4
 31
0.0
  0
LINE
  5
109B
330
1D
100
AcDbEntity
  8
0
100
AcDbLine
 10
61.502
 20
10.4
 30
0.0
 11
61.659
 21
10.4
 31
0.0
  0
LINE
  5
109C
330
1D
100
AcDbEntity
  8
0
100
AcDbLine
 10
60.557
 20
10.1626
 30
0.0
 11
60.589
 21
10.3215
 31
0.0
  0
LINE
  5
109D
330
1D
100
AcDbEntity
  8
0
100
AcDbLine
 10
60.29
 20
10.0
 30
0.0
 11
60.446
 21
10.0439
 31
0.0
  0
LINE
  5
109E
330
1D
100
AcDbEntity
  8
0
100
AcDbLine
 10
60.124
 20
16.8081
 30
0.0
 11
60.589
 21
10.3215
 31
0.0
  0
LINE
  5
109F
330
1D
100
AcDbEntity
  8
0
100
AcDbLine
 10
59.961419295559
 20
17.722025206739
 30
0.0
 11
60.008142523939
 21
17.446907844338
 31
0.0
  0
LINE
  5
10A0
330
1D
100
AcDbEntity
  8
0
100
AcDbLine
 10
59.872
 20
18.3146
 30
0.0
 11
59.976
 21
17.6254
 31
0.0
  0
LINE
  5
10A1
330
1D
100
AcDbEntity
  8
0
100
AcDbLine
 10
59.872
 20
18.3139
 30
0.0
 11
59.976
 21
17.6254
 31
0.0
  0
LINE
  5
10A2
330
1D
100
AcDbEntity
  8
0
100
AcDbLine
 10
59.976
 20
17.6254
 30
0.0
 11
60.119
 21
16.831
 31
0.0
  0
LINE
  5
10A3
330
1D
100
AcDbEntity
  8
0
100
AcDbLine
 10
59.976
 20
17.6254
 30
0.0
 11
60.119
 21
16.8313
 31
0.0
  0
LINE
  5
10A4
330
1D
100
AcDbEntity
  8
0
100
AcDbLine
 10
59.961825421133
 20
17.719333843799
 30
0.0
 11
60.007247237909
 21
17.451879499138
 31
0.0
  0
LINE
  5
10A5
330
1D
100
AcDbEntity
  8
0
100
AcDbLine
 10
59.604561818971
 20
21.371231935789
 30
0.0
 11
59.638
 21
21.1756
 31
0.0
  0
LINE
  5
10A6
330
1D
100
AcDbEntity
  8
0
100
AcDbLine
 10
59.696
 20
19.9942
 30
0.0
 11
59.872
 21
18.3146
 31
0.0
  0
LINE
  5
10A7
330
1D
100
AcDbEntity
  8
0
100
AcDbLine
 10
59.815932251554
 20
18.849664717561
 30
0.0
 11
59.94797749627
 21
17.811102976643
 31
0.0
  0
LINE
  5
10A8
330
1D
100
AcDbEntity
  8
0
100
AcDbLine
 10
59.696
 20
19.994
 30
0.0
 11
59.872
 21
18.3139
 31
0.0
  0
LINE
  5
10A9
330
1D
100
AcDbEntity
  8
0
100
AcDbLine
 10
59.621854373254
 20
21.110811187786
 30
0.0
 11
59.638
 21
21.1756
 31
0.0
  0
LINE
  5
10AA
330
1D
100
AcDbEntity
  8
0
100
AcDbLine
 10
59.636340711258
 20
21.612900350289
 30
0.0
 11
59.654642134891
 21
20.837116074916
 31
0.0
  0
LINE
  5
10AB
330
1D
100
AcDbEntity
  8
0
100
AcDbLine
 10
59.621854373254
 20
21.110811187786
 30
0.0
 11
59.638
 21
21.1756
 31
0.0
  0
LINE
  5
10AC
330
1D
100
AcDbEntity
  8
0
100
AcDbLine
 10
59.678093820878
 20
20.359146454146
 30
0.0
 11
59.723007192459
 21
19.736465451967
 31
0.0
  0
LINE
  5
10AD
330
1D
100
AcDbEntity
  8
0
100
AcDbLine
 10
59.638
 20
21.1763
 30
0.0
 11
59.696
 21
19.9942
 31
0.0
  0
LINE
  5
10AE
330
1D
100
AcDbEntity
  8
0
100
AcDbLine
 10
59.638
 20
21.1756
 30
0.0
 11
59.696
 21
19.994
 31
0.0
  0
LINE
  5
10AF
330
1D
100
AcDbEntity
  8
0
100
AcDbLine
 10
59.636343187224
 20
21.612248861705
 30
0.0
 11
59.654608409678
 21
20.837803429646
 31
0.0
  0
LINE
  5
10B0
330
1D
100
AcDbEntity
  8
0
100
AcDbLine
 10
59.678200886851
 20
20.356964338856
 30
0.0
 11
59.722903831701
 21
19.737451842471
 31
0.0
  0
LINE
  5
10B1
330
1D
100
AcDbEntity
  8
0
100
AcDbLine
 10
59.604561818971
 20
21.371231935789
 30
0.0
 11
59.638
 21
21.1756
 31
0.0
  0
LINE
  5
10B2
330
1D
100
AcDbEntity
  8
0
100
AcDbLine
 10
59.81611103734
 20
18.847958532295
 30
0.0
 11
59.947735223363
 21
17.812708500563
 31
0.0
  0
LINE
  5
10B3
330
1D
100
AcDbEntity
  8
0
100
AcDbLine
 10
60.108455834656
 20
16.8898532986
 30
0.0
 11
60.124
 21
16.8081
 31
0.0
  0
LINE
  5
10B4
330
1D
100
AcDbEntity
  8
0
100
AcDbLine
 10
59.634
 20
22.2288
 30
0.0
 11
59.638
 21
21.1763
 31
0.0
  0
LINE
  5
10B5
330
1D
100
AcDbEntity
  8
0
100
AcDbLine
 10
59.634
 20
22.2288
 30
0.0
 11
59.664
 21
23.0974
 31
0.0
  0
LINE
  5
10B6
330
1D
100
AcDbEntity
  8
0
100
AcDbLine
 10
59.634985588533
 20
21.969467017217
 30
0.0
 11
59.644964871736
 21
22.546269586317
 31
0.0
  0
LINE
  5
10B7
330
1D
100
AcDbEntity
  8
0
100
AcDbLine
 10
59.634986972016
 20
21.969102988258
 30
0.0
 11
59.644973771959
 21
22.54652727745
 31
0.0
  0
LINE
  5
10B8
330
1D
100
AcDbEntity
  8
0
100
AcDbLine
 10
59.634
 20
22.2287
 30
0.0
 11
59.638
 21
21.1756
 31
0.0
  0
LINE
  5
10B9
330
1D
100
AcDbEntity
  8
0
100
AcDbLine
 10
59.634
 20
22.2287
 30
0.0
 11
59.664
 21
23.0979
 31
0.0
  0
LINE
  5
10BA
330
1D
100
AcDbEntity
  8
0
100
AcDbLine
 10
59.66152523172
 20
23.025747209064
 30
0.0
 11
59.668
 21
23.1713
 31
0.0
  0
LINE
  5
10BB
330
1D
100
AcDbEntity
  8
0
100
AcDbLine
 10
59.664
 20
23.0974
 30
0.0
 11
59.668
 21
23.1713
 31
0.0
  0
LINE
  5
10BC
330
1D
100
AcDbEntity
  8
0
100
AcDbLine
 10
59.66159937727
 20
23.027893969903
 30
0.0
 11
59.668
 21
23.1721
 31
0.0
  0
LINE
  5
10BD
330
1D
100
AcDbEntity
  8
0
100
AcDbLine
 10
61.895
 20
23.0517
 30
0.0
 11
61.959
 21
10.7001
 31
0.0
  0
LINE
  5
10BE
330
1D
100
AcDbEntity
  8
0
100
AcDbLine
 10
59.664
 20
23.0979
 30
0.0
 11
59.668
 21
23.1721
 31
0.0
  0
LINE
  5
10BF
330
1D
100
AcDbEntity
  8
0
100
AcDbLine
 10
61.709
 20
35.4026
 30
0.0
 11
61.895
 21
23.0517
 31
0.0
  0
LINE
  5
10C0
330
1D
100
AcDbEntity
  8
0
100
AcDbLine
 10
4.776
 20
41.7369
 30
0.0
 11
5.634
 21
35.4924
 31
0.0
  0
LINE
  5
10C1
330
1D
100
AcDbEntity
  8
0
100
AcDbLine
 10
1.47
 20
58.6999
 30
0.0
 11
2.67
 21
53.3388
 31
0.0
  0
LINE
  5
10C2
330
1D
100
AcDbEntity
  8
0
100
AcDbLine
 10
1.529
 20
60.165
 30
0.0
 11
1.71
 21
60.3373
 31
0.0
  0
LINE
  5
10C3
330
1D
100
AcDbEntity
  8
0
100
AcDbLine
 10
1.528
 20
60.165
 30
0.0
 11
1.71
 21
60.3373
 31
0.0
  0
LINE
  5
10C4
330
1D
100
AcDbEntity
  8
0
100
AcDbLine
 10
1.71
 20
60.3373
 30
0.0
 11
1.952
 21
60.4
 31
0.0
  0
LINE
  5
10C5
330
1D
100
AcDbEntity
  8
0
100
AcDbLine
 10
1.453
 20
59.9262
 30
0.0
 11
1.528
 21
60.165
 31
0.0
  0
LINE
  5
10C6
330
1D
100
AcDbEntity
  8
0
100
AcDbLine
 10
1.453
 20
59.9262
 30
0.0
 11
1.529
 21
60.165
 31
0.0
  0
LINE
  5
10C7
330
1D
100
AcDbEntity
  8
0
100
AcDbLine
 10
1.419
 20
59.2664
 30
0.0
 11
1.47
 21
58.6999
 31
0.0
  0
LINE
  5
10C8
330
1D
100
AcDbEntity
  8
0
100
AcDbLine
 10
1.419
 20
59.2664
 30
0.0
 11
1.453
 21
59.9262
 31
0.0
  0
LINE
  5
10C9
330
1D
100
AcDbEntity
  8
0
100
AcDbLine
 10
0.243
 20
185.141
 30
0.0
 11
2.391
 21
184.543
 31
0.0
  0
LINE
  5
10CA
330
1D
100
AcDbEntity
  8
0
100
AcDbLine
 10
1.383
 20
70.835
 30
0.0
 11
2.649
 21
70.8537
 31
0.0
  0
LINE
  5
10CB
330
1D
100
AcDbEntity
  8
0
100
AcDbLine
 10
1.952
 20
60.4
 30
0.0
 11
2.029
 21
60.4
 31
0.0
  0
LINE
  5
10CC
330
1D
100
AcDbEntity
  8
0
100
AcDbLine
 10
1.952
 20
60.4
 30
0.0
 11
2.027
 21
60.4
 31
0.0
  0
LINE
  5
10CD
330
1D
100
AcDbEntity
  8
0
100
AcDbLine
 10
1.953
 20
60.4
 30
0.0
 11
2.027
 21
60.4
 31
0.0
  0
LINE
  5
10CE
330
1D
100
AcDbEntity
  8
0
100
AcDbLine
 10
1.953
 20
60.4
 30
0.0
 11
2.029
 21
60.4
 31
0.0
  0
LINE
  5
10CF
330
1D
100
AcDbEntity
  8
0
100
AcDbLine
 10
2.029
 20
60.4
 30
0.0
 11
2.369
 21
60.4
 31
0.0
  0
LINE
  5
10D0
330
1D
100
AcDbEntity
  8
0
100
AcDbLine
 10
2.029
 20
60.4
 30
0.0
 11
2.37
 21
60.4
 31
0.0
  0
LINE
  5
10D1
330
1D
100
AcDbEntity
  8
0
100
AcDbLine
 10
2.37
 20
60.4
 30
0.0
 11
2.91
 21
60.4
 31
0.0
  0
LINE
  5
10D2
330
1D
100
AcDbEntity
  8
0
100
AcDbLine
 10
2.369
 20
60.4
 30
0.0
 11
2.91
 21
60.4
 31
0.0
  0
LINE
  5
10D3
330
1D
100
AcDbEntity
  8
0
100
AcDbLine
 10
2.391
 20
184.543
 30
0.0
 11
4.101
 21
183.643
 31
0.0
  0
LINE
  5
10D4
330
1D
100
AcDbEntity
  8
0
100
AcDbLine
 10
2.649
 20
70.8537
 30
0.0
 11
3.514
 21
70.1704
 31
0.0
  0
LINE
  5
10D5
330
1D
100
AcDbEntity
  8
0
100
AcDbLine
 10
2.91
 20
60.4
 30
0.0
 11
4.015
 21
60.4
 31
0.0
  0
LINE
  5
10D6
330
1D
100
AcDbEntity
  8
0
100
AcDbLine
 10
3.26438354444
 20
50.26825060059
 30
0.0
 11
3.851000077461
 21
47.237825111862
 31
0.0
  0
LINE
  5
10D7
330
1D
100
AcDbEntity
  8
0
100
AcDbLine
 10
3.26438354444
 20
50.26825060059
 30
0.0
 11
3.851000077461
 21
47.237825111862
 31
0.0
  0
LINE
  5
10D8
330
1D
100
AcDbEntity
  8
0
100
AcDbLine
 10
3.851000077461
 20
47.237825111862
 30
0.0
 11
4.776
 21
41.7369
 31
0.0
  0
LINE
  5
10D9
330
1D
100
AcDbEntity
  8
0
100
AcDbLine
 10
61.397
 20
47.9016
 30
0.0
 11
61.709
 21
35.4026
 31
0.0
  0
LINE
  5
10DA
330
1D
100
AcDbEntity
  8
0
100
AcDbLine
 10
7.321
 20
55.5759
 30
0.0
 11
7.787
 21
33.8031
 31
0.0
  0
LINE
  5
10DB
330
1D
100
AcDbEntity
  8
0
100
AcDbLine
 10
7.321
 20
55.5754
 30
0.0
 11
7.787
 21
33.8034
 31
0.0
  0
LINE
  5
10DC
330
1D
100
AcDbEntity
  8
0
100
AcDbLine
 10
4.015
 20
60.4
 30
0.0
 11
5.666
 21
60.4
 31
0.0
  0
LINE
  5
10DD
330
1D
100
AcDbEntity
  8
0
100
AcDbLine
 10
5.666
 20
60.4
 30
0.0
 11
7.267587789136
 21
60.4
 31
0.0
  0
LINE
  5
10DE
330
1D
100
AcDbEntity
  8
0
100
AcDbLine
 10
57.03111349831
 20
60.4
 30
0.0
 11
58.194
 21
60.4
 31
0.0
  0
LINE
  5
10DF
330
1D
100
AcDbEntity
  8
0
100
AcDbLine
 10
58.194
 20
60.4
 30
0.0
 11
59.186
 21
60.4
 31
0.0
  0
LINE
  5
10E0
330
1D
100
AcDbEntity
  8
0
100
AcDbLine
 10
60.723
 20
60.3363
 30
0.0
 11
60.905
 21
60.1613
 31
0.0
  0
LINE
  5
10E1
330
1D
100
AcDbEntity
  8
0
100
AcDbLine
 10
60.905
 20
60.1613
 30
0.0
 11
60.978
 21
59.9198
 31
0.0
  0
LINE
  5
10E2
330
1D
100
AcDbEntity
  8
0
100
AcDbLine
 10
60.333
 20
60.4
 30
0.0
 11
60.479
 21
60.4
 31
0.0
  0
LINE
  5
10E3
330
1D
100
AcDbEntity
  8
0
100
AcDbLine
 10
60.479
 20
60.4
 30
0.0
 11
60.723
 21
60.3363
 31
0.0
  0
LINE
  5
10E4
330
1D
100
AcDbEntity
  8
0
100
AcDbLine
 10
59.186
 20
60.4
 30
0.0
 11
59.902
 21
60.4
 31
0.0
  0
LINE
  5
10E5
330
1D
100
AcDbEntity
  8
0
100
AcDbLine
 10
59.902
 20
60.4
 30
0.0
 11
60.333
 21
60.4
 31
0.0
  0
LINE
  5
10E6
330
1D
100
AcDbEntity
  8
0
100
AcDbLine
 10
60.978
 20
59.9196
 30
0.0
 11
61.397
 21
47.9016
 31
0.0
  0
LINE
  5
10E7
330
1D
100
AcDbEntity
  8
0
100
AcDbLine
 10
56.111
 20
74.773
 30
0.0
 11
59.668
 21
23.1713
 31
0.0
  0
LINE
  5
10E8
330
1D
100
AcDbEntity
  8
0
100
AcDbLine
 10
56.111
 20
74.773
 30
0.0
 11
59.668
 21
23.1713
 31
0.0
  0
LINE
  5
10E9
330
1D
100
AcDbEntity
  8
0
100
AcDbLine
 10
4.124
 20
183.619
 30
0.0
 11
5.421
 21
182.436
 31
0.0
  0
LINE
  5
10EA
330
1D
100
AcDbEntity
  8
0
100
AcDbLine
 10
5.421
 20
182.436
 30
0.0
 11
6.615
 21
179.23
 31
0.0
  0
LINE
  5
10EB
330
1D
100
AcDbEntity
  8
0
100
AcDbLine
 10
6.615
 20
179.231
 30
0.0
 11
7.17829379977
 21
160.165962199726
 31
0.0
  0
LINE
  5
10EC
330
1D
100
AcDbEntity
  8
0
100
AcDbLine
 10
6.992
 20
85.2932
 30
0.0
 11
7.321
 21
55.5754
 31
0.0
  0
LINE
  5
10ED
330
1D
100
AcDbEntity
  8
0
100
AcDbLine
 10
6.992
 20
85.2932
 30
0.0
 11
7.046
 21
95.6976
 31
0.0
  0
LINE
  5
10EE
330
1D
100
AcDbEntity
  8
0
100
AcDbLine
 10
7.17829379977
 20
160.165962199721
 30
0.0
 11
7.247
 21
148.72
 31
0.0
  0
LINE
  5
10EF
330
1D
100
AcDbEntity
  8
0
100
AcDbLine
 10
7.046
 20
95.6976
 30
0.0
 11
7.046562005218
 21
95.188391659914
 31
0.0
  0
LINE
  5
10F0
330
1D
100
AcDbEntity
  8
0
100
AcDbLine
 10
7.046
 20
95.6976
 30
0.0
 11
7.163
 21
117.212
 31
0.0
  0
LINE
  5
10F1
330
1D
100
AcDbEntity
  8
0
100
AcDbLine
 10
7.163
 20
117.212
 30
0.0
 11
7.247
 21
148.72
 31
0.0
  0
LINE
  5
10F2
330
1D
100
AcDbEntity
  8
0
100
AcDbLine
 10
7.046
 20
95.6966
 30
0.0
 11
7.163
 21
117.212
 31
0.0
  0
LINE
  5
10F3
330
1D
100
AcDbEntity
  8
0
100
AcDbLine
 10
7.046
 20
95.6966
 30
0.0
 11
7.046590020252
 21
95.193472377419
 31
0.0
  0
LINE
  5
10F4
330
1D
100
AcDbEntity
  8
0
100
AcDbLine
 10
8.066
 20
272.973
 30
0.0
 11
9.401
 21
271.811
 31
0.0
  0
LINE
  5
10F5
330
1D
100
AcDbEntity
  8
0
100
AcDbLine
 10
4.688
 20
276.265
 30
0.0
 11
4.718
 21
276.379
 31
0.0
  0
LINE
  5
10F6
330
1D
100
AcDbEntity
  8
0
100
AcDbLine
 10
4.688
 20
276.265
 30
0.0
 11
4.884
 21
275.986
 31
0.0
  0
LINE
  5
10F7
330
1D
100
AcDbEntity
  8
0
100
AcDbLine
 10
4.689
 20
276.265
 30
0.0
 11
4.884
 21
275.986
 31
0.0
  0
LINE
  5
10F8
330
1D
100
AcDbEntity
  8
0
100
AcDbLine
 10
4.690068034544
 20
276.269310282267
 30
0.0
 11
4.717
 21
276.378
 31
0.0
  0
LINE
  5
10F9
330
1D
100
AcDbEntity
  8
0
100
AcDbLine
 10
5.335
 20
275.498
 30
0.0
 11
6.023
 21
274.826
 31
0.0
  0
LINE
  5
10FA
330
1D
100
AcDbEntity
  8
0
100
AcDbLine
 10
5.334
 20
275.497
 30
0.0
 11
6.022
 21
274.826
 31
0.0
  0
LINE
  5
10FB
330
1D
100
AcDbEntity
  8
0
100
AcDbLine
 10
4.884
 20
275.986
 30
0.0
 11
5.334
 21
275.497
 31
0.0
  0
LINE
  5
10FC
330
1D
100
AcDbEntity
  8
0
100
AcDbLine
 10
4.884
 20
275.986
 30
0.0
 11
5.335
 21
275.498
 31
0.0
  0
LINE
  5
10FD
330
1D
100
AcDbEntity
  8
0
100
AcDbLine
 10
6.023
 20
274.826
 30
0.0
 11
6.937
 21
273.982
 31
0.0
  0
LINE
  5
10FE
330
1D
100
AcDbEntity
  8
0
100
AcDbLine
 10
6.022
 20
274.826
 30
0.0
 11
6.937
 21
273.982
 31
0.0
  0
LINE
  5
10FF
330
1D
100
AcDbEntity
  8
0
100
AcDbLine
 10
6.937
 20
273.982
 30
0.0
 11
8.067
 21
272.973
 31
0.0
  0
LINE
  5
1100
330
1D
100
AcDbEntity
  8
0
100
AcDbLine
 10
6.937
 20
273.982
 30
0.0
 11
8.066
 21
272.973
 31
0.0
  0
LINE
  5
1101
330
1D
100
AcDbEntity
  8
0
100
AcDbLine
 10
56.07
 20
75.0587
 30
0.0
 11
56.111
 21
74.773
 31
0.0
  0
LINE
  5
1102
330
1D
100
AcDbEntity
  8
0
100
AcDbLine
 10
55.911
 20
76.2003
 30
0.0
 11
56.07
 21
75.0587
 31
0.0
  0
LINE
  5
1103
330
1D
100
AcDbEntity
  8
0
100
AcDbLine
 10
56.076008551255
 20
74.965908141417
 30
0.0
 11
56.111
 21
74.773
 31
0.0
  0
LINE
  5
1104
330
1D
100
AcDbEntity
  8
0
100
AcDbLine
 10
56.49005978093
 20
79.804551784397
 30
0.0
 11
58.851
 21
79.463
 31
0.0
  0
LINE
  5
1105
330
1D
100
AcDbEntity
  8
0
100
AcDbLine
 10
58.851
 20
79.463
 30
0.0
 11
60.04
 21
79.1416
 31
0.0
  0
LINE
  5
1106
330
1D
100
AcDbEntity
  8
0
100
AcDbLine
 10
60.04
 20
79.1416
 30
0.0
 11
61.686
 21
78.8131
 31
0.0
  0
LINE
  5
1107
330
1D
100
AcDbEntity
  8
0
100
AcDbLine
 10
55.791
 20
77.4995
 30
0.0
 11
55.911
 21
76.2003
 31
0.0
  0
LINE
  5
1108
330
1D
100
AcDbEntity
  8
0
100
AcDbLine
 10
72.901
 20
78.8107
 30
0.0
 11
73.669
 21
79.1251
 31
0.0
  0
LINE
  5
1109
330
1D
100
AcDbEntity
  8
0
100
AcDbLine
 10
73.669
 20
79.1251
 30
0.0
 11
74.402
 21
80.0501
 31
0.0
  0
LINE
  5
110A
330
1D
100
AcDbEntity
  8
0
100
AcDbLine
 10
61.686
 20
78.8131
 30
0.0
 11
72.901
 21
78.8107
 31
0.0
  0
LINE
  5
110B
330
1D
100
AcDbEntity
  8
0
100
AcDbLine
 10
74.402
 20
80.0501
 30
0.0
 11
74.526
 21
80.6737
 31
0.0
  0
LINE
  5
110C
330
1D
100
AcDbEntity
  8
0
100
AcDbLine
 10
74.526
 20
80.7068
 30
0.0
 11
74.579
 21
82.3
 31
0.0
  0
LINE
  5
110D
330
1D
100
AcDbEntity
  8
0
100
AcDbLine
 10
55.640271399185
 20
79.8033
 30
0.0
 11
56.49005978093
 21
79.804551784397
 31
0.0
  0
LINE
  5
110E
330
1D
100
AcDbEntity
  8
0
100
AcDbLine
 10
55.104
 20
87.9999
 30
0.0
 11
55.791
 21
77.4995
 31
0.0
  0
LINE
  5
110F
330
1D
100
AcDbEntity
  8
0
100
AcDbLine
 10
55.051
 20
89.5454
 30
0.0
 11
55.104
 21
87.9999
 31
0.0
  0
LINE
  5
1110
330
1D
100
AcDbEntity
  8
0
100
AcDbLine
 10
55.051
 20
89.5454
 30
0.0
 11
55.063
 21
90.5335
 31
0.0
  0
LINE
  5
1111
330
1D
100
AcDbEntity
  8
0
100
AcDbLine
 10
55.313572816274
 20
84.7967
 30
0.0
 11
56.263
 21
84.7967
 31
0.0
  0
LINE
  5
1112
330
1D
100
AcDbEntity
  8
0
100
AcDbLine
 10
55.055770733234
 20
90.647927335911
 30
0.0
 11
55.064
 21
90.7495
 31
0.0
  0
LINE
  5
1113
330
1D
100
AcDbEntity
  8
0
100
AcDbLine
 10
55.063
 20
90.5335
 30
0.0
 11
55.064
 21
90.7495
 31
0.0
  0
LINE
  5
1114
330
1D
100
AcDbEntity
  8
0
100
AcDbLine
 10
58.851
 20
85.137
 30
0.0
 11
60.04
 21
85.4584
 31
0.0
  0
LINE
  5
1115
330
1D
100
AcDbEntity
  8
0
100
AcDbLine
 10
56.263
 20
84.7967
 30
0.0
 11
58.851
 21
85.137
 31
0.0
  0
LINE
  5
1116
330
1D
100
AcDbEntity
  8
0
100
AcDbLine
 10
74.526
 20
83.8932
 30
0.0
 11
74.579
 21
82.3
 31
0.0
  0
LINE
  5
1117
330
1D
100
AcDbEntity
  8
0
100
AcDbLine
 10
61.6
 20
85.7511
 30
0.0
 11
72.85
 21
85.7956
 31
0.0
  0
LINE
  5
1118
330
1D
100
AcDbEntity
  8
0
100
AcDbLine
 10
72.85
 20
85.7956
 30
0.0
 11
73.874
 21
85.3129
 31
0.0
  0
LINE
  5
1119
330
1D
100
AcDbEntity
  8
0
100
AcDbLine
 10
73.874
 20
85.3129
 30
0.0
 11
74.217
 21
84.8642
 31
0.0
  0
LINE
  5
111A
330
1D
100
AcDbEntity
  8
0
100
AcDbLine
 10
74.217
 20
84.8642
 30
0.0
 11
74.526
 21
83.9262
 31
0.0
  0
LINE
  5
111B
330
1D
100
AcDbEntity
  8
0
100
AcDbLine
 10
60.04
 20
85.4584
 30
0.0
 11
61.6
 21
85.7511
 31
0.0
  0
LINE
  5
111C
330
1D
100
AcDbEntity
  8
0
100
AcDbLine
 10
46.278
 20
237.975
 30
0.0
 11
46.367
 21
238.009
 31
0.0
  0
LINE
  5
111D
330
1D
100
AcDbEntity
  8
0
100
AcDbLine
 10
46.278
 20
237.975
 30
0.0
 11
46.367
 21
238.008
 31
0.0
  0
LINE
  5
111E
330
1D
100
AcDbEntity
  8
0
100
AcDbLine
 10
22.093
 20
261.604
 30
0.0
 11
24.495
 21
259.995
 31
0.0
  0
LINE
  5
111F
330
1D
100
AcDbEntity
  8
0
100
AcDbLine
 10
17.63
 20
264.96
 30
0.0
 11
19.801
 21
263.275
 31
0.0
  0
LINE
  5
1120
330
1D
100
AcDbEntity
  8
0
100
AcDbLine
 10
17.629
 20
264.961
 30
0.0
 11
19.801
 21
263.275
 31
0.0
  0
LINE
  5
1121
330
1D
100
AcDbEntity
  8
0
100
AcDbLine
 10
19.801
 20
263.275
 30
0.0
 11
22.094
 21
261.605
 31
0.0
  0
LINE
  5
1122
330
1D
100
AcDbEntity
  8
0
100
AcDbLine
 10
19.801
 20
263.275
 30
0.0
 11
22.093
 21
261.604
 31
0.0
  0
LINE
  5
1123
330
1D
100
AcDbEntity
  8
0
100
AcDbLine
 10
24.495
 20
259.995
 30
0.0
 11
27.619
 21
258.057
 31
0.0
  0
LINE
  5
1124
330
1D
100
AcDbEntity
  8
0
100
AcDbLine
 10
22.094
 20
261.605
 30
0.0
 11
24.495
 21
259.994
 31
0.0
  0
LINE
  5
1125
330
1D
100
AcDbEntity
  8
0
100
AcDbLine
 10
24.495
 20
259.994
 30
0.0
 11
27.619
 21
258.057
 31
0.0
  0
LINE
  5
1126
330
1D
100
AcDbEntity
  8
0
100
AcDbLine
 10
53.072
 20
119.618
 30
0.0
 11
53.159
 21
119.623
 31
0.0
  0
LINE
  5
1127
330
1D
100
AcDbEntity
  8
0
100
AcDbLine
 10
53.072
 20
119.618
 30
0.0
 11
53.225
 21
119.626
 31
0.0
  0
LINE
  5
1128
330
1D
100
AcDbEntity
  8
0
100
AcDbLine
 10
46.367
 20
238.008
 30
0.0
 11
47.619708861201
 21
253.500423817253
 31
0.0
  0
LINE
  5
1129
330
1D
100
AcDbEntity
  8
0
100
AcDbLine
 10
46.345
 20
232.192
 30
0.0
 11
46.695
 21
224.096
 31
0.0
  0
LINE
  5
112A
330
1D
100
AcDbEntity
  8
0
100
AcDbLine
 10
46.695
 20
224.096
 30
0.0
 11
49.65
 21
176.979
 31
0.0
  0
LINE
  5
112B
330
1D
100
AcDbEntity
  8
0
100
AcDbLine
 10
46.327
 20
235.666
 30
0.0
 11
46.367
 21
238.009
 31
0.0
  0
LINE
  5
112C
330
1D
100
AcDbEntity
  8
0
100
AcDbLine
 10
46.327
 20
235.666
 30
0.0
 11
46.345
 21
232.192
 31
0.0
  0
LINE
  5
112D
330
1D
100
AcDbEntity
  8
0
100
AcDbLine
 10
49.043861516227
 20
262.780265937433
 30
0.0
 11
55.044645940452
 21
288.483436827233
 31
0.0
  0
LINE
  5
112E
330
1D
100
AcDbEntity
  8
0
100
AcDbLine
 10
47.6
 20
253.372
 30
0.0
 11
49.043861516227
 21
262.780265937433
 31
0.0
  0
LINE
  5
112F
330
1D
100
AcDbEntity
  8
0
100
AcDbLine
 10
47.6
 20
253.372
 30
0.0
 11
49.043861516227
 21
262.780265937433
 31
0.0
  0
LINE
  5
1130
330
1D
100
AcDbEntity
  8
0
100
AcDbLine
 10
49.65
 20
176.979
 30
0.0
 11
53.159
 21
119.623
 31
0.0
  0
LINE
  5
1131
330
1D
100
AcDbEntity
  8
0
100
AcDbLine
 10
53.159
 20
119.623
 30
0.0
 11
53.225
 21
119.626
 31
0.0
  0
LINE
  5
1132
330
1D
100
AcDbEntity
  8
0
100
AcDbLine
 10
53.225
 20
119.626
 30
0.0
 11
55.063
 21
90.5335
 31
0.0
  0
LINE
  5
1133
330
1D
100
AcDbEntity
  8
0
100
AcDbLine
 10
12.64
 20
269.06
 30
0.0
 11
15.589
 21
266.611
 31
0.0
  0
LINE
  5
1134
330
1D
100
AcDbEntity
  8
0
100
AcDbLine
 10
9.401
 20
271.811
 30
0.0
 11
10.929
 21
270.503
 31
0.0
  0
LINE
  5
1135
330
1D
100
AcDbEntity
  8
0
100
AcDbLine
 10
10.929
 20
270.503
 30
0.0
 11
12.64
 21
269.061
 31
0.0
  0
LINE
  5
1136
330
1D
100
AcDbEntity
  8
0
100
AcDbLine
 10
10.929
 20
270.503
 30
0.0
 11
12.64
 21
269.06
 31
0.0
  0
LINE
  5
1137
330
1D
100
AcDbEntity
  8
0
100
AcDbLine
 10
15.589
 20
266.611
 30
0.0
 11
17.63
 21
264.96
 31
0.0
  0
LINE
  5
1138
330
1D
100
AcDbEntity
  8
0
100
AcDbLine
 10
16.396104453616
 20
302.32582981356
 30
0.0
 11
18.144
 21
306.93
 31
0.0
  0
LINE
  5
1139
330
1D
100
AcDbEntity
  8
0
100
AcDbLine
 10
18.185
 20
304.396
 30
0.0
 11
18.488
 21
303.667
 31
0.0
  0
LINE
  5
113A
330
1D
100
AcDbEntity
  8
0
100
AcDbLine
 10
17.934
 20
305.749
 30
0.0
 11
18.143
 21
306.93
 31
0.0
  0
LINE
  5
113B
330
1D
100
AcDbEntity
  8
0
100
AcDbLine
 10
17.934
 20
305.749
 30
0.0
 11
18.185
 21
304.396
 31
0.0
  0
LINE
  5
113C
330
1D
100
AcDbEntity
  8
0
100
AcDbLine
 10
17.934
 20
305.749
 30
0.0
 11
18.144
 21
306.93
 31
0.0
  0
LINE
  5
113D
330
1D
100
AcDbEntity
  8
0
100
AcDbLine
 10
19.454
 20
302.125
 30
0.0
 11
20.827
 21
300.579
 31
0.0
  0
LINE
  5
113E
330
1D
100
AcDbEntity
  8
0
100
AcDbLine
 10
15.589
 20
266.612
 30
0.0
 11
17.629
 21
264.961
 31
0.0
  0
LINE
  5
113F
330
1D
100
AcDbEntity
  8
0
100
AcDbLine
 10
12.64
 20
269.061
 30
0.0
 11
15.589
 21
266.612
 31
0.0
  0
LINE
  5
1140
330
1D
100
AcDbEntity
  8
0
100
AcDbLine
 10
18.144
 20
306.93
 30
0.0
 11
18.418
 21
307.448
 31
0.0
  0
LINE
  5
1141
330
1D
100
AcDbEntity
  8
0
100
AcDbLine
 10
18.418
 20
307.448
 30
0.0
 11
19.116
 21
308.187
 31
0.0
  0
LINE
  5
1142
330
1D
100
AcDbEntity
  8
0
100
AcDbLine
 10
19.116
 20
308.187
 30
0.0
 11
22.175
 21
309.686
 31
0.0
  0
LINE
  5
1143
330
1D
100
AcDbEntity
  8
0
100
AcDbLine
 10
42.481
 20
290.309
 30
0.0
 11
44.972
 21
289.876
 31
0.0
  0
LINE
  5
1144
330
1D
100
AcDbEntity
  8
0
100
AcDbLine
 10
50.377
 20
289.566
 30
0.0
 11
52.803
 21
289.854
 31
0.0
  0
LINE
  5
1145
330
1D
100
AcDbEntity
  8
0
100
AcDbLine
 10
50.377
 20
289.565
 30
0.0
 11
52.803
 21
289.854
 31
0.0
  0
LINE
  5
1146
330
1D
100
AcDbEntity
  8
0
100
AcDbLine
 10
47.932
 20
289.585
 30
0.0
 11
50.377
 21
289.566
 31
0.0
  0
LINE
  5
1147
330
1D
100
AcDbEntity
  8
0
100
AcDbLine
 10
47.933
 20
289.586
 30
0.0
 11
50.377
 21
289.565
 31
0.0
  0
LINE
  5
1148
330
1D
100
AcDbEntity
  8
0
100
AcDbLine
 10
44.972
 20
289.876
 30
0.0
 11
47.932
 21
289.585
 31
0.0
  0
LINE
  5
1149
330
1D
100
AcDbEntity
  8
0
100
AcDbLine
 10
39.558
 20
291.004
 30
0.0
 11
42.481
 21
290.309
 31
0.0
  0
LINE
  5
114A
330
1D
100
AcDbEntity
  8
0
100
AcDbLine
 10
39.558
 20
291.005
 30
0.0
 11
42.481
 21
290.309
 31
0.0
  0
LINE
  5
114B
330
1D
100
AcDbEntity
  8
0
100
AcDbLine
 10
33.929
 20
292.868
 30
0.0
 11
36.029
 21
292.093
 31
0.0
  0
LINE
  5
114C
330
1D
100
AcDbEntity
  8
0
100
AcDbLine
 10
33.929
 20
292.867
 30
0.0
 11
36.029
 21
292.093
 31
0.0
  0
LINE
  5
114D
330
1D
100
AcDbEntity
  8
0
100
AcDbLine
 10
37.053
 20
291.749
 30
0.0
 11
39.558
 21
291.005
 31
0.0
  0
LINE
  5
114E
330
1D
100
AcDbEntity
  8
0
100
AcDbLine
 10
37.053
 20
291.749
 30
0.0
 11
39.558
 21
291.004
 31
0.0
  0
LINE
  5
114F
330
1D
100
AcDbEntity
  8
0
100
AcDbLine
 10
36.029
 20
292.093
 30
0.0
 11
37.053
 21
291.749
 31
0.0
  0
LINE
  5
1150
330
1D
100
AcDbEntity
  8
0
100
AcDbLine
 10
31.873
 20
293.716
 30
0.0
 11
33.929
 21
292.868
 31
0.0
  0
LINE
  5
1151
330
1D
100
AcDbEntity
  8
0
100
AcDbLine
 10
31.874
 20
293.715
 30
0.0
 11
33.929
 21
292.867
 31
0.0
  0
LINE
  5
1152
330
1D
100
AcDbEntity
  8
0
100
AcDbLine
 10
52.803
 20
289.854
 30
0.0
 11
54.407
 21
290.383
 31
0.0
  0
LINE
  5
1153
330
1D
100
AcDbEntity
  8
0
100
AcDbLine
 10
54.407
 20
290.383
 30
0.0
 11
55.47
 21
291.144
 31
0.0
  0
LINE
  5
1154
330
1D
100
AcDbEntity
  8
0
100
AcDbLine
 10
54.407
 20
290.383
 30
0.0
 11
55.47
 21
291.145
 31
0.0
  0
LINE
  5
1155
330
1D
100
AcDbEntity
  8
0
100
AcDbLine
 10
55.47
 20
291.145
 30
0.0
 11
56.088
 21
292.205
 31
0.0
  0
LINE
  5
1156
330
1D
100
AcDbEntity
  8
0
100
AcDbLine
 10
55.47
 20
291.144
 30
0.0
 11
56.088
 21
292.205
 31
0.0
  0
LINE
  5
1157
330
1D
100
AcDbEntity
  8
0
100
AcDbLine
 10
56.088
 20
292.205
 30
0.0
 11
56.21
 21
293.475
 31
0.0
  0
LINE
  5
1158
330
1D
100
AcDbEntity
  8
0
100
AcDbLine
 10
56.088
 20
292.205
 30
0.0
 11
56.21
 21
293.474
 31
0.0
  0
LINE
  5
1159
330
1D
100
AcDbEntity
  8
0
100
AcDbLine
 10
28.968
 20
295.075
 30
0.0
 11
31.873
 21
293.716
 31
0.0
  0
LINE
  5
115A
330
1D
100
AcDbEntity
  8
0
100
AcDbLine
 10
26.342
 20
296.497
 30
0.0
 11
28.968
 21
295.074
 31
0.0
  0
LINE
  5
115B
330
1D
100
AcDbEntity
  8
0
100
AcDbLine
 10
26.342
 20
296.497
 30
0.0
 11
28.968
 21
295.075
 31
0.0
  0
LINE
  5
115C
330
1D
100
AcDbEntity
  8
0
100
AcDbLine
 10
28.968
 20
295.074
 30
0.0
 11
31.874
 21
293.715
 31
0.0
  0
LINE
  5
115D
330
1D
100
AcDbEntity
  8
0
100
AcDbLine
 10
24.003
 20
297.986
 30
0.0
 11
26.342
 21
296.497
 31
0.0
  0
LINE
  5
115E
330
1D
100
AcDbEntity
  8
0
100
AcDbLine
 10
22.623
 20
299.005
 30
0.0
 11
24.003
 21
297.986
 31
0.0
  0
LINE
  5
115F
330
1D
100
AcDbEntity
  8
0
100
AcDbLine
 10
21.674
 20
299.792
 30
0.0
 11
22.623
 21
299.005
 31
0.0
  0
LINE
  5
1160
330
1D
100
AcDbEntity
  8
0
100
AcDbLine
 10
20.827
 20
300.579
 30
0.0
 11
21.674
 21
299.792
 31
0.0
  0
LINE
  5
1161
330
1D
100
AcDbEntity
  8
0
100
AcDbLine
 10
28.031
 20
309.751
 30
0.0
 11
32.048
 21
309.131
 31
0.0
  0
LINE
  5
1162
330
1D
100
AcDbEntity
  8
0
100
AcDbLine
 10
28.031
 20
309.752
 30
0.0
 11
32.048
 21
309.131
 31
0.0
  0
LINE
  5
1163
330
1D
100
AcDbEntity
  8
0
100
AcDbLine
 10
32.048
 20
309.131
 30
0.0
 11
35.963
 21
308.153
 31
0.0
  0
LINE
  5
1164
330
1D
100
AcDbEntity
  8
0
100
AcDbLine
 10
35.963
 20
308.153
 30
0.0
 11
37.879
 21
307.544
 31
0.0
  0
LINE
  5
1165
330
1D
100
AcDbEntity
  8
0
100
AcDbLine
 10
51.437
 20
300.454
 30
0.0
 11
53.561
 21
298.499
 31
0.0
  0
LINE
  5
1166
330
1D
100
AcDbEntity
  8
0
100
AcDbLine
 10
48.793
 20
302.433
 30
0.0
 11
51.437
 21
300.454
 31
0.0
  0
LINE
  5
1167
330
1D
100
AcDbEntity
  8
0
100
AcDbLine
 10
53.561
 20
298.499
 30
0.0
 11
54.62
 21
297.138
 31
0.0
  0
LINE
  5
1168
330
1D
100
AcDbEntity
  8
0
100
AcDbLine
 10
47.093
 20
303.456
 30
0.0
 11
48.793
 21
302.433
 31
0.0
  0
LINE
  5
1169
330
1D
100
AcDbEntity
  8
0
100
AcDbLine
 10
44.885
 20
304.578
 30
0.0
 11
47.093
 21
303.456
 31
0.0
  0
LINE
  5
116A
330
1D
100
AcDbEntity
  8
0
100
AcDbLine
 10
41.588
 20
306.122
 30
0.0
 11
44.885
 21
304.578
 31
0.0
  0
LINE
  5
116B
330
1D
100
AcDbEntity
  8
0
100
AcDbLine
 10
37.879
 20
307.544
 30
0.0
 11
41.588
 21
306.122
 31
0.0
  0
LINE
  5
116C
330
1D
100
AcDbEntity
  8
0
100
AcDbLine
 10
55.9
 20
294.786
 30
0.0
 11
56.21
 21
293.475
 31
0.0
  0
LINE
  5
116D
330
1D
100
AcDbEntity
  8
0
100
AcDbLine
 10
55.9
 20
294.786
 30
0.0
 11
56.21
 21
293.474
 31
0.0
  0
LINE
  5
116E
330
1D
100
AcDbEntity
  8
0
100
AcDbLine
 10
8.067
 20
272.973
 30
0.0
 11
9.401
 21
271.811
 31
0.0
  0
LINE
  5
116F
330
1D
100
AcDbEntity
  8
0
100
AcDbLine
 10
3.536
 20
70.1875
 30
0.0
 11
7.207599191716
 21
65.81862960612
 31
0.0
  0
LINE
  5
1170
330
1D
100
AcDbEntity
  8
0
100
AcDbLine
 10
3.608
 20
45.4454
 30
0.0
 11
4.089696572952
 21
45.818309807953
 31
0.0
  0
LINE
  5
1171
330
1D
100
AcDbEntity
  8
0
100
AcDbLine
 10
18.488
 20
303.667
 30
0.0
 11
19.454
 21
302.125
 31
0.0
  0
LINE
  5
1172
330
1D
100
AcDbEntity
  8
0
100
AcDbLine
 10
54.62
 20
297.138
 30
0.0
 11
55.38421541844
 21
295.924041911471
 31
0.0
  0
LINE
  5
1173
330
1D
100
AcDbEntity
  8
0
100
AcDbLine
 10
55.38421541844
 20
295.924041911471
 30
0.0
 11
55.9
 21
294.786
 31
0.0
  0
LINE
  5
1174
330
1D
100
AcDbEntity
  8
0
100
AcDbLine
 10
4.718
 20
276.379
 30
0.0
 11
16.396104453616
 21
302.32582981356
 31
0.0
  0
LINE
  5
1175
330
1D
100
AcDbEntity
  8
0
100
AcDbLine
 10
55.044645940452
 20
288.483436827233
 30
0.0
 11
56.088
 21
292.205
 31
0.0
  0
LINE
  5
1176
330
1D
100
AcDbEntity
  8
0
100
AcDbLine
 10
27.618999999999
 20
258.057
 30
0.0
 11
33.144505841508
 21
256.103022130089
 31
0.0
  0
LINE
  5
1177
330
1D
100
AcDbEntity
  8
0
100
AcDbLine
 10
33.144505841508
 20
256.103022130089
 30
0.0
 11
36.667764980768
 21
255.385115352067
 31
0.0
  0
LINE
  5
1178
330
1D
100
AcDbEntity
  8
0
100
AcDbLine
 10
36.667764980768
 20
255.385115352067
 30
0.0
 11
39.527939778743
 21
255.09474227613
 31
0.0
  0
LINE
  5
1179
330
1D
100
AcDbEntity
  8
0
100
AcDbLine
 10
39.527939778743
 20
255.09474227613
 30
0.0
 11
44.330114530813
 21
255.09474227613
 31
0.0
  0
LINE
  5
117A
330
1D
100
AcDbEntity
  8
0
100
AcDbLine
 10
44.330114530813
 20
255.09474227613
 30
0.0
 11
47.41478796859
 21
255.508955174156
 31
0.0
  0
LINE
  5
117B
330
1D
100
AcDbEntity
  8
0
100
AcDbLine
 10
47.41478796859
 20
255.508955174156
 30
0.0
 11
47.928856270757
 21
255.508955174156
 31
0.0
  0
LINE
  5
117C
330
1D
100
AcDbEntity
  8
0
100
AcDbLine
 10
6.753145672914
 20
23.3398
 30
0.0
 11
6.28133777002
 21
29.3398
 31
0.0
  0
LINE
  5
117D
330
1D
100
AcDbEntity
  8
0
100
AcDbLine
 10
6.095
 20
31.3731
 30
0.0
 11
5.634
 21
35.4924
 31
0.0
  0
LINE
  5
117E
330
1D
100
AcDbEntity
  8
0
100
AcDbLine
 10
3.26438354444
 20
50.26825060059
 30
0.0
 11
2.67
 21
53.3388
 31
0.0
  0
LINE
  5
117F
330
1D
100
AcDbEntity
  8
0
100
AcDbLine
 10
22.175
 20
309.686
 30
0.0
 11
24.569596545402
 21
310.012980524523
 31
0.0
  0
LINE
  5
1180
330
1D
100
AcDbEntity
  8
0
100
AcDbLine
 10
24.569596545402
 20
310.012980524523
 30
0.0
 11
28.031
 21
309.752
 31
0.0
  0
ENDSEC
  0
SECTION
  2
OBJECTS
  0
DICTIONARY
  5
C
330
0
100
AcDbDictionary
281
     1
  3
ACAD_GROUP
350
D
  3
ACAD_LAYOUT
350
1A
  3
ACAD_MLEADERSTYLE
350
1183
  3
ACAD_MLINESTYLE
350
17
  3
ACAD_PLOTSETTINGS
350
19
  3
ACAD_PLOTSTYLENAME
350
E
  3
ACAD_SCALELIST
350
9AA
  3
AcDbVariableDictionary
350
1181
  3
DWGPROPS
350
1188
  0
DICTIONARY
  5
D
102
{ACAD_REACTORS
330
C
102
}
330
C
100
AcDbDictionary
281
     1
  0
DICTIONARY
  5
1A
102
{ACAD_REACTORS
330
C
102
}
330
C
100
AcDbDictionary
281
     1
  3
Layout1
350
1C
  3
Model
350
1E
  0
DICTIONARY
  5
1183
102
{ACAD_REACTORS
330
C
102
}
330
C
100
AcDbDictionary
281
     1
  0
DICTIONARY
  5
17
102
{ACAD_REACTORS
330
C
102
}
330
C
100
AcDbDictionary
281
     1
  3
Standard
350
18
  0
DICTIONARY
  5
19
102
{ACAD_REACTORS
330
C
102
}
330
C
100
AcDbDictionary
281
     1
  0
ACDBDICTIONARYWDFLT
  5
E
102
{ACAD_REACTORS
330
C
102
}
330
C
100
AcDbDictionary
281
     1
  3
Normal
350
F
100
AcDbDictionaryWithDefault
340
F
  0
DICTIONARY
  5
9AA
102
{ACAD_REACTORS
330
C
102
}
330
C
100
AcDbDictionary
281
     1
  3
A0
350
9AB
  3
A1
350
9AC
  3
A2
350
9AD
  3
A3
350
9AE
  3
A4
350
9AF
  3
A5
350
9B0
  3
A6
350
9B1
  3
A7
350
9B2
  3
A8
350
9B3
  3
A9
350
9B4
  3
B0
350
9B5
  3
B1
350
9B6
  3
B2
350
9B7
  3
B3
350
9B8
  3
B4
350
9B9
  3
B5
350
9BA
  3
B6
350
9BB
  3
B7
350
9BC
  3
B8
350
9BD
  3
B9
350
9BE
  3
C0
350
9BF
  3
C1
350
9C0
  3
C2
350
9C1
  3
C3
350
9C2
  3
C4
350
9C3
  3
C5
350
9C4
  3
C6
350
9C5
  3
C7
350
9C6
  3
C8
350
9C7
  3
C9
350
9C8
  3
D0
350
9C9
  3
D1
350
9CA
  3
D2
350
9CB
  0
DICTIONARY
  5
1181
102
{ACAD_REACTORS
330
C
102
}
330
C
100
AcDbDictionary
281
     1
  3
CANNOSCALE
350
1184
  0
XRECORD
  5
1188
102
{ACAD_REACTORS
330
C
102
}
330
C
100
AcDbXrecord
280
     1
  1
DWGPROPS COOKIE
  2

  3

  4

  6

  7

  8
MARTIN
  9

300
=
301
=
302
=
303
=
304
=
305
=
306
=
307
=
308
=
309
=
 40
0.0
 41
2456184.815969225
 42
2456184.817222292
  1

 90
        0
  0
LAYOUT
  5
1C
102
{ACAD_REACTORS
330
1A
102
}
330
1A
100
AcDbPlotSettings
  1

  2
none_device
  4

  6

 40
0.0
 41
0.0
 42
0.0
 43
0.0
 44
0.0
 45
0.0
 46
0.0
 47
0.0
 48
0.0
 49
0.0
140
0.0
141
0.0
142
1.0
143
1.0
 70
   688
 72
     0
 73
     0
 74
     5
  7

 75
    16
147
1.0
148
0.0
149
0.0
100
AcDbLayout
  1
Layout1
 70
     1
 71
     1
 10
0.0
 20
0.0
 11
12.0
 21
9.0
 12
0.0
 22
0.0
 32
0.0
 14
1.000000000000E+20
 24
1.000000000000E+20
 34
1.000000000000E+20
 15
-1.000000000000E+20
 25
-1.000000000000E+20
 35
-1.000000000000E+20
146
0.0
 13
0.0
 23
0.0
 33
0.0
 16
1.0
 26
0.0
 36
0.0
 17
0.0
 27
1.0
 37
0.0
 76
     0
330
1B
  0
LAYOUT
  5
1E
102
{ACAD_REACTORS
330
1A
102
}
330
1A
100
AcDbPlotSettings
  1

  2
none_device
  4

  6

 40
0.0
 41
0.0
 42
0.0
 43
0.0
 44
0.0
 45
0.0
 46
0.0
 47
0.0
 48
0.0
 49
0.0
140
0.0
141
0.0
142
1.0
143
1.0
 70
  1712
 72
     0
 73
     0
 74
     0
  7

 75
     0
147
1.0
148
0.0
149
0.0
100
AcDbLayout
  1
Model
 70
     1
 71
     0
 10
0.0
 20
0.0
 11
12.0
 21
9.0
 12
0.0
 22
0.0
 32
0.0
 14
-179.9363
 24
0.0
 34
0.0
 15
74.579
 25
310.012980524523
 35
0.0
146
0.0
 13
0.0
 23
0.0
 33
0.0
 16
1.0
 26
0.0
 36
0.0
 17
0.0
 27
1.0
 37
0.0
 76
     0
330
1D
331
9A5
  0
MLINESTYLE
  5
18
102
{ACAD_REACTORS
330
17
102
}
330
17
100
AcDbMlineStyle
  2
Standard
 70
     0
  3

 62
   256
 51
90.0
 52
90.0
 71
     2
 49
0.5
 62
   256
  6
BYLAYER
 49
-0.5
 62
   256
  6
BYLAYER
  0
ACDBPLACEHOLDER
  5
F
102
{ACAD_REACTORS
330
E
102
}
330
E
  0
SCALE
  5
9AB
102
{ACAD_REACTORS
330
9AA
102
}
330
9AA
100
AcDbScale
 70
     0
300
1:1
140
1.0
141
1.0
290
     1
  0
SCALE
  5
9AC
102
{ACAD_REACTORS
330
9AA
102
}
330
9AA
100
AcDbScale
 70
     0
300
1:2
140
1.0
141
2.0
290
     0
  0
SCALE
  5
9AD
102
{ACAD_REACTORS
330
9AA
102
}
330
9AA
100
AcDbScale
 70
     0
300
1:4
140
1.0
141
4.0
290
     0
  0
SCALE
  5
9AE
102
{ACAD_REACTORS
330
9AA
102
}
330
9AA
100
AcDbScale
 70
     0
300
1:5
140
1.0
141
5.0
290
     0
  0
SCALE
  5
9AF
102
{ACAD_REACTORS
330
9AA
102
}
330
9AA
100
AcDbScale
 70
     0
300
1:8
140
1.0
141
8.0
290
     0
  0
SCALE
  5
9B0
102
{ACAD_REACTORS
330
9AA
102
}
330
9AA
100
AcDbScale
 70
     0
300
1:10
140
1.0
141
10.0
290
     0
  0
SCALE
  5
9B1
102
{ACAD_REACTORS
330
9AA
102
}
330
9AA
100
AcDbScale
 70
     0
300
1:16
140
1.0
141
16.0
290
     0
  0
SCALE
  5
9B2
102
{ACAD_REACTORS
330
9AA
102
}
330
9AA
100
AcDbScale
 70
     0
300
1:20
140
1.0
141
20.0
290
     0
  0
SCALE
  5
9B3
102
{ACAD_REACTORS
330
9AA
102
}
330
9AA
100
AcDbScale
 70
     0
300
1:30
140
1.0
141
30.0
290
     0
  0
SCALE
  5
9B4
102
{ACAD_REACTORS
330
9AA
102
}
330
9AA
100
AcDbScale
 70
     0
300
1:40
140
1.0
141
40.0
290
     0
  0
SCALE
  5
9B5
102
{ACAD_REACTORS
330
9AA
102
}
330
9AA
100
AcDbScale
 70
     0
300
1:50
140
1.0
141
50.0
290
     0
  0
SCALE
  5
9B6
102
{ACAD_REACTORS
330
9AA
102
}
330
9AA
100
AcDbScale
 70
     0
300
1:100
140
1.0
141
100.0
290
     0
  0
SCALE
  5
9B7
102
{ACAD_REACTORS
330
9AA
102
}
330
9AA
100
AcDbScale
 70
     0
300
2:1
140
2.0
141
1.0
290
     0
  0
SCALE
  5
9B8
102
{ACAD_REACTORS
330
9AA
102
}
330
9AA
100
AcDbScale
 70
     0
300
4:1
140
4.0
141
1.0
290
     0
  0
SCALE
  5
9B9
102
{ACAD_REACTORS
330
9AA
102
}
330
9AA
100
AcDbScale
 70
     0
300
8:1
140
8.0
141
1.0
290
     0
  0
SCALE
  5
9BA
102
{ACAD_REACTORS
330
9AA
102
}
330
9AA
100
AcDbScale
 70
     0
300
10:1
140
10.0
141
1.0
290
     0
  0
SCALE
  5
9BB
102
{ACAD_REACTORS
330
9AA
102
}
330
9AA
100
AcDbScale
 70
     0
300
100:1
140
100.0
141
1.0
290
     0
  0
SCALE
  5
9BC
102
{ACAD_REACTORS
330
9AA
102
}
330
9AA
100
AcDbScale
 70
     0
300
1/128" = 1'-0"
140
0.0078125
141
12.0
290
     0
  0
SCALE
  5
9BD
102
{ACAD_REACTORS
330
9AA
102
}
330
9AA
100
AcDbScale
 70
     0
300
1/64" = 1'-0"
140
0.015625
141
12.0
290
     0
  0
SCALE
  5
9BE
102
{ACAD_REACTORS
330
9AA
102
}
330
9AA
100
AcDbScale
 70
     0
300
1/32" = 1'-0"
140
0.03125
141
12.0
290
     0
  0
SCALE
  5
9BF
102
{ACAD_REACTORS
330
9AA
102
}
330
9AA
100
AcDbScale
 70
     0
300
1/16" = 1'-0"
140
0.0625
141
12.0
290
     0
  0
SCALE
  5
9C0
102
{ACAD_REACTORS
330
9AA
102
}
330
9AA
100
AcDbScale
 70
     0
300
3/32" = 1'-0"
140
0.09375
141
12.0
290
     0
  0
SCALE
  5
9C1
102
{ACAD_REACTORS
330
9AA
102
}
330
9AA
100
AcDbScale
 70
     0
300
1/8" = 1'-0"
140
0.125
141
12.0
290
     0
  0
SCALE
  5
9C2
102
{ACAD_REACTORS
330
9AA
102
}
330
9AA
100
AcDbScale
 70
     0
300
3/16" = 1'-0"
140
0.1875
141
12.0
290
     0
  0
SCALE
  5
9C3
102
{ACAD_REACTORS
330
9AA
102
}
330
9AA
100
AcDbScale
 70
     0
300
1/4" = 1'-0"
140
0.25
141
12.0
290
     0
  0
SCALE
  5
9C4
102
{ACAD_REACTORS
330
9AA
102
}
330
9AA
100
AcDbScale
 70
     0
300
3/8" = 1'-0"
140
0.375
141
12.0
290
     0
  0
SCALE
  5
9C5
102
{ACAD_REACTORS
330
9AA
102
}
330
9AA
100
AcDbScale
 70
     0
300
1/2" = 1'-0"
140
0.5
141
12.0
290
     0
  0
SCALE
  5
9C6
102
{ACAD_REACTORS
330
9AA
102
}
330
9AA
100
AcDbScale
 70
     0
300
3/4" = 1'-0"
140
0.75
141
12.0
290
     0
  0
SCALE
  5
9C7
102
{ACAD_REACTORS
330
9AA
102
}
330
9AA
100
AcDbScale
 70
     0
300
1" = 1'-0"
140
1.0
141
12.0
290
     0
  0
SCALE
  5
9C8
102
{ACAD_REACTORS
330
9AA
102
}
330
9AA
100
AcDbScale
 70
     0
300
1-1/2" = 1'-0"
140
1.5
141
12.0
290
     0
  0
SCALE
  5
9C9
102
{ACAD_REACTORS
330
9AA
102
}
330
9AA
100
AcDbScale
 70
     0
300
3" = 1'-0"
140
3.0
141
12.0
290
     0
  0
SCALE
  5
9CA
102
{ACAD_REACTORS
330
9AA
102
}
330
9AA
100
AcDbScale
 70
     0
300
6" = 1'-0"
140
6.0
141
12.0
290
     0
  0
SCALE
  5
9CB
102
{ACAD_REACTORS
330
9AA
102
}
330
9AA
100
AcDbScale
 70
     0
300
1'-0" = 1'-0"
140
12.0
141
12.0
290
     0
  0
DICTIONARYVAR
  5
1184
102
{ACAD_REACTORS
330
1181
102
}
330
1181
100
DictionaryVariables
280
     0
  1
1:1
  0
ENDSEC
  0
SECTION
  2
THUMBNAILIMAGE
 90
    16364
310
28000000B40000005500000001000800000000000000000000000000000000000000000000000000FFFFFF000000FF0000FFFF0000FF0000FFFF0000FF000000FF00FF000000000080808000C0C0C0000000FF007F7FFF000000A5005252A50000007F003F3F7F0000004C0026264C000000260013132600003FFF007F9FFF
310
000029A5005267A500001F7F003F4F7F0000134C00262F4C000009260013172600007FFF007FBFFF000052A500527CA500003F7F003F5F7F0000264C0026394C0000132600131C260000BFFF007FDFFF00007CA5005291A500005F7F003F6F7F0000394C0026424C00001C26001321260000FFFF007FFFFF0000A5A50052A5
310
A500007F7F003F7F7F00004C4C00264C4C00002626001326260000FFBF007FFFDF0000A57C0052A59100007F5F003F7F6F00004C3900264C420000261C001326210000FF7F007FFFBF0000A5520052A57C00007F3F003F7F5F00004C2600264C39000026130013261C0000FF3F007FFF9F0000A5290052A56700007F1F003F
310
7F4F00004C1300264C2F00002609001326170000FF00007FFF7F0000A5000052A55200007F00003F7F3F00004C0000264C260000260000132613003FFF00009FFF7F0029A5000067A552001F7F00004F7F3F00134C00002F4C260009260000172613007FFF0000BFFF7F0052A500007CA552003F7F00005F7F3F00264C0000
310
394C2600132600001C261300BFFF0000DFFF7F007CA5000091A552005F7F00006F7F3F00394C0000424C26001C26000021261300FFFF0000FFFF7F00A5A50000A5A552007F7F00007F7F3F004C4C00004C4C26002626000026261300FFBF0000FFDF7F00A57C0000A59152007F5F00007F6F3F004C3900004C422600261C00
310
0026211300FF7F0000FFBF7F00A5520000A57C52007F3F00007F5F3F004C2600004C39260026130000261C1300FF3F0000FF9F7F00A5290000A56752007F1F00007F4F3F004C1300004C2F26002609000026171300FF000000FF7F7F00A5000000A55252007F0000007F3F3F004C0000004C2626002600000026131300FF00
310
3F00FF7F9F00A5002900A55267007F001F007F3F4F004C0013004C262F002600090026131700FF007F00FF7FBF00A5005200A5527C007F003F007F3F5F004C0026004C2639002600130026131C00FF00BF00FF7FDF00A5007C00A55291007F005F007F3F6F004C0039004C26420026001C0026132100FF00FF00FF7FFF00A5
310
00A500A552A5007F007F007F3F7F004C004C004C264C002600260026132600BF00FF00DF7FFF007C00A5009152A5005F007F006F3F7F0039004C0042264C001C002600211326007F00FF00BF7FFF005200A5007C52A5003F007F005F3F7F0026004C0039264C00130026001C1326003F00FF009F7FFF002900A5006752A500
310
1F007F004F3F7F0013004C002F264C000900260017132600000000002D2D2D005B5B5B0089898900B7B7B700B3B3B30000000000000000000000000000000000000000000000000000000000000000000000000000000000000000000000000000000000000000000000000000000000000000000000000000000000000000
310
00000000000007070707070707070707070707070707070707070000000000000000000000000000000000000000000000000000000000000000000000000000000000000000000000000000000000000000000000000000000000000000000000000000000000000000000000000000000000000000000000000000000000
310
00000000000000000000000000000000000000000000000000000000000000000000000000000000000000000000000000000000000000000000000700000000000000000000000000000000000007000000000000000000000000000000000000000000000000000000000000000000000000000000000000000000000000
310
00000000000000000000000000000000000000000000000000000000000000000000000000000000000000000000000000000000000000000000000000000000000000000000000000000000000000000000000000000000000000000000000000000000000000000000000000000000070000000000000000000000000000
310
00000000070000000000000000000000000000000000000000000000000000000000000000000000000000000000000000000000000000000000000000000000000000000000000000000000000000000000000000000000000000000000000000000000000000000000000000000000000000000000000000000000000000
310
00000000000000000000000000000000000000000000000000000000000000000000000000000700000000000000000000000000000000000007000000000000000000000000000000000000000000000000000000000000000000000000000000000000000000000000000000000000000000000000000000000000000000
310
00000000000000000000000000000000000000000000000000000000000000000000000000000000000000000000000000000000000000000000000000000000000000000000000000000000000000000000000000000000000000070707070707070707070707070707070707070700000000000000000000000000000000
310
00000000000000000000000000000000000000000000000000000000000000000000000000000000000000000000000000000000000000000000000000000000000000000000000000000000000000000000000000000000000000000000000000000000000000000000000000000000000000000000000000000000000000
310
00000000000000000000000000000000000700000000000000000000000000000000000707000000000000000000000000000000000000000000000000000000000000000000000000000000000000000000000000000000000000000000000000000000000000000000000000000000000000000000000000000000000000
310
00000000000000000000000000000000000000000000000000000000000000000000000000000000000000000000000000000000000000000000000000000000000000000000000700000000000000000000000000000000070000000000000000000000000000000000000000000000000000000000000000000000000000
310
00000000000000000000000000000000000000000000000000000000000000000000000000000000000000000000000000000000000000000000000000000000000000000000000000000000000000000000000000000000000000000000000000000000000000000000000000000000000000000000000000000000070000
310
00000000000000000000000000000700000000000000000000000000000000000000000000000000000000000000000000000000000000000000000000000000000000000000000000000000000000000000000000000000000000000000000000000000000000000000000000000000000000000000000000000000000000
310
00000000000000000000000000000000000000000000000000000000000000000000000000000000000000000000000000000700000000000000000000000000000000070000000000000000000000000000000000000000000000000000000000000000000000000000000000000000000000000000000000000000000000
310
00000000000000000000000000000000000000000000000000000000000000000000000000000000000000000000000000000000000000000000000000000000000000000000000000000000000000000000000000000000000000000000000000000000000000070000000000000000000000000000000007000000000000
310
00000000000000000000000000000000000000000000000000000000000000000000000000000000000000000000000000000000000000000000000000000000000000000000000000000000000000000000000000000000000000000000000000000000000000000000000000000000000000000000000000000000000000
310
00000000000000000000000000000000000000000000000000000000000007000000000000000000000000000007070000000000000000000000000000000000000000000000000000000000000000000000000000000000000000000000000000000000000000000000000000000000000000000000000000000000000000
310
00000000000000000000000000000000000000000000000000000000000000000000000000000000000000000000000000000000000000000000000000000000000000000000000000000000000000000000000700000000000000000000000000000707000000000000000000000000000000000000000000000000000000
310
00000000000000000000000000000000000000000000000000000000000000000000000000000000000000000000000000000000000000000000000000000000000000000000000000000000000000000000000000000000000000000000000000000000000000000000000000000000000000000000000000000000000000
310
00000000000000000007000000000000000000000000000007070000000000000000000000000000000000000000000000000000000000000000000000000000000000000000000000000000000000000000000000000000000000000000000000000000000000000000000000000000000000000000000000000000000000
310
00000000000000000000000000000000000000000000000000000000000000000000000000000000000000000000000000000000000000000000000000000700000000000000000000000000000707000000000000000000000000000000000000000000000000000000000000000000000000000000000000000000000000
310
00000000000000000000000000000000000000000000000000000000000000000000000000000000000000000000000000000000000000000000000000000000000000000000000000000000000000000000000000000000000000000000000000000000000000000000000000000000000000000700000000000000000000
310
00000700070000000000000000000000000000000000000000000000000000000000000000000000000000000000000000000000000000000000000000000000000000000000000000000000000000000000000000000000000000000000000000000000000000000000000000000000000000000000000000000000000000
310
00000000000000000000000000000000000000000000000000000000000000000000000000000000000007000000000000000000000000070007000000000000000000000000000000000000000000000000000000000000000000000000000000000000000000000000000000000000000000000000000000000000000000
310
00000000000000000000000000000000000000000000000000000000000000000000000000000000000000000000000000000000000000000000000000000000000000000000000000000000000000000000000000000000000000000000000700000000000000000000000007000700000000000000000000000000000000
310
00000000000000000000000000000000000000000000000000000000000000000000000000000000000000000000000000000000000000000000000000000000000000000000000000000000000000000000000000000000000000000000000000000000000000000000000000000000000000000000000000000000000000
310
00000000000000000000000000000000000000000007000000000000000000000000070007000000000000000000000000000000000000000000000000000000000000000000000000000000000000000000000000000000000000000000000000000000000000000000000000000000000000000000000000000000000000
310
00000000000000000000000000000000000000000000000000000000000000000000000000000000000000000000000000000000000000000000000000000000000000000000000000000007000000000000000000000700000700000000000000000000000000000000000000000000000000000000000000000000000000
310
00000000000000000000000000000000000000000000000000000000000000000000000000000000000000000000000000000000000000000000000000000000000000000000000000000000000000000000000000000000000000000000000000000000000000000000000000000000000000000000000000000000000000
310
00070000000000000000000007000007000000000000000000000000000000000000000000000000000000000000000000000000000000000000000000000000000000000000000000000000000000000000000000000000000000000000000000000000000000000000000000000000000000000000000000000000000000
310
00000000000000000000000000000000000000000000000000000000000000000000000000000000000000000000000000000000000007000000000000000000000700000700000000000000000000000000000000000000000000000000000000000000000000000000000000000000000000000000000000000000000000
310
00000000000000000000000000000000000000000000000000000000000000000000000000000000000000000000000000000000000000000000000000000000000000000000000000000000000000000000000000000000000000000000000000000000000000000000000700000000000000000000070000070000000000
310
00000000000000000000000000000000000000000000000000000000000000000000000000000000000000000000000000000000000000000000000000000000000000000000000000000000000000000000000000000000000000000000000000000000000000000000000000000000000000000000000000000000000000
310
00000000000000000000000000000000000000000000000000000000000000000000070000000000000000070000000700000000000000000000000000000000000000000000000000000000000000000000000000000000000000000000000000000000000000000000000000000000000000000000000000000000000000
310
00000000000000000000000000000000000000000000000000000000000000000000000000000000000000000000000000000000000000000000000000000000000000000000000000000000000000000000000000000007070707070707070707000000070000000000000000000000000000000000000000000000000000
310
00000000000000000000000000000000000000000000000000000000000000000000000000000000000000000000000000000000000000000000000000000000000000000000000000000000000000000000000000000000000000000000000000000000000000000000000000000000000000000000000000000000000000
310
00000000000000000000000000070000000000000000070000000700000000000000000000000000000000000000000000000000000000000000000000000000000000000000000000000000000000000000000000000000000000000000000000000000000000000000000000000000000000000000000000000000000000
310
00000000000000000000000000000000000000000000000000000000000000000000000000000000000000000000000000000000000000000000000000000000000007000000000000000007000000070000000000000000000000000000000000000000000000000000000000000000000000000000000000000000000000
310
00000000000000000000000000000000000000000000000000000000000000000000000000000000000000000000000000000000000000000000000000000000000000000000000000000000000000000000000000000000000000000000000000000000000000000000000000000000000000000000000700000000000000
310
00070000000700000000000000000000000000000000000000000000000000000000000000000000000000000000000000000000000000000000000000000000000000000000000000000000000000000000000000000000000000000000000000000000000000000000000000000000000000000000000000000000000000
310
00000000000000000000000000000000000000000000000000000000000000000000000000000000000000000007000000000000000007000007070000000000000000000000000000000000000000000000000000000000000000000000000000000000000000000000000000000000000000000000000000000000000000
310
00000000000000000000000000000000000000000000000000000000000000000000000000000000000000000000000000000000000000000000000000000000000000000000000000000000000000000000000000000000000000000000000000000700000000000000000700000707000000000000000000000000000000
310
00000000000000000000000000000000000000000000000000000000000000000000000000000000000000000000000000000000000000000000000000000000000000000000000000000000000000000000000000000000000000000000000000000000000000000000000000000000000000000000000000000000000000
310
00000000000000000000000000000000000000000000000007000000000000000007000007070000000000000000000000000000000000000000000000000000000000000000000000000000000000000000000000000000000000000000000000000000000000000000000000000000000000000000000000000000000000
310
00000000000000000000000000000000000000000000000000000000000000000000000000000000000000000000000000000000000000000000000000000000000000000000000000000000000700000000000000000700000007000000000000000000000000000000000000000000000000000000000000000000000000
310
00000000000000000000000000000000000000000000000000000000000000000000000000000000000000000000000000000000000000000000000000000000000000000000000000000000000000000000000000000000000000000000000000000000000000000000000000000000000000000000000000000000000000
310
00000007000000000000000007000000070000000000000000000000000000000000000000000000000000000000000000000000000000000000000000000000000000000000000000000000000000000000000000000000000000000000000000000000000000000000000000000000000000000000000000000000000000
310
00000000000000000000000000000000000000000000000000000000000000000000000000000000000000000000000000000000000000000700000000000000000700000007000000000000000000000000000000000000000000000000000000000000000000000000000000000000000000000000000000000000000000
310
00000000000000000000000000000000000000000000000000000000000000000000000000000000000000000000000000000000000000000000000000000000000000000000000000000000000000000000000000000000000000000000000000000000000000000000000000070000000000000000070000000700000000
310
00000000000000000000000000000000000000000000000000000000000000000000000000000000000000000000000000000000000000000000000000000000000000000000000000000000000000000000000000000000000000000000000000000000000000000000000000000000000000000000000000000000000000
310
00000000000000000000000000000000000000000000000000000000000000000000000700000000000000000700000007000000000000000000000000000000000000000000000000000000000000000000000000000000000000000000000000000000000000000000000000000000000000000000000000000000000000
310
00000000000000000000000000000000000000000000000000000000000000000000000000000000000000000000000000000000000000000000000000000000000000000000000000000000000000000000000000000000070000000000000000070000000700000000000000000000000000000000000000000000000000
310
00000000000000000000000000000000000000000000000000000000000000000000000000000000000000000000000000000000000000000000000000000000000000000000000000000000000000000000000000000000000000000000000000000000000000000000000000000000000000000000000000000000000000
310
00000000000000000000000000000700000000000000000700000007000000000000000000000000000000000000000000000000000000000000000000000000000000000000000000000000000000000000000000000000000000000000000000000000000000000000000000000000000000000000000000000000000000
310
00000000000000000000000000000000000000000000000000000000000000000000000000000000000000000000000000000000000000000000000000000000000000070000000000000000070000000700000000000000000000000000000000000000000000000000000000000000000000000000000000000000000000
310
00000000000000000000000000000000000000000000000000000000000000000000000000000000000000000000000000000000000000000000000000000000000000000000000000000000000000000000000000000000000000000000000000000000000000000000000000000000000000000000000007000000000000
310
00000700000007000000000000000000000000000000000000000000000000000000000000000000000000000000000000000000000000000000000000000000000000000000000000000000000000000000000000000000000000000000000000000000000000000000000000000000000000000000000000000000000000
310
00000000000000000000000000000000000000000000000000000000000000000000000000000000000000000000070000000000000000070000000700000000000000000000000000000000000000000000000000000000000000000000000000000000000000000000000000000000000000000000000000000000000000
310
00000000000000000000000000000000000000000000000000000000000000000000000000000000000000000000000000000000000000000000000000000000000000000000000000000000000000000000000000000000000000000000000000000007000000000000000007000000070000000000000000000000000000
310
00000000000000000000000000000000000000000000000000000000000000000000000000000000000000000000000000000000000000000000000000000000000000000000000000000000000000000000000000000000000000000000000000000000000000000000000000000000000000000000000000000000000000
310
00000000000000000000000000000000000000000000000000070000000000000000070000000700000000000000000000000000000000000000000000000000000000000000000000000000000000000000000000000000000000000000000000000000000000000000000000000000000000000000000000000000000000
310
00000000000000000000000000000000000000000000000000000000000000000000000000000000000000000000000000000000000000000000000000000000000000000000000000000000000007000000000000000007000000070000000000000000000000000000000000000000000000000000000000000000000000
310
00000000000000000000000000000000000000000000000000000000000000000000000000000000000000000000000000000000000000000000000000000000000000000000000000000000000000000000000000000000000000000000000000000000000000000000000000000000000000000000000000000000000000
310
00000000070000000000000000070000000700000000000000000000000000000000000000000000000000000000000000000000000000000000000000000000000000000000000000000000000000000000000000000000000000000000000000000000000000000000000000000000000000000000000000000000000000
310
00000000000000000000000000000000000000000000000000000000000000000000000000000000000000000000000000000000000000000007000000000000000007000000070000000000000000000000000000000000000000000000000000000000000000000000000000000000000000000000000000000000000000
310
00000000000000000000000000000000000000000000000000000000000000000000000000000000000000000000000000000000000000000000000000000000000000000000000000000000000000000000000000000000000000000000000000000000000000000000000000000700000000000000000700000007000000
310
00000000000000000000000000000000000000000000000000000000000000000000000000000000000000000000000000000000000000000000000000000000000000000000000000000000000000000000000000000000000000000000000000000000000000000000000000000000000000000000000000000000000000
310
00000000000000000000000000000000000000000000000000000000000000000000000007000000000000000007000000070000000000000000000000000000000000000000000000000000000000000000000000000000000000000000000000000000000000000000000000000000000000000000000000000000000000
310
00000000000000000000000000000000000000000000000000000000000000000000000000000000000000000000000000000000000000000000000000000000000000000000000000000000000000000000000000000000000700000000000000000700000007000000000000000000000000000000000000000000000000
310
00000000000000000000000000000000000000000000000000000000000000000000000000000000000000000000000000000000000000000000000000000000000000000000000000000000000000000000000000000000000000000000000000000000000000000000000000000000000000000000000000000000000000
310
00000000000000000000000000000007000000000000000007000000070000000000000000000000000000000000000000000000000000000000000000000000000000000000000000000000000000000000000000000000000000000000000000000000000000000000000000000000000000000000000000000000000000
310
00000000000000000000000000000000000000000000000000000000000000000000000000000000000000000000000000000000000000000000000000000000000000000700000000000000000700000007000000000000000000000000000000000000000000000000000000000000000000000000000000000000000000
310
00000000000000000000000000000000000000000000000000000000000000000000000000000000000000000000000000000000000000000000000000000000000000000000000000000000000000000000000000000000000000000000000000000000000000000000000000000000000000000000000000070707070707
310
07070707000000070000000000000000000000000000000000000000000000000000000000000000000000000000000000000000000000000000000000000000000000000000000000000000000000000000000000000000000000000000000000000000000000000000000000000000000000000000000000000000000000
310
00000000000000000000000000000000000000000000000000000000000000000000000000000000000000000000000000000700000000000700000007000000000000000000000000000000000000000000000000000000000000000000000000000000000000000000000000000000000000000000000000000000000000
310
00000000000000000000000000000000000000000000000000000000000000000000000000000000000000000000000000000000000000000000000000000000000000000000000000000000000000000000000000000000000000000000000000000000000000070000000000070000000700000000000000000000000000
310
00000000000000000000000000000000000000000000000000000000000000000000000000000000000000000000000000000000000000000000000000000000000000000000000000000000000000000000000000000000000000000000000000000000000000000000000000000000000000000000000000000000000000
310
00000000000000000000000000000000000000000000000000070707070707070707070707070707000000000000000000000000000000000000000000000000000000000000000000000000000000000000000000000000000000000000000000000000000000000000000000000000000000000000000000000000000000
310
00000000000000000000000000000000000000000000000000000000000000000000000000000000000000000000000000000000000000000000000000000000000000000000000000000000000007070707070707070707070707070700000000000000000000000000000000000000000000000000000000000000000000
310
00000000000000000000000000000000000000000000000000000000000000000000000000000000000000000000000000000000000000000000000000000000000000000000000000000000000000000000000000000000000000000000000000000000000000000000000000000000000000000000000000000000000000
310
00000000000000000707070707070700000000000000000000000000000000000000000000000000000000000000000000000000000000000000000000000000000000000000000000000000000000000000000000000000000000000000000000000000000000000000000000000000000000000000000000000000000000
310
00000000000000000000000000000000000000000000000000000000000000000000000000000000000000000000000000000000000000000000000000070707070707070000000000000000000000000000000000000000000000000000000000000000000000000000000000000000000000000000000000000000000000
310
00000000000000000000000000000000000000000000000000000000000000000000000000000000000000000000000000000000000000000000000000000000000000000000000000000000000000000000000000000000000000000000000000000000000000000000000000000000000707000000000700000000000000
310
00000000000000000000000000000000000000000000000000000000000000000000000000000000000000000000000000000000000000000000000000000000000000000000000000000000000000000000000000000000000000000000000000000000000000000000000000000000000000000000000000000000000000
310
00000000000000000000000000000000000000000000000000000000000000000000000000000007070000000007000000000000000000000000000000000000000000000000000000000000000000000000000000000000000000000000000000000000000000000000000000000000000000000000000000000000000000
310
00000000000000000000000000000000000000000000000000000000000000000000000000000000000000000000000000000000000000000000000000000000000000000000000000000000000000000000000000000000000000070007000000000700000000000000000000000000000000000000000000000000000000
310
00000000000000000000000000000000000000000000000000000000000000000000000000000000000000000000000000000000000000000000000000000000000000000000000000000000000000000000000000000000000000000000000000000000000000000000000000000000000000000000000000000000000000
310
00000000000000000000000000000000000707070000000007000000000000000000000000000000000000000000000000000000000000000000000000000000000000000000000000000000000000000000000000000000000000000000000000000000000000000000000000000000000000000000000000000000000000
310
00000000000000000000000000000000000000000000000000000000000000000000000000000000000000000000000000000000000000000000000000000000000000000007000707000000000700000000000000000000000000000000000000000000000000000000000000000000000000000000000000000000000000
310
00000000000000000000000000000000000000000000000000000000000000000000000000000000000000000000000000000000000000000000000000000000000000000000000000000000000000000000000000000000000000000000000000000000000000000000000000000000000000000000000000070000070700
310
00000007070700000000000000000000000000000000000000000000000000000000000000000000000000000000000000000000000000000000000000000000000000000000000000000000000000000000000000000000000000000000000000000000000000000000000000000000000000000000000000000000000000
310
00000000000000000000000000000000000000000000000000000000000000000000000000070707000000000000070000070007000000000707070000000000000000000000000000000000000000000000000000000000000000000000000000000000000000000000000000000000000000000000000000000000000000
310
00000000000000000000000000000000000000000000000000000000000000000000000000000000000000000000000000000000000000000000000000000000000000000000000000000000000000000000000000000000000700000700000000000007000700000700000000070000000000000000000000000000000000
310
00000000000000000000000000000000000000000000000000000000000000000000000000000000000000000000000000000000000000000000000000000000000000000000000000000000000000000000000000000000000000000000000000000000000000000000000000000000000000000000000000000000000000
310
00000000000000000000000000000700000000070700000007000007000007000000000700000000000000000000000000000000000000000000000000000000000000000000000000000000000000000000000000000000000000000000000000000000000000000000000000000000000000000000000000000000000000
310
00000000000000000000000000000000000000000000000000000000000000000000000000000000000000000000000000000000000000000000000000000000000000000707000000000700070000070000000700000000070000000000000000000000000000000000000000000000000000000000000000000000000000
310
00000000000000000000000000000000000000000000000000000000000000000000000000000000000000000000000000000000000000000000000000000000000000000000000000000000000000000000000000000000000000000000000000000000000000000000000000000000000000000000000000000007000000
310
00070700070000000007000000000700000000000000000000000000000000000000000000000000000000000000000000000000000000000000000000000000000000000000000000000000000000000000000000000000000000000000000000000000000000000000000000000000000000000000000000000000000000
310
00000000000000000000000000000000000000000000000000000000000000000000000000000000000000000000000000000707000000000700000000000000000000070000000000000000000000000000000000000000000000000000000000000000000000000000000000000000000000000000000000000000000000
310
00000000000000000000000000000000000000000000000000000000000000000000000000000000000000000000000000000000000000000000000000000000000000000000000000000000000000000000000000000000000000000000000000000000000007070707000000000707000000070000000700000000000000
310
00000000000000000000000000000000000000000000000000000000000000000000000000000000000000000000000000000000000000000000000000000000000000000000000000000000000000000000000000000000000000000000000000000000000000000000000000000000000000000000000000000000000000
310
00000000000000000000000000000000000000000000000000000707070000070700000000000700000700000007000000000000000000000000000000000000000000000000000000000000000000000000000000000000000000000000000000000000000000000000000000000000000000000000000000000000000000
310
00000000000000000000000000000000000000000000000000000000000000000000000000000000000000000000000000000000000000000000000000000000000000000000000000000000000707070000070707000700000000000700070000000700000000000000000000000000000000000000000000000000000000
310
00000000000000000000000000000000000000000000000000000000000000000000000000000000000000000000000000000000000000000000000000000000000000000000000000000000000000000000000000000000000000000000000000000000000000000000000000000000000000000000000000000000000000
310
00000007000007070700000000070000000000070700000007000000000000000000000000000000000000000000000000000000000000000000000000000000000000000000000000000000000000000000000000000000000000000000000000000000000000000000000000000000000000000000000000000000000000
310
00000000000000000000000000000000000000000000000000000000000000000000000000000000000000000000000000000000000000000007070700000000000000070000000000000000000700000000000000000000000000000000000000000000000000000000000000000000000000000000000000000000000000
310
00000000000000000000000000000000000000000000000000000000000000000000000000000000000000000000000000000000000000000000000000000000000000000000000000000000000000000000000000000000000000000000000000000000000000000000000000000000000000000000000000070000000000
310
00000007000000000000000000000000000000000000000000000000000000000000000000000000000000000000000000000000000000000000000000000000000000000000000000000000000000000000000000000000000000000000000000000000000000000000000000000000000000000000000000000000000000
310
00000000000000000000000000000000000000000000000000000000000000000000000000000000000000000000000007070000000000000700000000000000000000000000000000000000000000000000000000000000000000000000000000000000000000000000000000000000000000000000000000000000000000
310
00000000000000000000000000000000000000000000000000000000000000000000000000000000000000000000000000000000000000000000000000000000000000000000000000000000000000000000000000000000000000000000000000000000000000070000000000070000000000000000000000000000000000
310
00000000000000000000000000000000000000000000000000000000000000000000000000000000000000000000000000000000000000000000000000000000000000000000000000000000000000000000000000000000000000000000000000000000000000000000000000000000000000000000000000000000000000
310
00000000000000000000000000000000000000000000000000000000000700000000000700000000000000000000000000000000000000000000000000000000000000000000000000000000000000000000000000000000000000000000000000000000000000000000000000000000000000000000000000000000000000
310
00000000000000000000000000000000000000000000000000000000000000000000000000000000000000000000000000000000000000000000000000000000000000000000000000000000000000000000000700000707070000000000000000000000000000000000000000000000000000000000000000000000000000
310
00000000000000000000000000000000000000000000000000000000000000000000000000000000000000000000000000000000000000000000000000000000000000000000000000000000000000000000000000000000000000000000000000000000000000000000000000000000000000000000000000000000000000
310
00000000000000000007000707000700000000000000000000000000000000000000000000000000000000000000000000000000000000000000000000000000000000000000000000000000000000000000000000000000000000000000000000000000000000000000000000000000000000000000000000000000000000
310
00000000000000000000000000000000000000000000000000000000000000000000000000000000000000000000000000000000000000000000000000000007070000070000000000000000000000000000000000000000000000000000000000000000000000000000000000000000000000000000000000000000000000
310
00000000000000000000000000000000000000000000000000000000000000000000000000000000000000000000000000000000000000000000000000000000000000000000000000000000000000000000000000000000000000000000000000000000000000000000000000000000000000000700000707070000000000
310
00000000000000000000000000000000000000000000000000000000000000000000000000000000000000000000000000000000000000000000000000000000000000000000000000000000000000000000000000000000000000000000000000000000000000000000000000000000000000000000000000000000000000
310
00000000000000000000000000000000000000000000000000000000000000000000000000000000000000070707070700000000000000000000000000000000000000000000000000000000000000000000000000000000000000000000000000000000000000000000000000000000000000000000000000000000000000
310
00000000000000000000000000000000000000000000000000000000000000000000000000000000000000000000000000000000000000000000000000000000000000000000000000000000000000000000000000000000000000000000000007070707000000000000000000000000000000000000000000000000000000
310
00000000000000000000000000000000000000000000000000000000000000000000000000000000000000000000000000000000000000000000000000000000000000000000000000000000000000000000000000000000000000000000000000000000000000000000000000000000000000000000000000000000000000
310
000000000000000000000000000000000000000000000000000000000000000000000000000000000000000000000000000000000000000000000000000000000000000000000000000000000000000000000000000000000000000000000000000000000000000000000000
  0
ENDSEC
  0
EOF
