  0
SECTION
  2
HEADER
  9
$ACADVER
  1
AC1015
  9
$ACADMAINTVER
 70
     6
  9
$DWGCODEPAGE
  3
ANSI_1252
  9
$INSBASE
 10
0.0
 20
0.0
 30
0.0
  9
$EXTMIN
 10
0.0
 20
0.24235
 30
0.0
  9
$EXTMAX
 10
700.0
 20
299.75265
 30
0.0
  9
$LIMMIN
 10
0.0
 20
0.0
  9
$LIMMAX
 10
12.0
 20
9.0
  9
$ORTHOMODE
 70
     0
  9
$REGENMODE
 70
     1
  9
$FILLMODE
 70
     1
  9
$QTEXTMODE
 70
     0
  9
$MIRRTEXT
 70
     1
  9
$LTSCALE
 40
1.0
  9
$ATTMODE
 70
     1
  9
$TEXTSIZE
 40
0.2
  9
$TRACEWID
 40
0.05
  9
$TEXTSTYLE
  7
Standard
  9
$CLAYER
  8
0
  9
$CELTYPE
  6
ByBlock
  9
$CECOLOR
 62
   256
  9
$CELTSCALE
 40
1.0
  9
$DISPSILH
 70
     0
  9
$DIMSCALE
 40
1.0
  9
$DIMASZ
 40
0.18
  9
$DIMEXO
 40
0.0625
  9
$DIMDLI
 40
0.38
  9
$DIMRND
 40
0.0
  9
$DIMDLE
 40
0.0
  9
$DIMEXE
 40
0.18
  9
$DIMTP
 40
0.0
  9
$DIMTM
 40
0.0
  9
$DIMTXT
 40
0.18
  9
$DIMCEN
 40
0.09
  9
$DIMTSZ
 40
0.0
  9
$DIMTOL
 70
     0
  9
$DIMLIM
 70
     0
  9
$DIMTIH
 70
     1
  9
$DIMTOH
 70
     1
  9
$DIMSE1
 70
     0
  9
$DIMSE2
 70
     0
  9
$DIMTAD
 70
     0
  9
$DIMZIN
 70
     0
  9
$DIMBLK
  1

  9
$DIMASO
 70
     1
  9
$DIMSHO
 70
     1
  9
$DIMPOST
  1

  9
$DIMAPOST
  1

  9
$DIMALT
 70
     0
  9
$DIMALTD
 70
     2
  9
$DIMALTF
 40
25.4
  9
$DIMLFAC
 40
1.0
  9
$DIMTOFL
 70
     0
  9
$DIMTVP
 40
0.0
  9
$DIMTIX
 70
     0
  9
$DIMSOXD
 70
     0
  9
$DIMSAH
 70
     0
  9
$DIMBLK1
  1

  9
$DIMBLK2
  1

  9
$DIMSTYLE
  2
Standard
  9
$DIMCLRD
 70
     0
  9
$DIMCLRE
 70
     0
  9
$DIMCLRT
 70
     0
  9
$DIMTFAC
 40
1.0
  9
$DIMGAP
 40
0.09
  9
$DIMJUST
 70
     0
  9
$DIMSD1
 70
     0
  9
$DIMSD2
 70
     0
  9
$DIMTOLJ
 70
     1
  9
$DIMTZIN
 70
     0
  9
$DIMALTZ
 70
     0
  9
$DIMALTTZ
 70
     0
  9
$DIMUPT
 70
     0
  9
$DIMDEC
 70
     4
  9
$DIMTDEC
 70
     4
  9
$DIMALTU
 70
     2
  9
$DIMALTTD
 70
     2
  9
$DIMTXSTY
  7
Standard
  9
$DIMAUNIT
 70
     0
  9
$DIMADEC
 70
     0
  9
$DIMALTRND
 40
0.0
  9
$DIMAZIN
 70
     0
  9
$DIMDSEP
 70
    46
  9
$DIMATFIT
 70
     3
  9
$DIMFRAC
 70
     0
  9
$DIMLDRBLK
  1

  9
$DIMLUNIT
 70
     2
  9
$DIMLWD
 70
    -2
  9
$DIMLWE
 70
    -2
  9
$DIMTMOVE
 70
     2
  9
$LUNITS
 70
     2
  9
$LUPREC
 70
     4
  9
$SKETCHINC
 40
0.1
  9
$FILLETRAD
 40
0.5
  9
$AUNITS
 70
     0
  9
$AUPREC
 70
     0
  9
$MENU
  1
.
  9
$ELEVATION
 40
0.0
  9
$PELEVATION
 40
0.0
  9
$THICKNESS
 40
0.0
  9
$LIMCHECK
 70
     0
  9
$CHAMFERA
 40
0.5
  9
$CHAMFERB
 40
0.5
  9
$CHAMFERC
 40
1.0
  9
$CHAMFERD
 40
0.0
  9
$SKPOLY
 70
     0
  9
$TDCREATE
 40
2456184.916375764
  9
$TDUCREATE
 40
2456184.833042431
  9
$TDUPDATE
 40
2456184.923155451
  9
$TDUUPDATE
 40
2456184.839822118
  9
$TDINDWG
 40
0.0066532986
  9
$TDUSRTIMER
 40
0.0066532986
  9
$USRTIMER
 70
     1
  9
$ANGBASE
 50
0.0
  9
$ANGDIR
 70
     0
  9
$PDMODE
 70
     0
  9
$PDSIZE
 40
0.0
  9
$PLINEWID
 40
0.0
  9
$SPLFRAME
 70
     0
  9
$SPLINETYPE
 70
     6
  9
$SPLINESEGS
 70
     8
  9
$HANDSEED
  5
2225
  9
$SURFTAB1
 70
     6
  9
$SURFTAB2
 70
     6
  9
$SURFTYPE
 70
     6
  9
$SURFU
 70
     6
  9
$SURFV
 70
     6
  9
$UCSBASE
  2

  9
$UCSNAME
  2

  9
$UCSORG
 10
0.0
 20
0.0
 30
0.0
  9
$UCSXDIR
 10
1.0
 20
0.0
 30
0.0
  9
$UCSYDIR
 10
0.0
 20
1.0
 30
0.0
  9
$UCSORTHOREF
  2

  9
$UCSORTHOVIEW
 70
     0
  9
$UCSORGTOP
 10
0.0
 20
0.0
 30
0.0
  9
$UCSORGBOTTOM
 10
0.0
 20
0.0
 30
0.0
  9
$UCSORGLEFT
 10
0.0
 20
0.0
 30
0.0
  9
$UCSORGRIGHT
 10
0.0
 20
0.0
 30
0.0
  9
$UCSORGFRONT
 10
0.0
 20
0.0
 30
0.0
  9
$UCSORGBACK
 10
0.0
 20
0.0
 30
0.0
  9
$PUCSBASE
  2

  9
$PUCSNAME
  2

  9
$PUCSORG
 10
0.0
 20
0.0
 30
0.0
  9
$PUCSXDIR
 10
1.0
 20
0.0
 30
0.0
  9
$PUCSYDIR
 10
0.0
 20
1.0
 30
0.0
  9
$PUCSORTHOREF
  2

  9
$PUCSORTHOVIEW
 70
     0
  9
$PUCSORGTOP
 10
0.0
 20
0.0
 30
0.0
  9
$PUCSORGBOTTOM
 10
0.0
 20
0.0
 30
0.0
  9
$PUCSORGLEFT
 10
0.0
 20
0.0
 30
0.0
  9
$PUCSORGRIGHT
 10
0.0
 20
0.0
 30
0.0
  9
$PUCSORGFRONT
 10
0.0
 20
0.0
 30
0.0
  9
$PUCSORGBACK
 10
0.0
 20
0.0
 30
0.0
  9
$USERI1
 70
     0
  9
$USERI2
 70
     0
  9
$USERI3
 70
     0
  9
$USERI4
 70
     0
  9
$USERI5
 70
     0
  9
$USERR1
 40
0.0
  9
$USERR2
 40
0.0
  9
$USERR3
 40
0.0
  9
$USERR4
 40
0.0
  9
$USERR5
 40
0.0
  9
$WORLDVIEW
 70
     1
  9
$SHADEDGE
 70
     3
  9
$SHADEDIF
 70
    70
  9
$TILEMODE
 70
     1
  9
$MAXACTVP
 70
    64
  9
$PINSBASE
 10
0.0
 20
0.0
 30
0.0
  9
$PLIMCHECK
 70
     0
  9
$PEXTMIN
 10
1.000000000000E+20
 20
1.000000000000E+20
 30
1.000000000000E+20
  9
$PEXTMAX
 10
-1.000000000000E+20
 20
-1.000000000000E+20
 30
-1.000000000000E+20
  9
$PLIMMIN
 10
0.0
 20
0.0
  9
$PLIMMAX
 10
12.0
 20
9.0
  9
$UNITMODE
 70
     0
  9
$VISRETAIN
 70
     1
  9
$PLINEGEN
 70
     0
  9
$PSLTSCALE
 70
     1
  9
$TREEDEPTH
 70
  3020
  9
$CMLSTYLE
  2
Standard
  9
$CMLJUST
 70
     0
  9
$CMLSCALE
 40
1.0
  9
$PROXYGRAPHICS
 70
     1
  9
$MEASUREMENT
 70
     0
  9
$CELWEIGHT
370
    -1
  9
$ENDCAPS
280
     0
  9
$JOINSTYLE
280
     0
  9
$LWDISPLAY
290
     0
  9
$INSUNITS
 70
     0
  9
$HYPERLINKBASE
  1

  9
$STYLESHEET
  1

  9
$XEDIT
290
     1
  9
$CEPSNTYPE
380
     0
  9
$PSTYLEMODE
290
     1
  9
$FINGERPRINTGUID
  2
{2F992983-A707-46C9-8C1A-BBA0E008FE7F}
  9
$VERSIONGUID
  2
{FAEB1C32-E019-11D5-929B-00C0DF256EC4}
  9
$EXTNAMES
290
     1
  9
$PSVPSCALE
 40
0.0
  9
$OLESTARTUP
290
     0
  0
ENDSEC
  0
SECTION
  2
CLASSES
  0
CLASS
  1
ACDBDICTIONARYWDFLT
  2
AcDbDictionaryWithDefault
  3
ObjectDBX Classes
 90
        0
280
     0
281
     0
  0
CLASS
  1
SCALE
  2
AcDbScale
  3
ObjectDBX Classes
 90
     1153
280
     0
281
     0
  0
CLASS
  1
DICTIONARYVAR
  2
AcDbDictionaryVar
  3
ObjectDBX Classes
 90
        0
280
     0
281
     0
  0
CLASS
  1
ACDBPLACEHOLDER
  2
AcDbPlaceHolder
  3
ObjectDBX Classes
 90
        0
280
     0
281
     0
  0
CLASS
  1
LAYOUT
  2
AcDbLayout
  3
ObjectDBX Classes
 90
        0
280
     0
281
     0
  0
ENDSEC
  0
SECTION
  2
TABLES
  0
TABLE
  2
VPORT
  5
8
330
0
100
AcDbSymbolTable
 70
     1
  0
VPORT
  5
E4C
330
8
100
AcDbSymbolTableRecord
100
AcDbViewportTableRecord
  2
*Active
 70
     0
 10
0.0
 20
0.0
 11
1.0
 21
1.0
 12
350.0
 22
149.876325
 13
0.0
 23
0.0
 14
0.5
 24
0.5
 15
0.5
 25
0.5
 16
0.0
 26
0.0
 36
1.0
 17
0.0
 27
0.0
 37
0.0
 40
383.728687916976
 41
1.860689655172
 42
50.0
 43
0.0
 44
0.0
 50
0.0
 51
0.0
 71
    16
 72
   100
 73
     1
 74
     3
 75
     0
 76
     0
 77
     0
 78
     0
281
     0
 65
     1
110
0.0
120
0.0
130
0.0
111
1.0
121
0.0
131
0.0
112
0.0
122
1.0
132
0.0
 79
     0
146
0.0
  0
ENDTAB
  0
TABLE
  2
LTYPE
  5
5
330
0
100
AcDbSymbolTable
 70
     1
  0
LTYPE
  5
14
330
5
100
AcDbSymbolTableRecord
100
AcDbLinetypeTableRecord
  2
ByBlock
 70
     0
  3

 72
    65
 73
     0
 40
0.0
  0
LTYPE
  5
15
330
5
100
AcDbSymbolTableRecord
100
AcDbLinetypeTableRecord
  2
ByLayer
 70
     0
  3

 72
    65
 73
     0
 40
0.0
  0
LTYPE
  5
16
330
5
100
AcDbSymbolTableRecord
100
AcDbLinetypeTableRecord
  2
Continuous
 70
     0
  3
Solid line
 72
    65
 73
     0
 40
0.0
  0
ENDTAB
  0
TABLE
  2
LAYER
  5
2
330
0
100
AcDbSymbolTable
 70
     1
  0
LAYER
  5
10
330
2
100
AcDbSymbolTableRecord
100
AcDbLayerTableRecord
  2
0
 70
     0
 62
     7
  6
Continuous
370
    -3
390
F
  0
ENDTAB
  0
TABLE
  2
STYLE
  5
3
330
0
100
AcDbSymbolTable
 70
     1
  0
STYLE
  5
11
330
3
100
AcDbSymbolTableRecord
100
AcDbTextStyleTableRecord
  2
Standard
 70
     0
 40
0.0
 41
1.0
 50
0.0
 71
     0
 42
0.2
  3
txt
  4

  0
ENDTAB
  0
TABLE
  2
VIEW
  5
6
330
0
100
AcDbSymbolTable
 70
     0
  0
ENDTAB
  0
TABLE
  2
UCS
  5
7
330
0
100
AcDbSymbolTable
 70
     0
  0
ENDTAB
  0
TABLE
  2
APPID
  5
9
330
0
100
AcDbSymbolTable
 70
     1
  0
APPID
  5
12
330
9
100
AcDbSymbolTableRecord
100
AcDbRegAppTableRecord
  2
ACAD
 70
     0
  0
ENDTAB
  0
TABLE
  2
DIMSTYLE
  5
A
330
0
100
AcDbSymbolTable
 70
     1
100
AcDbDimStyleTable
  0
DIMSTYLE
105
20
330
A
100
AcDbSymbolTableRecord
100
AcDbDimStyleTableRecord
  2
Standard
 70
     0
340
11
  0
ENDTAB
  0
TABLE
  2
BLOCK_RECORD
  5
1
330
0
100
AcDbSymbolTable
 70
     0
  0
BLOCK_RECORD
  5
1D
330
1
100
AcDbSymbolTableRecord
100
AcDbBlockTableRecord
  2
*Model_Space
340
1E
  0
BLOCK_RECORD
  5
1B
330
1
100
AcDbSymbolTableRecord
100
AcDbBlockTableRecord
  2
*Paper_Space
340
1C
  0
ENDTAB
  0
ENDSEC
  0
SECTION
  2
BLOCKS
  0
BLOCK
  5
E4F
330
1D
100
AcDbEntity
  8
0
100
AcDbBlockBegin
  2
*Model_Space
 70
     0
 10
0.0
 20
0.0
 30
0.0
  3
*Model_Space
  1
*Model_Space
  0
ENDBLK
  5
E50
330
1D
100
AcDbEntity
  8
0
100
AcDbBlockEnd
  0
BLOCK
  5
E4D
330
1B
100
AcDbEntity
 67
     1
  8
0
100
AcDbBlockBegin
  2
*Paper_Space
 70
     0
 10
0.0
 20
0.0
 30
0.0
  3
*Paper_Space
  1
*Paper_Space
  0
ENDBLK
  5
E4E
330
1B
100
AcDbEntity
 67
     1
  8
0
100
AcDbBlockEnd
  0
ENDSEC
  0
SECTION
  2
ENTITIES
  0
LINE
  5
51
330
1D
100
AcDbEntity
  8
0
100
AcDbLine
 10
0.0
 20
99.75265
 30
0.0
 11
176.36
 21
99.75265
 31
0.0
  0
LINE
  5
113D
330
1D
100
AcDbEntity
  8
0
100
AcDbLine
 10
0.0
 20
299.75265
 30
0.0
 11
700.0
 21
299.75265
 31
0.0
  0
LINE
  5
113E
330
1D
100
AcDbEntity
  8
0
100
AcDbLine
 10
0.0
 20
299.75265
 30
0.0
 11
149.0
 21
249.75265
 31
0.0
  0
LINE
  5
113F
330
1D
100
AcDbEntity
  8
0
100
AcDbLine
 10
0.0
 20
99.75265
 30
0.0
 11
149.0
 21
149.75265
 31
0.0
  0
LINE
  5
1140
330
1D
100
AcDbEntity
  8
0
100
AcDbLine
 10
0.0
 20
299.75265
 30
0.0
 11
700.0
 21
299.75265
 31
0.0
  0
LINE
  5
1141
330
1D
100
AcDbEntity
  8
0
100
AcDbLine
 10
0.0
 20
299.75265
 30
0.0
 11
0.0
 21
99.75265
 31
0.0
  0
LINE
  5
1142
330
1D
100
AcDbEntity
  8
0
100
AcDbLine
 10
0.0
 20
299.75265
 30
0.0
 11
149.0
 21
249.75265
 31
0.0
  0
LINE
  5
1143
330
1D
100
AcDbEntity
  8
0
100
AcDbLine
 10
0.0
 20
99.75265
 30
0.0
 11
0.0
 21
299.75265
 31
0.0
  0
LINE
  5
1144
330
1D
100
AcDbEntity
  8
0
100
AcDbLine
 10
0.0
 20
99.75265
 30
0.0
 11
149.0
 21
149.75265
 31
0.0
  0
LINE
  5
1146
330
1D
100
AcDbEntity
  8
0
100
AcDbLine
 10
148.504
 20
206.25665
 30
0.0
 11
151.048
 21
204.33665
 31
0.0
  0
LINE
  5
1147
330
1D
100
AcDbEntity
  8
0
100
AcDbLine
 10
148.927
 20
214.30265
 30
0.0
 11
149.126
 21
213.80965
 31
0.0
  0
LINE
  5
1148
330
1D
100
AcDbEntity
  8
0
100
AcDbLine
 10
146.584
 20
208.80065
 30
0.0
 11
148.504
 21
206.25665
 31
0.0
  0
LINE
  5
1149
330
1D
100
AcDbEntity
  8
0
100
AcDbLine
 10
145.432
 20
211.68065
 30
0.0
 11
146.584
 21
208.80065
 31
0.0
  0
LINE
  5
114A
330
1D
100
AcDbEntity
  8
0
100
AcDbLine
 10
145.432
 20
217.82465
 30
0.0
 11
146.584
 21
220.70465
 31
0.0
  0
LINE
  5
114B
330
1D
100
AcDbEntity
  8
0
100
AcDbLine
 10
148.928
 20
215.32865
 30
0.0
 11
149.131
 21
215.80465
 31
0.0
  0
LINE
  5
114C
330
1D
100
AcDbEntity
  8
0
100
AcDbLine
 10
148.866
 20
214.81565
 30
0.0
 11
148.928
 21
215.32865
 31
0.0
  0
LINE
  5
114D
330
1D
100
AcDbEntity
  8
0
100
AcDbLine
 10
148.866
 20
214.81565
 30
0.0
 11
148.927
 21
214.30265
 31
0.0
  0
LINE
  5
114E
330
1D
100
AcDbEntity
  8
0
100
AcDbLine
 10
148.504
 20
223.24865
 30
0.0
 11
151.048
 21
225.16865
 31
0.0
  0
LINE
  5
114F
330
1D
100
AcDbEntity
  8
0
100
AcDbLine
 10
146.584
 20
220.70465
 30
0.0
 11
148.504
 21
223.24865
 31
0.0
  0
LINE
  5
1150
330
1D
100
AcDbEntity
  8
0
100
AcDbLine
 10
145.0
 20
214.75265
 30
0.0
 11
145.432
 21
211.68065
 31
0.0
  0
LINE
  5
1151
330
1D
100
AcDbEntity
  8
0
100
AcDbLine
 10
145.0
 20
214.75265
 30
0.0
 11
145.432
 21
217.82465
 31
0.0
  0
LINE
  5
1152
330
1D
100
AcDbEntity
  8
0
100
AcDbLine
 10
149.0
 20
223.622989622642
 30
0.0
 11
149.0
 21
249.75265
 31
0.0
  0
LINE
  5
1153
330
1D
100
AcDbEntity
  8
0
100
AcDbLine
 10
149.0
 20
223.622989622642
 30
0.0
 11
149.0
 21
249.75265
 31
0.0
  0
LINE
  5
1154
330
1D
100
AcDbEntity
  8
0
100
AcDbLine
 10
149.0
 20
149.75265
 30
0.0
 11
149.0
 21
205.882310377359
 31
0.0
  0
LINE
  5
1155
330
1D
100
AcDbEntity
  8
0
100
AcDbLine
 10
149.0
 20
205.882310377359
 30
0.0
 11
149.0
 21
149.75265
 31
0.0
  0
LINE
  5
1156
330
1D
100
AcDbEntity
  8
0
100
AcDbLine
 10
149.0
 20
149.75265
 30
0.0
 11
149.0
 21
205.882310377359
 31
0.0
  0
LINE
  5
1157
330
1D
100
AcDbEntity
  8
0
100
AcDbLine
 10
149.0
 20
249.75265
 30
0.0
 11
551.0
 21
249.75265
 31
0.0
  0
LINE
  5
1158
330
1D
100
AcDbEntity
  8
0
100
AcDbLine
 10
149.0
 20
249.75265
 30
0.0
 11
149.0
 21
223.622989622642
 31
0.0
  0
LINE
  5
1159
330
1D
100
AcDbEntity
  8
0
100
AcDbLine
 10
149.0
 20
249.75265
 30
0.0
 11
551.0
 21
249.75265
 31
0.0
  0
LINE
  5
1163
330
1D
100
AcDbEntity
  8
0
100
AcDbLine
 10
149.453
 20
213.39165
 30
0.0
 11
149.867
 21
213.08165
 31
0.0
  0
LINE
  5
1164
330
1D
100
AcDbEntity
  8
0
100
AcDbLine
 10
149.126
 20
213.80965
 30
0.0
 11
149.453
 21
213.39165
 31
0.0
  0
LINE
  5
1165
330
1D
100
AcDbEntity
  8
0
100
AcDbLine
 10
151.048
 20
204.33665
 30
0.0
 11
151.713771408925
 21
204.062285785259
 31
0.0
  0
LINE
  5
1167
330
1D
100
AcDbEntity
  8
0
100
AcDbLine
 10
149.131
 20
215.80465
 30
0.0
 11
149.44
 21
216.21865
 31
0.0
  0
LINE
  5
1168
330
1D
100
AcDbEntity
  8
0
100
AcDbLine
 10
149.44
 20
216.21865
 30
0.0
 11
149.859
 21
216.54565
 31
0.0
  0
LINE
  5
11AA
330
1D
100
AcDbEntity
  8
0
100
AcDbLine
 10
218.952
 20
204.33665
 30
0.0
 11
221.496
 21
206.25665
 31
0.0
  0
LINE
  5
11AB
330
1D
100
AcDbEntity
  8
0
100
AcDbLine
 10
221.496
 20
206.25665
 30
0.0
 11
223.416
 21
208.80065
 31
0.0
  0
LINE
  5
11AF
330
1D
100
AcDbEntity
  8
0
100
AcDbLine
 10
225.409
 20
204.75265
 30
0.0
 11
226.608
 21
204.75265
 31
0.0
  0
LINE
  5
11B0
330
1D
100
AcDbEntity
  8
0
100
AcDbLine
 10
219.5032
 20
204.75265
 30
0.0
 11
225.409
 21
204.75265
 31
0.0
  0
LINE
  5
11B1
330
1D
100
AcDbEntity
  8
0
100
AcDbLine
 10
231.0
 20
204.75265
 30
0.0
 11
233.894
 21
204.75265
 31
0.0
  0
LINE
  5
11B2
330
1D
100
AcDbEntity
  8
0
100
AcDbLine
 10
228.515
 20
204.75265
 30
0.0
 11
231.0
 21
204.75265
 31
0.0
  0
LINE
  5
11B3
330
1D
100
AcDbEntity
  8
0
100
AcDbLine
 10
237.0
 20
204.75265
 30
0.0
 11
260.0
 21
204.75265
 31
0.0
  0
LINE
  5
11B4
330
1D
100
AcDbEntity
  8
0
100
AcDbLine
 10
233.894
 20
204.75265
 30
0.0
 11
237.0
 21
204.75265
 31
0.0
  0
LINE
  5
11B5
330
1D
100
AcDbEntity
  8
0
100
AcDbLine
 10
226.608
 20
204.75265
 30
0.0
 11
228.515
 21
204.75265
 31
0.0
  0
LINE
  5
11B6
330
1D
100
AcDbEntity
  8
0
100
AcDbLine
 10
260.0
 20
204.75265
 30
0.0
 11
260.0
 21
205.11265
 31
0.0
  0
LINE
  5
11B7
330
1D
100
AcDbEntity
  8
0
100
AcDbLine
 10
260.0
 20
205.127593396226
 30
0.0
 11
260.0
 21
205.02535
 31
0.0
  0
LINE
  5
11B8
330
1D
100
AcDbEntity
  8
0
100
AcDbLine
 10
260.0
 20
205.02535
 30
0.0
 11
260.0
 21
205.127593396226
 31
0.0
  0
LINE
  5
11C5
330
1D
100
AcDbEntity
  8
0
100
AcDbLine
 10
256.584
 20
208.80065
 30
0.0
 11
258.504
 21
206.25665
 31
0.0
  0
LINE
  5
11C6
330
1D
100
AcDbEntity
  8
0
100
AcDbLine
 10
255.432
 20
211.68065
 30
0.0
 11
256.584
 21
208.80065
 31
0.0
  0
LINE
  5
11C7
330
1D
100
AcDbEntity
  8
0
100
AcDbLine
 10
258.504
 20
206.25665
 30
0.0
 11
261.048
 21
204.33665
 31
0.0
  0
LINE
  5
11C8
330
1D
100
AcDbEntity
  8
0
100
AcDbLine
 10
223.416
 20
208.80065
 30
0.0
 11
224.568
 21
211.68065
 31
0.0
  0
LINE
  5
11CC
330
1D
100
AcDbEntity
  8
0
100
AcDbLine
 10
219.938891364339
 20
212.982068131857
 30
0.0
 11
220.133
 21
213.08165
 31
0.0
  0
LINE
  5
11CE
330
1D
100
AcDbEntity
  8
0
100
AcDbLine
 10
220.133
 20
213.08165
 30
0.0
 11
220.547
 21
213.39165
 31
0.0
  0
LINE
  5
11CF
330
1D
100
AcDbEntity
  8
0
100
AcDbLine
 10
220.547
 20
213.39165
 30
0.0
 11
220.874
 21
213.80965
 31
0.0
  0
LINE
  5
11D2
330
1D
100
AcDbEntity
  8
0
100
AcDbLine
 10
220.874
 20
213.80965
 30
0.0
 11
221.073
 21
214.30265
 31
0.0
  0
LINE
  5
11D9
330
1D
100
AcDbEntity
  8
0
100
AcDbLine
 10
259.453
 20
213.39165
 30
0.0
 11
259.867
 21
213.08165
 31
0.0
  0
LINE
  5
11DC
330
1D
100
AcDbEntity
  8
0
100
AcDbLine
 10
259.126
 20
213.80965
 30
0.0
 11
259.453
 21
213.39165
 31
0.0
  0
LINE
  5
11DD
330
1D
100
AcDbEntity
  8
0
100
AcDbLine
 10
258.927
 20
214.30265
 30
0.0
 11
259.126
 21
213.80965
 31
0.0
  0
LINE
  5
11DE
330
1D
100
AcDbEntity
  8
0
100
AcDbLine
 10
255.0
 20
214.75265
 30
0.0
 11
255.432
 21
211.68065
 31
0.0
  0
LINE
  5
11DF
330
1D
100
AcDbEntity
  8
0
100
AcDbLine
 10
255.0
 20
214.75265
 30
0.0
 11
255.432
 21
217.82465
 31
0.0
  0
LINE
  5
11E0
330
1D
100
AcDbEntity
  8
0
100
AcDbLine
 10
221.073
 20
214.30265
 30
0.0
 11
221.134
 21
214.81565
 31
0.0
  0
LINE
  5
11E1
330
1D
100
AcDbEntity
  8
0
100
AcDbLine
 10
224.568
 20
211.68065
 30
0.0
 11
225.0
 21
214.75265
 31
0.0
  0
LINE
  5
11E3
330
1D
100
AcDbEntity
  8
0
100
AcDbLine
 10
220.869
 20
215.80465
 30
0.0
 11
221.072
 21
215.32865
 31
0.0
  0
LINE
  5
11E4
330
1D
100
AcDbEntity
  8
0
100
AcDbLine
 10
220.56
 20
216.21865
 30
0.0
 11
220.869
 21
215.80465
 31
0.0
  0
LINE
  5
11E7
330
1D
100
AcDbEntity
  8
0
100
AcDbLine
 10
219.849700530358
 20
216.74465
 30
0.0
 11
220.141
 21
216.54565
 31
0.0
  0
LINE
  5
11E8
330
1D
100
AcDbEntity
  8
0
100
AcDbLine
 10
220.141
 20
216.54565
 30
0.0
 11
220.56
 21
216.21865
 31
0.0
  0
LINE
  5
11EF
330
1D
100
AcDbEntity
  8
0
100
AcDbLine
 10
221.072
 20
215.32865
 30
0.0
 11
221.134
 21
214.81565
 31
0.0
  0
LINE
  5
11F0
330
1D
100
AcDbEntity
  8
0
100
AcDbLine
 10
223.416
 20
220.70465
 30
0.0
 11
224.568
 21
217.82465
 31
0.0
  0
LINE
  5
11F1
330
1D
100
AcDbEntity
  8
0
100
AcDbLine
 10
259.131
 20
215.80465
 30
0.0
 11
259.44
 21
216.21865
 31
0.0
  0
LINE
  5
11F2
330
1D
100
AcDbEntity
  8
0
100
AcDbLine
 10
258.928
 20
215.32865
 30
0.0
 11
259.131
 21
215.80465
 31
0.0
  0
LINE
  5
11F3
330
1D
100
AcDbEntity
  8
0
100
AcDbLine
 10
259.44
 20
216.21865
 30
0.0
 11
259.859
 21
216.54565
 31
0.0
  0
LINE
  5
11F4
330
1D
100
AcDbEntity
  8
0
100
AcDbLine
 10
255.432
 20
217.82465
 30
0.0
 11
256.584
 21
220.70465
 31
0.0
  0
LINE
  5
11F5
330
1D
100
AcDbEntity
  8
0
100
AcDbLine
 10
256.584
 20
220.70465
 30
0.0
 11
258.504
 21
223.24865
 31
0.0
  0
LINE
  5
11FE
330
1D
100
AcDbEntity
  8
0
100
AcDbLine
 10
258.866
 20
214.81565
 30
0.0
 11
258.928
 21
215.32865
 31
0.0
  0
LINE
  5
11FF
330
1D
100
AcDbEntity
  8
0
100
AcDbLine
 10
258.866
 20
214.81565
 30
0.0
 11
258.927
 21
214.30265
 31
0.0
  0
LINE
  5
1200
330
1D
100
AcDbEntity
  8
0
100
AcDbLine
 10
224.568
 20
217.82465
 30
0.0
 11
225.0
 21
214.75265
 31
0.0
  0
LINE
  5
120B
330
1D
100
AcDbEntity
  8
0
100
AcDbLine
 10
362.0
 20
199.75265
 30
0.0
 11
373.495741272369
 21
199.75265
 31
0.0
  0
LINE
  5
120C
330
1D
100
AcDbEntity
  8
0
100
AcDbLine
 10
352.0
 20
199.75265
 30
0.0
 11
362.0
 21
199.75265
 31
0.0
  0
LINE
  5
120D
330
1D
100
AcDbEntity
  8
0
100
AcDbLine
 10
326.504258727631
 20
199.75265
 30
0.0
 11
352.0
 21
199.75265
 31
0.0
  0
LINE
  5
1211
330
1D
100
AcDbEntity
  8
0
100
AcDbLine
 10
328.952
 20
204.33665
 30
0.0
 11
331.496
 21
206.25665
 31
0.0
  0
LINE
  5
1215
330
1D
100
AcDbEntity
  8
0
100
AcDbLine
 10
368.504
 20
206.25665
 30
0.0
 11
371.048
 21
204.33665
 31
0.0
  0
LINE
  5
1216
330
1D
100
AcDbEntity
  8
0
100
AcDbLine
 10
331.496
 20
206.25665
 30
0.0
 11
333.416
 21
208.80065
 31
0.0
  0
LINE
  5
121D
330
1D
100
AcDbEntity
  8
0
100
AcDbLine
 10
437.571
 20
202.21165
 30
0.0
 11
437.571
 21
202.02535
 31
0.0
  0
LINE
  5
121E
330
1D
100
AcDbEntity
  8
0
100
AcDbLine
 10
437.571
 20
202.02535
 30
0.0
 11
438.143
 21
201.75265
 31
0.0
  0
LINE
  5
1222
330
1D
100
AcDbEntity
  8
0
100
AcDbLine
 10
438.143
 20
201.75265
 30
0.0
 11
443.857
 21
201.75265
 31
0.0
  0
LINE
  5
1226
330
1D
100
AcDbEntity
  8
0
100
AcDbLine
 10
443.857
 20
201.75265
 30
0.0
 11
444.429
 21
202.02535
 31
0.0
  0
LINE
  5
1227
330
1D
100
AcDbEntity
  8
0
100
AcDbLine
 10
444.429
 20
202.21165
 30
0.0
 11
444.761
 21
203.09605
 31
0.0
  0
LINE
  5
1228
330
1D
100
AcDbEntity
  8
0
100
AcDbLine
 10
444.429
 20
202.21165
 30
0.0
 11
444.429
 21
202.02535
 31
0.0
  0
LINE
  5
1229
330
1D
100
AcDbEntity
  8
0
100
AcDbLine
 10
444.761
 20
203.09605
 30
0.0
 11
444.884
 21
204.54765
 31
0.0
  0
LINE
  5
122A
330
1D
100
AcDbEntity
  8
0
100
AcDbLine
 10
444.792
 20
206.00725
 30
0.0
 11
444.884
 21
204.54765
 31
0.0
  0
LINE
  5
122B
330
1D
100
AcDbEntity
  8
0
100
AcDbLine
 10
445.0
 20
205.75265
 30
0.0
 11
479.1718
 21
205.75265
 31
0.0
  0
LINE
  5
122C
330
1D
100
AcDbEntity
  8
0
100
AcDbLine
 10
445.0
 20
205.02535
 30
0.0
 11
445.0
 21
218.77065
 31
0.0
  0
LINE
  5
122D
330
1D
100
AcDbEntity
  8
0
100
AcDbLine
 10
445.0
 20
205.02535
 30
0.0
 11
445.0
 21
204.04355
 31
0.0
  0
LINE
  5
122E
330
1D
100
AcDbEntity
  8
0
100
AcDbLine
 10
445.0
 20
204.04355
 30
0.0
 11
445.0
 21
203.66175
 31
0.0
  0
LINE
  5
122F
330
1D
100
AcDbEntity
  8
0
100
AcDbLine
 10
445.0
 20
204.04355
 30
0.0
 11
445.0
 21
205.02535
 31
0.0
  0
LINE
  5
1230
330
1D
100
AcDbEntity
  8
0
100
AcDbLine
 10
445.0
 20
203.66175
 30
0.0
 11
445.0
 21
204.04355
 31
0.0
  0
LINE
  5
1231
330
1D
100
AcDbEntity
  8
0
100
AcDbLine
 10
444.829
 20
202.84355
 30
0.0
 11
445.0
 21
203.66175
 31
0.0
  0
LINE
  5
1232
330
1D
100
AcDbEntity
  8
0
100
AcDbLine
 10
444.429
 20
202.02535
 30
0.0
 11
444.829
 21
202.84355
 31
0.0
  0
LINE
  5
1233
330
1D
100
AcDbEntity
  8
0
100
AcDbLine
 10
444.429
 20
202.02535
 30
0.0
 11
444.429
 21
202.21165
 31
0.0
  0
LINE
  5
1236
330
1D
100
AcDbEntity
  8
0
100
AcDbLine
 10
478.504
 20
206.25665
 30
0.0
 11
481.048
 21
204.33665
 31
0.0
  0
LINE
  5
1237
330
1D
100
AcDbEntity
  8
0
100
AcDbLine
 10
438.952
 20
204.33665
 30
0.0
 11
441.496
 21
206.25665
 31
0.0
  0
LINE
  5
1238
330
1D
100
AcDbEntity
  8
0
100
AcDbLine
 10
441.496
 20
206.25665
 30
0.0
 11
443.416
 21
208.80065
 31
0.0
  0
LINE
  5
123C
330
1D
100
AcDbEntity
  8
0
100
AcDbLine
 10
548.952
 20
204.33665
 30
0.0
 11
551.496
 21
206.25665
 31
0.0
  0
LINE
  5
125D
330
1D
100
AcDbEntity
  8
0
100
AcDbLine
 10
366.584
 20
208.80065
 30
0.0
 11
368.504
 21
206.25665
 31
0.0
  0
LINE
  5
125E
330
1D
100
AcDbEntity
  8
0
100
AcDbLine
 10
333.416
 20
208.80065
 30
0.0
 11
334.568
 21
211.68065
 31
0.0
  0
LINE
  5
1271
330
1D
100
AcDbEntity
  8
0
100
AcDbLine
 10
330.133
 20
213.08165
 30
0.0
 11
330.547
 21
213.39165
 31
0.0
  0
LINE
  5
1272
330
1D
100
AcDbEntity
  8
0
100
AcDbLine
 10
330.547
 20
213.39165
 30
0.0
 11
330.874
 21
213.80965
 31
0.0
  0
LINE
  5
127B
330
1D
100
AcDbEntity
  8
0
100
AcDbLine
 10
330.874
 20
213.80965
 30
0.0
 11
331.073
 21
214.30265
 31
0.0
  0
LINE
  5
127C
330
1D
100
AcDbEntity
  8
0
100
AcDbLine
 10
365.432
 20
211.68065
 30
0.0
 11
366.584
 21
208.80065
 31
0.0
  0
LINE
  5
1285
330
1D
100
AcDbEntity
  8
0
100
AcDbLine
 10
369.453
 20
213.39165
 30
0.0
 11
369.867
 21
213.08165
 31
0.0
  0
LINE
  5
1286
330
1D
100
AcDbEntity
  8
0
100
AcDbLine
 10
369.126
 20
213.80965
 30
0.0
 11
369.453
 21
213.39165
 31
0.0
  0
LINE
  5
1287
330
1D
100
AcDbEntity
  8
0
100
AcDbLine
 10
368.927
 20
214.30265
 30
0.0
 11
369.126
 21
213.80965
 31
0.0
  0
LINE
  5
1288
330
1D
100
AcDbEntity
  8
0
100
AcDbLine
 10
365.0
 20
214.75265
 30
0.0
 11
365.432
 21
211.68065
 31
0.0
  0
LINE
  5
1289
330
1D
100
AcDbEntity
  8
0
100
AcDbLine
 10
365.0
 20
214.75265
 30
0.0
 11
365.432
 21
217.82465
 31
0.0
  0
LINE
  5
128A
330
1D
100
AcDbEntity
  8
0
100
AcDbLine
 10
334.568
 20
211.68065
 30
0.0
 11
335.0
 21
214.75265
 31
0.0
  0
LINE
  5
128B
330
1D
100
AcDbEntity
  8
0
100
AcDbLine
 10
331.073
 20
214.30265
 30
0.0
 11
331.134
 21
214.81565
 31
0.0
  0
LINE
  5
12AE
330
1D
100
AcDbEntity
  8
0
100
AcDbLine
 10
368.866
 20
214.81565
 30
0.0
 11
368.928
 21
215.32865
 31
0.0
  0
LINE
  5
12AF
330
1D
100
AcDbEntity
  8
0
100
AcDbLine
 10
368.866
 20
214.81565
 30
0.0
 11
368.927
 21
214.30265
 31
0.0
  0
LINE
  5
12B0
330
1D
100
AcDbEntity
  8
0
100
AcDbLine
 10
368.928
 20
215.32865
 30
0.0
 11
369.131
 21
215.80465
 31
0.0
  0
LINE
  5
12B4
330
1D
100
AcDbEntity
  8
0
100
AcDbLine
 10
330.56
 20
216.21865
 30
0.0
 11
330.869
 21
215.80465
 31
0.0
  0
LINE
  5
12B5
330
1D
100
AcDbEntity
  8
0
100
AcDbLine
 10
369.131
 20
215.80465
 30
0.0
 11
369.44
 21
216.21865
 31
0.0
  0
LINE
  5
12B6
330
1D
100
AcDbEntity
  8
0
100
AcDbLine
 10
369.44
 20
216.21865
 30
0.0
 11
369.859
 21
216.54565
 31
0.0
  0
LINE
  5
12B9
330
1D
100
AcDbEntity
  8
0
100
AcDbLine
 10
330.869
 20
215.80465
 30
0.0
 11
331.072
 21
215.32865
 31
0.0
  0
LINE
  5
12BE
330
1D
100
AcDbEntity
  8
0
100
AcDbLine
 10
365.432
 20
217.82465
 30
0.0
 11
366.584
 21
220.70465
 31
0.0
  0
LINE
  5
12BF
330
1D
100
AcDbEntity
  8
0
100
AcDbLine
 10
366.584
 20
220.70465
 30
0.0
 11
368.504
 21
223.24865
 31
0.0
  0
LINE
  5
12C3
330
1D
100
AcDbEntity
  8
0
100
AcDbLine
 10
334.568
 20
217.82465
 30
0.0
 11
335.0
 21
214.75265
 31
0.0
  0
LINE
  5
12C4
330
1D
100
AcDbEntity
  8
0
100
AcDbLine
 10
333.416
 20
220.70465
 30
0.0
 11
334.568
 21
217.82465
 31
0.0
  0
LINE
  5
12C6
330
1D
100
AcDbEntity
  8
0
100
AcDbLine
 10
330.141
 20
216.54565
 30
0.0
 11
330.56
 21
216.21865
 31
0.0
  0
LINE
  5
12CA
330
1D
100
AcDbEntity
  8
0
100
AcDbLine
 10
331.072
 20
215.32865
 30
0.0
 11
331.134
 21
214.81565
 31
0.0
  0
LINE
  5
12E5
330
1D
100
AcDbEntity
  8
0
100
AcDbLine
 10
444.429
 20
207.91625
 30
0.0
 11
444.429
 21
208.45655
 31
0.0
  0
LINE
  5
12E6
330
1D
100
AcDbEntity
  8
0
100
AcDbLine
 10
444.429
 20
207.91625
 30
0.0
 11
444.429
 21
207.02945
 31
0.0
  0
LINE
  5
12E7
330
1D
100
AcDbEntity
  8
0
100
AcDbLine
 10
444.429
 20
208.45655
 30
0.0
 11
444.863
 21
211.00355
 31
0.0
  0
LINE
  5
12E8
330
1D
100
AcDbEntity
  8
0
100
AcDbLine
 10
444.429
 20
208.45655
 30
0.0
 11
444.429
 21
207.91625
 31
0.0
  0
LINE
  5
12E9
330
1D
100
AcDbEntity
  8
0
100
AcDbLine
 10
445.0
 20
218.77065
 30
0.0
 11
445.0
 21
205.02535
 31
0.0
  0
LINE
  5
12EA
330
1D
100
AcDbEntity
  8
0
100
AcDbLine
 10
444.429
 20
207.02945
 30
0.0
 11
444.792
 21
206.00725
 31
0.0
  0
LINE
  5
12EB
330
1D
100
AcDbEntity
  8
0
100
AcDbLine
 10
444.429
 20
207.02945
 30
0.0
 11
444.429
 21
207.91625
 31
0.0
  0
LINE
  5
12EC
330
1D
100
AcDbEntity
  8
0
100
AcDbLine
 10
476.584
 20
208.80065
 30
0.0
 11
478.504
 21
206.25665
 31
0.0
  0
LINE
  5
12ED
330
1D
100
AcDbEntity
  8
0
100
AcDbLine
 10
443.416
 20
208.80065
 30
0.0
 11
444.568
 21
211.68065
 31
0.0
  0
LINE
  5
12FA
330
1D
100
AcDbEntity
  8
0
100
AcDbLine
 10
440.133
 20
213.08165
 30
0.0
 11
440.547
 21
213.39165
 31
0.0
  0
LINE
  5
12FB
330
1D
100
AcDbEntity
  8
0
100
AcDbLine
 10
440.547
 20
213.39165
 30
0.0
 11
440.874
 21
213.80965
 31
0.0
  0
LINE
  5
1301
330
1D
100
AcDbEntity
  8
0
100
AcDbLine
 10
440.874
 20
213.80965
 30
0.0
 11
441.073
 21
214.30265
 31
0.0
  0
LINE
  5
1302
330
1D
100
AcDbEntity
  8
0
100
AcDbLine
 10
444.863
 20
211.00355
 30
0.0
 11
444.943
 21
213.75265
 31
0.0
  0
LINE
  5
1303
330
1D
100
AcDbEntity
  8
0
100
AcDbLine
 10
475.432
 20
211.68065
 30
0.0
 11
476.584
 21
208.80065
 31
0.0
  0
LINE
  5
1304
330
1D
100
AcDbEntity
  8
0
100
AcDbLine
 10
444.928661565252
 20
214.245354464017
 30
0.0
 11
444.943
 21
213.75265
 31
0.0
  0
LINE
  5
1305
330
1D
100
AcDbEntity
  8
0
100
AcDbLine
 10
475.0
 20
214.75265
 30
0.0
 11
475.432
 21
211.68065
 31
0.0
  0
LINE
  5
1306
330
1D
100
AcDbEntity
  8
0
100
AcDbLine
 10
475.0
 20
214.75265
 30
0.0
 11
475.432
 21
217.82465
 31
0.0
  0
LINE
  5
130F
330
1D
100
AcDbEntity
  8
0
100
AcDbLine
 10
479.453
 20
213.39165
 30
0.0
 11
479.867
 21
213.08165
 31
0.0
  0
LINE
  5
1310
330
1D
100
AcDbEntity
  8
0
100
AcDbLine
 10
479.126
 20
213.80965
 30
0.0
 11
479.453
 21
213.39165
 31
0.0
  0
LINE
  5
1311
330
1D
100
AcDbEntity
  8
0
100
AcDbLine
 10
478.928
 20
215.32865
 30
0.0
 11
479.131
 21
215.80465
 31
0.0
  0
LINE
  5
1313
330
1D
100
AcDbEntity
  8
0
100
AcDbLine
 10
478.927
 20
214.30265
 30
0.0
 11
479.126
 21
213.80965
 31
0.0
  0
LINE
  5
1314
330
1D
100
AcDbEntity
  8
0
100
AcDbLine
 10
478.866
 20
214.81565
 30
0.0
 11
478.928
 21
215.32865
 31
0.0
  0
LINE
  5
1315
330
1D
100
AcDbEntity
  8
0
100
AcDbLine
 10
478.866
 20
214.81565
 30
0.0
 11
478.927
 21
214.30265
 31
0.0
  0
LINE
  5
1316
330
1D
100
AcDbEntity
  8
0
100
AcDbLine
 10
444.568
 20
211.68065
 30
0.0
 11
445.0
 21
214.75265
 31
0.0
  0
LINE
  5
1317
330
1D
100
AcDbEntity
  8
0
100
AcDbLine
 10
441.073
 20
214.30265
 30
0.0
 11
441.134
 21
214.81565
 31
0.0
  0
LINE
  5
1318
330
1D
100
AcDbEntity
  8
0
100
AcDbLine
 10
440.56
 20
216.21865
 30
0.0
 11
440.869
 21
215.80465
 31
0.0
  0
LINE
  5
1319
330
1D
100
AcDbEntity
  8
0
100
AcDbLine
 10
479.131
 20
215.80465
 30
0.0
 11
479.44
 21
216.21865
 31
0.0
  0
LINE
  5
131A
330
1D
100
AcDbEntity
  8
0
100
AcDbLine
 10
479.44
 20
216.21865
 30
0.0
 11
479.859
 21
216.54565
 31
0.0
  0
LINE
  5
131D
330
1D
100
AcDbEntity
  8
0
100
AcDbLine
 10
440.869
 20
215.80465
 30
0.0
 11
441.072
 21
215.32865
 31
0.0
  0
LINE
  5
1320
330
1D
100
AcDbEntity
  8
0
100
AcDbLine
 10
441.072
 20
215.32865
 30
0.0
 11
441.134
 21
214.81565
 31
0.0
  0
LINE
  5
1322
330
1D
100
AcDbEntity
  8
0
100
AcDbLine
 10
444.863
 20
216.50165
 30
0.0
 11
444.891430762958
 21
215.524697907854
 31
0.0
  0
LINE
  5
1327
330
1D
100
AcDbEntity
  8
0
100
AcDbLine
 10
475.432
 20
217.82465
 30
0.0
 11
476.584
 21
220.70465
 31
0.0
  0
LINE
  5
132B
330
1D
100
AcDbEntity
  8
0
100
AcDbLine
 10
445.0
 20
218.77065
 30
0.0
 11
445.0
 21
220.89765
 31
0.0
  0
LINE
  5
132C
330
1D
100
AcDbEntity
  8
0
100
AcDbLine
 10
444.568
 20
217.82465
 30
0.0
 11
445.0
 21
214.75265
 31
0.0
  0
LINE
  5
132E
330
1D
100
AcDbEntity
  8
0
100
AcDbLine
 10
440.141
 20
216.54565
 30
0.0
 11
440.56
 21
216.21865
 31
0.0
  0
LINE
  5
1332
330
1D
100
AcDbEntity
  8
0
100
AcDbLine
 10
444.429
 20
219.58865
 30
0.0
 11
444.429
 21
219.04865
 31
0.0
  0
LINE
  5
1333
330
1D
100
AcDbEntity
  8
0
100
AcDbLine
 10
444.429
 20
219.58865
 30
0.0
 11
444.429
 21
220.47565
 31
0.0
  0
LINE
  5
1334
330
1D
100
AcDbEntity
  8
0
100
AcDbLine
 10
444.429
 20
219.04865
 30
0.0
 11
444.863
 21
216.50165
 31
0.0
  0
LINE
  5
1335
330
1D
100
AcDbEntity
  8
0
100
AcDbLine
 10
444.429
 20
219.04865
 30
0.0
 11
444.429
 21
219.58865
 31
0.0
  0
LINE
  5
1338
330
1D
100
AcDbEntity
  8
0
100
AcDbLine
 10
444.429
 20
220.47565
 30
0.0
 11
444.792
 21
221.49765
 31
0.0
  0
LINE
  5
1339
330
1D
100
AcDbEntity
  8
0
100
AcDbLine
 10
444.429
 20
220.47565
 30
0.0
 11
444.429
 21
219.58865
 31
0.0
  0
LINE
  5
133A
330
1D
100
AcDbEntity
  8
0
100
AcDbLine
 10
476.584
 20
220.70465
 30
0.0
 11
478.504
 21
223.24865
 31
0.0
  0
LINE
  5
133B
330
1D
100
AcDbEntity
  8
0
100
AcDbLine
 10
445.0
 20
222.56465
 30
0.0
 11
445.0
 21
222.47965
 31
0.0
  0
LINE
  5
133C
330
1D
100
AcDbEntity
  8
0
100
AcDbLine
 10
445.0
 20
222.47965
 30
0.0
 11
445.0
 21
220.89765
 31
0.0
  0
LINE
  5
133D
330
1D
100
AcDbEntity
  8
0
100
AcDbLine
 10
445.0
 20
220.89765
 30
0.0
 11
445.0
 21
218.77065
 31
0.0
  0
LINE
  5
133E
330
1D
100
AcDbEntity
  8
0
100
AcDbLine
 10
445.0
 20
220.89765
 30
0.0
 11
445.0
 21
222.47965
 31
0.0
  0
LINE
  5
133F
330
1D
100
AcDbEntity
  8
0
100
AcDbLine
 10
444.792
 20
221.49765
 30
0.0
 11
444.884
 21
222.95765
 31
0.0
  0
LINE
  5
1340
330
1D
100
AcDbEntity
  8
0
100
AcDbLine
 10
443.416
 20
220.70465
 30
0.0
 11
444.568
 21
217.82465
 31
0.0
  0
LINE
  5
134F
330
1D
100
AcDbEntity
  8
0
100
AcDbLine
 10
550.133
 20
213.08165
 30
0.0
 11
550.547
 21
213.39165
 31
0.0
  0
LINE
  5
1350
330
1D
100
AcDbEntity
  8
0
100
AcDbLine
 10
550.547
 20
213.39165
 30
0.0
 11
550.874
 21
213.80965
 31
0.0
  0
LINE
  5
1354
330
1D
100
AcDbEntity
  8
0
100
AcDbLine
 10
550.56
 20
216.21865
 30
0.0
 11
550.869
 21
215.80465
 31
0.0
  0
LINE
  5
1355
330
1D
100
AcDbEntity
  8
0
100
AcDbLine
 10
550.869
 20
215.80465
 30
0.0
 11
551.072
 21
215.32865
 31
0.0
  0
LINE
  5
1359
330
1D
100
AcDbEntity
  8
0
100
AcDbLine
 10
550.141
 20
216.54565
 30
0.0
 11
550.56
 21
216.21865
 31
0.0
  0
LINE
  5
135F
330
1D
100
AcDbEntity
  8
0
100
AcDbLine
 10
550.874
 20
213.80965
 30
0.0
 11
551.073
 21
214.30265
 31
0.0
  0
LINE
  5
136C
330
1D
100
AcDbEntity
  8
0
100
AcDbLine
 10
478.504
 20
223.24865
 30
0.0
 11
481.048
 21
225.16865
 31
0.0
  0
LINE
  5
136D
330
1D
100
AcDbEntity
  8
0
100
AcDbLine
 10
368.504
 20
223.24865
 30
0.0
 11
371.048
 21
225.16865
 31
0.0
  0
LINE
  5
136E
330
1D
100
AcDbEntity
  8
0
100
AcDbLine
 10
441.496
 20
223.24865
 30
0.0
 11
443.416
 21
220.70465
 31
0.0
  0
LINE
  5
136F
330
1D
100
AcDbEntity
  8
0
100
AcDbLine
 10
258.504
 20
223.24865
 30
0.0
 11
261.048
 21
225.16865
 31
0.0
  0
LINE
  5
1370
330
1D
100
AcDbEntity
  8
0
100
AcDbLine
 10
445.0
 20
223.42865
 30
0.0
 11
445.0
 21
222.56465
 31
0.0
  0
LINE
  5
1371
330
1D
100
AcDbEntity
  8
0
100
AcDbLine
 10
445.0
 20
223.46165
 30
0.0
 11
445.0
 21
223.84365
 31
0.0
  0
LINE
  5
1372
330
1D
100
AcDbEntity
  8
0
100
AcDbLine
 10
331.496
 20
223.24865
 30
0.0
 11
333.416
 21
220.70465
 31
0.0
  0
LINE
  5
1373
330
1D
100
AcDbEntity
  8
0
100
AcDbLine
 10
221.496
 20
223.24865
 30
0.0
 11
223.416
 21
220.70465
 31
0.0
  0
LINE
  5
1376
330
1D
100
AcDbEntity
  8
0
100
AcDbLine
 10
151.048
 20
225.16865
 30
0.0
 11
151.613313014787
 21
225.386684322552
 31
0.0
  0
LINE
  5
137B
330
1D
100
AcDbEntity
  8
0
100
AcDbLine
 10
260.0
 20
224.39265
 30
0.0
 11
260.0
 21
224.75265
 31
0.0
  0
LINE
  5
137E
330
1D
100
AcDbEntity
  8
0
100
AcDbLine
 10
225.409
 20
224.75265
 30
0.0
 11
226.608
 21
224.75265
 31
0.0
  0
LINE
  5
137F
330
1D
100
AcDbEntity
  8
0
100
AcDbLine
 10
226.608
 20
224.75265
 30
0.0
 11
228.515
 21
224.75265
 31
0.0
  0
LINE
  5
1380
330
1D
100
AcDbEntity
  8
0
100
AcDbLine
 10
219.5032
 20
224.75265
 30
0.0
 11
225.409
 21
224.75265
 31
0.0
  0
LINE
  5
1381
330
1D
100
AcDbEntity
  8
0
100
AcDbLine
 10
233.894
 20
224.75265
 30
0.0
 11
237.0
 21
224.75265
 31
0.0
  0
LINE
  5
1382
330
1D
100
AcDbEntity
  8
0
100
AcDbLine
 10
228.515
 20
224.75265
 30
0.0
 11
231.0
 21
224.75265
 31
0.0
  0
LINE
  5
1383
330
1D
100
AcDbEntity
  8
0
100
AcDbLine
 10
231.0
 20
224.75265
 30
0.0
 11
233.894
 21
224.75265
 31
0.0
  0
LINE
  5
1384
330
1D
100
AcDbEntity
  8
0
100
AcDbLine
 10
237.0
 20
224.75265
 30
0.0
 11
260.0
 21
224.75265
 31
0.0
  0
LINE
  5
138C
330
1D
100
AcDbEntity
  8
0
100
AcDbLine
 10
218.392558103467
 20
225.396538309246
 30
0.0
 11
218.952
 21
225.16865
 31
0.0
  0
LINE
  5
138D
330
1D
100
AcDbEntity
  8
0
100
AcDbLine
 10
218.952
 20
225.16865
 30
0.0
 11
221.496
 21
223.24865
 31
0.0
  0
LINE
  5
13A2
330
1D
100
AcDbEntity
  8
0
100
AcDbLine
 10
326.738924335546
 20
229.75265
 30
0.0
 11
352.0
 21
229.75265
 31
0.0
  0
LINE
  5
13A3
330
1D
100
AcDbEntity
  8
0
100
AcDbLine
 10
362.0
 20
229.75265
 30
0.0
 11
373.261075664454
 21
229.75265
 31
0.0
  0
LINE
  5
13A4
330
1D
100
AcDbEntity
  8
0
100
AcDbLine
 10
352.0
 20
229.75265
 30
0.0
 11
362.0
 21
229.75265
 31
0.0
  0
LINE
  5
13A7
330
1D
100
AcDbEntity
  8
0
100
AcDbLine
 10
328.952
 20
225.16865
 30
0.0
 11
331.496
 21
223.24865
 31
0.0
  0
LINE
  5
13B3
330
1D
100
AcDbEntity
  8
0
100
AcDbLine
 10
445.0
 20
223.75265
 30
0.0
 11
479.1718
 21
223.75265
 31
0.0
  0
LINE
  5
13B4
330
1D
100
AcDbEntity
  8
0
100
AcDbLine
 10
445.0
 20
223.75265
 30
0.0
 11
445.0
 21
223.42865
 31
0.0
  0
LINE
  5
13B5
330
1D
100
AcDbEntity
  8
0
100
AcDbLine
 10
445.0
 20
223.84365
 30
0.0
 11
445.0
 21
223.46165
 31
0.0
  0
LINE
  5
13B6
330
1D
100
AcDbEntity
  8
0
100
AcDbLine
 10
444.761
 20
224.40965
 30
0.0
 11
444.884
 21
222.95765
 31
0.0
  0
LINE
  5
13B7
330
1D
100
AcDbEntity
  8
0
100
AcDbLine
 10
444.829
 20
224.66165
 30
0.0
 11
445.0
 21
223.84365
 31
0.0
  0
LINE
  5
13B9
330
1D
100
AcDbEntity
  8
0
100
AcDbLine
 10
444.429
 20
225.29365
 30
0.0
 11
444.429
 21
225.47965
 31
0.0
  0
LINE
  5
13BA
330
1D
100
AcDbEntity
  8
0
100
AcDbLine
 10
444.429
 20
225.29365
 30
0.0
 11
444.761
 21
224.40965
 31
0.0
  0
LINE
  5
13BB
330
1D
100
AcDbEntity
  8
0
100
AcDbLine
 10
438.307364320485
 20
225.75265
 30
0.0
 11
443.857
 21
225.75265
 31
0.0
  0
LINE
  5
13BD
330
1D
100
AcDbEntity
  8
0
100
AcDbLine
 10
443.857
 20
225.75265
 30
0.0
 11
444.429
 21
225.47965
 31
0.0
  0
LINE
  5
13BE
330
1D
100
AcDbEntity
  8
0
100
AcDbLine
 10
444.429
 20
225.47965
 30
0.0
 11
444.829
 21
224.66165
 31
0.0
  0
LINE
  5
13BF
330
1D
100
AcDbEntity
  8
0
100
AcDbLine
 10
444.429
 20
225.47965
 30
0.0
 11
444.429
 21
225.29365
 31
0.0
  0
LINE
  5
13C2
330
1D
100
AcDbEntity
  8
0
100
AcDbLine
 10
438.952
 20
225.16865
 30
0.0
 11
441.496
 21
223.24865
 31
0.0
  0
LINE
  5
13C9
330
1D
100
AcDbEntity
  8
0
100
AcDbLine
 10
548.952
 20
225.16865
 30
0.0
 11
551.496
 21
223.24865
 31
0.0
  0
LINE
  5
13ED
330
1D
100
AcDbEntity
  8
0
100
AcDbLine
 10
551.0
 20
223.622989622642
 30
0.0
 11
551.0
 21
249.75265
 31
0.0
  0
LINE
  5
13EE
330
1D
100
AcDbEntity
  8
0
100
AcDbLine
 10
551.0
 20
205.882310377359
 30
0.0
 11
551.0
 21
149.75265
 31
0.0
  0
LINE
  5
13EF
330
1D
100
AcDbEntity
  8
0
100
AcDbLine
 10
551.0
 20
205.882310377359
 30
0.0
 11
551.0
 21
149.75265
 31
0.0
  0
LINE
  5
13F0
330
1D
100
AcDbEntity
  8
0
100
AcDbLine
 10
551.0
 20
249.75265
 30
0.0
 11
700.0
 21
299.75265
 31
0.0
  0
LINE
  5
13F1
330
1D
100
AcDbEntity
  8
0
100
AcDbLine
 10
551.0
 20
249.75265
 30
0.0
 11
551.0
 21
223.622989622642
 31
0.0
  0
LINE
  5
13F2
330
1D
100
AcDbEntity
  8
0
100
AcDbLine
 10
551.496
 20
206.25665
 30
0.0
 11
553.416
 21
208.80065
 31
0.0
  0
LINE
  5
13F3
330
1D
100
AcDbEntity
  8
0
100
AcDbLine
 10
551.073
 20
214.30265
 30
0.0
 11
551.134
 21
214.81565
 31
0.0
  0
LINE
  5
13F4
330
1D
100
AcDbEntity
  8
0
100
AcDbLine
 10
551.496
 20
223.24865
 30
0.0
 11
553.416
 21
220.70465
 31
0.0
  0
LINE
  5
13F5
330
1D
100
AcDbEntity
  8
0
100
AcDbLine
 10
554.568
 20
217.82465
 30
0.0
 11
555.0
 21
214.75265
 31
0.0
  0
LINE
  5
13F6
330
1D
100
AcDbEntity
  8
0
100
AcDbLine
 10
553.416
 20
220.70465
 30
0.0
 11
554.568
 21
217.82465
 31
0.0
  0
LINE
  5
13F7
330
1D
100
AcDbEntity
  8
0
100
AcDbLine
 10
551.072
 20
215.32865
 30
0.0
 11
551.134
 21
214.81565
 31
0.0
  0
LINE
  5
13F8
330
1D
100
AcDbEntity
  8
0
100
AcDbLine
 10
554.568
 20
211.68065
 30
0.0
 11
555.0
 21
214.75265
 31
0.0
  0
LINE
  5
13F9
330
1D
100
AcDbEntity
  8
0
100
AcDbLine
 10
553.416
 20
208.80065
 30
0.0
 11
554.568
 21
211.68065
 31
0.0
  0
LINE
  5
13FA
330
1D
100
AcDbEntity
  8
0
100
AcDbLine
 10
551.0
 20
249.75265
 30
0.0
 11
551.0
 21
223.622989622642
 31
0.0
  0
LINE
  5
13FB
330
1D
100
AcDbEntity
  8
0
100
AcDbLine
 10
551.0
 20
149.75265
 30
0.0
 11
700.0
 21
99.75265
 31
0.0
  0
LINE
  5
13FC
330
1D
100
AcDbEntity
  8
0
100
AcDbLine
 10
551.0
 20
149.75265
 30
0.0
 11
700.0
 21
99.75265
 31
0.0
  0
LINE
  5
13FD
330
1D
100
AcDbEntity
  8
0
100
AcDbLine
 10
551.0
 20
149.75265
 30
0.0
 11
551.0
 21
205.882310377359
 31
0.0
  0
LINE
  5
13FF
330
1D
100
AcDbEntity
  8
0
100
AcDbLine
 10
700.0
 20
299.75265
 30
0.0
 11
700.0
 21
99.75265
 31
0.0
  0
LINE
  5
1400
330
1D
100
AcDbEntity
  8
0
100
AcDbLine
 10
700.0
 20
99.75265
 30
0.0
 11
700.0
 21
299.75265
 31
0.0
  0
LINE
  5
1401
330
1D
100
AcDbEntity
  8
0
100
AcDbLine
 10
0.0
 20
99.75265
 30
0.0
 11
0.0
 21
299.75265
 31
0.0
  0
LINE
  5
1B0E
330
1D
100
AcDbEntity
  8
0
100
AcDbLine
 10
152.8191
 20
208.75865
 30
0.0
 11
153.5714
 21
205.63565
 31
0.0
  0
LINE
  5
1B0F
330
1D
100
AcDbEntity
  8
0
100
AcDbLine
 10
152.8195
 20
208.75865
 30
0.0
 11
153.5714
 21
205.63665
 31
0.0
  0
LINE
  5
1B10
330
1D
100
AcDbEntity
  8
0
100
AcDbLine
 10
150.0624
 20
212.36265
 30
0.0
 11
150.8314
 21
207.42865
 31
0.0
  0
LINE
  5
1B11
330
1D
100
AcDbEntity
  8
0
100
AcDbLine
 10
157.3966
 20
208.53865
 30
0.0
 11
158.3594
 21
205.25965
 31
0.0
  0
LINE
  5
1B12
330
1D
100
AcDbEntity
  8
0
100
AcDbLine
 10
168.9837
 20
183.99865
 30
0.0
 11
168.9837
 21
209.81765
 31
0.0
  0
LINE
  5
1B13
330
1D
100
AcDbEntity
  8
0
100
AcDbLine
 10
168.9837
 20
209.81765
 30
0.0
 11
168.9837
 21
183.99865
 31
0.0
  0
LINE
  5
1B14
330
1D
100
AcDbEntity
  8
0
100
AcDbLine
 10
321.543109957704
 20
209.191702314134
 30
0.0
 11
321.116509957704
 21
207.633802314134
 31
0.0
  0
LINE
  5
1B15
330
1D
100
AcDbEntity
  8
0
100
AcDbLine
 10
321.543209957704
 20
209.191702314134
 30
0.0
 11
321.116409957704
 21
207.633702314134
 31
0.0
  0
LINE
  5
1B16
330
1D
100
AcDbEntity
  8
0
100
AcDbLine
 10
315.910709957705
 20
207.821302314134
 30
0.0
 11
315.470909957704
 21
206.294802314134
 31
0.0
  0
LINE
  5
1B17
330
1D
100
AcDbEntity
  8
0
100
AcDbLine
 10
315.910809957704
 20
207.821502314134
 30
0.0
 11
315.470909957704
 21
206.294902314134
 31
0.0
  0
LINE
  5
1B18
330
1D
100
AcDbEntity
  8
0
100
AcDbLine
 10
315.804009957704
 20
209.470102314134
 30
0.0
 11
314.998009957704
 21
206.441202314134
 31
0.0
  0
LINE
  5
1B19
330
1D
100
AcDbEntity
  8
0
100
AcDbLine
 10
315.804009957704
 20
209.469902314134
 30
0.0
 11
314.997909957704
 21
206.440902314134
 31
0.0
  0
LINE
  5
1B1A
330
1D
100
AcDbEntity
  8
0
100
AcDbLine
 10
274.193809957705
 20
209.470102314134
 30
0.0
 11
274.999809957704
 21
206.441202314134
 31
0.0
  0
LINE
  5
1B1B
330
1D
100
AcDbEntity
  8
0
100
AcDbLine
 10
274.087109957705
 20
207.821302314134
 30
0.0
 11
274.526909957704
 21
206.294802314134
 31
0.0
  0
LINE
  5
1B1C
330
1D
100
AcDbEntity
  8
0
100
AcDbLine
 10
274.087009957705
 20
207.821502314134
 30
0.0
 11
274.526909957704
 21
206.294902314134
 31
0.0
  0
LINE
  5
1B1D
330
1D
100
AcDbEntity
  8
0
100
AcDbLine
 10
274.193809957705
 20
209.469902314134
 30
0.0
 11
274.999909957704
 21
206.440902314134
 31
0.0
  0
LINE
  5
1B1E
330
1D
100
AcDbEntity
  8
0
100
AcDbLine
 10
268.454709957704
 20
209.191702314134
 30
0.0
 11
268.881309957705
 21
207.633802314134
 31
0.0
  0
LINE
  5
1B1F
330
1D
100
AcDbEntity
  8
0
100
AcDbLine
 10
268.454609957704
 20
209.191702314134
 30
0.0
 11
268.881409957704
 21
207.633702314134
 31
0.0
  0
CIRCLE
  5
1B20
330
1D
100
AcDbEntity
  8
0
100
AcDbCircle
 10
295.0
 20
215.0
 30
0.0
 40
35.0
  0
LINE
  5
1B21
330
1D
100
AcDbEntity
  8
0
100
AcDbLine
 10
201.0163
 20
209.81765
 30
0.0
 11
201.0163
 21
183.99865
 31
0.0
  0
LINE
  5
1B22
330
1D
100
AcDbEntity
  8
0
100
AcDbLine
 10
201.0163
 20
183.99865
 30
0.0
 11
201.0163
 21
209.81765
 31
0.0
  0
LINE
  5
1B23
330
1D
100
AcDbEntity
  8
0
100
AcDbLine
 10
212.6034
 20
208.53865
 30
0.0
 11
211.6406
 21
205.25965
 31
0.0
  0
LINE
  5
1B24
330
1D
100
AcDbEntity
  8
0
100
AcDbLine
 10
219.9376
 20
212.36265
 30
0.0
 11
219.1686
 21
207.42865
 31
0.0
  0
LINE
  5
1B25
330
1D
100
AcDbEntity
  8
0
100
AcDbLine
 10
217.1805
 20
208.75865
 30
0.0
 11
216.4286
 21
205.63665
 31
0.0
  0
LINE
  5
1B26
330
1D
100
AcDbEntity
  8
0
100
AcDbLine
 10
217.1809
 20
208.75865
 30
0.0
 11
216.4286
 21
205.63565
 31
0.0
  0
LINE
  5
1B27
330
1D
100
AcDbEntity
  8
0
100
AcDbLine
 10
176.37
 20
98.878437594477
 30
0.0
 11
176.37
 21
108.38775
 31
0.0
  0
LINE
  5
1B28
330
1D
100
AcDbEntity
  8
0
100
AcDbLine
 10
176.37
 20
108.38775
 30
0.0
 11
176.37
 21
98.878437594477
 31
0.0
  0
LINE
  5
1B29
330
1D
100
AcDbEntity
  8
0
100
AcDbLine
 10
193.65
 20
98.878437594477
 30
0.0
 11
193.65
 21
108.38775
 31
0.0
  0
LINE
  5
1B2A
330
1D
100
AcDbEntity
  8
0
100
AcDbLine
 10
193.65
 20
108.38775
 30
0.0
 11
193.65
 21
98.878437594477
 31
0.0
  0
LINE
  5
1B2B
330
1D
100
AcDbEntity
  8
0
100
AcDbLine
 10
185.01
 20
0.24235
 30
0.0
 11
191.4334
 21
0.70505
 31
0.0
  0
LINE
  5
1B2C
330
1D
100
AcDbEntity
  8
0
100
AcDbLine
 10
185.01
 20
99.74785
 30
0.0
 11
191.4334
 21
99.28475
 31
0.0
  0
LINE
  5
1B2D
330
1D
100
AcDbEntity
  8
0
100
AcDbLine
 10
185.01
 20
99.50885
 30
0.0
 11
191.3604
 21
99.04575
 31
0.0
  0
LINE
  5
1B2E
330
1D
100
AcDbEntity
  8
0
100
AcDbLine
 10
185.01
 20
9.11742
 30
0.0
 11
191.4334
 21
9.57997
 31
0.0
  0
LINE
  5
1B2F
330
1D
100
AcDbEntity
  8
0
100
AcDbLine
 10
185.01
 20
10.20145
 30
0.0
 11
191.3604
 21
10.66399
 31
0.0
  0
LINE
  5
1B30
330
1D
100
AcDbEntity
  8
0
100
AcDbLine
 10
135.01
 20
45.55755
 30
0.0
 11
135.01
 21
54.43255
 31
0.0
  0
LINE
  5
1B31
330
1D
100
AcDbEntity
  8
0
100
AcDbLine
 10
135.01
 20
54.43255
 30
0.0
 11
135.5209
 21
48.61075
 31
0.0
  0
LINE
  5
1B32
330
1D
100
AcDbEntity
  8
0
100
AcDbLine
 10
135.01
 20
54.43255
 30
0.0
 11
135.01
 21
45.55755
 31
0.0
  0
LINE
  5
1B33
330
1D
100
AcDbEntity
  8
0
100
AcDbLine
 10
135.7399
 20
54.85515
 30
0.0
 11
136.2509
 21
49.09935
 31
0.0
  0
LINE
  5
1B34
330
1D
100
AcDbEntity
  8
0
100
AcDbLine
 10
160.1195
 20
6.32793
 30
0.0
 11
165.8859
 21
3.74825
 31
0.0
  0
LINE
  5
1B35
330
1D
100
AcDbEntity
  8
0
100
AcDbLine
 10
160.1195
 20
15.202877
 30
0.0
 11
165.8859
 21
12.62324
 31
0.0
  0
LINE
  5
1B36
330
1D
100
AcDbEntity
  8
0
100
AcDbLine
 10
160.4845
 20
16.15502
 30
0.0
 11
166.1779
 21
13.70726
 31
0.0
  0
LINE
  5
1B37
330
1D
100
AcDbEntity
  8
0
100
AcDbLine
 10
138.8786
 20
28.22515
 30
0.0
 11
141.7253
 21
22.99889
 31
0.0
  0
LINE
  5
1B38
330
1D
100
AcDbEntity
  8
0
100
AcDbLine
 10
145.375
 20
26.91235
 30
0.0
 11
149.6815
 21
22.41445
 31
0.0
  0
LINE
  5
1B39
330
1D
100
AcDbEntity
  8
0
100
AcDbLine
 10
145.9589
 20
27.73155
 30
0.0
 11
150.1925
 21
23.29961
 31
0.0
  0
LINE
  5
1B3A
330
1D
100
AcDbEntity
  8
0
100
AcDbLine
 10
145.375
 20
18.03738
 30
0.0
 11
149.6815
 21
13.53942
 31
0.0
  0
LINE
  5
1B3B
330
1D
100
AcDbEntity
  8
0
100
AcDbLine
 10
141.7253
 20
22.99889
 30
0.0
 11
145.375
 21
18.03738
 31
0.0
  0
LINE
  5
1B3C
330
1D
100
AcDbEntity
  8
0
100
AcDbLine
 10
149.6815
 20
13.53942
 30
0.0
 11
154.645
 21
9.63597
 31
0.0
  0
LINE
  5
1B3D
330
1D
100
AcDbEntity
  8
0
100
AcDbLine
 10
154.645
 20
9.63597
 30
0.0
 11
160.1195
 21
6.32793
 31
0.0
  0
LINE
  5
1B3E
330
1D
100
AcDbEntity
  8
0
100
AcDbLine
 10
154.645
 20
18.51091
 30
0.0
 11
160.1195
 21
15.202877
 31
0.0
  0
LINE
  5
1B3F
330
1D
100
AcDbEntity
  8
0
100
AcDbLine
 10
149.6815
 20
22.41445
 30
0.0
 11
154.645
 21
18.51091
 31
0.0
  0
LINE
  5
1B40
330
1D
100
AcDbEntity
  8
0
100
AcDbLine
 10
150.1925
 20
23.29961
 30
0.0
 11
155.083
 21
19.46305
 31
0.0
  0
LINE
  5
1B41
330
1D
100
AcDbEntity
  8
0
100
AcDbLine
 10
155.083
 20
19.46305
 30
0.0
 11
160.4845
 21
16.15502
 31
0.0
  0
LINE
  5
1B42
330
1D
100
AcDbEntity
  8
0
100
AcDbLine
 10
135.5209
 20
39.73585
 30
0.0
 11
136.8348
 21
33.84815
 31
0.0
  0
LINE
  5
1B43
330
1D
100
AcDbEntity
  8
0
100
AcDbLine
 10
135.5209
 20
48.61075
 30
0.0
 11
136.8348
 21
42.72305
 31
0.0
  0
LINE
  5
1B44
330
1D
100
AcDbEntity
  8
0
100
AcDbLine
 10
135.01
 20
45.55755
 30
0.0
 11
135.5209
 21
39.73585
 31
0.0
  0
LINE
  5
1B45
330
1D
100
AcDbEntity
  8
0
100
AcDbLine
 10
136.8348
 20
33.84815
 30
0.0
 11
138.8786
 21
28.22515
 31
0.0
  0
LINE
  5
1B46
330
1D
100
AcDbEntity
  8
0
100
AcDbLine
 10
138.8786
 20
37.10015
 30
0.0
 11
141.7253
 21
31.87395
 31
0.0
  0
LINE
  5
1B47
330
1D
100
AcDbEntity
  8
0
100
AcDbLine
 10
136.8348
 20
42.72305
 30
0.0
 11
138.8786
 21
37.10015
 31
0.0
  0
LINE
  5
1B48
330
1D
100
AcDbEntity
  8
0
100
AcDbLine
 10
141.7253
 20
31.87395
 30
0.0
 11
145.375
 21
26.91235
 31
0.0
  0
LINE
  5
1B49
330
1D
100
AcDbEntity
  8
0
100
AcDbLine
 10
142.3093
 20
32.62715
 30
0.0
 11
145.9589
 21
27.73155
 31
0.0
  0
LINE
  5
1B4A
330
1D
100
AcDbEntity
  8
0
100
AcDbLine
 10
139.6085
 20
37.78755
 30
0.0
 11
142.3093
 21
32.62715
 31
0.0
  0
LINE
  5
1B4B
330
1D
100
AcDbEntity
  8
0
100
AcDbLine
 10
137.4918
 20
43.60925
 30
0.0
 11
139.6085
 21
37.78755
 31
0.0
  0
LINE
  5
1B4C
330
1D
100
AcDbEntity
  8
0
100
AcDbLine
 10
136.2509
 20
49.09935
 30
0.0
 11
137.4918
 21
43.60925
 31
0.0
  0
LINE
  5
1B4D
330
1D
100
AcDbEntity
  8
0
100
AcDbLine
 10
165.8859
 20
3.74825
 30
0.0
 11
172.0903
 21
1.89595
 31
0.0
  0
LINE
  5
1B4E
330
1D
100
AcDbEntity
  8
0
100
AcDbLine
 10
165.8859
 20
12.62324
 30
0.0
 11
172.0903
 21
10.7709
 31
0.0
  0
LINE
  5
1B4F
330
1D
100
AcDbEntity
  8
0
100
AcDbLine
 10
166.1779
 20
13.70726
 30
0.0
 11
172.6012
 21
11.78903
 31
0.0
  0
LINE
  5
1B50
330
1D
100
AcDbEntity
  8
0
100
AcDbLine
 10
172.0903
 20
1.89595
 30
0.0
 11
178.5866
 21
0.70505
 31
0.0
  0
LINE
  5
1B51
330
1D
100
AcDbEntity
  8
0
100
AcDbLine
 10
178.5866
 20
0.70505
 30
0.0
 11
185.01
 21
0.24235
 31
0.0
  0
LINE
  5
1B52
330
1D
100
AcDbEntity
  8
0
100
AcDbLine
 10
172.0903
 20
10.7709
 30
0.0
 11
178.5866
 21
9.57997
 31
0.0
  0
LINE
  5
1B53
330
1D
100
AcDbEntity
  8
0
100
AcDbLine
 10
178.5866
 20
9.57997
 30
0.0
 11
185.01
 21
9.11742
 31
0.0
  0
LINE
  5
1B54
330
1D
100
AcDbEntity
  8
0
100
AcDbLine
 10
172.6012
 20
11.78903
 30
0.0
 11
178.6596
 21
10.66399
 31
0.0
  0
LINE
  5
1B55
330
1D
100
AcDbEntity
  8
0
100
AcDbLine
 10
178.6596
 20
10.66399
 30
0.0
 11
185.01
 21
10.20145
 31
0.0
  0
LINE
  5
1B56
330
1D
100
AcDbEntity
  8
0
100
AcDbLine
 10
160.1195
 20
93.66165
 30
0.0
 11
165.8859
 21
96.24165
 31
0.0
  0
LINE
  5
1B57
330
1D
100
AcDbEntity
  8
0
100
AcDbLine
 10
160.4845
 20
93.55505
 30
0.0
 11
166.1779
 21
96.00275
 31
0.0
  0
LINE
  5
1B58
330
1D
100
AcDbEntity
  8
0
100
AcDbLine
 10
135.5209
 20
60.25405
 30
0.0
 11
136.8348
 21
66.14165
 31
0.0
  0
LINE
  5
1B59
330
1D
100
AcDbEntity
  8
0
100
AcDbLine
 10
135.01
 20
54.43255
 30
0.0
 11
135.5209
 21
60.25405
 31
0.0
  0
LINE
  5
1B5A
330
1D
100
AcDbEntity
  8
0
100
AcDbLine
 10
136.8348
 20
66.14165
 30
0.0
 11
138.8786
 21
71.76485
 31
0.0
  0
LINE
  5
1B5B
330
1D
100
AcDbEntity
  8
0
100
AcDbLine
 10
138.8786
 20
71.76485
 30
0.0
 11
141.7253
 21
76.99085
 31
0.0
  0
LINE
  5
1B5C
330
1D
100
AcDbEntity
  8
0
100
AcDbLine
 10
141.7253
 20
76.99085
 30
0.0
 11
145.375
 21
81.95245
 31
0.0
  0
LINE
  5
1B5D
330
1D
100
AcDbEntity
  8
0
100
AcDbLine
 10
145.375
 20
81.95245
 30
0.0
 11
149.6815
 21
86.45095
 31
0.0
  0
LINE
  5
1B5E
330
1D
100
AcDbEntity
  8
0
100
AcDbLine
 10
145.9589
 20
81.97805
 30
0.0
 11
150.1925
 21
86.41045
 31
0.0
  0
LINE
  5
1B5F
330
1D
100
AcDbEntity
  8
0
100
AcDbLine
 10
142.3093
 20
77.08275
 30
0.0
 11
145.9589
 21
81.97805
 31
0.0
  0
LINE
  5
1B60
330
1D
100
AcDbEntity
  8
0
100
AcDbLine
 10
139.6085
 20
71.92275
 30
0.0
 11
142.3093
 21
77.08275
 31
0.0
  0
LINE
  5
1B61
330
1D
100
AcDbEntity
  8
0
100
AcDbLine
 10
137.4918
 20
66.10115
 30
0.0
 11
139.6085
 21
71.92275
 31
0.0
  0
LINE
  5
1B62
330
1D
100
AcDbEntity
  8
0
100
AcDbLine
 10
136.2509
 20
60.61045
 30
0.0
 11
137.4918
 21
66.10115
 31
0.0
  0
LINE
  5
1B63
330
1D
100
AcDbEntity
  8
0
100
AcDbLine
 10
135.7399
 20
54.85515
 30
0.0
 11
136.2509
 21
60.61045
 31
0.0
  0
LINE
  5
1B64
330
1D
100
AcDbEntity
  8
0
100
AcDbLine
 10
149.6815
 20
86.45095
 30
0.0
 11
154.645
 21
90.35385
 31
0.0
  0
LINE
  5
1B65
330
1D
100
AcDbEntity
  8
0
100
AcDbLine
 10
154.645
 20
90.35385
 30
0.0
 11
160.1195
 21
93.66165
 31
0.0
  0
LINE
  5
1B66
330
1D
100
AcDbEntity
  8
0
100
AcDbLine
 10
150.1925
 20
86.41045
 30
0.0
 11
155.083
 21
90.24725
 31
0.0
  0
LINE
  5
1B67
330
1D
100
AcDbEntity
  8
0
100
AcDbLine
 10
155.083
 20
90.24725
 30
0.0
 11
160.4845
 21
93.55505
 31
0.0
  0
LINE
  5
1B68
330
1D
100
AcDbEntity
  8
0
100
AcDbLine
 10
165.8859
 20
96.24165
 30
0.0
 11
172.0903
 21
98.09395
 31
0.0
  0
LINE
  5
1B69
330
1D
100
AcDbEntity
  8
0
100
AcDbLine
 10
166.1779
 20
96.00275
 30
0.0
 11
172.6012
 21
97.92125
 31
0.0
  0
LINE
  5
1B6A
330
1D
100
AcDbEntity
  8
0
100
AcDbLine
 10
172.0903
 20
98.09395
 30
0.0
 11
178.5866
 21
99.28475
 31
0.0
  0
LINE
  5
1B6B
330
1D
100
AcDbEntity
  8
0
100
AcDbLine
 10
178.5866
 20
99.28475
 30
0.0
 11
185.01
 21
99.74785
 31
0.0
  0
LINE
  5
1B6C
330
1D
100
AcDbEntity
  8
0
100
AcDbLine
 10
172.6012
 20
97.92125
 30
0.0
 11
178.6596
 21
99.04575
 31
0.0
  0
LINE
  5
1B6D
330
1D
100
AcDbEntity
  8
0
100
AcDbLine
 10
178.6596
 20
99.04575
 30
0.0
 11
185.01
 21
99.50885
 31
0.0
  0
LINE
  5
1B6E
330
1D
100
AcDbEntity
  8
0
100
AcDbLine
 10
235.01
 20
45.55755
 30
0.0
 11
235.01
 21
54.43255
 31
0.0
  0
LINE
  5
1B6F
330
1D
100
AcDbEntity
  8
0
100
AcDbLine
 10
235.01
 20
54.43255
 30
0.0
 11
235.01
 21
45.55755
 31
0.0
  0
LINE
  5
1B70
330
1D
100
AcDbEntity
  8
0
100
AcDbLine
 10
234.4991
 20
48.61075
 30
0.0
 11
235.01
 21
54.43255
 31
0.0
  0
LINE
  5
1B71
330
1D
100
AcDbEntity
  8
0
100
AcDbLine
 10
233.7691
 20
49.09935
 30
0.0
 11
234.2801
 21
54.85515
 31
0.0
  0
LINE
  5
1B72
330
1D
100
AcDbEntity
  8
0
100
AcDbLine
 10
209.9005
 20
6.32793
 30
0.0
 11
215.375
 21
9.63597
 31
0.0
  0
LINE
  5
1B73
330
1D
100
AcDbEntity
  8
0
100
AcDbLine
 10
209.9005
 20
15.202877
 30
0.0
 11
215.375
 21
18.51091
 31
0.0
  0
LINE
  5
1B74
330
1D
100
AcDbEntity
  8
0
100
AcDbLine
 10
209.5355
 20
16.15502
 30
0.0
 11
214.937
 21
19.46305
 31
0.0
  0
LINE
  5
1B75
330
1D
100
AcDbEntity
  8
0
100
AcDbLine
 10
191.4334
 20
0.70505
 30
0.0
 11
197.9297
 21
1.89595
 31
0.0
  0
LINE
  5
1B76
330
1D
100
AcDbEntity
  8
0
100
AcDbLine
 10
191.4334
 20
9.57997
 30
0.0
 11
197.9297
 21
10.7709
 31
0.0
  0
LINE
  5
1B77
330
1D
100
AcDbEntity
  8
0
100
AcDbLine
 10
191.3604
 20
10.66399
 30
0.0
 11
197.4188
 21
11.78903
 31
0.0
  0
LINE
  5
1B78
330
1D
100
AcDbEntity
  8
0
100
AcDbLine
 10
197.9297
 20
1.89595
 30
0.0
 11
204.1341
 21
3.74825
 31
0.0
  0
LINE
  5
1B79
330
1D
100
AcDbEntity
  8
0
100
AcDbLine
 10
197.9297
 20
10.7709
 30
0.0
 11
204.1341
 21
12.62324
 31
0.0
  0
LINE
  5
1B7A
330
1D
100
AcDbEntity
  8
0
100
AcDbLine
 10
197.4188
 20
11.78903
 30
0.0
 11
203.8421
 21
13.70726
 31
0.0
  0
LINE
  5
1B7B
330
1D
100
AcDbEntity
  8
0
100
AcDbLine
 10
204.1341
 20
3.74825
 30
0.0
 11
209.9005
 21
6.32793
 31
0.0
  0
LINE
  5
1B7C
330
1D
100
AcDbEntity
  8
0
100
AcDbLine
 10
204.1341
 20
12.62324
 30
0.0
 11
209.9005
 21
15.202877
 31
0.0
  0
LINE
  5
1B7D
330
1D
100
AcDbEntity
  8
0
100
AcDbLine
 10
203.8421
 20
13.70726
 30
0.0
 11
209.5355
 21
16.15502
 31
0.0
  0
LINE
  5
1B7E
330
1D
100
AcDbEntity
  8
0
100
AcDbLine
 10
220.3385
 20
13.53942
 30
0.0
 11
224.645
 21
18.03738
 31
0.0
  0
LINE
  5
1B7F
330
1D
100
AcDbEntity
  8
0
100
AcDbLine
 10
215.375
 20
9.63597
 30
0.0
 11
220.3385
 21
13.53942
 31
0.0
  0
LINE
  5
1B80
330
1D
100
AcDbEntity
  8
0
100
AcDbLine
 10
224.645
 20
18.03738
 30
0.0
 11
228.2947
 21
22.99889
 31
0.0
  0
LINE
  5
1B81
330
1D
100
AcDbEntity
  8
0
100
AcDbLine
 10
215.375
 20
18.51091
 30
0.0
 11
220.3385
 21
22.41445
 31
0.0
  0
LINE
  5
1B82
330
1D
100
AcDbEntity
  8
0
100
AcDbLine
 10
214.937
 20
19.46305
 30
0.0
 11
219.8275
 21
23.29961
 31
0.0
  0
LINE
  5
1B83
330
1D
100
AcDbEntity
  8
0
100
AcDbLine
 10
220.3385
 20
22.41445
 30
0.0
 11
224.645
 21
26.91235
 31
0.0
  0
LINE
  5
1B84
330
1D
100
AcDbEntity
  8
0
100
AcDbLine
 10
228.2947
 20
22.99889
 30
0.0
 11
231.1414
 21
28.22515
 31
0.0
  0
LINE
  5
1B85
330
1D
100
AcDbEntity
  8
0
100
AcDbLine
 10
219.8275
 20
23.29961
 30
0.0
 11
224.0611
 21
27.73155
 31
0.0
  0
LINE
  5
1B86
330
1D
100
AcDbEntity
  8
0
100
AcDbLine
 10
231.1414
 20
28.22515
 30
0.0
 11
233.1852
 21
33.84815
 31
0.0
  0
LINE
  5
1B87
330
1D
100
AcDbEntity
  8
0
100
AcDbLine
 10
224.645
 20
26.91235
 30
0.0
 11
228.2947
 21
31.87395
 31
0.0
  0
LINE
  5
1B88
330
1D
100
AcDbEntity
  8
0
100
AcDbLine
 10
224.0611
 20
27.73155
 30
0.0
 11
227.7107
 21
32.62715
 31
0.0
  0
LINE
  5
1B89
330
1D
100
AcDbEntity
  8
0
100
AcDbLine
 10
233.1852
 20
33.84815
 30
0.0
 11
234.4991
 21
39.73585
 31
0.0
  0
LINE
  5
1B8A
330
1D
100
AcDbEntity
  8
0
100
AcDbLine
 10
228.2947
 20
31.87395
 30
0.0
 11
231.1414
 21
37.10015
 31
0.0
  0
LINE
  5
1B8B
330
1D
100
AcDbEntity
  8
0
100
AcDbLine
 10
231.1414
 20
37.10015
 30
0.0
 11
233.1852
 21
42.72305
 31
0.0
  0
LINE
  5
1B8C
330
1D
100
AcDbEntity
  8
0
100
AcDbLine
 10
227.7107
 20
32.62715
 30
0.0
 11
230.4115
 21
37.78755
 31
0.0
  0
LINE
  5
1B8D
330
1D
100
AcDbEntity
  8
0
100
AcDbLine
 10
230.4115
 20
37.78755
 30
0.0
 11
232.5282
 21
43.60925
 31
0.0
  0
LINE
  5
1B8E
330
1D
100
AcDbEntity
  8
0
100
AcDbLine
 10
234.4991
 20
39.73585
 30
0.0
 11
235.01
 21
45.55755
 31
0.0
  0
LINE
  5
1B8F
330
1D
100
AcDbEntity
  8
0
100
AcDbLine
 10
233.1852
 20
42.72305
 30
0.0
 11
234.4991
 21
48.61075
 31
0.0
  0
LINE
  5
1B90
330
1D
100
AcDbEntity
  8
0
100
AcDbLine
 10
232.5282
 20
43.60925
 30
0.0
 11
233.7691
 21
49.09935
 31
0.0
  0
LINE
  5
1B91
330
1D
100
AcDbEntity
  8
0
100
AcDbLine
 10
209.5355
 20
93.55505
 30
0.0
 11
214.937
 21
90.24725
 31
0.0
  0
LINE
  5
1B92
330
1D
100
AcDbEntity
  8
0
100
AcDbLine
 10
209.9005
 20
93.66165
 30
0.0
 11
215.375
 21
90.35385
 31
0.0
  0
LINE
  5
1B93
330
1D
100
AcDbEntity
  8
0
100
AcDbLine
 10
191.4334
 20
99.28475
 30
0.0
 11
197.9297
 21
98.09395
 31
0.0
  0
LINE
  5
1B94
330
1D
100
AcDbEntity
  8
0
100
AcDbLine
 10
191.3604
 20
99.04575
 30
0.0
 11
197.4188
 21
97.92125
 31
0.0
  0
LINE
  5
1B95
330
1D
100
AcDbEntity
  8
0
100
AcDbLine
 10
197.4188
 20
97.92125
 30
0.0
 11
203.8421
 21
96.00275
 31
0.0
  0
LINE
  5
1B96
330
1D
100
AcDbEntity
  8
0
100
AcDbLine
 10
197.9297
 20
98.09395
 30
0.0
 11
204.1341
 21
96.24165
 31
0.0
  0
LINE
  5
1B97
330
1D
100
AcDbEntity
  8
0
100
AcDbLine
 10
204.1341
 20
96.24165
 30
0.0
 11
209.9005
 21
93.66165
 31
0.0
  0
LINE
  5
1B98
330
1D
100
AcDbEntity
  8
0
100
AcDbLine
 10
203.8421
 20
96.00275
 30
0.0
 11
209.5355
 21
93.55505
 31
0.0
  0
LINE
  5
1B99
330
1D
100
AcDbEntity
  8
0
100
AcDbLine
 10
233.1852
 20
66.14165
 30
0.0
 11
234.4991
 21
60.25405
 31
0.0
  0
LINE
  5
1B9A
330
1D
100
AcDbEntity
  8
0
100
AcDbLine
 10
232.5282
 20
66.10115
 30
0.0
 11
233.7691
 21
60.61045
 31
0.0
  0
LINE
  5
1B9B
330
1D
100
AcDbEntity
  8
0
100
AcDbLine
 10
233.7691
 20
60.61045
 30
0.0
 11
234.2801
 21
54.85515
 31
0.0
  0
LINE
  5
1B9C
330
1D
100
AcDbEntity
  8
0
100
AcDbLine
 10
234.4991
 20
60.25405
 30
0.0
 11
235.01
 21
54.43255
 31
0.0
  0
LINE
  5
1B9D
330
1D
100
AcDbEntity
  8
0
100
AcDbLine
 10
228.2947
 20
76.99085
 30
0.0
 11
231.1414
 21
71.76485
 31
0.0
  0
LINE
  5
1B9E
330
1D
100
AcDbEntity
  8
0
100
AcDbLine
 10
215.375
 20
90.35385
 30
0.0
 11
220.3385
 21
86.45095
 31
0.0
  0
LINE
  5
1B9F
330
1D
100
AcDbEntity
  8
0
100
AcDbLine
 10
214.937
 20
90.24725
 30
0.0
 11
219.8275
 21
86.41045
 31
0.0
  0
LINE
  5
1BA0
330
1D
100
AcDbEntity
  8
0
100
AcDbLine
 10
220.3385
 20
86.45095
 30
0.0
 11
224.645
 21
81.95245
 31
0.0
  0
LINE
  5
1BA1
330
1D
100
AcDbEntity
  8
0
100
AcDbLine
 10
219.8275
 20
86.41045
 30
0.0
 11
224.0611
 21
81.97805
 31
0.0
  0
LINE
  5
1BA2
330
1D
100
AcDbEntity
  8
0
100
AcDbLine
 10
224.645
 20
81.95245
 30
0.0
 11
228.2947
 21
76.99085
 31
0.0
  0
LINE
  5
1BA3
330
1D
100
AcDbEntity
  8
0
100
AcDbLine
 10
224.0611
 20
81.97805
 30
0.0
 11
227.7107
 21
77.08275
 31
0.0
  0
LINE
  5
1BA4
330
1D
100
AcDbEntity
  8
0
100
AcDbLine
 10
227.7107
 20
77.08275
 30
0.0
 11
230.4115
 21
71.92275
 31
0.0
  0
LINE
  5
1BA5
330
1D
100
AcDbEntity
  8
0
100
AcDbLine
 10
231.1414
 20
71.76485
 30
0.0
 11
233.1852
 21
66.14165
 31
0.0
  0
LINE
  5
1BA6
330
1D
100
AcDbEntity
  8
0
100
AcDbLine
 10
230.4115
 20
71.92275
 30
0.0
 11
232.5282
 21
66.10115
 31
0.0
  0
LINE
  5
1BA7
330
1D
100
AcDbEntity
  8
0
100
AcDbLine
 10
185.01
 20
113.82995
 30
0.0
 11
188.082
 21
113.63265
 31
0.0
  0
LINE
  5
1BA8
330
1D
100
AcDbEntity
  8
0
100
AcDbLine
 10
185.01
 20
112.33155
 30
0.0
 11
187.218
 21
112.17365
 31
0.0
  0
LINE
  5
1BA9
330
1D
100
AcDbEntity
  8
0
100
AcDbLine
 10
190.5621
 20
182.99865
 30
0.0
 11
186.7367
 21
183.69265
 31
0.0
  0
LINE
  5
1BAA
330
1D
100
AcDbEntity
  8
0
100
AcDbLine
 10
185.460918119073
 20
178.029403706968
 30
0.0
 11
187.385740489616
 21
177.64443923286
 31
0.0
  0
LINE
  5
1BAB
330
1D
100
AcDbEntity
  8
0
100
AcDbLine
 10
185.049749273005
 20
196.298060903033
 30
0.0
 11
187.519
 21
196.10465
 31
0.0
  0
LINE
  5
1BAC
330
1D
100
AcDbEntity
  8
0
100
AcDbLine
 10
173.01
 20
108.38775
 30
0.0
 11
173.01
 21
168.86865
 31
0.0
  0
LINE
  5
1BAD
330
1D
100
AcDbEntity
  8
0
100
AcDbLine
 10
173.01
 20
168.86865
 30
0.0
 11
173.01
 21
108.38775
 31
0.0
  0
LINE
  5
1BAE
330
1D
100
AcDbEntity
  8
0
100
AcDbLine
 10
173.394
 20
107.00775
 30
0.0
 11
174.642
 21
105.70565
 31
0.0
  0
LINE
  5
1BAF
330
1D
100
AcDbEntity
  8
0
100
AcDbLine
 10
173.01
 20
108.38775
 30
0.0
 11
173.394
 21
109.80725
 31
0.0
  0
LINE
  5
1BB0
330
1D
100
AcDbEntity
  8
0
100
AcDbLine
 10
173.01
 20
108.38775
 30
0.0
 11
173.394
 21
107.00775
 31
0.0
  0
LINE
  5
1BB1
330
1D
100
AcDbEntity
  8
0
100
AcDbLine
 10
174.642
 20
105.70565
 30
0.0
 11
176.37
 21
104.67641
 31
0.0
  0
LINE
  5
1BB2
330
1D
100
AcDbEntity
  8
0
100
AcDbLine
 10
173.394
 20
109.80725
 30
0.0
 11
174.642
 21
111.10935
 31
0.0
  0
LINE
  5
1BB3
330
1D
100
AcDbEntity
  8
0
100
AcDbLine
 10
174.642
 20
111.10935
 30
0.0
 11
176.562
 21
112.25265
 31
0.0
  0
LINE
  5
1BB4
330
1D
100
AcDbEntity
  8
0
100
AcDbLine
 10
176.562
 20
112.25265
 30
0.0
 11
179.058
 21
113.12075
 31
0.0
  0
LINE
  5
1BB5
330
1D
100
AcDbEntity
  8
0
100
AcDbLine
 10
179.058
 20
113.12075
 30
0.0
 11
181.938
 21
113.63265
 31
0.0
  0
LINE
  5
1BB6
330
1D
100
AcDbEntity
  8
0
100
AcDbLine
 10
181.938
 20
113.63265
 30
0.0
 11
185.01
 21
113.82995
 31
0.0
  0
LINE
  5
1BB7
330
1D
100
AcDbEntity
  8
0
100
AcDbLine
 10
182.802
 20
112.17365
 30
0.0
 11
185.01
 21
112.33155
 31
0.0
  0
LINE
  5
1BB8
330
1D
100
AcDbEntity
  8
0
100
AcDbLine
 10
180.69
 20
111.77915
 30
0.0
 11
182.802
 21
112.17365
 31
0.0
  0
LINE
  5
1BB9
330
1D
100
AcDbEntity
  8
0
100
AcDbLine
 10
178.866
 20
111.14875
 30
0.0
 11
180.69
 21
111.77915
 31
0.0
  0
LINE
  5
1BBA
330
1D
100
AcDbEntity
  8
0
100
AcDbLine
 10
177.522
 20
110.35965
 30
0.0
 11
178.866
 21
111.14875
 31
0.0
  0
LINE
  5
1BBB
330
1D
100
AcDbEntity
  8
0
100
AcDbLine
 10
176.658
 20
109.41265
 30
0.0
 11
177.522
 21
110.35965
 31
0.0
  0
LINE
  5
1BBC
330
1D
100
AcDbEntity
  8
0
100
AcDbLine
 10
176.37
 20
108.38775
 30
0.0
 11
176.658
 21
109.41265
 31
0.0
  0
LINE
  5
1BBD
330
1D
100
AcDbEntity
  8
0
100
AcDbLine
 10
160.2239
 20
190.10265
 30
0.0
 11
161.594428227686
 21
188.827217816293
 31
0.0
  0
LINE
  5
1BBE
330
1D
100
AcDbEntity
  8
0
100
AcDbLine
 10
159.4892
 20
194.31665
 30
0.0
 11
161.6248
 21
191.91665
 31
0.0
  0
LINE
  5
1BBF
330
1D
100
AcDbEntity
  8
0
100
AcDbLine
 10
159.7092
 20
202.12065
 30
0.0
 11
161.4285
 21
199.16665
 31
0.0
  0
LINE
  5
1BC0
330
1D
100
AcDbEntity
  8
0
100
AcDbLine
 10
159.4895
 20
194.31665
 30
0.0
 11
161.6256
 21
191.91665
 31
0.0
  0
LINE
  5
1BC1
330
1D
100
AcDbEntity
  8
0
100
AcDbLine
 10
157.5996
 20
196.91365
 30
0.0
 11
159.4892
 21
194.31665
 31
0.0
  0
LINE
  5
1BC2
330
1D
100
AcDbEntity
  8
0
100
AcDbLine
 10
157.5997
 20
196.91365
 30
0.0
 11
159.4895
 21
194.31665
 31
0.0
  0
LINE
  5
1BC3
330
1D
100
AcDbEntity
  8
0
100
AcDbLine
 10
155.9869
 20
195.19965
 30
0.0
 11
157.9538
 21
192.54465
 31
0.0
  0
LINE
  5
1BC4
330
1D
100
AcDbEntity
  8
0
100
AcDbLine
 10
157.9538
 20
192.54465
 30
0.0
 11
160.2239
 21
190.10265
 31
0.0
  0
LINE
  5
1BC5
330
1D
100
AcDbEntity
  8
0
100
AcDbLine
 10
154.3064
 20
198.10865
 30
0.0
 11
155.9869
 21
195.19965
 31
0.0
  0
LINE
  5
1BC6
330
1D
100
AcDbEntity
  8
0
100
AcDbLine
 10
153.5714
 20
205.63565
 30
0.0
 11
154.6259
 21
202.60065
 31
0.0
  0
LINE
  5
1BC7
330
1D
100
AcDbEntity
  8
0
100
AcDbLine
 10
153.5714
 20
205.63665
 30
0.0
 11
154.6265
 21
202.60065
 31
0.0
  0
LINE
  5
1BC8
330
1D
100
AcDbEntity
  8
0
100
AcDbLine
 10
151.6715
 20
204.21165
 30
0.0
 11
152.8535
 21
201.10065
 31
0.0
  0
LINE
  5
1BC9
330
1D
100
AcDbEntity
  8
0
100
AcDbLine
 10
152.8535
 20
201.10065
 30
0.0
 11
154.3064
 21
198.10865
 31
0.0
  0
LINE
  5
1BCA
330
1D
100
AcDbEntity
  8
0
100
AcDbLine
 10
150.8314
 20
207.42865
 30
0.0
 11
151.6715
 21
204.21165
 31
0.0
  0
LINE
  5
1BCB
330
1D
100
AcDbEntity
  8
0
100
AcDbLine
 10
154.6259
 20
202.60065
 30
0.0
 11
155.9731
 21
199.68365
 31
0.0
  0
LINE
  5
1BCC
330
1D
100
AcDbEntity
  8
0
100
AcDbLine
 10
154.6265
 20
202.60065
 30
0.0
 11
155.9732
 21
199.68465
 31
0.0
  0
LINE
  5
1BCD
330
1D
100
AcDbEntity
  8
0
100
AcDbLine
 10
155.9731
 20
199.68365
 30
0.0
 11
157.5996
 21
196.91365
 31
0.0
  0
LINE
  5
1BCE
330
1D
100
AcDbEntity
  8
0
100
AcDbLine
 10
155.9732
 20
199.68465
 30
0.0
 11
157.5997
 21
196.91365
 31
0.0
  0
LINE
  5
1BCF
330
1D
100
AcDbEntity
  8
0
100
AcDbLine
 10
158.3594
 20
205.25965
 30
0.0
 11
159.7092
 21
202.12065
 31
0.0
  0
LINE
  5
1BD0
330
1D
100
AcDbEntity
  8
0
100
AcDbLine
 10
168.9916
 20
182.76965
 30
0.0
 11
169.019399839211
 21
172.169596505211
 31
0.0
  0
LINE
  5
1BD1
330
1D
100
AcDbEntity
  8
0
100
AcDbLine
 10
175.6244
 20
181.44565
 30
0.0
 11
179.4379
 21
182.99865
 31
0.0
  0
LINE
  5
1BD2
330
1D
100
AcDbEntity
  8
0
100
AcDbLine
 10
173.394
 20
171.26265
 30
0.0
 11
174.642
 21
173.48865
 31
0.0
  0
LINE
  5
1BD3
330
1D
100
AcDbEntity
  8
0
100
AcDbLine
 10
172.7391
 20
179.40865
 30
0.0
 11
175.6244
 21
181.44565
 31
0.0
  0
LINE
  5
1BD4
330
1D
100
AcDbEntity
  8
0
100
AcDbLine
 10
169.1603
 20
169.55265
 30
0.0
 11
169.6132
 21
167.90365
 31
0.0
  0
LINE
  5
1BD5
330
1D
100
AcDbEntity
  8
0
100
AcDbLine
 10
169.6132
 20
167.90365
 30
0.0
 11
171.0754
 21
165.04865
 31
0.0
  0
LINE
  5
1BD6
330
1D
100
AcDbEntity
  8
0
100
AcDbLine
 10
169.93344528996
 20
167.278359134978
 30
0.0
 11
169.9495
 21
167.22765
 31
0.0
  0
LINE
  5
1BD7
330
1D
100
AcDbEntity
  8
0
100
AcDbLine
 10
171.184284297427
 20
164.999764145921
 30
0.0
 11
172.6588
 21
163.27465
 31
0.0
  0
LINE
  5
1BD8
330
1D
100
AcDbEntity
  8
0
100
AcDbLine
 10
169.9495
 20
167.22765
 30
0.0
 11
170.013972258199
 21
167.121127228041
 31
0.0
  0
LINE
  5
1BD9
330
1D
100
AcDbEntity
  8
0
100
AcDbLine
 10
172.6588
 20
163.27465
 30
0.0
 11
173.01
 21
162.999791569351
 31
0.0
  0
LINE
  5
1BDA
330
1D
100
AcDbEntity
  8
0
100
AcDbLine
 10
168.9774
 20
171.95465
 30
0.0
 11
169.4995
 21
174.62665
 31
0.0
  0
LINE
  5
1BDB
330
1D
100
AcDbEntity
  8
0
100
AcDbLine
 10
168.9774
 20
171.95465
 30
0.0
 11
169.1603
 21
169.55265
 31
0.0
  0
LINE
  5
1BDC
330
1D
100
AcDbEntity
  8
0
100
AcDbLine
 10
169.4995
 20
174.62665
 30
0.0
 11
170.8047
 21
177.14265
 31
0.0
  0
LINE
  5
1BDD
330
1D
100
AcDbEntity
  8
0
100
AcDbLine
 10
170.8047
 20
177.14265
 30
0.0
 11
172.7391
 21
179.40865
 31
0.0
  0
LINE
  5
1BDE
330
1D
100
AcDbEntity
  8
0
100
AcDbLine
 10
173.01
 20
168.86865
 30
0.0
 11
173.394
 21
171.26265
 31
0.0
  0
LINE
  5
1BDF
330
1D
100
AcDbEntity
  8
0
100
AcDbLine
 10
174.642
 20
173.48865
 30
0.0
 11
176.562
 21
175.41865
 31
0.0
  0
LINE
  5
1BE0
330
1D
100
AcDbEntity
  8
0
100
AcDbLine
 10
176.562
 20
175.41865
 30
0.0
 11
179.058
 21
176.84265
 31
0.0
  0
LINE
  5
1BE1
330
1D
100
AcDbEntity
  8
0
100
AcDbLine
 10
179.058
 20
176.84265
 30
0.0
 11
181.938
 21
177.72265
 31
0.0
  0
LINE
  5
1BE2
330
1D
100
AcDbEntity
  8
0
100
AcDbLine
 10
181.938
 20
177.72265
 30
0.0
 11
183.921060222639
 21
178.029403706968
 31
0.0
  0
LINE
  5
1BE3
330
1D
100
AcDbEntity
  8
0
100
AcDbLine
 10
183.921060222639
 20
178.029403706968
 30
0.0
 11
185.460918119073
 21
178.029403706968
 31
0.0
  0
LINE
  5
1BE4
330
1D
100
AcDbEntity
  8
0
100
AcDbLine
 10
173.6698
 20
192.66565
 30
0.0
 11
175.579
 21
193.91465
 31
0.0
  0
LINE
  5
1BE5
330
1D
100
AcDbEntity
  8
0
100
AcDbLine
 10
163.4906
 20
196.44165
 30
0.0
 11
165.8671
 21
193.98565
 31
0.0
  0
LINE
  5
1BE6
330
1D
100
AcDbEntity
  8
0
100
AcDbLine
 10
165.3835
 20
185.85365
 30
0.0
 11
168.2311
 21
184.18365
 31
0.0
  0
LINE
  5
1BE7
330
1D
100
AcDbEntity
  8
0
100
AcDbLine
 10
166.5488
 20
187.80065
 30
0.0
 11
168.9837
 21
186.310493332603
 31
0.0
  0
LINE
  5
1BE8
330
1D
100
AcDbEntity
  8
0
100
AcDbLine
 10
165.8671
 20
193.98565
 30
0.0
 11
168.5216
 21
191.83365
 31
0.0
  0
LINE
  5
1BE9
330
1D
100
AcDbEntity
  8
0
100
AcDbLine
 10
166.5487
 20
187.80065
 30
0.0
 11
168.9837
 21
186.310432132691
 31
0.0
  0
LINE
  5
1BEA
330
1D
100
AcDbEntity
  8
0
100
AcDbLine
 10
162.6653
 20
187.83065
 30
0.0
 11
165.3835
 21
185.85365
 31
0.0
  0
LINE
  5
1BEB
330
1D
100
AcDbEntity
  8
0
100
AcDbLine
 10
163.9859
 20
189.73665
 30
0.0
 11
166.5487
 21
187.80065
 31
0.0
  0
LINE
  5
1BEC
330
1D
100
AcDbEntity
  8
0
100
AcDbLine
 10
163.9859
 20
189.73665
 30
0.0
 11
166.5488
 21
187.80065
 31
0.0
  0
LINE
  5
1BED
330
1D
100
AcDbEntity
  8
0
100
AcDbLine
 10
161.594428227686
 20
188.827217816293
 30
0.0
 11
162.6653
 21
187.83065
 31
0.0
  0
LINE
  5
1BEE
330
1D
100
AcDbEntity
  8
0
100
AcDbLine
 10
161.6248
 20
191.91665
 30
0.0
 11
163.9859
 21
189.73665
 31
0.0
  0
LINE
  5
1BEF
330
1D
100
AcDbEntity
  8
0
100
AcDbLine
 10
161.6256
 20
191.91665
 30
0.0
 11
163.9859
 21
189.73665
 31
0.0
  0
LINE
  5
1BF0
330
1D
100
AcDbEntity
  8
0
100
AcDbLine
 10
169.7669
 20
187.78565
 30
0.0
 11
170.7274
 21
189.56265
 31
0.0
  0
LINE
  5
1BF1
330
1D
100
AcDbEntity
  8
0
100
AcDbLine
 10
169.060472021244
 20
184.74647502401
 30
0.0
 11
169.1805
 21
185.91565
 31
0.0
  0
LINE
  5
1BF2
330
1D
100
AcDbEntity
  8
0
100
AcDbLine
 10
168.9747
 20
182.77165
 30
0.0
 11
169.0243
 21
184.57965
 31
0.0
  0
LINE
  5
1BF3
330
1D
100
AcDbEntity
  8
0
100
AcDbLine
 10
168.9747
 20
182.77165
 30
0.0
 11
168.99420885824
 21
182.663756902157
 31
0.0
  0
LINE
  5
1BF4
330
1D
100
AcDbEntity
  8
0
100
AcDbLine
 10
168.9837
 20
183.99865
 30
0.0
 11
169.003160651288
 21
183.809086643708
 31
0.0
  0
LINE
  5
1BF5
330
1D
100
AcDbEntity
  8
0
100
AcDbLine
 10
168.2286
 20
184.18565
 30
0.0
 11
169.003126753605
 21
183.807851018518
 31
0.0
  0
LINE
  5
1BF6
330
1D
100
AcDbEntity
  8
0
100
AcDbLine
 10
169.1805
 20
185.91565
 30
0.0
 11
169.7669
 21
187.78565
 31
0.0
  0
LINE
  5
1BF7
330
1D
100
AcDbEntity
  8
0
100
AcDbLine
 10
168.5216
 20
191.83365
 30
0.0
 11
168.9837
 21
191.543580318524
 31
0.0
  0
LINE
  5
1BF8
330
1D
100
AcDbEntity
  8
0
100
AcDbLine
 10
170.7274
 20
189.56265
 30
0.0
 11
172.0394
 21
191.20265
 31
0.0
  0
LINE
  5
1BF9
330
1D
100
AcDbEntity
  8
0
100
AcDbLine
 10
172.0394
 20
191.20265
 30
0.0
 11
173.6698
 21
192.66565
 31
0.0
  0
LINE
  5
1BFA
330
1D
100
AcDbEntity
  8
0
100
AcDbLine
 10
161.4285
 20
199.16665
 30
0.0
 11
163.4906
 21
196.44165
 31
0.0
  0
LINE
  5
1BFB
330
1D
100
AcDbEntity
  8
0
100
AcDbLine
 10
175.579
 20
193.91465
 30
0.0
 11
177.7197
 21
194.91965
 31
0.0
  0
LINE
  5
1BFC
330
1D
100
AcDbEntity
  8
0
100
AcDbLine
 10
179.4379
 20
182.99865
 30
0.0
 11
183.2633
 21
183.69265
 31
0.0
  0
LINE
  5
1BFD
330
1D
100
AcDbEntity
  8
0
100
AcDbLine
 10
183.2633
 20
183.69265
 30
0.0
 11
184.971635072432
 21
183.856186900671
 31
0.0
  0
LINE
  5
1BFE
330
1D
100
AcDbEntity
  8
0
100
AcDbLine
 10
184.971635072432
 20
183.856186900671
 30
0.0
 11
186.7367
 21
183.69265
 31
0.0
  0
LINE
  5
1BFF
330
1D
100
AcDbEntity
  8
0
100
AcDbLine
 10
177.7197
 20
194.91965
 30
0.0
 11
180.0395
 21
195.65565
 31
0.0
  0
LINE
  5
1C00
330
1D
100
AcDbEntity
  8
0
100
AcDbLine
 10
180.0395
 20
195.65565
 30
0.0
 11
182.481
 21
196.10465
 31
0.0
  0
LINE
  5
1C01
330
1D
100
AcDbEntity
  8
0
100
AcDbLine
 10
182.481
 20
196.10465
 30
0.0
 11
185.049749273005
 21
196.298060903033
 31
0.0
  0
LINE
  5
1C02
330
1D
100
AcDbEntity
  8
0
100
AcDbLine
 10
197.01
 20
108.38775
 30
0.0
 11
197.01
 21
168.86865
 31
0.0
  0
LINE
  5
1C03
330
1D
100
AcDbEntity
  8
0
100
AcDbLine
 10
197.01
 20
168.86865
 30
0.0
 11
197.01
 21
108.38775
 31
0.0
  0
LINE
  5
1C04
330
1D
100
AcDbEntity
  8
0
100
AcDbLine
 10
191.154
 20
111.14875
 30
0.0
 11
192.498
 21
110.35965
 31
0.0
  0
LINE
  5
1C05
330
1D
100
AcDbEntity
  8
0
100
AcDbLine
 10
189.33
 20
111.77915
 30
0.0
 11
191.154
 21
111.14875
 31
0.0
  0
LINE
  5
1C06
330
1D
100
AcDbEntity
  8
0
100
AcDbLine
 10
190.962
 20
113.12075
 30
0.0
 11
193.458
 21
112.25265
 31
0.0
  0
LINE
  5
1C07
330
1D
100
AcDbEntity
  8
0
100
AcDbLine
 10
188.082
 20
113.63265
 30
0.0
 11
190.962
 21
113.12075
 31
0.0
  0
LINE
  5
1C08
330
1D
100
AcDbEntity
  8
0
100
AcDbLine
 10
187.218
 20
112.17365
 30
0.0
 11
189.33
 21
111.77915
 31
0.0
  0
LINE
  5
1C09
330
1D
100
AcDbEntity
  8
0
100
AcDbLine
 10
193.65
 20
104.67641
 30
0.0
 11
195.378
 21
105.70565
 31
0.0
  0
LINE
  5
1C0A
330
1D
100
AcDbEntity
  8
0
100
AcDbLine
 10
193.458
 20
112.25265
 30
0.0
 11
195.378
 21
111.10935
 31
0.0
  0
LINE
  5
1C0B
330
1D
100
AcDbEntity
  8
0
100
AcDbLine
 10
193.362
 20
109.41265
 30
0.0
 11
193.65
 21
108.38775
 31
0.0
  0
LINE
  5
1C0C
330
1D
100
AcDbEntity
  8
0
100
AcDbLine
 10
192.498
 20
110.35965
 30
0.0
 11
193.362
 21
109.41265
 31
0.0
  0
LINE
  5
1C0D
330
1D
100
AcDbEntity
  8
0
100
AcDbLine
 10
195.378
 20
105.70565
 30
0.0
 11
196.626
 21
107.00775
 31
0.0
  0
LINE
  5
1C0E
330
1D
100
AcDbEntity
  8
0
100
AcDbLine
 10
196.626
 20
107.00775
 30
0.0
 11
197.01
 21
108.38775
 31
0.0
  0
LINE
  5
1C0F
330
1D
100
AcDbEntity
  8
0
100
AcDbLine
 10
196.626
 20
109.80725
 30
0.0
 11
197.01
 21
108.38775
 31
0.0
  0
LINE
  5
1C10
330
1D
100
AcDbEntity
  8
0
100
AcDbLine
 10
195.378
 20
111.10935
 30
0.0
 11
196.626
 21
109.80725
 31
0.0
  0
LINE
  5
1C11
330
1D
100
AcDbEntity
  8
0
100
AcDbLine
 10
214.0268
 20
199.68465
 30
0.0
 11
212.4003
 21
196.91365
 31
0.0
  0
LINE
  5
1C12
330
1D
100
AcDbEntity
  8
0
100
AcDbLine
 10
214.0269
 20
199.68365
 30
0.0
 11
212.4004
 21
196.91365
 31
0.0
  0
LINE
  5
1C13
330
1D
100
AcDbEntity
  8
0
100
AcDbLine
 10
214.0131
 20
195.19965
 30
0.0
 11
212.0462
 21
192.54465
 31
0.0
  0
LINE
  5
1C14
330
1D
100
AcDbEntity
  8
0
100
AcDbLine
 10
194.3756
 20
181.44565
 30
0.0
 11
190.5621
 21
182.99865
 31
0.0
  0
LINE
  5
1C15
330
1D
100
AcDbEntity
  8
0
100
AcDbLine
 10
201.0084
 20
182.76965
 30
0.0
 11
200.980600160789
 21
172.169596505211
 31
0.0
  0
LINE
  5
1C16
330
1D
100
AcDbEntity
  8
0
100
AcDbLine
 10
199.621
 20
166.20165
 30
0.0
 11
200.6088
 21
168.58065
 31
0.0
  0
LINE
  5
1C17
330
1D
100
AcDbEntity
  8
0
100
AcDbLine
 10
200.018
 20
175.70065
 30
0.0
 11
199.1953
 21
177.14265
 31
0.0
  0
LINE
  5
1C18
330
1D
100
AcDbEntity
  8
0
100
AcDbLine
 10
193.458
 20
175.41865
 30
0.0
 11
195.378
 21
173.48865
 31
0.0
  0
LINE
  5
1C19
330
1D
100
AcDbEntity
  8
0
100
AcDbLine
 10
196.626
 20
171.26265
 30
0.0
 11
197.01
 21
168.86865
 31
0.0
  0
LINE
  5
1C1A
330
1D
100
AcDbEntity
  8
0
100
AcDbLine
 10
195.378
 20
173.48865
 30
0.0
 11
196.626
 21
171.26265
 31
0.0
  0
LINE
  5
1C1B
330
1D
100
AcDbEntity
  8
0
100
AcDbLine
 10
197.01
 20
163.046914579079
 30
0.0
 11
197.7308
 21
163.78865
 31
0.0
  0
LINE
  5
1C1C
330
1D
100
AcDbEntity
  8
0
100
AcDbLine
 10
197.7308
 20
163.78865
 30
0.0
 11
199.621
 21
166.20165
 31
0.0
  0
LINE
  5
1C1D
330
1D
100
AcDbEntity
  8
0
100
AcDbLine
 10
197.01
 20
163.734782022725
 30
0.0
 11
197.2343
 21
163.93665
 31
0.0
  0
LINE
  5
1C1E
330
1D
100
AcDbEntity
  8
0
100
AcDbLine
 10
199.1953
 20
177.14265
 30
0.0
 11
197.2609
 21
179.40865
 31
0.0
  0
LINE
  5
1C1F
330
1D
100
AcDbEntity
  8
0
100
AcDbLine
 10
197.2609
 20
179.40865
 30
0.0
 11
194.3756
 21
181.44565
 31
0.0
  0
LINE
  5
1C20
330
1D
100
AcDbEntity
  8
0
100
AcDbLine
 10
187.385740489616
 20
177.64443923286
 30
0.0
 11
190.360448365177
 21
176.839984391422
 31
0.0
  0
LINE
  5
1C21
330
1D
100
AcDbEntity
  8
0
100
AcDbLine
 10
190.360448365177
 20
176.839984391422
 30
0.0
 11
192.349103913621
 21
176.021126224415
 31
0.0
  0
LINE
  5
1C22
330
1D
100
AcDbEntity
  8
0
100
AcDbLine
 10
192.349103913621
 20
176.021126224415
 30
0.0
 11
193.458
 21
175.41865
 31
0.0
  0
LINE
  5
1C23
330
1D
100
AcDbEntity
  8
0
100
AcDbLine
 10
200.6088
 20
168.58065
 30
0.0
 11
200.9969
 21
170.67065
 31
0.0
  0
LINE
  5
1C24
330
1D
100
AcDbEntity
  8
0
100
AcDbLine
 10
200.018
 20
175.70065
 30
0.0
 11
200.7684
 21
173.67265
 31
0.0
  0
LINE
  5
1C25
330
1D
100
AcDbEntity
  8
0
100
AcDbLine
 10
200.7684
 20
173.67265
 30
0.0
 11
200.9969
 21
170.67065
 31
0.0
  0
LINE
  5
1C26
330
1D
100
AcDbEntity
  8
0
100
AcDbLine
 10
200.2331
 20
187.78565
 30
0.0
 11
199.2726
 21
189.56265
 31
0.0
  0
LINE
  5
1C27
330
1D
100
AcDbEntity
  8
0
100
AcDbLine
 10
189.9605
 20
195.65565
 30
0.0
 11
187.519
 21
196.10465
 31
0.0
  0
LINE
  5
1C28
330
1D
100
AcDbEntity
  8
0
100
AcDbLine
 10
192.2803
 20
194.91965
 30
0.0
 11
189.9605
 21
195.65565
 31
0.0
  0
LINE
  5
1C29
330
1D
100
AcDbEntity
  8
0
100
AcDbLine
 10
194.421
 20
193.91465
 30
0.0
 11
192.2803
 21
194.91965
 31
0.0
  0
LINE
  5
1C2A
330
1D
100
AcDbEntity
  8
0
100
AcDbLine
 10
197.9606
 20
191.20265
 30
0.0
 11
196.3302
 21
192.66565
 31
0.0
  0
LINE
  5
1C2B
330
1D
100
AcDbEntity
  8
0
100
AcDbLine
 10
199.2726
 20
189.56265
 30
0.0
 11
197.9606
 21
191.20265
 31
0.0
  0
LINE
  5
1C2C
330
1D
100
AcDbEntity
  8
0
100
AcDbLine
 10
196.3302
 20
192.66565
 30
0.0
 11
194.421
 21
193.91465
 31
0.0
  0
LINE
  5
1C2D
330
1D
100
AcDbEntity
  8
0
100
AcDbLine
 10
206.5094
 20
196.44165
 30
0.0
 11
204.1329
 21
193.98565
 31
0.0
  0
LINE
  5
1C2E
330
1D
100
AcDbEntity
  8
0
100
AcDbLine
 10
212.4003
 20
196.91365
 30
0.0
 11
210.5105
 21
194.31665
 31
0.0
  0
LINE
  5
1C2F
330
1D
100
AcDbEntity
  8
0
100
AcDbLine
 10
212.4004
 20
196.91365
 30
0.0
 11
210.5108
 21
194.31665
 31
0.0
  0
LINE
  5
1C30
330
1D
100
AcDbEntity
  8
0
100
AcDbLine
 10
208.3744
 20
191.91665
 30
0.0
 11
206.0141
 21
189.73665
 31
0.0
  0
LINE
  5
1C31
330
1D
100
AcDbEntity
  8
0
100
AcDbLine
 10
208.3752
 20
191.91665
 30
0.0
 11
206.0141
 21
189.73665
 31
0.0
  0
LINE
  5
1C32
330
1D
100
AcDbEntity
  8
0
100
AcDbLine
 10
207.3347
 20
187.83065
 30
0.0
 11
204.6165
 21
185.85365
 31
0.0
  0
LINE
  5
1C33
330
1D
100
AcDbEntity
  8
0
100
AcDbLine
 10
201.4784
 20
191.83365
 30
0.0
 11
201.0163
 21
191.543580318524
 31
0.0
  0
LINE
  5
1C34
330
1D
100
AcDbEntity
  8
0
100
AcDbLine
 10
200.8195
 20
185.91565
 30
0.0
 11
200.2331
 21
187.78565
 31
0.0
  0
LINE
  5
1C35
330
1D
100
AcDbEntity
  8
0
100
AcDbLine
 10
201.7714
 20
184.18565
 30
0.0
 11
200.996873246395
 21
183.807851018518
 31
0.0
  0
LINE
  5
1C36
330
1D
100
AcDbEntity
  8
0
100
AcDbLine
 10
201.0163
 20
183.99865
 30
0.0
 11
200.996839348712
 21
183.809086643708
 31
0.0
  0
LINE
  5
1C37
330
1D
100
AcDbEntity
  8
0
100
AcDbLine
 10
201.0253
 20
182.77165
 30
0.0
 11
201.00579114176
 21
182.663756902157
 31
0.0
  0
LINE
  5
1C38
330
1D
100
AcDbEntity
  8
0
100
AcDbLine
 10
201.0253
 20
182.77165
 30
0.0
 11
200.9757
 21
184.57965
 31
0.0
  0
LINE
  5
1C39
330
1D
100
AcDbEntity
  8
0
100
AcDbLine
 10
200.939527978756
 20
184.74647502401
 30
0.0
 11
200.8195
 21
185.91565
 31
0.0
  0
LINE
  5
1C3A
330
1D
100
AcDbEntity
  8
0
100
AcDbLine
 10
206.0141
 20
189.73665
 30
0.0
 11
203.4512
 21
187.80065
 31
0.0
  0
LINE
  5
1C3B
330
1D
100
AcDbEntity
  8
0
100
AcDbLine
 10
206.0141
 20
189.73665
 30
0.0
 11
203.4513
 21
187.80065
 31
0.0
  0
LINE
  5
1C3C
330
1D
100
AcDbEntity
  8
0
100
AcDbLine
 10
203.4513
 20
187.80065
 30
0.0
 11
201.0163
 21
186.310432132691
 31
0.0
  0
LINE
  5
1C3D
330
1D
100
AcDbEntity
  8
0
100
AcDbLine
 10
204.1329
 20
193.98565
 30
0.0
 11
201.4784
 21
191.83365
 31
0.0
  0
LINE
  5
1C3E
330
1D
100
AcDbEntity
  8
0
100
AcDbLine
 10
203.4512
 20
187.80065
 30
0.0
 11
201.0163
 21
186.310493332603
 31
0.0
  0
LINE
  5
1C3F
330
1D
100
AcDbEntity
  8
0
100
AcDbLine
 10
204.6165
 20
185.85365
 30
0.0
 11
201.7689
 21
184.18365
 31
0.0
  0
LINE
  5
1C40
330
1D
100
AcDbEntity
  8
0
100
AcDbLine
 10
208.405571772314
 20
188.827217816293
 30
0.0
 11
207.3347
 21
187.83065
 31
0.0
  0
LINE
  5
1C41
330
1D
100
AcDbEntity
  8
0
100
AcDbLine
 10
212.0462
 20
192.54465
 30
0.0
 11
209.7761
 21
190.10265
 31
0.0
  0
LINE
  5
1C42
330
1D
100
AcDbEntity
  8
0
100
AcDbLine
 10
209.7761
 20
190.10265
 30
0.0
 11
208.405571772314
 21
188.827217816293
 31
0.0
  0
LINE
  5
1C43
330
1D
100
AcDbEntity
  8
0
100
AcDbLine
 10
210.5105
 20
194.31665
 30
0.0
 11
208.3744
 21
191.91665
 31
0.0
  0
LINE
  5
1C44
330
1D
100
AcDbEntity
  8
0
100
AcDbLine
 10
210.5108
 20
194.31665
 30
0.0
 11
208.3752
 21
191.91665
 31
0.0
  0
LINE
  5
1C45
330
1D
100
AcDbEntity
  8
0
100
AcDbLine
 10
208.5715
 20
199.16665
 30
0.0
 11
206.5094
 21
196.44165
 31
0.0
  0
LINE
  5
1C46
330
1D
100
AcDbEntity
  8
0
100
AcDbLine
 10
211.6406
 20
205.25965
 30
0.0
 11
210.2908
 21
202.12065
 31
0.0
  0
LINE
  5
1C47
330
1D
100
AcDbEntity
  8
0
100
AcDbLine
 10
210.2908
 20
202.12065
 30
0.0
 11
208.5715
 21
199.16665
 31
0.0
  0
LINE
  5
1C48
330
1D
100
AcDbEntity
  8
0
100
AcDbLine
 10
215.3735
 20
202.60065
 30
0.0
 11
214.0268
 21
199.68465
 31
0.0
  0
LINE
  5
1C49
330
1D
100
AcDbEntity
  8
0
100
AcDbLine
 10
215.3741
 20
202.60065
 30
0.0
 11
214.0269
 21
199.68365
 31
0.0
  0
LINE
  5
1C4A
330
1D
100
AcDbEntity
  8
0
100
AcDbLine
 10
219.1686
 20
207.42865
 30
0.0
 11
218.3285
 21
204.21165
 31
0.0
  0
LINE
  5
1C4B
330
1D
100
AcDbEntity
  8
0
100
AcDbLine
 10
217.1465
 20
201.10065
 30
0.0
 11
215.6936
 21
198.10865
 31
0.0
  0
LINE
  5
1C4C
330
1D
100
AcDbEntity
  8
0
100
AcDbLine
 10
218.3285
 20
204.21165
 30
0.0
 11
217.1465
 21
201.10065
 31
0.0
  0
LINE
  5
1C4D
330
1D
100
AcDbEntity
  8
0
100
AcDbLine
 10
216.4286
 20
205.63665
 30
0.0
 11
215.3735
 21
202.60065
 31
0.0
  0
LINE
  5
1C4E
330
1D
100
AcDbEntity
  8
0
100
AcDbLine
 10
216.4286
 20
205.63565
 30
0.0
 11
215.3741
 21
202.60065
 31
0.0
  0
LINE
  5
1C4F
330
1D
100
AcDbEntity
  8
0
100
AcDbLine
 10
215.6936
 20
198.10865
 30
0.0
 11
214.0131
 21
195.19965
 31
0.0
  0
LINE
  5
1C50
330
1D
100
AcDbEntity
  8
0
100
AcDbLine
 10
289.737809957704
 20
185.164202314134
 30
0.0
 11
291.395909957705
 21
184.150502314134
 31
0.0
  0
LINE
  5
1C51
330
1D
100
AcDbEntity
  8
0
100
AcDbLine
 10
289.902309957705
 20
184.455502314134
 30
0.0
 11
291.163909957704
 21
183.711402314134
 31
0.0
  0
LINE
  5
1C52
330
1D
100
AcDbEntity
  8
0
100
AcDbLine
 10
289.902209957705
 20
184.455602314134
 30
0.0
 11
291.164109957705
 21
183.711102314134
 31
0.0
  0
LINE
  5
1C53
330
1D
100
AcDbEntity
  8
0
100
AcDbLine
 10
289.737809957704
 20
185.164402314134
 30
0.0
 11
291.396109957705
 21
184.150802314134
 31
0.0
  0
LINE
  5
1C54
330
1D
100
AcDbEntity
  8
0
100
AcDbLine
 10
277.430009957704
 20
200.370502314134
 30
0.0
 11
278.636109957705
 21
198.090102314134
 31
0.0
  0
LINE
  5
1C55
330
1D
100
AcDbEntity
  8
0
100
AcDbLine
 10
277.430209957704
 20
200.370302314134
 30
0.0
 11
278.635609957704
 21
198.090502314134
 31
0.0
  0
LINE
  5
1C56
330
1D
100
AcDbEntity
  8
0
100
AcDbLine
 10
276.986009957704
 20
200.152302314134
 30
0.0
 11
278.205009957705
 21
197.847602314134
 31
0.0
  0
LINE
  5
1C57
330
1D
100
AcDbEntity
  8
0
100
AcDbLine
 10
276.986009957704
 20
200.152302314134
 30
0.0
 11
278.205009957705
 21
197.847802314134
 31
0.0
  0
LINE
  5
1C58
330
1D
100
AcDbEntity
  8
0
100
AcDbLine
 10
277.173709957704
 20
194.938402314134
 30
0.0
 11
278.302909957705
 21
194.017202314134
 31
0.0
  0
LINE
  5
1C59
330
1D
100
AcDbEntity
  8
0
100
AcDbLine
 10
277.173709957704
 20
194.938702314134
 30
0.0
 11
278.302809957705
 21
194.017202314134
 31
0.0
  0
LINE
  5
1C5A
330
1D
100
AcDbEntity
  8
0
100
AcDbLine
 10
270.703309957705
 20
203.149602314134
 30
0.0
 11
271.483809957705
 21
201.735602314134
 31
0.0
  0
LINE
  5
1C5B
330
1D
100
AcDbEntity
  8
0
100
AcDbLine
 10
270.703309957705
 20
203.149602314134
 30
0.0
 11
271.484009957705
 21
201.735602314134
 31
0.0
  0
LINE
  5
1C5C
330
1D
100
AcDbEntity
  8
0
100
AcDbLine
 10
268.881409957704
 20
207.633702314134
 30
0.0
 11
269.399609957705
 21
206.104102314134
 31
0.0
  0
LINE
  5
1C5D
330
1D
100
AcDbEntity
  8
0
100
AcDbLine
 10
268.881309957705
 20
207.633802314134
 30
0.0
 11
269.399509957705
 21
206.104102314134
 31
0.0
  0
LINE
  5
1C5E
330
1D
100
AcDbEntity
  8
0
100
AcDbLine
 10
269.399609957705
 20
206.104102314134
 30
0.0
 11
270.007909957704
 21
204.607302314134
 31
0.0
  0
LINE
  5
1C5F
330
1D
100
AcDbEntity
  8
0
100
AcDbLine
 10
269.399509957705
 20
206.104102314134
 30
0.0
 11
270.007609957705
 21
204.607302314134
 31
0.0
  0
LINE
  5
1C60
330
1D
100
AcDbEntity
  8
0
100
AcDbLine
 10
270.007909957704
 20
204.607302314134
 30
0.0
 11
270.703309957705
 21
203.149602314134
 31
0.0
  0
LINE
  5
1C61
330
1D
100
AcDbEntity
  8
0
100
AcDbLine
 10
270.007609957705
 20
204.607302314134
 30
0.0
 11
270.703309957705
 21
203.149602314134
 31
0.0
  0
LINE
  5
1C62
330
1D
100
AcDbEntity
  8
0
100
AcDbLine
 10
275.892809957704
 20
202.546802314134
 30
0.0
 11
276.986009957704
 21
200.152302314134
 31
0.0
  0
LINE
  5
1C63
330
1D
100
AcDbEntity
  8
0
100
AcDbLine
 10
276.349409957704
 20
202.737902314134
 30
0.0
 11
277.430209957704
 21
200.370302314134
 31
0.0
  0
LINE
  5
1C64
330
1D
100
AcDbEntity
  8
0
100
AcDbLine
 10
276.349409957704
 20
202.737702314134
 30
0.0
 11
277.430009957704
 21
200.370502314134
 31
0.0
  0
LINE
  5
1C65
330
1D
100
AcDbEntity
  8
0
100
AcDbLine
 10
271.483809957705
 20
201.735602314134
 30
0.0
 11
272.347009957705
 21
200.370002314134
 31
0.0
  0
LINE
  5
1C66
330
1D
100
AcDbEntity
  8
0
100
AcDbLine
 10
271.484009957705
 20
201.735602314134
 30
0.0
 11
272.347009957705
 21
200.370002314134
 31
0.0
  0
LINE
  5
1C67
330
1D
100
AcDbEntity
  8
0
100
AcDbLine
 10
276.095209957705
 20
195.918702314134
 30
0.0
 11
277.173709957704
 21
194.938702314134
 31
0.0
  0
LINE
  5
1C68
330
1D
100
AcDbEntity
  8
0
100
AcDbLine
 10
276.095009957704
 20
195.919002314134
 30
0.0
 11
277.173709957704
 21
194.938402314134
 31
0.0
  0
LINE
  5
1C69
330
1D
100
AcDbEntity
  8
0
100
AcDbLine
 10
275.070209957704
 20
196.955302314134
 30
0.0
 11
276.095209957705
 21
195.918702314134
 31
0.0
  0
LINE
  5
1C6A
330
1D
100
AcDbEntity
  8
0
100
AcDbLine
 10
275.070309957704
 20
196.955202314134
 30
0.0
 11
276.095009957704
 21
195.919002314134
 31
0.0
  0
LINE
  5
1C6B
330
1D
100
AcDbEntity
  8
0
100
AcDbLine
 10
272.347009957705
 20
200.370002314134
 30
0.0
 11
273.193709957704
 21
199.183602314134
 31
0.0
  0
LINE
  5
1C6C
330
1D
100
AcDbEntity
  8
0
100
AcDbLine
 10
272.347009957705
 20
200.370002314134
 30
0.0
 11
273.193809957705
 21
199.183502314134
 31
0.0
  0
LINE
  5
1C6D
330
1D
100
AcDbEntity
  8
0
100
AcDbLine
 10
274.102309957704
 20
198.044602314134
 30
0.0
 11
275.070309957704
 21
196.955202314134
 31
0.0
  0
LINE
  5
1C6E
330
1D
100
AcDbEntity
  8
0
100
AcDbLine
 10
274.102409957704
 20
198.044402314134
 30
0.0
 11
275.070209957704
 21
196.955302314134
 31
0.0
  0
LINE
  5
1C6F
330
1D
100
AcDbEntity
  8
0
100
AcDbLine
 10
273.193809957705
 20
199.183502314134
 30
0.0
 11
274.102309957704
 21
198.044602314134
 31
0.0
  0
LINE
  5
1C70
330
1D
100
AcDbEntity
  8
0
100
AcDbLine
 10
273.193709957704
 20
199.183602314134
 30
0.0
 11
274.102409957704
 21
198.044402314134
 31
0.0
  0
LINE
  5
1C71
330
1D
100
AcDbEntity
  8
0
100
AcDbLine
 10
274.999809957704
 20
206.441202314134
 30
0.0
 11
275.632709957704
 21
204.563902314134
 31
0.0
  0
LINE
  5
1C72
330
1D
100
AcDbEntity
  8
0
100
AcDbLine
 10
274.999909957704
 20
206.440902314134
 30
0.0
 11
275.632509957705
 21
204.564002314134
 31
0.0
  0
LINE
  5
1C73
330
1D
100
AcDbEntity
  8
0
100
AcDbLine
 10
274.526909957704
 20
206.294802314134
 30
0.0
 11
275.051809957705
 21
204.715602314134
 31
0.0
  0
LINE
  5
1C74
330
1D
100
AcDbEntity
  8
0
100
AcDbLine
 10
275.632509957705
 20
204.564002314134
 30
0.0
 11
276.349409957704
 21
202.737902314134
 31
0.0
  0
LINE
  5
1C75
330
1D
100
AcDbEntity
  8
0
100
AcDbLine
 10
275.632709957704
 20
204.563902314134
 30
0.0
 11
276.349409957704
 21
202.737702314134
 31
0.0
  0
LINE
  5
1C76
330
1D
100
AcDbEntity
  8
0
100
AcDbLine
 10
275.051809957705
 20
204.715602314134
 30
0.0
 11
275.892809957704
 21
202.546802314134
 31
0.0
  0
LINE
  5
1C77
330
1D
100
AcDbEntity
  8
0
100
AcDbLine
 10
275.051609957704
 20
204.716002314134
 30
0.0
 11
275.892809957704
 21
202.546802314134
 31
0.0
  0
LINE
  5
1C78
330
1D
100
AcDbEntity
  8
0
100
AcDbLine
 10
279.728109957704
 20
195.337702314134
 30
0.0
 11
280.890109957704
 21
193.629702314134
 31
0.0
  0
LINE
  5
1C79
330
1D
100
AcDbEntity
  8
0
100
AcDbLine
 10
280.369809957705
 20
195.260302314134
 30
0.0
 11
282.258909957704
 21
192.607402314134
 31
0.0
  0
LINE
  5
1C7A
330
1D
100
AcDbEntity
  8
0
100
AcDbLine
 10
280.369809957705
 20
195.260302314134
 30
0.0
 11
282.258709957704
 21
192.607102314134
 31
0.0
  0
LINE
  5
1C7B
330
1D
100
AcDbEntity
  8
0
100
AcDbLine
 10
282.258709957704
 20
192.607102314134
 30
0.0
 11
284.298509957704
 21
190.129402314134
 31
0.0
  0
LINE
  5
1C7C
330
1D
100
AcDbEntity
  8
0
100
AcDbLine
 10
282.258909957704
 20
192.607402314134
 30
0.0
 11
284.298609957704
 21
190.129102314134
 31
0.0
  0
LINE
  5
1C7D
330
1D
100
AcDbEntity
  8
0
100
AcDbLine
 10
283.927509957704
 20
189.801402314134
 30
0.0
 11
285.018209957705
 21
188.617402314134
 31
0.0
  0
LINE
  5
1C7E
330
1D
100
AcDbEntity
  8
0
100
AcDbLine
 10
283.927509957704
 20
189.801402314134
 30
0.0
 11
285.018009957704
 21
188.617802314134
 31
0.0
  0
LINE
  5
1C7F
330
1D
100
AcDbEntity
  8
0
100
AcDbLine
 10
278.302809957705
 20
194.017202314134
 30
0.0
 11
279.479709957704
 21
193.157102314134
 31
0.0
  0
LINE
  5
1C80
330
1D
100
AcDbEntity
  8
0
100
AcDbLine
 10
278.302909957705
 20
194.017202314134
 30
0.0
 11
279.479609957704
 21
193.157102314134
 31
0.0
  0
LINE
  5
1C81
330
1D
100
AcDbEntity
  8
0
100
AcDbLine
 10
282.365109957705
 20
191.666402314134
 30
0.0
 11
283.927509957704
 21
189.801402314134
 31
0.0
  0
LINE
  5
1C82
330
1D
100
AcDbEntity
  8
0
100
AcDbLine
 10
281.962009957705
 20
191.630902314134
 30
0.0
 11
282.338713245915
 21
191.438967854773
 31
0.0
  0
LINE
  5
1C83
330
1D
100
AcDbEntity
  8
0
100
AcDbLine
 10
281.961909957704
 20
191.630902314134
 30
0.0
 11
282.338674971461
 21
191.439009754386
 31
0.0
  0
LINE
  5
1C84
330
1D
100
AcDbEntity
  8
0
100
AcDbLine
 10
280.700409957705
 20
192.360802314134
 30
0.0
 11
281.961909957704
 21
191.630902314134
 31
0.0
  0
LINE
  5
1C85
330
1D
100
AcDbEntity
  8
0
100
AcDbLine
 10
280.700609957705
 20
192.360902314134
 30
0.0
 11
281.962009957705
 21
191.630902314134
 31
0.0
  0
LINE
  5
1C86
330
1D
100
AcDbEntity
  8
0
100
AcDbLine
 10
280.700409957705
 20
192.360802314134
 30
0.0
 11
279.479609957704
 21
193.157102314134
 31
0.0
  0
LINE
  5
1C87
330
1D
100
AcDbEntity
  8
0
100
AcDbLine
 10
280.890209957704
 20
193.629502314134
 30
0.0
 11
282.365109957705
 21
191.666402314134
 31
0.0
  0
LINE
  5
1C88
330
1D
100
AcDbEntity
  8
0
100
AcDbLine
 10
288.586509957704
 20
185.387902314134
 30
0.0
 11
289.902309957705
 21
184.455502314134
 31
0.0
  0
LINE
  5
1C89
330
1D
100
AcDbEntity
  8
0
100
AcDbLine
 10
288.586509957704
 20
185.387702314134
 30
0.0
 11
289.902209957705
 21
184.455602314134
 31
0.0
  0
LINE
  5
1C8A
330
1D
100
AcDbEntity
  8
0
100
AcDbLine
 10
286.498709957704
 20
187.839202314134
 30
0.0
 11
287.666509957704
 21
186.777202314134
 31
0.0
  0
LINE
  5
1C8B
330
1D
100
AcDbEntity
  8
0
100
AcDbLine
 10
286.498709957704
 20
187.839302314134
 30
0.0
 11
287.666409957704
 21
186.777602314134
 31
0.0
  0
LINE
  5
1C8C
330
1D
100
AcDbEntity
  8
0
100
AcDbLine
 10
284.298509957704
 20
190.129402314134
 30
0.0
 11
286.498709957704
 21
187.839302314134
 31
0.0
  0
LINE
  5
1C8D
330
1D
100
AcDbEntity
  8
0
100
AcDbLine
 10
284.298609957704
 20
190.129102314134
 30
0.0
 11
286.498709957704
 21
187.839202314134
 31
0.0
  0
LINE
  5
1C8E
330
1D
100
AcDbEntity
  8
0
100
AcDbLine
 10
285.018009957704
 20
188.617802314134
 30
0.0
 11
286.741609957704
 21
186.934202314134
 31
0.0
  0
LINE
  5
1C8F
330
1D
100
AcDbEntity
  8
0
100
AcDbLine
 10
285.018209957705
 20
188.617402314134
 30
0.0
 11
286.741609957704
 21
186.934202314134
 31
0.0
  0
LINE
  5
1C90
330
1D
100
AcDbEntity
  8
0
100
AcDbLine
 10
287.666409957704
 20
186.777602314134
 30
0.0
 11
289.737809957704
 21
185.164202314134
 31
0.0
  0
LINE
  5
1C91
330
1D
100
AcDbEntity
  8
0
100
AcDbLine
 10
286.741609957704
 20
186.934202314134
 30
0.0
 11
288.586509957704
 21
185.387702314134
 31
0.0
  0
LINE
  5
1C92
330
1D
100
AcDbEntity
  8
0
100
AcDbLine
 10
286.741609957704
 20
186.934202314134
 30
0.0
 11
288.586509957704
 21
185.387902314134
 31
0.0
  0
LINE
  5
1C93
330
1D
100
AcDbEntity
  8
0
100
AcDbLine
 10
287.666509957704
 20
186.777202314134
 30
0.0
 11
289.737809957704
 21
185.164402314134
 31
0.0
  0
LINE
  5
1C94
330
1D
100
AcDbEntity
  8
0
100
AcDbLine
 10
278.636109957705
 20
198.090102314134
 30
0.0
 11
280.369809957705
 21
195.260302314134
 31
0.0
  0
LINE
  5
1C95
330
1D
100
AcDbEntity
  8
0
100
AcDbLine
 10
278.635609957704
 20
198.090502314134
 30
0.0
 11
280.369809957705
 21
195.260302314134
 31
0.0
  0
LINE
  5
1C96
330
1D
100
AcDbEntity
  8
0
100
AcDbLine
 10
278.205009957705
 20
197.847802314134
 30
0.0
 11
279.728109957704
 21
195.337702314134
 31
0.0
  0
LINE
  5
1C97
330
1D
100
AcDbEntity
  8
0
100
AcDbLine
 10
278.205009957705
 20
197.847602314134
 30
0.0
 11
279.728109957704
 21
195.337702314134
 31
0.0
  0
LINE
  5
1C98
330
1D
100
AcDbEntity
  8
0
100
AcDbLine
 10
316.804009957704
 20
199.183502314134
 30
0.0
 11
315.895509957704
 21
198.044602314134
 31
0.0
  0
LINE
  5
1C99
330
1D
100
AcDbEntity
  8
0
100
AcDbLine
 10
316.804109957704
 20
199.183602314134
 30
0.0
 11
315.895409957704
 21
198.044402314134
 31
0.0
  0
LINE
  5
1C9A
330
1D
100
AcDbEntity
  8
0
100
AcDbLine
 10
305.699309957704
 20
190.129402314134
 30
0.0
 11
303.499109957705
 21
187.839302314134
 31
0.0
  0
LINE
  5
1C9B
330
1D
100
AcDbEntity
  8
0
100
AcDbLine
 10
305.699209957704
 20
190.129102314134
 30
0.0
 11
303.499109957705
 21
187.839202314134
 31
0.0
  0
LINE
  5
1C9C
330
1D
100
AcDbEntity
  8
0
100
AcDbLine
 10
304.979809957704
 20
188.617802314134
 30
0.0
 11
303.256209957704
 21
186.934202314134
 31
0.0
  0
LINE
  5
1C9D
330
1D
100
AcDbEntity
  8
0
100
AcDbLine
 10
304.979609957704
 20
188.617402314134
 30
0.0
 11
303.256209957704
 21
186.934202314134
 31
0.0
  0
LINE
  5
1C9E
330
1D
100
AcDbEntity
  8
0
100
AcDbLine
 10
297.695509957704
 20
183.184402314134
 30
0.0
 11
296.772909957705
 21
182.873102314134
 31
0.0
  0
LINE
  5
1C9F
330
1D
100
AcDbEntity
  8
0
100
AcDbLine
 10
297.695509957704
 20
183.184402314134
 30
0.0
 11
296.772909957705
 21
182.872902314134
 31
0.0
  0
LINE
  5
1CA0
330
1D
100
AcDbEntity
  8
0
100
AcDbLine
 10
298.601909957704
 20
184.150502314134
 30
0.0
 11
297.081709957705
 21
183.487402314134
 31
0.0
  0
LINE
  5
1CA1
330
1D
100
AcDbEntity
  8
0
100
AcDbLine
 10
298.601709957705
 20
184.150802314134
 30
0.0
 11
297.081309957704
 21
183.487402314134
 31
0.0
  0
LINE
  5
1CA2
330
1D
100
AcDbEntity
  8
0
100
AcDbLine
 10
293.223
 20
182.87365
 30
0.0
 11
294.336
 21
182.66365
 31
0.0
  0
LINE
  5
1CA3
330
1D
100
AcDbEntity
  8
0
100
AcDbLine
 10
292.916509957704
 20
183.487402314134
 30
0.0
 11
294.035309957705
 21
183.203802314134
 31
0.0
  0
LINE
  5
1CA4
330
1D
100
AcDbEntity
  8
0
100
AcDbLine
 10
292.916109957705
 20
183.487402314134
 30
0.0
 11
294.035609957705
 21
183.203402314134
 31
0.0
  0
LINE
  5
1CA5
330
1D
100
AcDbEntity
  8
0
100
AcDbLine
 10
293.224909957705
 20
182.872902314134
 30
0.0
 11
294.336309957705
 21
182.663502314134
 31
0.0
  0
LINE
  5
1CA6
330
1D
100
AcDbEntity
  8
0
100
AcDbLine
 10
293.224909957705
 20
182.873102314134
 30
0.0
 11
294.336509957704
 21
182.663502314134
 31
0.0
  0
LINE
  5
1CA7
330
1D
100
AcDbEntity
  8
0
100
AcDbLine
 10
291.395909957705
 20
184.150502314134
 30
0.0
 11
292.916109957705
 21
183.487402314134
 31
0.0
  0
LINE
  5
1CA8
330
1D
100
AcDbEntity
  8
0
100
AcDbLine
 10
291.396109957705
 20
184.150802314134
 30
0.0
 11
292.916509957704
 21
183.487402314134
 31
0.0
  0
LINE
  5
1CA9
330
1D
100
AcDbEntity
  8
0
100
AcDbLine
 10
292.302309957704
 20
183.184402314134
 30
0.0
 11
293.224909957705
 21
182.873102314134
 31
0.0
  0
LINE
  5
1CAA
330
1D
100
AcDbEntity
  8
0
100
AcDbLine
 10
292.302309957704
 20
183.184402314134
 30
0.0
 11
293.224909957705
 21
182.872902314134
 31
0.0
  0
LINE
  5
1CAB
330
1D
100
AcDbEntity
  8
0
100
AcDbLine
 10
291.163909957704
 20
183.711402314134
 30
0.0
 11
292.302309957704
 21
183.184402314134
 31
0.0
  0
LINE
  5
1CAC
330
1D
100
AcDbEntity
  8
0
100
AcDbLine
 10
291.164109957705
 20
183.711102314134
 30
0.0
 11
292.302309957704
 21
183.184402314134
 31
0.0
  0
LINE
  5
1CAD
330
1D
100
AcDbEntity
  8
0
100
AcDbLine
 10
294.336
 20
182.66365
 30
0.0
 11
295.0
 21
182.63165
 31
0.0
  0
LINE
  5
1CAE
330
1D
100
AcDbEntity
  8
0
100
AcDbLine
 10
297.081309957704
 20
183.487402314134
 30
0.0
 11
295.962509957704
 21
183.203802314134
 31
0.0
  0
LINE
  5
1CAF
330
1D
100
AcDbEntity
  8
0
100
AcDbLine
 10
297.081709957705
 20
183.487402314134
 30
0.0
 11
295.962209957705
 21
183.203402314134
 31
0.0
  0
LINE
  5
1CB0
330
1D
100
AcDbEntity
  8
0
100
AcDbLine
 10
295.962209957705
 20
183.203402314134
 30
0.0
 11
294.999509957705
 21
183.129302314134
 31
0.0
  0
LINE
  5
1CB1
330
1D
100
AcDbEntity
  8
0
100
AcDbLine
 10
295.962509957704
 20
183.203802314134
 30
0.0
 11
294.999209957705
 21
183.128902314134
 31
0.0
  0
LINE
  5
1CB2
330
1D
100
AcDbEntity
  8
0
100
AcDbLine
 10
296.772909957705
 20
182.872902314134
 30
0.0
 11
295.661509957705
 21
182.663502314134
 31
0.0
  0
LINE
  5
1CB3
330
1D
100
AcDbEntity
  8
0
100
AcDbLine
 10
296.772909957705
 20
182.873102314134
 30
0.0
 11
295.661309957705
 21
182.663502314134
 31
0.0
  0
LINE
  5
1CB4
330
1D
100
AcDbEntity
  8
0
100
AcDbLine
 10
295.661509957705
 20
182.663502314134
 30
0.0
 11
294.998909957704
 21
182.631702314134
 31
0.0
  0
LINE
  5
1CB5
330
1D
100
AcDbEntity
  8
0
100
AcDbLine
 10
295.661309957705
 20
182.663502314134
 30
0.0
 11
294.999009957704
 21
182.631602314134
 31
0.0
  0
LINE
  5
1CB6
330
1D
100
AcDbEntity
  8
0
100
AcDbLine
 10
294.035609957705
 20
183.203402314134
 30
0.0
 11
294.998309957705
 21
183.129302314134
 31
0.0
  0
LINE
  5
1CB7
330
1D
100
AcDbEntity
  8
0
100
AcDbLine
 10
294.035309957705
 20
183.203802314134
 30
0.0
 11
294.998609957705
 21
183.128902314134
 31
0.0
  0
LINE
  5
1CB8
330
1D
100
AcDbEntity
  8
0
100
AcDbLine
 10
294.336309957705
 20
182.663502314134
 30
0.0
 11
294.998909957704
 21
182.631702314134
 31
0.0
  0
LINE
  5
1CB9
330
1D
100
AcDbEntity
  8
0
100
AcDbLine
 10
294.336509957704
 20
182.663502314134
 30
0.0
 11
294.998809957704
 21
182.631602314134
 31
0.0
  0
LINE
  5
1CBA
330
1D
100
AcDbEntity
  8
0
100
AcDbLine
 10
296.777
 20
182.87365
 30
0.0
 11
295.664
 21
182.66365
 31
0.0
  0
LINE
  5
1CBB
330
1D
100
AcDbEntity
  8
0
100
AcDbLine
 10
295.664
 20
182.66365
 30
0.0
 11
295.0
 21
182.63165
 31
0.0
  0
LINE
  5
1CBC
330
1D
100
AcDbEntity
  8
0
100
AcDbLine
 10
302.331409957704
 20
186.777602314134
 30
0.0
 11
300.260009957704
 21
185.164202314134
 31
0.0
  0
LINE
  5
1CBD
330
1D
100
AcDbEntity
  8
0
100
AcDbLine
 10
302.331309957704
 20
186.777202314134
 30
0.0
 11
300.260009957704
 21
185.164402314134
 31
0.0
  0
LINE
  5
1CBE
330
1D
100
AcDbEntity
  8
0
100
AcDbLine
 10
300.095509957705
 20
184.455502314134
 30
0.0
 11
298.833909957704
 21
183.711402314134
 31
0.0
  0
LINE
  5
1CBF
330
1D
100
AcDbEntity
  8
0
100
AcDbLine
 10
300.095609957704
 20
184.455602314134
 30
0.0
 11
298.833709957705
 21
183.711102314134
 31
0.0
  0
LINE
  5
1CC0
330
1D
100
AcDbEntity
  8
0
100
AcDbLine
 10
300.260009957704
 20
185.164202314134
 30
0.0
 11
298.601909957704
 21
184.150502314134
 31
0.0
  0
LINE
  5
1CC1
330
1D
100
AcDbEntity
  8
0
100
AcDbLine
 10
300.260009957704
 20
185.164402314134
 30
0.0
 11
298.601709957705
 21
184.150802314134
 31
0.0
  0
LINE
  5
1CC2
330
1D
100
AcDbEntity
  8
0
100
AcDbLine
 10
301.411309957705
 20
185.387902314134
 30
0.0
 11
300.095509957705
 21
184.455502314134
 31
0.0
  0
LINE
  5
1CC3
330
1D
100
AcDbEntity
  8
0
100
AcDbLine
 10
301.411309957705
 20
185.387702314134
 30
0.0
 11
300.095609957704
 21
184.455602314134
 31
0.0
  0
LINE
  5
1CC4
330
1D
100
AcDbEntity
  8
0
100
AcDbLine
 10
303.499109957705
 20
187.839202314134
 30
0.0
 11
302.331309957704
 21
186.777202314134
 31
0.0
  0
LINE
  5
1CC5
330
1D
100
AcDbEntity
  8
0
100
AcDbLine
 10
303.256209957704
 20
186.934202314134
 30
0.0
 11
301.411309957705
 21
185.387702314134
 31
0.0
  0
LINE
  5
1CC6
330
1D
100
AcDbEntity
  8
0
100
AcDbLine
 10
303.256209957704
 20
186.934202314134
 30
0.0
 11
301.411309957705
 21
185.387902314134
 31
0.0
  0
LINE
  5
1CC7
330
1D
100
AcDbEntity
  8
0
100
AcDbLine
 10
303.499109957705
 20
187.839302314134
 30
0.0
 11
302.331409957704
 21
186.777602314134
 31
0.0
  0
LINE
  5
1CC8
330
1D
100
AcDbEntity
  8
0
100
AcDbLine
 10
298.833909957704
 20
183.711402314134
 30
0.0
 11
297.695509957704
 21
183.184402314134
 31
0.0
  0
LINE
  5
1CC9
330
1D
100
AcDbEntity
  8
0
100
AcDbLine
 10
298.833709957705
 20
183.711102314134
 30
0.0
 11
297.695509957704
 21
183.184402314134
 31
0.0
  0
LINE
  5
1CCA
330
1D
100
AcDbEntity
  8
0
100
AcDbLine
 10
310.269709957704
 20
195.337702314134
 30
0.0
 11
309.107709957704
 21
193.629702314134
 31
0.0
  0
LINE
  5
1CCB
330
1D
100
AcDbEntity
  8
0
100
AcDbLine
 10
312.824109957704
 20
194.938402314134
 30
0.0
 11
311.694909957705
 21
194.017202314134
 31
0.0
  0
LINE
  5
1CCC
330
1D
100
AcDbEntity
  8
0
100
AcDbLine
 10
312.824109957704
 20
194.938702314134
 30
0.0
 11
311.695009957705
 21
194.017202314134
 31
0.0
  0
LINE
  5
1CCD
330
1D
100
AcDbEntity
  8
0
100
AcDbLine
 10
309.628009957705
 20
195.260302314134
 30
0.0
 11
307.738909957704
 21
192.607402314134
 31
0.0
  0
LINE
  5
1CCE
330
1D
100
AcDbEntity
  8
0
100
AcDbLine
 10
309.628009957705
 20
195.260302314134
 30
0.0
 11
307.739109957704
 21
192.607102314134
 31
0.0
  0
LINE
  5
1CCF
330
1D
100
AcDbEntity
  8
0
100
AcDbLine
 10
311.695009957705
 20
194.017202314134
 30
0.0
 11
310.518109957704
 21
193.157102314134
 31
0.0
  0
LINE
  5
1CD0
330
1D
100
AcDbEntity
  8
0
100
AcDbLine
 10
311.694909957705
 20
194.017202314134
 30
0.0
 11
310.518209957705
 21
193.157102314134
 31
0.0
  0
LINE
  5
1CD1
330
1D
100
AcDbEntity
  8
0
100
AcDbLine
 10
310.518209957705
 20
193.157102314134
 30
0.0
 11
309.297209957705
 21
192.360902314134
 31
0.0
  0
LINE
  5
1CD2
330
1D
100
AcDbEntity
  8
0
100
AcDbLine
 10
310.518109957704
 20
193.157102314134
 30
0.0
 11
309.297409957705
 21
192.360802314134
 31
0.0
  0
LINE
  5
1CD3
330
1D
100
AcDbEntity
  8
0
100
AcDbLine
 10
306.070309957704
 20
189.801402314134
 30
0.0
 11
304.979609957704
 21
188.617402314134
 31
0.0
  0
LINE
  5
1CD4
330
1D
100
AcDbEntity
  8
0
100
AcDbLine
 10
306.070309957704
 20
189.801402314134
 30
0.0
 11
304.979809957704
 21
188.617802314134
 31
0.0
  0
LINE
  5
1CD5
330
1D
100
AcDbEntity
  8
0
100
AcDbLine
 10
308.035809957704
 20
191.630902314134
 30
0.0
 11
307.659106669493
 21
191.438967854773
 31
0.0
  0
LINE
  5
1CD6
330
1D
100
AcDbEntity
  8
0
100
AcDbLine
 10
308.035909957704
 20
191.630902314134
 30
0.0
 11
307.659144943947
 21
191.439009754386
 31
0.0
  0
LINE
  5
1CD7
330
1D
100
AcDbEntity
  8
0
100
AcDbLine
 10
307.739109957704
 20
192.607102314134
 30
0.0
 11
305.699309957704
 21
190.129402314134
 31
0.0
  0
LINE
  5
1CD8
330
1D
100
AcDbEntity
  8
0
100
AcDbLine
 10
307.738909957704
 20
192.607402314134
 30
0.0
 11
305.699209957704
 21
190.129102314134
 31
0.0
  0
LINE
  5
1CD9
330
1D
100
AcDbEntity
  8
0
100
AcDbLine
 10
307.632709957704
 20
191.666402314134
 30
0.0
 11
306.070309957704
 21
189.801402314134
 31
0.0
  0
LINE
  5
1CDA
330
1D
100
AcDbEntity
  8
0
100
AcDbLine
 10
309.297409957705
 20
192.360802314134
 30
0.0
 11
308.035909957704
 21
191.630902314134
 31
0.0
  0
LINE
  5
1CDB
330
1D
100
AcDbEntity
  8
0
100
AcDbLine
 10
309.297209957705
 20
192.360902314134
 30
0.0
 11
308.035809957704
 21
191.630902314134
 31
0.0
  0
LINE
  5
1CDC
330
1D
100
AcDbEntity
  8
0
100
AcDbLine
 10
309.107609957704
 20
193.629502314134
 30
0.0
 11
307.632709957704
 21
191.666402314134
 31
0.0
  0
LINE
  5
1CDD
330
1D
100
AcDbEntity
  8
0
100
AcDbLine
 10
311.361709957705
 20
198.090102314134
 30
0.0
 11
309.628009957705
 21
195.260302314134
 31
0.0
  0
LINE
  5
1CDE
330
1D
100
AcDbEntity
  8
0
100
AcDbLine
 10
311.362209957704
 20
198.090502314134
 30
0.0
 11
309.628009957705
 21
195.260302314134
 31
0.0
  0
LINE
  5
1CDF
330
1D
100
AcDbEntity
  8
0
100
AcDbLine
 10
313.648409957704
 20
202.737902314134
 30
0.0
 11
312.567609957704
 21
200.370302314134
 31
0.0
  0
LINE
  5
1CE0
330
1D
100
AcDbEntity
  8
0
100
AcDbLine
 10
313.648409957704
 20
202.737702314134
 30
0.0
 11
312.567809957704
 21
200.370502314134
 31
0.0
  0
LINE
  5
1CE1
330
1D
100
AcDbEntity
  8
0
100
AcDbLine
 10
314.105009957704
 20
202.546802314134
 30
0.0
 11
313.011809957704
 21
200.152302314134
 31
0.0
  0
LINE
  5
1CE2
330
1D
100
AcDbEntity
  8
0
100
AcDbLine
 10
315.895509957704
 20
198.044602314134
 30
0.0
 11
314.927509957704
 21
196.955202314134
 31
0.0
  0
LINE
  5
1CE3
330
1D
100
AcDbEntity
  8
0
100
AcDbLine
 10
315.895409957704
 20
198.044402314134
 30
0.0
 11
314.927609957705
 21
196.955302314134
 31
0.0
  0
LINE
  5
1CE4
330
1D
100
AcDbEntity
  8
0
100
AcDbLine
 10
312.567809957704
 20
200.370502314134
 30
0.0
 11
311.361709957705
 21
198.090102314134
 31
0.0
  0
LINE
  5
1CE5
330
1D
100
AcDbEntity
  8
0
100
AcDbLine
 10
312.567609957704
 20
200.370302314134
 30
0.0
 11
311.362209957704
 21
198.090502314134
 31
0.0
  0
LINE
  5
1CE6
330
1D
100
AcDbEntity
  8
0
100
AcDbLine
 10
313.011809957704
 20
200.152302314134
 30
0.0
 11
311.792809957705
 21
197.847602314134
 31
0.0
  0
LINE
  5
1CE7
330
1D
100
AcDbEntity
  8
0
100
AcDbLine
 10
313.011809957704
 20
200.152302314134
 30
0.0
 11
311.792809957705
 21
197.847802314134
 31
0.0
  0
LINE
  5
1CE8
330
1D
100
AcDbEntity
  8
0
100
AcDbLine
 10
313.902609957704
 20
195.918702314134
 30
0.0
 11
312.824109957704
 21
194.938702314134
 31
0.0
  0
LINE
  5
1CE9
330
1D
100
AcDbEntity
  8
0
100
AcDbLine
 10
313.902809957704
 20
195.919002314134
 30
0.0
 11
312.824109957704
 21
194.938402314134
 31
0.0
  0
LINE
  5
1CEA
330
1D
100
AcDbEntity
  8
0
100
AcDbLine
 10
311.792809957705
 20
197.847802314134
 30
0.0
 11
310.269709957704
 21
195.337702314134
 31
0.0
  0
LINE
  5
1CEB
330
1D
100
AcDbEntity
  8
0
100
AcDbLine
 10
311.792809957705
 20
197.847602314134
 30
0.0
 11
310.269709957704
 21
195.337702314134
 31
0.0
  0
LINE
  5
1CEC
330
1D
100
AcDbEntity
  8
0
100
AcDbLine
 10
314.927609957705
 20
196.955302314134
 30
0.0
 11
313.902609957704
 21
195.918702314134
 31
0.0
  0
LINE
  5
1CED
330
1D
100
AcDbEntity
  8
0
100
AcDbLine
 10
314.927509957704
 20
196.955202314134
 30
0.0
 11
313.902809957704
 21
195.919002314134
 31
0.0
  0
LINE
  5
1CEE
330
1D
100
AcDbEntity
  8
0
100
AcDbLine
 10
315.470909957704
 20
206.294802314134
 30
0.0
 11
314.946009957705
 21
204.715602314134
 31
0.0
  0
LINE
  5
1CEF
330
1D
100
AcDbEntity
  8
0
100
AcDbLine
 10
314.998009957704
 20
206.441202314134
 30
0.0
 11
314.365109957705
 21
204.563902314134
 31
0.0
  0
LINE
  5
1CF0
330
1D
100
AcDbEntity
  8
0
100
AcDbLine
 10
314.997909957704
 20
206.440902314134
 30
0.0
 11
314.365309957705
 21
204.564002314134
 31
0.0
  0
LINE
  5
1CF1
330
1D
100
AcDbEntity
  8
0
100
AcDbLine
 10
314.365309957705
 20
204.564002314134
 30
0.0
 11
313.648409957704
 21
202.737902314134
 31
0.0
  0
LINE
  5
1CF2
330
1D
100
AcDbEntity
  8
0
100
AcDbLine
 10
314.365109957705
 20
204.563902314134
 30
0.0
 11
313.648409957704
 21
202.737702314134
 31
0.0
  0
LINE
  5
1CF3
330
1D
100
AcDbEntity
  8
0
100
AcDbLine
 10
314.946009957705
 20
204.715602314134
 30
0.0
 11
314.105009957704
 21
202.546802314134
 31
0.0
  0
LINE
  5
1CF4
330
1D
100
AcDbEntity
  8
0
100
AcDbLine
 10
314.946209957704
 20
204.716002314134
 30
0.0
 11
314.105009957704
 21
202.546802314134
 31
0.0
  0
LINE
  5
1CF5
330
1D
100
AcDbEntity
  8
0
100
AcDbLine
 10
321.116409957704
 20
207.633702314134
 30
0.0
 11
320.598209957705
 21
206.104102314134
 31
0.0
  0
LINE
  5
1CF6
330
1D
100
AcDbEntity
  8
0
100
AcDbLine
 10
321.116509957704
 20
207.633802314134
 30
0.0
 11
320.598309957704
 21
206.104102314134
 31
0.0
  0
LINE
  5
1CF7
330
1D
100
AcDbEntity
  8
0
100
AcDbLine
 10
320.598209957705
 20
206.104102314134
 30
0.0
 11
319.989909957704
 21
204.607302314134
 31
0.0
  0
LINE
  5
1CF8
330
1D
100
AcDbEntity
  8
0
100
AcDbLine
 10
320.598309957704
 20
206.104102314134
 30
0.0
 11
319.990209957705
 21
204.607302314134
 31
0.0
  0
LINE
  5
1CF9
330
1D
100
AcDbEntity
  8
0
100
AcDbLine
 10
317.650809957704
 20
200.370002314134
 30
0.0
 11
316.804109957704
 21
199.183602314134
 31
0.0
  0
LINE
  5
1CFA
330
1D
100
AcDbEntity
  8
0
100
AcDbLine
 10
317.650809957704
 20
200.370002314134
 30
0.0
 11
316.804009957704
 21
199.183502314134
 31
0.0
  0
LINE
  5
1CFB
330
1D
100
AcDbEntity
  8
0
100
AcDbLine
 10
318.514009957705
 20
201.735602314134
 30
0.0
 11
317.650809957704
 21
200.370002314134
 31
0.0
  0
LINE
  5
1CFC
330
1D
100
AcDbEntity
  8
0
100
AcDbLine
 10
318.513809957705
 20
201.735602314134
 30
0.0
 11
317.650809957704
 21
200.370002314134
 31
0.0
  0
LINE
  5
1CFD
330
1D
100
AcDbEntity
  8
0
100
AcDbLine
 10
319.294509957705
 20
203.149602314134
 30
0.0
 11
318.514009957705
 21
201.735602314134
 31
0.0
  0
LINE
  5
1CFE
330
1D
100
AcDbEntity
  8
0
100
AcDbLine
 10
319.294509957705
 20
203.149602314134
 30
0.0
 11
318.513809957705
 21
201.735602314134
 31
0.0
  0
LINE
  5
1CFF
330
1D
100
AcDbEntity
  8
0
100
AcDbLine
 10
319.989909957704
 20
204.607302314134
 30
0.0
 11
319.294509957705
 21
203.149602314134
 31
0.0
  0
LINE
  5
1D00
330
1D
100
AcDbEntity
  8
0
100
AcDbLine
 10
319.990209957705
 20
204.607302314134
 30
0.0
 11
319.294509957705
 21
203.149602314134
 31
0.0
  0
LINE
  5
1D01
330
1D
100
AcDbEntity
  8
0
100
AcDbLine
 10
185.106188258384
 20
230.734801774585
 30
0.0
 11
187.2938
 21
230.49165
 31
0.0
  0
LINE
  5
1D02
330
1D
100
AcDbEntity
  8
0
100
AcDbLine
 10
185.226996496178
 20
243.277295742755
 30
0.0
 11
187.9588
 21
242.99865
 31
0.0
  0
LINE
  5
1D03
330
1D
100
AcDbEntity
  8
0
100
AcDbLine
 10
185.041450571759
 20
247.668020017464
 30
0.0
 11
187.9282
 21
247.45865
 31
0.0
  0
LINE
  5
1D04
330
1D
100
AcDbEntity
  8
0
100
AcDbLine
 10
184.567768244975
 20
249.781010121667
 30
0.0
 11
190.0455
 21
249.51765
 31
0.0
  0
LINE
  5
1D05
330
1D
100
AcDbEntity
  8
0
100
AcDbLine
 10
159.8682
 20
235.84965
 30
0.0
 11
162.0475
 21
238.20965
 31
0.0
  0
LINE
  5
1D06
330
1D
100
AcDbEntity
  8
0
100
AcDbLine
 10
159.8686
 20
235.85065
 30
0.0
 11
162.0477
 21
238.21065
 31
0.0
  0
LINE
  5
1D07
330
1D
100
AcDbEntity
  8
0
100
AcDbLine
 10
159.0557
 20
238.43265
 30
0.0
 11
162.3615
 21
241.58465
 31
0.0
  0
LINE
  5
1D08
330
1D
100
AcDbEntity
  8
0
100
AcDbLine
 10
160.1479
 20
228.41965
 30
0.0
 11
161.9648
 21
231.31465
 31
0.0
  0
LINE
  5
1D09
330
1D
100
AcDbEntity
  8
0
100
AcDbLine
 10
155.1155
 20
233.06565
 30
0.0
 11
156.9621
 21
235.83765
 31
0.0
  0
LINE
  5
1D0A
330
1D
100
AcDbEntity
  8
0
100
AcDbLine
 10
157.9314
 20
233.28765
 30
0.0
 11
159.8682
 21
235.84965
 31
0.0
  0
LINE
  5
1D0B
330
1D
100
AcDbEntity
  8
0
100
AcDbLine
 10
157.9318
 20
233.28765
 30
0.0
 11
159.8686
 21
235.85065
 31
0.0
  0
LINE
  5
1D0C
330
1D
100
AcDbEntity
  8
0
100
AcDbLine
 10
150.2218
 20
219.01265
 30
0.0
 11
151.5716
 21
225.20365
 31
0.0
  0
LINE
  5
1D0D
330
1D
100
AcDbEntity
  8
0
100
AcDbLine
 10
152.4355
 20
218.35865
 30
0.0
 11
152.9358
 21
221.53065
 31
0.0
  0
LINE
  5
1D0E
330
1D
100
AcDbEntity
  8
0
100
AcDbLine
 10
152.4358
 20
218.35865
 30
0.0
 11
152.936
 21
221.53165
 31
0.0
  0
LINE
  5
1D0F
330
1D
100
AcDbEntity
  8
0
100
AcDbLine
 10
156.951
 20
218.73165
 30
0.0
 11
157.6229
 21
222.08265
 31
0.0
  0
LINE
  5
1D10
330
1D
100
AcDbEntity
  8
0
100
AcDbLine
 10
152.3771
 20
211.94065
 30
0.0
 11
152.8195
 21
208.75865
 31
0.0
  0
LINE
  5
1D11
330
1D
100
AcDbEntity
  8
0
100
AcDbLine
 10
152.3771
 20
211.94065
 30
0.0
 11
152.8191
 21
208.75865
 31
0.0
  0
LINE
  5
1D12
330
1D
100
AcDbEntity
  8
0
100
AcDbLine
 10
152.2486
 20
215.15065
 30
0.0
 11
152.3771
 21
211.94065
 31
0.0
  0
LINE
  5
1D13
330
1D
100
AcDbEntity
  8
0
100
AcDbLine
 10
152.2486
 20
215.15065
 30
0.0
 11
152.4355
 21
218.35865
 31
0.0
  0
LINE
  5
1D14
330
1D
100
AcDbEntity
  8
0
100
AcDbLine
 10
152.249
 20
215.15165
 30
0.0
 11
152.4358
 21
218.35865
 31
0.0
  0
LINE
  5
1D15
330
1D
100
AcDbEntity
  8
0
100
AcDbLine
 10
152.249
 20
215.15165
 30
0.0
 11
152.3771
 21
211.94065
 31
0.0
  0
LINE
  5
1D16
330
1D
100
AcDbEntity
  8
0
100
AcDbLine
 10
150.0624
 20
212.36265
 30
0.0
 11
150.2218
 21
219.01265
 31
0.0
  0
LINE
  5
1D17
330
1D
100
AcDbEntity
  8
0
100
AcDbLine
 10
156.837
 20
211.90965
 30
0.0
 11
157.3966
 21
208.53865
 31
0.0
  0
LINE
  5
1D18
330
1D
100
AcDbEntity
  8
0
100
AcDbLine
 10
156.6877
 20
215.32465
 30
0.0
 11
156.951
 21
218.73165
 31
0.0
  0
LINE
  5
1D19
330
1D
100
AcDbEntity
  8
0
100
AcDbLine
 10
156.6877
 20
215.32465
 30
0.0
 11
156.837
 21
211.90965
 31
0.0
  0
LINE
  5
1D1A
330
1D
100
AcDbEntity
  8
0
100
AcDbLine
 10
153.745
 20
224.63965
 30
0.0
 11
154.855
 21
227.65565
 31
0.0
  0
LINE
  5
1D1B
330
1D
100
AcDbEntity
  8
0
100
AcDbLine
 10
153.7449
 20
224.64065
 30
0.0
 11
154.8548
 21
227.65565
 31
0.0
  0
LINE
  5
1D1C
330
1D
100
AcDbEntity
  8
0
100
AcDbLine
 10
153.5197
 20
230.14465
 30
0.0
 11
155.1155
 21
233.06565
 31
0.0
  0
LINE
  5
1D1D
330
1D
100
AcDbEntity
  8
0
100
AcDbLine
 10
152.9358
 20
221.53065
 30
0.0
 11
153.745
 21
224.63965
 31
0.0
  0
LINE
  5
1D1E
330
1D
100
AcDbEntity
  8
0
100
AcDbLine
 10
152.936
 20
221.53165
 30
0.0
 11
153.7449
 21
224.64065
 31
0.0
  0
LINE
  5
1D1F
330
1D
100
AcDbEntity
  8
0
100
AcDbLine
 10
151.5716
 20
225.20365
 30
0.0
 11
152.8229
 21
228.66065
 31
0.0
  0
LINE
  5
1D20
330
1D
100
AcDbEntity
  8
0
100
AcDbLine
 10
152.8229
 20
228.66065
 30
0.0
 11
153.5197
 21
230.14465
 31
0.0
  0
LINE
  5
1D21
330
1D
100
AcDbEntity
  8
0
100
AcDbLine
 10
154.855
 20
227.65565
 30
0.0
 11
156.2546
 21
230.54665
 31
0.0
  0
LINE
  5
1D22
330
1D
100
AcDbEntity
  8
0
100
AcDbLine
 10
154.8548
 20
227.65565
 30
0.0
 11
156.2553
 21
230.54665
 31
0.0
  0
LINE
  5
1D23
330
1D
100
AcDbEntity
  8
0
100
AcDbLine
 10
156.2546
 20
230.54665
 30
0.0
 11
157.9314
 21
233.28765
 31
0.0
  0
LINE
  5
1D24
330
1D
100
AcDbEntity
  8
0
100
AcDbLine
 10
156.2553
 20
230.54665
 30
0.0
 11
157.9318
 21
233.28765
 31
0.0
  0
LINE
  5
1D25
330
1D
100
AcDbEntity
  8
0
100
AcDbLine
 10
158.6936
 20
225.32765
 30
0.0
 11
160.1479
 21
228.41965
 31
0.0
  0
LINE
  5
1D26
330
1D
100
AcDbEntity
  8
0
100
AcDbLine
 10
157.6229
 20
222.08265
 30
0.0
 11
158.6936
 21
225.32765
 31
0.0
  0
LINE
  5
1D27
330
1D
100
AcDbEntity
  8
0
100
AcDbLine
 10
156.9621
 20
235.83765
 30
0.0
 11
159.0557
 21
238.43265
 31
0.0
  0
LINE
  5
1D28
330
1D
100
AcDbEntity
  8
0
100
AcDbLine
 10
161.9648
 20
231.31465
 30
0.0
 11
164.1167
 21
233.96865
 31
0.0
  0
LINE
  5
1D29
330
1D
100
AcDbEntity
  8
0
100
AcDbLine
 10
173.4262
 20
224.26065
 30
0.0
 11
174.6875
 21
225.80465
 31
0.0
  0
LINE
  5
1D2A
330
1D
100
AcDbEntity
  8
0
100
AcDbLine
 10
173.4257
 20
224.26065
 30
0.0
 11
174.6879
 21
225.80465
 31
0.0
  0
LINE
  5
1D2B
330
1D
100
AcDbEntity
  8
0
100
AcDbLine
 10
171.2925
 20
220.62665
 30
0.0
 11
172.32744454052
 21
222.496511631519
 31
0.0
  0
LINE
  5
1D2C
330
1D
100
AcDbEntity
  8
0
100
AcDbLine
 10
169.0745
 20
212.03965
 30
0.0
 11
169.7681
 21
216.58065
 31
0.0
  0
LINE
  5
1D2D
330
1D
100
AcDbEntity
  8
0
100
AcDbLine
 10
168.9837
 20
209.81765
 30
0.0
 11
168.9935
 21
210.55665
 31
0.0
  0
LINE
  5
1D2E
330
1D
100
AcDbEntity
  8
0
100
AcDbLine
 10
168.9935
 20
210.55665
 30
0.0
 11
169.0745
 21
212.03965
 31
0.0
  0
LINE
  5
1D2F
330
1D
100
AcDbEntity
  8
0
100
AcDbLine
 10
169.7681
 20
216.58065
 30
0.0
 11
171.2923
 21
220.62665
 31
0.0
  0
LINE
  5
1D30
330
1D
100
AcDbEntity
  8
0
100
AcDbLine
 10
172.32744454052
 20
222.496511631519
 30
0.0
 11
173.4262
 21
224.26065
 31
0.0
  0
LINE
  5
1D31
330
1D
100
AcDbEntity
  8
0
100
AcDbLine
 10
174.6879
 20
225.80465
 30
0.0
 11
176.1108
 21
227.19865
 31
0.0
  0
LINE
  5
1D32
330
1D
100
AcDbEntity
  8
0
100
AcDbLine
 10
174.6875
 20
225.80465
 30
0.0
 11
176.1109
 21
227.19865
 31
0.0
  0
LINE
  5
1D33
330
1D
100
AcDbEntity
  8
0
100
AcDbLine
 10
176.1109
 20
227.19865
 30
0.0
 11
177.6523
 21
228.38265
 31
0.0
  0
LINE
  5
1D34
330
1D
100
AcDbEntity
  8
0
100
AcDbLine
 10
177.6523
 20
228.38265
 30
0.0
 11
178.555161849321
 21
228.907066762779
 31
0.0
  0
LINE
  5
1D35
330
1D
100
AcDbEntity
  8
0
100
AcDbLine
 10
181.111
 20
230.08265
 30
0.0
 11
181.94265665945
 21
230.29588192936
 31
0.0
  0
LINE
  5
1D36
330
1D
100
AcDbEntity
  8
0
100
AcDbLine
 10
179.3223
 20
229.35265
 30
0.0
 11
181.111
 21
230.08265
 31
0.0
  0
LINE
  5
1D37
330
1D
100
AcDbEntity
  8
0
100
AcDbLine
 10
178.564989968835
 20
228.91277531124
 30
0.0
 11
179.3223
 21
229.35265
 31
0.0
  0
LINE
  5
1D38
330
1D
100
AcDbEntity
  8
0
100
AcDbLine
 10
181.951281324554
 20
230.298093243319
 30
0.0
 11
182.7062
 21
230.49165
 31
0.0
  0
LINE
  5
1D39
330
1D
100
AcDbEntity
  8
0
100
AcDbLine
 10
182.7062
 20
230.49165
 30
0.0
 11
185.106188258384
 21
230.734801774585
 31
0.0
  0
LINE
  5
1D3A
330
1D
100
AcDbEntity
  8
0
100
AcDbLine
 10
172.2521
 20
240.12665
 30
0.0
 11
175.3911
 21
241.47665
 31
0.0
  0
LINE
  5
1D3B
330
1D
100
AcDbEntity
  8
0
100
AcDbLine
 10
172.7325
 20
245.20965
 30
0.0
 11
175.7668
 21
246.26465
 31
0.0
  0
LINE
  5
1D3C
330
1D
100
AcDbEntity
  8
0
100
AcDbLine
 10
172.7327
 20
245.20965
 30
0.0
 11
175.7668
 21
246.26365
 31
0.0
  0
LINE
  5
1D3D
330
1D
100
AcDbEntity
  8
0
100
AcDbLine
 10
172.7803
 20
247.68665
 30
0.0
 11
175.9297
 21
248.66865
 31
0.0
  0
LINE
  5
1D3E
330
1D
100
AcDbEntity
  8
0
100
AcDbLine
 10
169.7192
 20
246.29165
 30
0.0
 11
172.7803
 21
247.68665
 31
0.0
  0
LINE
  5
1D3F
330
1D
100
AcDbEntity
  8
0
100
AcDbLine
 10
166.5734
 20
236.34565
 30
0.0
 11
169.2979
 21
238.40765
 31
0.0
  0
LINE
  5
1D40
330
1D
100
AcDbEntity
  8
0
100
AcDbLine
 10
167.0453
 20
242.23665
 30
0.0
 11
169.8158
 21
243.86265
 31
0.0
  0
LINE
  5
1D41
330
1D
100
AcDbEntity
  8
0
100
AcDbLine
 10
167.0459
 20
242.23665
 30
0.0
 11
169.8158
 21
243.86265
 31
0.0
  0
LINE
  5
1D42
330
1D
100
AcDbEntity
  8
0
100
AcDbLine
 10
166.7327
 20
244.75165
 30
0.0
 11
169.7192
 21
246.29165
 31
0.0
  0
LINE
  5
1D43
330
1D
100
AcDbEntity
  8
0
100
AcDbLine
 10
162.0475
 20
238.20965
 30
0.0
 11
164.4478
 21
240.34565
 31
0.0
  0
LINE
  5
1D44
330
1D
100
AcDbEntity
  8
0
100
AcDbLine
 10
164.1167
 20
233.96865
 30
0.0
 11
166.5734
 21
236.34565
 31
0.0
  0
LINE
  5
1D45
330
1D
100
AcDbEntity
  8
0
100
AcDbLine
 10
162.0477
 20
238.21065
 30
0.0
 11
164.4479
 21
240.34565
 31
0.0
  0
LINE
  5
1D46
330
1D
100
AcDbEntity
  8
0
100
AcDbLine
 10
164.4478
 20
240.34565
 30
0.0
 11
167.0453
 21
242.23665
 31
0.0
  0
LINE
  5
1D47
330
1D
100
AcDbEntity
  8
0
100
AcDbLine
 10
164.4479
 20
240.34565
 30
0.0
 11
167.0459
 21
242.23665
 31
0.0
  0
LINE
  5
1D48
330
1D
100
AcDbEntity
  8
0
100
AcDbLine
 10
162.3615
 20
241.58465
 30
0.0
 11
163.987
 21
242.91365
 31
0.0
  0
LINE
  5
1D49
330
1D
100
AcDbEntity
  8
0
100
AcDbLine
 10
163.987
 20
242.91365
 30
0.0
 11
166.7327
 21
244.75165
 31
0.0
  0
LINE
  5
1D4A
330
1D
100
AcDbEntity
  8
0
100
AcDbLine
 10
169.2979
 20
238.40765
 30
0.0
 11
172.2521
 21
240.12665
 31
0.0
  0
LINE
  5
1D4B
330
1D
100
AcDbEntity
  8
0
100
AcDbLine
 10
169.8158
 20
243.86265
 30
0.0
 11
172.7327
 21
245.20965
 31
0.0
  0
LINE
  5
1D4C
330
1D
100
AcDbEntity
  8
0
100
AcDbLine
 10
169.8158
 20
243.86265
 30
0.0
 11
172.7325
 21
245.20965
 31
0.0
  0
LINE
  5
1D4D
330
1D
100
AcDbEntity
  8
0
100
AcDbLine
 10
175.7668
 20
246.26465
 30
0.0
 11
178.8905
 21
247.01565
 31
0.0
  0
LINE
  5
1D4E
330
1D
100
AcDbEntity
  8
0
100
AcDbLine
 10
175.7668
 20
246.26365
 30
0.0
 11
178.8908
 21
247.01565
 31
0.0
  0
LINE
  5
1D4F
330
1D
100
AcDbEntity
  8
0
100
AcDbLine
 10
178.6699
 20
242.43965
 30
0.0
 11
182.0412
 21
242.99865
 31
0.0
  0
LINE
  5
1D50
330
1D
100
AcDbEntity
  8
0
100
AcDbLine
 10
175.3911
 20
241.47665
 30
0.0
 11
178.6699
 21
242.43965
 31
0.0
  0
LINE
  5
1D51
330
1D
100
AcDbEntity
  8
0
100
AcDbLine
 10
182.0412
 20
242.99865
 30
0.0
 11
185.226996496178
 21
243.277295742755
 31
0.0
  0
LINE
  5
1D52
330
1D
100
AcDbEntity
  8
0
100
AcDbLine
 10
178.8905
 20
247.01565
 30
0.0
 11
182.0718
 21
247.45865
 31
0.0
  0
LINE
  5
1D53
330
1D
100
AcDbEntity
  8
0
100
AcDbLine
 10
178.8908
 20
247.01565
 30
0.0
 11
182.0726
 21
247.45865
 31
0.0
  0
LINE
  5
1D54
330
1D
100
AcDbEntity
  8
0
100
AcDbLine
 10
175.9297
 20
248.66865
 30
0.0
 11
177.548
 21
249.07665
 31
0.0
  0
LINE
  5
1D55
330
1D
100
AcDbEntity
  8
0
100
AcDbLine
 10
177.548
 20
249.07665
 30
0.0
 11
179.9545
 21
249.51765
 31
0.0
  0
LINE
  5
1D56
330
1D
100
AcDbEntity
  8
0
100
AcDbLine
 10
182.0726
 20
247.45865
 30
0.0
 11
185.041450571759
 21
247.668020017464
 31
0.0
  0
LINE
  5
1D57
330
1D
100
AcDbEntity
  8
0
100
AcDbLine
 10
179.9545
 20
249.51765
 30
0.0
 11
184.567768244975
 21
249.781010121667
 31
0.0
  0
LINE
  5
1D58
330
1D
100
AcDbEntity
  8
0
100
AcDbLine
 10
213.0379
 20
235.83765
 30
0.0
 11
210.9443
 21
238.43265
 31
0.0
  0
LINE
  5
1D59
330
1D
100
AcDbEntity
  8
0
100
AcDbLine
 10
213.7447
 20
230.54665
 30
0.0
 11
212.0682
 21
233.28765
 31
0.0
  0
LINE
  5
1D5A
330
1D
100
AcDbEntity
  8
0
100
AcDbLine
 10
213.7454
 20
230.54665
 30
0.0
 11
212.0686
 21
233.28765
 31
0.0
  0
LINE
  5
1D5B
330
1D
100
AcDbEntity
  8
0
100
AcDbLine
 10
213.163
 20
211.90965
 30
0.0
 11
212.6034
 21
208.53865
 31
0.0
  0
LINE
  5
1D5C
330
1D
100
AcDbEntity
  8
0
100
AcDbLine
 10
213.049
 20
218.73165
 30
0.0
 11
212.3771
 21
222.08265
 31
0.0
  0
LINE
  5
1D5D
330
1D
100
AcDbEntity
  8
0
100
AcDbLine
 10
208.0352
 20
231.31465
 30
0.0
 11
205.8833
 21
233.96865
 31
0.0
  0
LINE
  5
1D5E
330
1D
100
AcDbEntity
  8
0
100
AcDbLine
 10
212.0682
 20
233.28765
 30
0.0
 11
210.1314
 21
235.85065
 31
0.0
  0
LINE
  5
1D5F
330
1D
100
AcDbEntity
  8
0
100
AcDbLine
 10
212.0686
 20
233.28765
 30
0.0
 11
210.1318
 21
235.84965
 31
0.0
  0
LINE
  5
1D60
330
1D
100
AcDbEntity
  8
0
100
AcDbLine
 10
188.048718675446
 20
230.298093243319
 30
0.0
 11
187.2938
 21
230.49165
 31
0.0
  0
LINE
  5
1D61
330
1D
100
AcDbEntity
  8
0
100
AcDbLine
 10
191.435010031165
 20
228.91277531124
 30
0.0
 11
190.6777
 21
229.35265
 31
0.0
  0
LINE
  5
1D62
330
1D
100
AcDbEntity
  8
0
100
AcDbLine
 10
190.6777
 20
229.35265
 30
0.0
 11
188.889
 21
230.08265
 31
0.0
  0
LINE
  5
1D63
330
1D
100
AcDbEntity
  8
0
100
AcDbLine
 10
188.889
 20
230.08265
 30
0.0
 11
188.05734334055
 21
230.29588192936
 31
0.0
  0
LINE
  5
1D64
330
1D
100
AcDbEntity
  8
0
100
AcDbLine
 10
192.3477
 20
228.38265
 30
0.0
 11
191.444838150679
 21
228.907066762779
 31
0.0
  0
LINE
  5
1D65
330
1D
100
AcDbEntity
  8
0
100
AcDbLine
 10
193.8891
 20
227.19865
 30
0.0
 11
192.3477
 21
228.38265
 31
0.0
  0
LINE
  5
1D66
330
1D
100
AcDbEntity
  8
0
100
AcDbLine
 10
195.3125
 20
225.80465
 30
0.0
 11
193.8891
 21
227.19865
 31
0.0
  0
LINE
  5
1D67
330
1D
100
AcDbEntity
  8
0
100
AcDbLine
 10
195.3121
 20
225.80465
 30
0.0
 11
193.8892
 21
227.19865
 31
0.0
  0
LINE
  5
1D68
330
1D
100
AcDbEntity
  8
0
100
AcDbLine
 10
197.67255545948
 20
222.496511631519
 30
0.0
 11
196.5738
 21
224.26065
 31
0.0
  0
LINE
  5
1D69
330
1D
100
AcDbEntity
  8
0
100
AcDbLine
 10
200.2319
 20
216.58065
 30
0.0
 11
198.7077
 21
220.62665
 31
0.0
  0
LINE
  5
1D6A
330
1D
100
AcDbEntity
  8
0
100
AcDbLine
 10
201.0065
 20
210.55665
 30
0.0
 11
200.9255
 21
212.03965
 31
0.0
  0
LINE
  5
1D6B
330
1D
100
AcDbEntity
  8
0
100
AcDbLine
 10
201.0163
 20
209.81765
 30
0.0
 11
201.0065
 21
210.55665
 31
0.0
  0
LINE
  5
1D6C
330
1D
100
AcDbEntity
  8
0
100
AcDbLine
 10
200.9255
 20
212.03965
 30
0.0
 11
200.2319
 21
216.58065
 31
0.0
  0
LINE
  5
1D6D
330
1D
100
AcDbEntity
  8
0
100
AcDbLine
 10
198.7075
 20
220.62665
 30
0.0
 11
197.67255545948
 21
222.496511631519
 31
0.0
  0
LINE
  5
1D6E
330
1D
100
AcDbEntity
  8
0
100
AcDbLine
 10
196.5743
 20
224.26065
 30
0.0
 11
195.3121
 21
225.80465
 31
0.0
  0
LINE
  5
1D6F
330
1D
100
AcDbEntity
  8
0
100
AcDbLine
 10
196.5738
 20
224.26065
 30
0.0
 11
195.3125
 21
225.80465
 31
0.0
  0
LINE
  5
1D70
330
1D
100
AcDbEntity
  8
0
100
AcDbLine
 10
212.3771
 20
222.08265
 30
0.0
 11
211.3064
 21
225.32765
 31
0.0
  0
LINE
  5
1D71
330
1D
100
AcDbEntity
  8
0
100
AcDbLine
 10
211.3064
 20
225.32765
 30
0.0
 11
209.8521
 21
228.41965
 31
0.0
  0
LINE
  5
1D72
330
1D
100
AcDbEntity
  8
0
100
AcDbLine
 10
209.8521
 20
228.41965
 30
0.0
 11
208.0352
 21
231.31465
 31
0.0
  0
LINE
  5
1D73
330
1D
100
AcDbEntity
  8
0
100
AcDbLine
 10
200.1842
 20
243.86265
 30
0.0
 11
197.2675
 21
245.20965
 31
0.0
  0
LINE
  5
1D74
330
1D
100
AcDbEntity
  8
0
100
AcDbLine
 10
200.1842
 20
243.86265
 30
0.0
 11
197.2673
 21
245.20965
 31
0.0
  0
LINE
  5
1D75
330
1D
100
AcDbEntity
  8
0
100
AcDbLine
 10
200.7021
 20
238.40765
 30
0.0
 11
197.7479
 21
240.12665
 31
0.0
  0
LINE
  5
1D76
330
1D
100
AcDbEntity
  8
0
100
AcDbLine
 10
200.2808
 20
246.29165
 30
0.0
 11
197.2197
 21
247.68665
 31
0.0
  0
LINE
  5
1D77
330
1D
100
AcDbEntity
  8
0
100
AcDbLine
 10
194.0703
 20
248.66865
 30
0.0
 11
192.452
 21
249.07665
 31
0.0
  0
LINE
  5
1D78
330
1D
100
AcDbEntity
  8
0
100
AcDbLine
 10
192.452
 20
249.07665
 30
0.0
 11
190.0455
 21
249.51765
 31
0.0
  0
LINE
  5
1D79
330
1D
100
AcDbEntity
  8
0
100
AcDbLine
 10
191.1092
 20
247.01565
 30
0.0
 11
187.9274
 21
247.45865
 31
0.0
  0
LINE
  5
1D7A
330
1D
100
AcDbEntity
  8
0
100
AcDbLine
 10
191.1095
 20
247.01565
 30
0.0
 11
187.9282
 21
247.45865
 31
0.0
  0
LINE
  5
1D7B
330
1D
100
AcDbEntity
  8
0
100
AcDbLine
 10
194.6089
 20
241.47665
 30
0.0
 11
191.3301
 21
242.43965
 31
0.0
  0
LINE
  5
1D7C
330
1D
100
AcDbEntity
  8
0
100
AcDbLine
 10
191.3301
 20
242.43965
 30
0.0
 11
187.9588
 21
242.99865
 31
0.0
  0
LINE
  5
1D7D
330
1D
100
AcDbEntity
  8
0
100
AcDbLine
 10
194.2332
 20
246.26365
 30
0.0
 11
191.1092
 21
247.01565
 31
0.0
  0
LINE
  5
1D7E
330
1D
100
AcDbEntity
  8
0
100
AcDbLine
 10
194.2332
 20
246.26465
 30
0.0
 11
191.1095
 21
247.01565
 31
0.0
  0
LINE
  5
1D7F
330
1D
100
AcDbEntity
  8
0
100
AcDbLine
 10
197.2197
 20
247.68665
 30
0.0
 11
194.0703
 21
248.66865
 31
0.0
  0
LINE
  5
1D80
330
1D
100
AcDbEntity
  8
0
100
AcDbLine
 10
197.2673
 20
245.20965
 30
0.0
 11
194.2332
 21
246.26365
 31
0.0
  0
LINE
  5
1D81
330
1D
100
AcDbEntity
  8
0
100
AcDbLine
 10
197.2675
 20
245.20965
 30
0.0
 11
194.2332
 21
246.26465
 31
0.0
  0
LINE
  5
1D82
330
1D
100
AcDbEntity
  8
0
100
AcDbLine
 10
197.7479
 20
240.12665
 30
0.0
 11
194.6089
 21
241.47665
 31
0.0
  0
LINE
  5
1D83
330
1D
100
AcDbEntity
  8
0
100
AcDbLine
 10
206.013
 20
242.91365
 30
0.0
 11
203.2673
 21
244.75165
 31
0.0
  0
LINE
  5
1D84
330
1D
100
AcDbEntity
  8
0
100
AcDbLine
 10
207.6385
 20
241.58465
 30
0.0
 11
206.013
 21
242.91365
 31
0.0
  0
LINE
  5
1D85
330
1D
100
AcDbEntity
  8
0
100
AcDbLine
 10
205.5521
 20
240.34565
 30
0.0
 11
202.9541
 21
242.23665
 31
0.0
  0
LINE
  5
1D86
330
1D
100
AcDbEntity
  8
0
100
AcDbLine
 10
205.5522
 20
240.34565
 30
0.0
 11
202.9547
 21
242.23665
 31
0.0
  0
LINE
  5
1D87
330
1D
100
AcDbEntity
  8
0
100
AcDbLine
 10
207.9523
 20
238.21065
 30
0.0
 11
205.5521
 21
240.34565
 31
0.0
  0
LINE
  5
1D88
330
1D
100
AcDbEntity
  8
0
100
AcDbLine
 10
205.8833
 20
233.96865
 30
0.0
 11
203.4266
 21
236.34565
 31
0.0
  0
LINE
  5
1D8A
330
1D
100
AcDbEntity
  8
0
100
AcDbLine
 10
203.2673
 20
244.75165
 30
0.0
 11
200.2808
 21
246.29165
 31
0.0
  0
LINE
  5
1D8B
330
1D
100
AcDbEntity
  8
0
100
AcDbLine
 10
202.9541
 20
242.23665
 30
0.0
 11
200.1842
 21
243.86265
 31
0.0
  0
LINE
  5
1D8C
330
1D
100
AcDbEntity
  8
0
100
AcDbLine
 10
202.9547
 20
242.23665
 30
0.0
 11
200.1842
 21
243.86265
 31
0.0
  0
LINE
  5
1D8D
330
1D
100
AcDbEntity
  8
0
100
AcDbLine
 10
203.4266
 20
236.34565
 30
0.0
 11
200.7021
 21
238.40765
 31
0.0
  0
LINE
  5
1D8E
330
1D
100
AcDbEntity
  8
0
100
AcDbLine
 10
210.9443
 20
238.43265
 30
0.0
 11
207.6385
 21
241.58465
 31
0.0
  0
LINE
  5
1D8F
330
1D
100
AcDbEntity
  8
0
100
AcDbLine
 10
210.1314
 20
235.85065
 30
0.0
 11
207.9523
 21
238.21065
 31
0.0
  0
LINE
  5
1D91
330
1D
100
AcDbEntity
  8
0
100
AcDbLine
 10
214.8845
 20
233.06565
 30
0.0
 11
213.0379
 21
235.83765
 31
0.0
  0
LINE
  5
1D92
330
1D
100
AcDbEntity
  8
0
100
AcDbLine
 10
217.5642
 20
218.35865
 30
0.0
 11
217.064
 21
221.53165
 31
0.0
  0
LINE
  5
1D93
330
1D
100
AcDbEntity
  8
0
100
AcDbLine
 10
217.5645
 20
218.35865
 30
0.0
 11
217.0642
 21
221.53065
 31
0.0
  0
LINE
  5
1D94
330
1D
100
AcDbEntity
  8
0
100
AcDbLine
 10
219.7782
 20
219.01265
 30
0.0
 11
218.4284
 21
225.20365
 31
0.0
  0
LINE
  5
1D95
330
1D
100
AcDbEntity
  8
0
100
AcDbLine
 10
213.3123
 20
215.32465
 30
0.0
 11
213.163
 21
211.90965
 31
0.0
  0
LINE
  5
1D96
330
1D
100
AcDbEntity
  8
0
100
AcDbLine
 10
213.3123
 20
215.32465
 30
0.0
 11
213.049
 21
218.73165
 31
0.0
  0
LINE
  5
1D97
330
1D
100
AcDbEntity
  8
0
100
AcDbLine
 10
219.9376
 20
212.36265
 30
0.0
 11
219.7782
 21
219.01265
 31
0.0
  0
LINE
  5
1D98
330
1D
100
AcDbEntity
  8
0
100
AcDbLine
 10
217.751
 20
215.15165
 30
0.0
 11
217.6229
 21
211.94065
 31
0.0
  0
LINE
  5
1D99
330
1D
100
AcDbEntity
  8
0
100
AcDbLine
 10
217.751
 20
215.15165
 30
0.0
 11
217.5642
 21
218.35865
 31
0.0
  0
LINE
  5
1D9C
330
1D
100
AcDbEntity
  8
0
100
AcDbLine
 10
217.6229
 20
211.94065
 30
0.0
 11
217.1809
 21
208.75865
 31
0.0
  0
LINE
  5
1D9D
330
1D
100
AcDbEntity
  8
0
100
AcDbLine
 10
217.6229
 20
211.94065
 30
0.0
 11
217.1805
 21
208.75865
 31
0.0
  0
LINE
  5
1D9E
330
1D
100
AcDbEntity
  8
0
100
AcDbLine
 10
215.1452
 20
227.65565
 30
0.0
 11
213.7447
 21
230.54665
 31
0.0
  0
LINE
  5
1D9F
330
1D
100
AcDbEntity
  8
0
100
AcDbLine
 10
215.145
 20
227.65565
 30
0.0
 11
213.7454
 21
230.54665
 31
0.0
  0
LINE
  5
1DA0
330
1D
100
AcDbEntity
  8
0
100
AcDbLine
 10
217.1771
 20
228.66065
 30
0.0
 11
216.4803
 21
230.14465
 31
0.0
  0
LINE
  5
1DA1
330
1D
100
AcDbEntity
  8
0
100
AcDbLine
 10
218.4284
 20
225.20365
 30
0.0
 11
217.1771
 21
228.66065
 31
0.0
  0
LINE
  5
1DA2
330
1D
100
AcDbEntity
  8
0
100
AcDbLine
 10
217.064
 20
221.53165
 30
0.0
 11
216.2551
 21
224.64065
 31
0.0
  0
LINE
  5
1DA3
330
1D
100
AcDbEntity
  8
0
100
AcDbLine
 10
217.0642
 20
221.53065
 30
0.0
 11
216.255
 21
224.63965
 31
0.0
  0
LINE
  5
1DA4
330
1D
100
AcDbEntity
  8
0
100
AcDbLine
 10
216.4803
 20
230.14465
 30
0.0
 11
214.8845
 21
233.06565
 31
0.0
  0
LINE
  5
1DA5
330
1D
100
AcDbEntity
  8
0
100
AcDbLine
 10
216.2551
 20
224.64065
 30
0.0
 11
215.1452
 21
227.65565
 31
0.0
  0
LINE
  5
1DA6
330
1D
100
AcDbEntity
  8
0
100
AcDbLine
 10
216.255
 20
224.63965
 30
0.0
 11
215.145
 21
227.65565
 31
0.0
  0
LINE
  5
1DA7
330
1D
100
AcDbEntity
  8
0
100
AcDbLine
 10
289.361109957704
 20
242.327802314134
 30
0.0
 11
292.058509957704
 21
242.756202314134
 31
0.0
  0
LINE
  5
1DA8
330
1D
100
AcDbEntity
  8
0
100
AcDbLine
 10
289.361209957704
 20
242.327702314134
 30
0.0
 11
292.058609957704
 21
242.756302314134
 31
0.0
  0
LINE
  5
1DA9
330
1D
100
AcDbEntity
  8
0
100
AcDbLine
 10
289.857909957705
 20
241.306502314134
 30
0.0
 11
292.188409957705
 21
241.754502314134
 31
0.0
  0
LINE
  5
1DAA
330
1D
100
AcDbEntity
  8
0
100
AcDbLine
 10
289.858309957704
 20
241.306602314134
 30
0.0
 11
292.188609957705
 21
241.754802314134
 31
0.0
  0
LINE
  5
1DAB
330
1D
100
AcDbEntity
  8
0
100
AcDbLine
 10
289.981009957704
 20
240.824202314134
 30
0.0
 11
292.254009957705
 21
241.261302314134
 31
0.0
  0
LINE
  5
1DAC
330
1D
100
AcDbEntity
  8
0
100
AcDbLine
 10
289.981109957705
 20
240.823802314134
 30
0.0
 11
292.254109957704
 21
241.261002314134
 31
0.0
  0
LINE
  5
1DAD
330
1D
100
AcDbEntity
  8
0
100
AcDbLine
 10
274.040109957705
 20
233.121202314134
 30
0.0
 11
275.003709957705
 21
234.213302314134
 31
0.0
  0
LINE
  5
1DAE
330
1D
100
AcDbEntity
  8
0
100
AcDbLine
 10
274.040009957705
 20
233.121102314134
 30
0.0
 11
275.003909957705
 21
234.213402314134
 31
0.0
  0
LINE
  5
1DAF
330
1D
100
AcDbEntity
  8
0
100
AcDbLine
 10
277.505709957705
 20
231.514602314134
 30
0.0
 11
279.099909957705
 21
233.719102314134
 31
0.0
  0
LINE
  5
1DB0
330
1D
100
AcDbEntity
  8
0
100
AcDbLine
 10
277.868809957705
 20
232.934202314134
 30
0.0
 11
278.712809957704
 21
234.033502314134
 31
0.0
  0
LINE
  5
1DB1
330
1D
100
AcDbEntity
  8
0
100
AcDbLine
 10
277.869109957704
 20
232.934302314134
 30
0.0
 11
278.712609957704
 21
234.033502314134
 31
0.0
  0
LINE
  5
1DB2
330
1D
100
AcDbEntity
  8
0
100
AcDbLine
 10
277.505509957705
 20
231.514702314134
 30
0.0
 11
279.099609957705
 21
233.719502314134
 31
0.0
  0
LINE
  5
1DB3
330
1D
100
AcDbEntity
  8
0
100
AcDbLine
 10
277.085209957705
 20
231.782302314134
 30
0.0
 11
277.869109957704
 21
232.934302314134
 31
0.0
  0
LINE
  5
1DB4
330
1D
100
AcDbEntity
  8
0
100
AcDbLine
 10
277.085109957704
 20
231.782402314134
 30
0.0
 11
277.868809957705
 21
232.934202314134
 31
0.0
  0
LINE
  5
1DB5
330
1D
100
AcDbEntity
  8
0
100
AcDbLine
 10
272.978209957704
 20
219.303402314134
 30
0.0
 11
273.191309957705
 21
221.167502314134
 31
0.0
  0
LINE
  5
1DB6
330
1D
100
AcDbEntity
  8
0
100
AcDbLine
 10
272.978209957704
 20
219.303402314134
 30
0.0
 11
273.190909957704
 21
221.167402314134
 31
0.0
  0
LINE
  5
1DB7
330
1D
100
AcDbEntity
  8
0
100
AcDbLine
 10
273.473609957704
 20
219.262402314134
 30
0.0
 11
273.683409957704
 21
221.095402314134
 31
0.0
  0
LINE
  5
1DB8
330
1D
100
AcDbEntity
  8
0
100
AcDbLine
 10
273.474109957705
 20
219.262302314134
 30
0.0
 11
273.683509957704
 21
221.095602314134
 31
0.0
  0
LINE
  5
1DB9
330
1D
100
AcDbEntity
  8
0
100
AcDbLine
 10
268.059909957705
 20
220.108902314134
 30
0.0
 11
268.334409957705
 21
221.523902314134
 31
0.0
  0
LINE
  5
1DBA
330
1D
100
AcDbEntity
  8
0
100
AcDbLine
 10
268.059709957704
 20
220.108802314134
 30
0.0
 11
268.334009957704
 21
221.523802314134
 31
0.0
  0
LINE
  5
1DBB
330
1D
100
AcDbEntity
  8
0
100
AcDbLine
 10
267.860409957704
 20
218.681402314134
 30
0.0
 11
268.059709957704
 21
220.108802314134
 31
0.0
  0
LINE
  5
1DBC
330
1D
100
AcDbEntity
  8
0
100
AcDbLine
 10
267.860709957705
 20
218.681602314134
 30
0.0
 11
268.059909957705
 21
220.108902314134
 31
0.0
  0
LINE
  5
1DBD
330
1D
100
AcDbEntity
  8
0
100
AcDbLine
 10
267.688209957704
 20
215.615502314134
 30
0.0
 11
267.737409957705
 21
213.979102314134
 31
0.0
  0
LINE
  5
1DBE
330
1D
100
AcDbEntity
  8
0
100
AcDbLine
 10
267.688209957704
 20
215.615502314134
 30
0.0
 11
267.737409957705
 21
213.979002314134
 31
0.0
  0
LINE
  5
1DBF
330
1D
100
AcDbEntity
  8
0
100
AcDbLine
 10
267.688209957704
 20
215.615502314134
 30
0.0
 11
267.737009957704
 21
217.245402314134
 31
0.0
  0
LINE
  5
1DC0
330
1D
100
AcDbEntity
  8
0
100
AcDbLine
 10
267.736709957705
 20
217.245202314134
 30
0.0
 11
267.860409957704
 21
218.681402314134
 31
0.0
  0
LINE
  5
1DC1
330
1D
100
AcDbEntity
  8
0
100
AcDbLine
 10
267.737009957704
 20
217.245402314134
 30
0.0
 11
267.860709957705
 21
218.681602314134
 31
0.0
  0
LINE
  5
1DC2
330
1D
100
AcDbEntity
  8
0
100
AcDbLine
 10
267.688309957704
 20
215.615502314134
 30
0.0
 11
267.736709957705
 21
217.245202314134
 31
0.0
  0
LINE
  5
1DC3
330
1D
100
AcDbEntity
  8
0
100
AcDbLine
 10
268.120909957704
 20
210.772602314134
 30
0.0
 11
268.454609957704
 21
209.191702314134
 31
0.0
  0
LINE
  5
1DC4
330
1D
100
AcDbEntity
  8
0
100
AcDbLine
 10
268.121009957704
 20
210.772602314134
 30
0.0
 11
268.454709957704
 21
209.191702314134
 31
0.0
  0
LINE
  5
1DC5
330
1D
100
AcDbEntity
  8
0
100
AcDbLine
 10
267.881809957704
 20
212.370002314134
 30
0.0
 11
268.121009957704
 21
210.772602314134
 31
0.0
  0
LINE
  5
1DC6
330
1D
100
AcDbEntity
  8
0
100
AcDbLine
 10
267.881709957705
 20
212.369902314134
 30
0.0
 11
268.120909957704
 21
210.772602314134
 31
0.0
  0
LINE
  5
1DC7
330
1D
100
AcDbEntity
  8
0
100
AcDbLine
 10
267.737409957705
 20
213.979002314134
 30
0.0
 11
267.881709957705
 21
212.369902314134
 31
0.0
  0
LINE
  5
1DC8
330
1D
100
AcDbEntity
  8
0
100
AcDbLine
 10
267.737409957705
 20
213.979102314134
 30
0.0
 11
267.881809957704
 21
212.370002314134
 31
0.0
  0
LINE
  5
1DC9
330
1D
100
AcDbEntity
  8
0
100
AcDbLine
 10
272.895209957705
 20
215.615802314134
 30
0.0
 11
272.989709957704
 21
214.046602314134
 31
0.0
  0
LINE
  5
1DCA
330
1D
100
AcDbEntity
  8
0
100
AcDbLine
 10
272.895309957705
 20
215.615602314134
 30
0.0
 11
272.989809957704
 21
214.046302314134
 31
0.0
  0
LINE
  5
1DCB
330
1D
100
AcDbEntity
  8
0
100
AcDbLine
 10
273.391309957704
 20
215.633602314134
 30
0.0
 11
273.650009957704
 21
212.543302314134
 31
0.0
  0
LINE
  5
1DCC
330
1D
100
AcDbEntity
  8
0
100
AcDbLine
 10
273.391309957704
 20
215.633202314134
 30
0.0
 11
273.650109957704
 21
212.543002314134
 31
0.0
  0
LINE
  5
1DCD
330
1D
100
AcDbEntity
  8
0
100
AcDbLine
 10
273.650009957704
 20
212.543302314134
 30
0.0
 11
274.193809957705
 21
209.470102314134
 31
0.0
  0
LINE
  5
1DCE
330
1D
100
AcDbEntity
  8
0
100
AcDbLine
 10
273.399909957704
 20
210.916702314134
 30
0.0
 11
273.710509957705
 21
209.362602314134
 31
0.0
  0
LINE
  5
1DCF
330
1D
100
AcDbEntity
  8
0
100
AcDbLine
 10
273.650109957704
 20
212.543002314134
 30
0.0
 11
274.193809957705
 21
209.469902314134
 31
0.0
  0
LINE
  5
1DD0
330
1D
100
AcDbEntity
  8
0
100
AcDbLine
 10
273.710509957705
 20
209.362602314134
 30
0.0
 11
274.087009957705
 21
207.821502314134
 31
0.0
  0
LINE
  5
1DD1
330
1D
100
AcDbEntity
  8
0
100
AcDbLine
 10
273.710409957705
 20
209.362802314134
 30
0.0
 11
274.087109957705
 21
207.821302314134
 31
0.0
  0
LINE
  5
1DD2
330
1D
100
AcDbEntity
  8
0
100
AcDbLine
 10
273.400009957704
 20
210.916402314134
 30
0.0
 11
273.710409957705
 21
209.362802314134
 31
0.0
  0
LINE
  5
1DD3
330
1D
100
AcDbEntity
  8
0
100
AcDbLine
 10
273.158809957705
 20
212.478802314134
 30
0.0
 11
273.400009957704
 21
210.916402314134
 31
0.0
  0
LINE
  5
1DD4
330
1D
100
AcDbEntity
  8
0
100
AcDbLine
 10
273.158609957705
 20
212.478902314134
 30
0.0
 11
273.399909957704
 21
210.916702314134
 31
0.0
  0
LINE
  5
1DD5
330
1D
100
AcDbEntity
  8
0
100
AcDbLine
 10
272.989809957704
 20
214.046302314134
 30
0.0
 11
273.158809957705
 21
212.478802314134
 31
0.0
  0
LINE
  5
1DD6
330
1D
100
AcDbEntity
  8
0
100
AcDbLine
 10
272.989709957704
 20
214.046602314134
 30
0.0
 11
273.158609957705
 21
212.478902314134
 31
0.0
  0
LINE
  5
1DD7
330
1D
100
AcDbEntity
  8
0
100
AcDbLine
 10
272.881309957705
 20
217.419902314134
 30
0.0
 11
272.895309957705
 21
215.615602314134
 31
0.0
  0
LINE
  5
1DD8
330
1D
100
AcDbEntity
  8
0
100
AcDbLine
 10
272.881309957705
 20
217.419902314134
 30
0.0
 11
272.978209957704
 21
219.303402314134
 31
0.0
  0
LINE
  5
1DD9
330
1D
100
AcDbEntity
  8
0
100
AcDbLine
 10
272.881509957705
 20
217.419902314134
 30
0.0
 11
272.895209957705
 21
215.615502314134
 31
0.0
  0
LINE
  5
1DDA
330
1D
100
AcDbEntity
  8
0
100
AcDbLine
 10
272.881509957705
 20
217.419902314134
 30
0.0
 11
272.978209957704
 21
219.303402314134
 31
0.0
  0
LINE
  5
1DDB
330
1D
100
AcDbEntity
  8
0
100
AcDbLine
 10
273.378309957704
 20
217.409602314134
 30
0.0
 11
273.474109957705
 21
219.262302314134
 31
0.0
  0
LINE
  5
1DDC
330
1D
100
AcDbEntity
  8
0
100
AcDbLine
 10
273.378309957704
 20
217.409602314134
 30
0.0
 11
273.391309957704
 21
215.633602314134
 31
0.0
  0
LINE
  5
1DDD
330
1D
100
AcDbEntity
  8
0
100
AcDbLine
 10
273.378009957705
 20
217.409502314134
 30
0.0
 11
273.391109957704
 21
215.633102314134
 31
0.0
  0
LINE
  5
1DDE
330
1D
100
AcDbEntity
  8
0
100
AcDbLine
 10
273.378009957705
 20
217.409502314134
 30
0.0
 11
273.473609957704
 21
219.262402314134
 31
0.0
  0
LINE
  5
1DDF
330
1D
100
AcDbEntity
  8
0
100
AcDbLine
 10
270.806209957705
 20
228.287602314134
 30
0.0
 11
271.516809957704
 21
229.559002314134
 31
0.0
  0
LINE
  5
1DE0
330
1D
100
AcDbEntity
  8
0
100
AcDbLine
 10
270.806509957705
 20
228.287702314134
 30
0.0
 11
271.516809957704
 21
229.559002314134
 31
0.0
  0
LINE
  5
1DE1
330
1D
100
AcDbEntity
  8
0
100
AcDbLine
 10
269.599509957704
 20
225.654302314134
 30
0.0
 11
270.165109957705
 21
226.980502314134
 31
0.0
  0
LINE
  5
1DE2
330
1D
100
AcDbEntity
  8
0
100
AcDbLine
 10
269.599509957704
 20
225.654302314134
 30
0.0
 11
270.164909957704
 21
226.980302314134
 31
0.0
  0
LINE
  5
1DE3
330
1D
100
AcDbEntity
  8
0
100
AcDbLine
 10
270.164909957704
 20
226.980302314134
 30
0.0
 11
270.806509957705
 21
228.287702314134
 31
0.0
  0
LINE
  5
1DE4
330
1D
100
AcDbEntity
  8
0
100
AcDbLine
 10
270.165109957705
 20
226.980502314134
 30
0.0
 11
270.806209957705
 21
228.287602314134
 31
0.0
  0
LINE
  5
1DE5
330
1D
100
AcDbEntity
  8
0
100
AcDbLine
 10
269.105309957705
 20
224.300502314134
 30
0.0
 11
269.599509957704
 21
225.654302314134
 31
0.0
  0
LINE
  5
1DE6
330
1D
100
AcDbEntity
  8
0
100
AcDbLine
 10
269.105109957704
 20
224.300402314134
 30
0.0
 11
269.599509957704
 21
225.654302314134
 31
0.0
  0
LINE
  5
1DE7
330
1D
100
AcDbEntity
  8
0
100
AcDbLine
 10
268.334009957704
 20
221.523802314134
 30
0.0
 11
268.682709957704
 21
222.922302314134
 31
0.0
  0
LINE
  5
1DE8
330
1D
100
AcDbEntity
  8
0
100
AcDbLine
 10
268.334409957705
 20
221.523902314134
 30
0.0
 11
268.683109957705
 21
222.922502314134
 31
0.0
  0
LINE
  5
1DE9
330
1D
100
AcDbEntity
  8
0
100
AcDbLine
 10
268.683109957705
 20
222.922502314134
 30
0.0
 11
269.105109957704
 21
224.300402314134
 31
0.0
  0
LINE
  5
1DEA
330
1D
100
AcDbEntity
  8
0
100
AcDbLine
 10
268.682709957704
 20
222.922302314134
 30
0.0
 11
269.105309957705
 21
224.300502314134
 31
0.0
  0
LINE
  5
1DEB
330
1D
100
AcDbEntity
  8
0
100
AcDbLine
 10
274.592709957705
 20
226.732702314134
 30
0.0
 11
275.116009957705
 21
228.053502314134
 31
0.0
  0
LINE
  5
1DEC
330
1D
100
AcDbEntity
  8
0
100
AcDbLine
 10
274.592509957705
 20
226.732702314134
 30
0.0
 11
275.116209957705
 21
228.053502314134
 31
0.0
  0
LINE
  5
1DED
330
1D
100
AcDbEntity
  8
0
100
AcDbLine
 10
275.060609957704
 20
226.562202314134
 30
0.0
 11
276.154409957705
 21
229.118402314134
 31
0.0
  0
LINE
  5
1DEE
330
1D
100
AcDbEntity
  8
0
100
AcDbLine
 10
275.060409957704
 20
226.562002314134
 30
0.0
 11
276.154209957705
 21
229.118602314134
 31
0.0
  0
LINE
  5
1DEF
330
1D
100
AcDbEntity
  8
0
100
AcDbLine
 10
274.234809957705
 20
223.877402314134
 30
0.0
 11
275.060609957704
 21
226.562202314134
 31
0.0
  0
LINE
  5
1DF0
330
1D
100
AcDbEntity
  8
0
100
AcDbLine
 10
274.137709957704
 20
225.379802314134
 30
0.0
 11
274.592709957705
 21
226.732702314134
 31
0.0
  0
LINE
  5
1DF1
330
1D
100
AcDbEntity
  8
0
100
AcDbLine
 10
274.137509957704
 20
225.379802314134
 30
0.0
 11
274.592509957705
 21
226.732702314134
 31
0.0
  0
LINE
  5
1DF2
330
1D
100
AcDbEntity
  8
0
100
AcDbLine
 10
274.235009957705
 20
223.877402314134
 30
0.0
 11
275.060409957704
 21
226.562002314134
 31
0.0
  0
LINE
  5
1DF3
330
1D
100
AcDbEntity
  8
0
100
AcDbLine
 10
273.752009957705
 20
223.998602314134
 30
0.0
 11
274.137509957704
 21
225.379802314134
 31
0.0
  0
LINE
  5
1DF4
330
1D
100
AcDbEntity
  8
0
100
AcDbLine
 10
273.752209957705
 20
223.998802314134
 30
0.0
 11
274.137709957704
 21
225.379802314134
 31
0.0
  0
LINE
  5
1DF5
330
1D
100
AcDbEntity
  8
0
100
AcDbLine
 10
273.191309957705
 20
221.167502314134
 30
0.0
 11
273.436209957704
 21
222.593102314134
 31
0.0
  0
LINE
  5
1DF6
330
1D
100
AcDbEntity
  8
0
100
AcDbLine
 10
273.190909957704
 20
221.167402314134
 30
0.0
 11
273.436309957704
 21
222.593202314134
 31
0.0
  0
LINE
  5
1DF7
330
1D
100
AcDbEntity
  8
0
100
AcDbLine
 10
273.436209957704
 20
222.593102314134
 30
0.0
 11
273.752209957705
 21
223.998802314134
 31
0.0
  0
LINE
  5
1DF8
330
1D
100
AcDbEntity
  8
0
100
AcDbLine
 10
273.436309957704
 20
222.593202314134
 30
0.0
 11
273.752009957705
 21
223.998602314134
 31
0.0
  0
LINE
  5
1DF9
330
1D
100
AcDbEntity
  8
0
100
AcDbLine
 10
273.683409957704
 20
221.095402314134
 30
0.0
 11
274.234809957705
 21
223.877402314134
 31
0.0
  0
LINE
  5
1DFA
330
1D
100
AcDbEntity
  8
0
100
AcDbLine
 10
273.683509957704
 20
221.095602314134
 30
0.0
 11
274.235009957705
 21
223.877402314134
 31
0.0
  0
LINE
  5
1DFB
330
1D
100
AcDbEntity
  8
0
100
AcDbLine
 10
276.154409957705
 20
229.118402314134
 30
0.0
 11
277.505509957705
 21
231.514702314134
 31
0.0
  0
LINE
  5
1DFC
330
1D
100
AcDbEntity
  8
0
100
AcDbLine
 10
276.154209957705
 20
229.118602314134
 30
0.0
 11
277.505709957705
 21
231.514602314134
 31
0.0
  0
LINE
  5
1DFD
330
1D
100
AcDbEntity
  8
0
100
AcDbLine
 10
276.364009957704
 20
230.582402314134
 30
0.0
 11
277.085109957704
 21
231.782402314134
 31
0.0
  0
LINE
  5
1DFE
330
1D
100
AcDbEntity
  8
0
100
AcDbLine
 10
276.364009957704
 20
230.582402314134
 30
0.0
 11
277.085209957705
 21
231.782302314134
 31
0.0
  0
LINE
  5
1DFF
330
1D
100
AcDbEntity
  8
0
100
AcDbLine
 10
275.707209957704
 20
229.338202314134
 30
0.0
 11
276.364009957704
 21
230.582402314134
 31
0.0
  0
LINE
  5
1E00
330
1D
100
AcDbEntity
  8
0
100
AcDbLine
 10
273.135809957704
 20
231.979202314134
 30
0.0
 11
274.040009957705
 21
233.121102314134
 31
0.0
  0
LINE
  5
1E01
330
1D
100
AcDbEntity
  8
0
100
AcDbLine
 10
273.135609957704
 20
231.979002314134
 30
0.0
 11
274.040109957705
 21
233.121202314134
 31
0.0
  0
LINE
  5
1E02
330
1D
100
AcDbEntity
  8
0
100
AcDbLine
 10
275.707409957704
 20
229.338102314134
 30
0.0
 11
276.364009957704
 21
230.582402314134
 31
0.0
  0
LINE
  5
1E03
330
1D
100
AcDbEntity
  8
0
100
AcDbLine
 10
275.116209957705
 20
228.053502314134
 30
0.0
 11
275.707409957704
 21
229.338102314134
 31
0.0
  0
LINE
  5
1E04
330
1D
100
AcDbEntity
  8
0
100
AcDbLine
 10
275.116009957705
 20
228.053502314134
 30
0.0
 11
275.707209957704
 21
229.338202314134
 31
0.0
  0
LINE
  5
1E05
330
1D
100
AcDbEntity
  8
0
100
AcDbLine
 10
271.516809957704
 20
229.559002314134
 30
0.0
 11
272.293709957705
 21
230.790602314134
 31
0.0
  0
LINE
  5
1E06
330
1D
100
AcDbEntity
  8
0
100
AcDbLine
 10
271.516809957704
 20
229.559002314134
 30
0.0
 11
272.294009957704
 21
230.790602314134
 31
0.0
  0
LINE
  5
1E07
330
1D
100
AcDbEntity
  8
0
100
AcDbLine
 10
272.293709957705
 20
230.790602314134
 30
0.0
 11
273.135809957704
 21
231.979202314134
 31
0.0
  0
LINE
  5
1E08
330
1D
100
AcDbEntity
  8
0
100
AcDbLine
 10
272.294009957704
 20
230.790602314134
 30
0.0
 11
273.135609957704
 21
231.979002314134
 31
0.0
  0
LINE
  5
1E09
330
1D
100
AcDbEntity
  8
0
100
AcDbLine
 10
277.099009957705
 20
236.236302314134
 30
0.0
 11
278.224709957704
 21
237.161402314134
 31
0.0
  0
LINE
  5
1E0A
330
1D
100
AcDbEntity
  8
0
100
AcDbLine
 10
277.099309957704
 20
236.236402314134
 30
0.0
 11
278.224809957705
 21
237.161402314134
 31
0.0
  0
LINE
  5
1E0B
330
1D
100
AcDbEntity
  8
0
100
AcDbLine
 10
276.024209957704
 20
235.252802314134
 30
0.0
 11
277.099309957704
 21
236.236402314134
 31
0.0
  0
LINE
  5
1E0C
330
1D
100
AcDbEntity
  8
0
100
AcDbLine
 10
276.024609957705
 20
235.253002314134
 30
0.0
 11
277.099009957705
 21
236.236302314134
 31
0.0
  0
LINE
  5
1E0F
330
1D
100
AcDbEntity
  8
0
100
AcDbLine
 10
283.790109957705
 20
238.632002314134
 30
0.0
 11
285.461809957704
 21
239.615602314134
 31
0.0
  0
LINE
  5
1E10
330
1D
100
AcDbEntity
  8
0
100
AcDbLine
 10
283.790109957705
 20
238.632002314134
 30
0.0
 11
285.461709957704
 21
239.615502314134
 31
0.0
  0
LINE
  5
1E11
330
1D
100
AcDbEntity
  8
0
100
AcDbLine
 10
283.304109957704
 20
237.695102314134
 30
0.0
 11
284.475709957705
 21
238.477902314134
 31
0.0
  0
LINE
  5
1E12
330
1D
100
AcDbEntity
  8
0
100
AcDbLine
 10
283.303809957705
 20
237.695202314134
 30
0.0
 11
284.475809957705
 21
238.478102314134
 31
0.0
  0
LINE
  5
1E13
330
1D
100
AcDbEntity
  8
0
100
AcDbLine
 10
282.923409957705
 20
240.103602314134
 30
0.0
 11
284.163109957704
 21
240.676302314134
 31
0.0
  0
LINE
  5
1E14
330
1D
100
AcDbEntity
  8
0
100
AcDbLine
 10
282.923609957704
 20
240.103702314134
 30
0.0
 11
284.163309957705
 21
240.676402314134
 31
0.0
  0
LINE
  5
1E15
330
1D
100
AcDbEntity
  8
0
100
AcDbLine
 10
278.224709957704
 20
237.161402314134
 30
0.0
 11
279.398509957704
 21
238.025002314134
 31
0.0
  0
LINE
  5
1E16
330
1D
100
AcDbEntity
  8
0
100
AcDbLine
 10
279.398509957704
 20
238.025002314134
 30
0.0
 11
280.538209957705
 21
238.776402314134
 31
0.0
  0
LINE
  5
1E17
330
1D
100
AcDbEntity
  8
0
100
AcDbLine
 10
281.714509957704
 20
239.470002314134
 30
0.0
 11
282.923609957704
 21
240.103702314134
 31
0.0
  0
LINE
  5
1E18
330
1D
100
AcDbEntity
  8
0
100
AcDbLine
 10
280.538309957705
 20
238.776502314134
 30
0.0
 11
281.714509957704
 21
239.470002314134
 31
0.0
  0
LINE
  5
1E19
330
1D
100
AcDbEntity
  8
0
100
AcDbLine
 10
281.714209957704
 20
239.469802314134
 30
0.0
 11
282.923409957705
 21
240.103602314134
 31
0.0
  0
LINE
  5
1E1A
330
1D
100
AcDbEntity
  8
0
100
AcDbLine
 10
280.538209957705
 20
238.776402314134
 30
0.0
 11
281.714209957704
 21
239.469802314134
 31
0.0
  0
LINE
  5
1E1B
330
1D
100
AcDbEntity
  8
0
100
AcDbLine
 10
279.398609957705
 20
238.025002314134
 30
0.0
 11
280.538309957705
 21
238.776502314134
 31
0.0
  0
LINE
  5
1E1C
330
1D
100
AcDbEntity
  8
0
100
AcDbLine
 10
278.224809957705
 20
237.161402314134
 30
0.0
 11
279.398609957705
 21
238.025002314134
 31
0.0
  0
LINE
  5
1E1D
330
1D
100
AcDbEntity
  8
0
100
AcDbLine
 10
281.071309957704
 20
235.846902314134
 30
0.0
 11
282.159009957704
 21
236.811502314134
 31
0.0
  0
LINE
  5
1E1E
330
1D
100
AcDbEntity
  8
0
100
AcDbLine
 10
280.727909957704
 20
236.207902314134
 30
0.0
 11
282.208909957704
 21
237.492602314134
 31
0.0
  0
LINE
  5
1E1F
330
1D
100
AcDbEntity
  8
0
100
AcDbLine
 10
280.727909957704
 20
236.207902314134
 30
0.0
 11
282.208809957704
 21
237.492602314134
 31
0.0
  0
LINE
  5
1E20
330
1D
100
AcDbEntity
  8
0
100
AcDbLine
 10
279.688209957704
 20
235.155902314134
 30
0.0
 11
280.727909957704
 21
236.207902314134
 31
0.0
  0
LINE
  5
1E21
330
1D
100
AcDbEntity
  8
0
100
AcDbLine
 10
279.688309957704
 20
235.155902314134
 30
0.0
 11
280.727909957704
 21
236.207902314134
 31
0.0
  0
LINE
  5
1E22
330
1D
100
AcDbEntity
  8
0
100
AcDbLine
 10
282.208809957704
 20
237.492602314134
 30
0.0
 11
283.790109957705
 21
238.632002314134
 31
0.0
  0
LINE
  5
1E23
330
1D
100
AcDbEntity
  8
0
100
AcDbLine
 10
282.208909957704
 20
237.492602314134
 30
0.0
 11
283.790109957705
 21
238.632002314134
 31
0.0
  0
LINE
  5
1E24
330
1D
100
AcDbEntity
  8
0
100
AcDbLine
 10
282.159009957704
 20
236.811502314134
 30
0.0
 11
283.303809957705
 21
237.695202314134
 31
0.0
  0
LINE
  5
1E25
330
1D
100
AcDbEntity
  8
0
100
AcDbLine
 10
282.159009957704
 20
236.811102314134
 30
0.0
 11
283.304109957704
 21
237.695102314134
 31
0.0
  0
LINE
  5
1E26
330
1D
100
AcDbEntity
  8
0
100
AcDbLine
 10
279.099609957705
 20
233.719502314134
 30
0.0
 11
281.071309957704
 21
235.846902314134
 31
0.0
  0
LINE
  5
1E27
330
1D
100
AcDbEntity
  8
0
100
AcDbLine
 10
278.712809957704
 20
234.033502314134
 30
0.0
 11
279.688309957704
 21
235.155902314134
 31
0.0
  0
LINE
  5
1E28
330
1D
100
AcDbEntity
  8
0
100
AcDbLine
 10
286.720909957704
 20
241.632202314134
 30
0.0
 11
288.032109957705
 21
242.013002314134
 31
0.0
  0
LINE
  5
1E29
330
1D
100
AcDbEntity
  8
0
100
AcDbLine
 10
286.721009957705
 20
241.632202314134
 30
0.0
 11
288.032109957705
 21
242.013002314134
 31
0.0
  0
LINE
  5
1E2A
330
1D
100
AcDbEntity
  8
0
100
AcDbLine
 10
285.694409957704
 20
239.175302314134
 30
0.0
 11
287.788809957704
 21
240.126302314134
 31
0.0
  0
LINE
  5
1E2B
330
1D
100
AcDbEntity
  8
0
100
AcDbLine
 10
285.694609957704
 20
239.175402314134
 30
0.0
 11
287.788509957704
 21
240.126402314134
 31
0.0
  0
LINE
  5
1E2C
330
1D
100
AcDbEntity
  8
0
100
AcDbLine
 10
285.461709957704
 20
239.615502314134
 30
0.0
 11
287.609509957704
 21
240.590802314134
 31
0.0
  0
LINE
  5
1E2D
330
1D
100
AcDbEntity
  8
0
100
AcDbLine
 10
285.461809957704
 20
239.615602314134
 30
0.0
 11
287.609609957704
 21
240.590902314134
 31
0.0
  0
LINE
  5
1E2E
330
1D
100
AcDbEntity
  8
0
100
AcDbLine
 10
284.163109957704
 20
240.676302314134
 30
0.0
 11
285.430109957704
 21
241.186202314134
 31
0.0
  0
LINE
  5
1E2F
330
1D
100
AcDbEntity
  8
0
100
AcDbLine
 10
285.430109957704
 20
241.186202314134
 30
0.0
 11
286.720909957704
 21
241.632202314134
 31
0.0
  0
LINE
  5
1E30
330
1D
100
AcDbEntity
  8
0
100
AcDbLine
 10
285.429909957704
 20
241.186302314134
 30
0.0
 11
286.721009957705
 21
241.632202314134
 31
0.0
  0
LINE
  5
1E31
330
1D
100
AcDbEntity
  8
0
100
AcDbLine
 10
284.163309957705
 20
240.676402314134
 30
0.0
 11
285.429909957704
 21
241.186302314134
 31
0.0
  0
LINE
  5
1E32
330
1D
100
AcDbEntity
  8
0
100
AcDbLine
 10
284.475809957705
 20
238.478102314134
 30
0.0
 11
285.694409957704
 21
239.175302314134
 31
0.0
  0
LINE
  5
1E33
330
1D
100
AcDbEntity
  8
0
100
AcDbLine
 10
284.475709957705
 20
238.477902314134
 30
0.0
 11
285.694609957704
 21
239.175402314134
 31
0.0
  0
LINE
  5
1E34
330
1D
100
AcDbEntity
  8
0
100
AcDbLine
 10
288.032109957705
 20
242.013002314134
 30
0.0
 11
289.361209957704
 21
242.327702314134
 31
0.0
  0
LINE
  5
1E35
330
1D
100
AcDbEntity
  8
0
100
AcDbLine
 10
288.032109957705
 20
242.013002314134
 30
0.0
 11
289.361109957704
 21
242.327802314134
 31
0.0
  0
LINE
  5
1E36
330
1D
100
AcDbEntity
  8
0
100
AcDbLine
 10
287.609509957704
 20
240.590802314134
 30
0.0
 11
289.857909957705
 21
241.306502314134
 31
0.0
  0
LINE
  5
1E37
330
1D
100
AcDbEntity
  8
0
100
AcDbLine
 10
287.609609957704
 20
240.590902314134
 30
0.0
 11
289.858309957704
 21
241.306602314134
 31
0.0
  0
LINE
  5
1E38
330
1D
100
AcDbEntity
  8
0
100
AcDbLine
 10
287.788809957704
 20
240.126302314134
 30
0.0
 11
289.981009957704
 21
240.824202314134
 31
0.0
  0
LINE
  5
1E39
330
1D
100
AcDbEntity
  8
0
100
AcDbLine
 10
287.788509957704
 20
240.126402314134
 30
0.0
 11
289.981109957705
 21
240.823802314134
 31
0.0
  0
LINE
  5
1E3A
330
1D
100
AcDbEntity
  8
0
100
AcDbLine
 10
316.862009957704
 20
231.979202314134
 30
0.0
 11
315.957809957705
 21
233.121102314134
 31
0.0
  0
LINE
  5
1E3B
330
1D
100
AcDbEntity
  8
0
100
AcDbLine
 10
316.862209957704
 20
231.979002314134
 30
0.0
 11
315.957709957705
 21
233.121202314134
 31
0.0
  0
LINE
  5
1E3C
330
1D
100
AcDbEntity
  8
0
100
AcDbLine
 10
316.806509957705
 20
221.167502314134
 30
0.0
 11
316.561609957705
 21
222.593102314134
 31
0.0
  0
LINE
  5
1E3D
330
1D
100
AcDbEntity
  8
0
100
AcDbLine
 10
316.806909957704
 20
221.167402314134
 30
0.0
 11
316.561509957704
 21
222.593202314134
 31
0.0
  0
LINE
  5
1E3E
330
1D
100
AcDbEntity
  8
0
100
AcDbLine
 10
316.619509957704
 20
217.409602314134
 30
0.0
 11
316.523709957705
 21
219.262302314134
 31
0.0
  0
LINE
  5
1E3F
330
1D
100
AcDbEntity
  8
0
100
AcDbLine
 10
316.619809957705
 20
217.409502314134
 30
0.0
 11
316.524209957704
 21
219.262402314134
 31
0.0
  0
LINE
  5
1E40
330
1D
100
AcDbEntity
  8
0
100
AcDbLine
 10
316.597909957705
 20
210.916702314134
 30
0.0
 11
316.287309957705
 21
209.362602314134
 31
0.0
  0
LINE
  5
1E41
330
1D
100
AcDbEntity
  8
0
100
AcDbLine
 10
316.597809957705
 20
210.916402314134
 30
0.0
 11
316.287409957705
 21
209.362802314134
 31
0.0
  0
LINE
  5
1E42
330
1D
100
AcDbEntity
  8
0
100
AcDbLine
 10
316.606509957704
 20
215.633602314134
 30
0.0
 11
316.347809957705
 21
212.543302314134
 31
0.0
  0
LINE
  5
1E43
330
1D
100
AcDbEntity
  8
0
100
AcDbLine
 10
316.606509957704
 20
215.633202314134
 30
0.0
 11
316.347709957704
 21
212.543002314134
 31
0.0
  0
LINE
  5
1E44
330
1D
100
AcDbEntity
  8
0
100
AcDbLine
 10
312.492109957705
 20
231.514602314134
 30
0.0
 11
310.897909957705
 21
233.719102314134
 31
0.0
  0
LINE
  5
1E45
330
1D
100
AcDbEntity
  8
0
100
AcDbLine
 10
312.129009957705
 20
232.934202314134
 30
0.0
 11
311.285009957704
 21
234.033502314134
 31
0.0
  0
LINE
  5
1E46
330
1D
100
AcDbEntity
  8
0
100
AcDbLine
 10
312.128709957705
 20
232.934302314134
 30
0.0
 11
311.285209957704
 21
234.033502314134
 31
0.0
  0
LINE
  5
1E47
330
1D
100
AcDbEntity
  8
0
100
AcDbLine
 10
312.492309957704
 20
231.514702314134
 30
0.0
 11
310.898209957704
 21
233.719502314134
 31
0.0
  0
LINE
  5
1E48
330
1D
100
AcDbEntity
  8
0
100
AcDbLine
 10
315.957709957705
 20
233.121202314134
 30
0.0
 11
314.994109957704
 21
234.213302314134
 31
0.0
  0
LINE
  5
1E49
330
1D
100
AcDbEntity
  8
0
100
AcDbLine
 10
315.957809957705
 20
233.121102314134
 30
0.0
 11
314.993909957705
 21
234.213402314134
 31
0.0
  0
LINE
  5
1E4A
330
1D
100
AcDbEntity
  8
0
100
AcDbLine
 10
316.524209957704
 20
219.262402314134
 30
0.0
 11
316.314409957705
 21
221.095402314134
 31
0.0
  0
LINE
  5
1E4B
330
1D
100
AcDbEntity
  8
0
100
AcDbLine
 10
316.523709957705
 20
219.262302314134
 30
0.0
 11
316.314309957705
 21
221.095602314134
 31
0.0
  0
LINE
  5
1E4C
330
1D
100
AcDbEntity
  8
0
100
AcDbLine
 10
316.347809957705
 20
212.543302314134
 30
0.0
 11
315.804009957704
 21
209.470102314134
 31
0.0
  0
LINE
  5
1E4D
330
1D
100
AcDbEntity
  8
0
100
AcDbLine
 10
316.347709957704
 20
212.543002314134
 30
0.0
 11
315.804009957704
 21
209.469902314134
 31
0.0
  0
LINE
  5
1E4E
330
1D
100
AcDbEntity
  8
0
100
AcDbLine
 10
316.287309957705
 20
209.362602314134
 30
0.0
 11
315.910809957704
 21
207.821502314134
 31
0.0
  0
LINE
  5
1E4F
330
1D
100
AcDbEntity
  8
0
100
AcDbLine
 10
316.287409957705
 20
209.362802314134
 30
0.0
 11
315.910709957705
 21
207.821302314134
 31
0.0
  0
LINE
  5
1E50
330
1D
100
AcDbEntity
  8
0
100
AcDbLine
 10
315.405109957705
 20
226.732702314134
 30
0.0
 11
314.881809957704
 21
228.053502314134
 31
0.0
  0
LINE
  5
1E51
330
1D
100
AcDbEntity
  8
0
100
AcDbLine
 10
315.405309957705
 20
226.732702314134
 30
0.0
 11
314.881609957705
 21
228.053502314134
 31
0.0
  0
LINE
  5
1E52
330
1D
100
AcDbEntity
  8
0
100
AcDbLine
 10
314.937209957704
 20
226.562202314134
 30
0.0
 11
313.843409957705
 21
229.118402314134
 31
0.0
  0
LINE
  5
1E53
330
1D
100
AcDbEntity
  8
0
100
AcDbLine
 10
314.937409957704
 20
226.562002314134
 30
0.0
 11
313.843609957705
 21
229.118602314134
 31
0.0
  0
LINE
  5
1E54
330
1D
100
AcDbEntity
  8
0
100
AcDbLine
 10
316.245809957705
 20
223.998602314134
 30
0.0
 11
315.860309957704
 21
225.379802314134
 31
0.0
  0
LINE
  5
1E55
330
1D
100
AcDbEntity
  8
0
100
AcDbLine
 10
316.245609957705
 20
223.998802314134
 30
0.0
 11
315.860109957704
 21
225.379802314134
 31
0.0
  0
LINE
  5
1E56
330
1D
100
AcDbEntity
  8
0
100
AcDbLine
 10
315.763009957705
 20
223.877402314134
 30
0.0
 11
314.937209957704
 21
226.562202314134
 31
0.0
  0
LINE
  5
1E57
330
1D
100
AcDbEntity
  8
0
100
AcDbLine
 10
315.860109957704
 20
225.379802314134
 30
0.0
 11
315.405109957705
 21
226.732702314134
 31
0.0
  0
LINE
  5
1E58
330
1D
100
AcDbEntity
  8
0
100
AcDbLine
 10
315.860309957704
 20
225.379802314134
 30
0.0
 11
315.405309957705
 21
226.732702314134
 31
0.0
  0
LINE
  5
1E59
330
1D
100
AcDbEntity
  8
0
100
AcDbLine
 10
315.762809957705
 20
223.877402314134
 30
0.0
 11
314.937409957704
 21
226.562002314134
 31
0.0
  0
LINE
  5
1E5A
330
1D
100
AcDbEntity
  8
0
100
AcDbLine
 10
316.561609957705
 20
222.593102314134
 30
0.0
 11
316.245609957705
 21
223.998802314134
 31
0.0
  0
LINE
  5
1E5B
330
1D
100
AcDbEntity
  8
0
100
AcDbLine
 10
316.561509957704
 20
222.593202314134
 30
0.0
 11
316.245809957705
 21
223.998602314134
 31
0.0
  0
LINE
  5
1E5C
330
1D
100
AcDbEntity
  8
0
100
AcDbLine
 10
316.314409957705
 20
221.095402314134
 30
0.0
 11
315.763009957705
 21
223.877402314134
 31
0.0
  0
LINE
  5
1E5D
330
1D
100
AcDbEntity
  8
0
100
AcDbLine
 10
316.314309957705
 20
221.095602314134
 30
0.0
 11
315.762809957705
 21
223.877402314134
 31
0.0
  0
LINE
  5
1E5E
330
1D
100
AcDbEntity
  8
0
100
AcDbLine
 10
314.881609957705
 20
228.053502314134
 30
0.0
 11
314.290409957704
 21
229.338102314134
 31
0.0
  0
LINE
  5
1E5F
330
1D
100
AcDbEntity
  8
0
100
AcDbLine
 10
314.881809957704
 20
228.053502314134
 30
0.0
 11
314.290609957704
 21
229.338202314134
 31
0.0
  0
LINE
  5
1E60
330
1D
100
AcDbEntity
  8
0
100
AcDbLine
 10
313.843409957705
 20
229.118402314134
 30
0.0
 11
312.492309957704
 21
231.514702314134
 31
0.0
  0
LINE
  5
1E61
330
1D
100
AcDbEntity
  8
0
100
AcDbLine
 10
313.843609957705
 20
229.118602314134
 30
0.0
 11
312.492109957705
 21
231.514602314134
 31
0.0
  0
LINE
  5
1E62
330
1D
100
AcDbEntity
  8
0
100
AcDbLine
 10
312.912609957704
 20
231.782302314134
 30
0.0
 11
312.128709957705
 21
232.934302314134
 31
0.0
  0
LINE
  5
1E63
330
1D
100
AcDbEntity
  8
0
100
AcDbLine
 10
312.912709957704
 20
231.782402314134
 30
0.0
 11
312.129009957705
 21
232.934202314134
 31
0.0
  0
LINE
  5
1E64
330
1D
100
AcDbEntity
  8
0
100
AcDbLine
 10
313.633809957704
 20
230.582402314134
 30
0.0
 11
312.912709957704
 21
231.782402314134
 31
0.0
  0
LINE
  5
1E65
330
1D
100
AcDbEntity
  8
0
100
AcDbLine
 10
313.633809957704
 20
230.582402314134
 30
0.0
 11
312.912609957704
 21
231.782302314134
 31
0.0
  0
LINE
  5
1E66
330
1D
100
AcDbEntity
  8
0
100
AcDbLine
 10
314.290609957704
 20
229.338202314134
 30
0.0
 11
313.633809957704
 21
230.582402314134
 31
0.0
  0
LINE
  5
1E67
330
1D
100
AcDbEntity
  8
0
100
AcDbLine
 10
314.290409957704
 20
229.338102314134
 30
0.0
 11
313.633809957704
 21
230.582402314134
 31
0.0
  0
LINE
  5
1E68
330
1D
100
AcDbEntity
  8
0
100
AcDbLine
 10
304.567709957704
 20
241.186202314134
 30
0.0
 11
303.276909957704
 21
241.632202314134
 31
0.0
  0
LINE
  5
1E69
330
1D
100
AcDbEntity
  8
0
100
AcDbLine
 10
304.567909957704
 20
241.186302314134
 30
0.0
 11
303.276809957704
 21
241.632202314134
 31
0.0
  0
LINE
  5
1E6A
330
1D
100
AcDbEntity
  8
0
100
AcDbLine
 10
304.303409957704
 20
239.175302314134
 30
0.0
 11
302.209009957704
 21
240.126302314134
 31
0.0
  0
LINE
  5
1E6B
330
1D
100
AcDbEntity
  8
0
100
AcDbLine
 10
304.303209957704
 20
239.175402314134
 30
0.0
 11
302.209309957705
 21
240.126402314134
 31
0.0
  0
LINE
  5
1E6C
330
1D
100
AcDbEntity
  8
0
100
AcDbLine
 10
304.536109957704
 20
239.615502314134
 30
0.0
 11
302.388309957704
 21
240.590802314134
 31
0.0
  0
LINE
  5
1E6D
330
1D
100
AcDbEntity
  8
0
100
AcDbLine
 10
304.536009957704
 20
239.615602314134
 30
0.0
 11
302.388209957704
 21
240.590902314134
 31
0.0
  0
LINE
  5
1E6E
330
1D
100
AcDbEntity
  8
0
100
AcDbLine
 10
297.939309957705
 20
242.756202314134
 30
0.0
 11
295.212309957705
 21
242.913802314134
 31
0.0
  0
LINE
  5
1E6F
330
1D
100
AcDbEntity
  8
0
100
AcDbLine
 10
297.939209957704
 20
242.756302314134
 30
0.0
 11
295.212509957704
 21
242.913602314134
 31
0.0
  0
LINE
  5
1E70
330
1D
100
AcDbEntity
  8
0
100
AcDbLine
 10
297.743709957705
 20
241.261002314134
 30
0.0
 11
294.999209957705
 21
241.439702314134
 31
0.0
  0
LINE
  5
1E71
330
1D
100
AcDbEntity
  8
0
100
AcDbLine
 10
297.743809957705
 20
241.261302314134
 30
0.0
 11
294.999009957704
 21
241.439602314134
 31
0.0
  0
LINE
  5
1E72
330
1D
100
AcDbEntity
  8
0
100
AcDbLine
 10
297.809409957704
 20
241.754502314134
 30
0.0
 11
295.416509957704
 21
241.933202314134
 31
0.0
  0
LINE
  5
1E73
330
1D
100
AcDbEntity
  8
0
100
AcDbLine
 10
297.809209957705
 20
241.754802314134
 30
0.0
 11
295.416609957704
 21
241.933302314134
 31
0.0
  0
LINE
  5
1E74
330
1D
100
AcDbEntity
  8
0
100
AcDbLine
 10
295.416609957704
 20
241.933302314134
 30
0.0
 11
294.998909957704
 21
241.937202314134
 31
0.0
  0
LINE
  5
1E75
330
1D
100
AcDbEntity
  8
0
100
AcDbLine
 10
295.212509957704
 20
242.913602314134
 30
0.0
 11
294.998909957704
 21
242.914402314134
 31
0.0
  0
LINE
  5
1E76
330
1D
100
AcDbEntity
  8
0
100
AcDbLine
 10
295.212309957705
 20
242.913802314134
 30
0.0
 11
294.999009957704
 21
242.914502314134
 31
0.0
  0
LINE
  5
1E77
330
1D
100
AcDbEntity
  8
0
100
AcDbLine
 10
295.416509957704
 20
241.933202314134
 30
0.0
 11
294.999009957704
 21
241.937202314134
 31
0.0
  0
LINE
  5
1E78
330
1D
100
AcDbEntity
  8
0
100
AcDbLine
 10
294.581209957704
 20
241.933302314134
 30
0.0
 11
294.998909957704
 21
241.937202314134
 31
0.0
  0
LINE
  5
1E79
330
1D
100
AcDbEntity
  8
0
100
AcDbLine
 10
294.785309957705
 20
242.913602314134
 30
0.0
 11
294.998909957704
 21
242.914402314134
 31
0.0
  0
LINE
  5
1E7A
330
1D
100
AcDbEntity
  8
0
100
AcDbLine
 10
294.785509957705
 20
242.913802314134
 30
0.0
 11
294.998809957704
 21
242.914502314134
 31
0.0
  0
LINE
  5
1E7B
330
1D
100
AcDbEntity
  8
0
100
AcDbLine
 10
294.581309957704
 20
241.933202314134
 30
0.0
 11
294.998809957704
 21
241.937202314134
 31
0.0
  0
LINE
  5
1E7C
330
1D
100
AcDbEntity
  8
0
100
AcDbLine
 10
292.058509957704
 20
242.756202314134
 30
0.0
 11
294.785509957705
 21
242.913802314134
 31
0.0
  0
LINE
  5
1E7D
330
1D
100
AcDbEntity
  8
0
100
AcDbLine
 10
292.058609957704
 20
242.756302314134
 30
0.0
 11
294.785309957705
 21
242.913602314134
 31
0.0
  0
LINE
  5
1E7E
330
1D
100
AcDbEntity
  8
0
100
AcDbLine
 10
292.188409957705
 20
241.754502314134
 30
0.0
 11
294.581309957704
 21
241.933202314134
 31
0.0
  0
LINE
  5
1E7F
330
1D
100
AcDbEntity
  8
0
100
AcDbLine
 10
292.188609957705
 20
241.754802314134
 30
0.0
 11
294.581209957704
 21
241.933302314134
 31
0.0
  0
LINE
  5
1E80
330
1D
100
AcDbEntity
  8
0
100
AcDbLine
 10
292.254109957704
 20
241.261002314134
 30
0.0
 11
294.998609957705
 21
241.439702314134
 31
0.0
  0
LINE
  5
1E81
330
1D
100
AcDbEntity
  8
0
100
AcDbLine
 10
292.254009957705
 20
241.261302314134
 30
0.0
 11
294.998809957704
 21
241.439602314134
 31
0.0
  0
LINE
  5
1E82
330
1D
100
AcDbEntity
  8
0
100
AcDbLine
 10
301.965709957705
 20
242.013002314134
 30
0.0
 11
300.636609957704
 21
242.327702314134
 31
0.0
  0
LINE
  5
1E83
330
1D
100
AcDbEntity
  8
0
100
AcDbLine
 10
301.965709957705
 20
242.013002314134
 30
0.0
 11
300.636709957704
 21
242.327802314134
 31
0.0
  0
LINE
  5
1E84
330
1D
100
AcDbEntity
  8
0
100
AcDbLine
 10
302.388309957704
 20
240.590802314134
 30
0.0
 11
300.139909957705
 21
241.306502314134
 31
0.0
  0
LINE
  5
1E85
330
1D
100
AcDbEntity
  8
0
100
AcDbLine
 10
302.388209957704
 20
240.590902314134
 30
0.0
 11
300.139509957704
 21
241.306602314134
 31
0.0
  0
LINE
  5
1E86
330
1D
100
AcDbEntity
  8
0
100
AcDbLine
 10
302.209009957704
 20
240.126302314134
 30
0.0
 11
300.016809957704
 21
240.824202314134
 31
0.0
  0
LINE
  5
1E87
330
1D
100
AcDbEntity
  8
0
100
AcDbLine
 10
302.209309957705
 20
240.126402314134
 30
0.0
 11
300.016709957705
 21
240.823802314134
 31
0.0
  0
LINE
  5
1E88
330
1D
100
AcDbEntity
  8
0
100
AcDbLine
 10
303.276909957704
 20
241.632202314134
 30
0.0
 11
301.965709957705
 21
242.013002314134
 31
0.0
  0
LINE
  5
1E89
330
1D
100
AcDbEntity
  8
0
100
AcDbLine
 10
303.276809957704
 20
241.632202314134
 30
0.0
 11
301.965709957705
 21
242.013002314134
 31
0.0
  0
LINE
  5
1E8A
330
1D
100
AcDbEntity
  8
0
100
AcDbLine
 10
300.636709957704
 20
242.327802314134
 30
0.0
 11
297.939309957705
 21
242.756202314134
 31
0.0
  0
LINE
  5
1E8B
330
1D
100
AcDbEntity
  8
0
100
AcDbLine
 10
300.636609957704
 20
242.327702314134
 30
0.0
 11
297.939209957704
 21
242.756302314134
 31
0.0
  0
LINE
  5
1E8C
330
1D
100
AcDbEntity
  8
0
100
AcDbLine
 10
300.139909957705
 20
241.306502314134
 30
0.0
 11
297.809409957704
 21
241.754502314134
 31
0.0
  0
LINE
  5
1E8D
330
1D
100
AcDbEntity
  8
0
100
AcDbLine
 10
300.139509957704
 20
241.306602314134
 30
0.0
 11
297.809209957705
 21
241.754802314134
 31
0.0
  0
LINE
  5
1E8E
330
1D
100
AcDbEntity
  8
0
100
AcDbLine
 10
300.016809957704
 20
240.824202314134
 30
0.0
 11
297.743809957705
 21
241.261302314134
 31
0.0
  0
LINE
  5
1E8F
330
1D
100
AcDbEntity
  8
0
100
AcDbLine
 10
300.016709957705
 20
240.823802314134
 30
0.0
 11
297.743709957705
 21
241.261002314134
 31
0.0
  0
LINE
  5
1E90
330
1D
100
AcDbEntity
  8
0
100
AcDbLine
 10
310.599309957704
 20
238.025002314134
 30
0.0
 11
309.459609957705
 21
238.776402314134
 31
0.0
  0
LINE
  5
1E91
330
1D
100
AcDbEntity
  8
0
100
AcDbLine
 10
310.599209957704
 20
238.025002314134
 30
0.0
 11
309.459509957705
 21
238.776502314134
 31
0.0
  0
LINE
  5
1E92
330
1D
100
AcDbEntity
  8
0
100
AcDbLine
 10
310.309609957704
 20
235.155902314134
 30
0.0
 11
309.269909957704
 21
236.207902314134
 31
0.0
  0
LINE
  5
1E93
330
1D
100
AcDbEntity
  8
0
100
AcDbLine
 10
310.309509957704
 20
235.155902314134
 30
0.0
 11
309.269909957704
 21
236.207902314134
 31
0.0
  0
LINE
  5
1E94
330
1D
100
AcDbEntity
  8
0
100
AcDbLine
 10
310.898209957704
 20
233.719502314134
 30
0.0
 11
308.926509957704
 21
235.846902314134
 31
0.0
  0
LINE
  5
1E95
330
1D
100
AcDbEntity
  8
0
100
AcDbLine
 10
307.074409957705
 20
240.103602314134
 30
0.0
 11
305.834709957704
 21
240.676302314134
 31
0.0
  0
LINE
  5
1E96
330
1D
100
AcDbEntity
  8
0
100
AcDbLine
 10
307.074209957704
 20
240.103702314134
 30
0.0
 11
305.834509957705
 21
240.676402314134
 31
0.0
  0
LINE
  5
1E97
330
1D
100
AcDbEntity
  8
0
100
AcDbLine
 10
306.207709957705
 20
238.632002314134
 30
0.0
 11
304.536009957704
 21
239.615602314134
 31
0.0
  0
LINE
  5
1E98
330
1D
100
AcDbEntity
  8
0
100
AcDbLine
 10
306.207709957705
 20
238.632002314134
 30
0.0
 11
304.536109957704
 21
239.615502314134
 31
0.0
  0
LINE
  5
1E99
330
1D
100
AcDbEntity
  8
0
100
AcDbLine
 10
305.522009957705
 20
238.478102314134
 30
0.0
 11
304.303409957704
 21
239.175302314134
 31
0.0
  0
LINE
  5
1E9A
330
1D
100
AcDbEntity
  8
0
100
AcDbLine
 10
305.522109957705
 20
238.477902314134
 30
0.0
 11
304.303209957704
 21
239.175402314134
 31
0.0
  0
LINE
  5
1E9B
330
1D
100
AcDbEntity
  8
0
100
AcDbLine
 10
307.838809957705
 20
236.811502314134
 30
0.0
 11
306.694009957705
 21
237.695202314134
 31
0.0
  0
LINE
  5
1E9C
330
1D
100
AcDbEntity
  8
0
100
AcDbLine
 10
307.838809957705
 20
236.811102314134
 30
0.0
 11
306.693709957704
 21
237.695102314134
 31
0.0
  0
LINE
  5
1E9D
330
1D
100
AcDbEntity
  8
0
100
AcDbLine
 10
308.283309957704
 20
239.470002314134
 30
0.0
 11
307.074209957704
 21
240.103702314134
 31
0.0
  0
LINE
  5
1E9E
330
1D
100
AcDbEntity
  8
0
100
AcDbLine
 10
308.283609957705
 20
239.469802314134
 30
0.0
 11
307.074409957705
 21
240.103602314134
 31
0.0
  0
LINE
  5
1E9F
330
1D
100
AcDbEntity
  8
0
100
AcDbLine
 10
306.693709957704
 20
237.695102314134
 30
0.0
 11
305.522109957705
 21
238.477902314134
 31
0.0
  0
LINE
  5
1EA0
330
1D
100
AcDbEntity
  8
0
100
AcDbLine
 10
306.694009957705
 20
237.695202314134
 30
0.0
 11
305.522009957705
 21
238.478102314134
 31
0.0
  0
LINE
  5
1EA1
330
1D
100
AcDbEntity
  8
0
100
AcDbLine
 10
307.789009957704
 20
237.492602314134
 30
0.0
 11
306.207709957705
 21
238.632002314134
 31
0.0
  0
LINE
  5
1EA2
330
1D
100
AcDbEntity
  8
0
100
AcDbLine
 10
307.788909957704
 20
237.492602314134
 30
0.0
 11
306.207709957705
 21
238.632002314134
 31
0.0
  0
LINE
  5
1EA3
330
1D
100
AcDbEntity
  8
0
100
AcDbLine
 10
309.459509957705
 20
238.776502314134
 30
0.0
 11
308.283309957704
 21
239.470002314134
 31
0.0
  0
LINE
  5
1EA4
330
1D
100
AcDbEntity
  8
0
100
AcDbLine
 10
309.459609957705
 20
238.776402314134
 30
0.0
 11
308.283609957705
 21
239.469802314134
 31
0.0
  0
LINE
  5
1EA5
330
1D
100
AcDbEntity
  8
0
100
AcDbLine
 10
308.926509957704
 20
235.846902314134
 30
0.0
 11
307.838809957705
 21
236.811502314134
 31
0.0
  0
LINE
  5
1EA6
330
1D
100
AcDbEntity
  8
0
100
AcDbLine
 10
309.269909957704
 20
236.207902314134
 30
0.0
 11
307.788909957704
 21
237.492602314134
 31
0.0
  0
LINE
  5
1EA7
330
1D
100
AcDbEntity
  8
0
100
AcDbLine
 10
309.269909957704
 20
236.207902314134
 30
0.0
 11
307.789009957704
 21
237.492602314134
 31
0.0
  0
LINE
  5
1EA8
330
1D
100
AcDbEntity
  8
0
100
AcDbLine
 10
305.834709957704
 20
240.676302314134
 30
0.0
 11
304.567709957704
 21
241.186202314134
 31
0.0
  0
LINE
  5
1EA9
330
1D
100
AcDbEntity
  8
0
100
AcDbLine
 10
305.834509957705
 20
240.676402314134
 30
0.0
 11
304.567909957704
 21
241.186302314134
 31
0.0
  0
LINE
  5
1EAA
330
1D
100
AcDbEntity
  8
0
100
AcDbLine
 10
312.898809957705
 20
236.236302314134
 30
0.0
 11
311.773109957704
 21
237.161402314134
 31
0.0
  0
LINE
  5
1EAB
330
1D
100
AcDbEntity
  8
0
100
AcDbLine
 10
312.898509957704
 20
236.236402314134
 30
0.0
 11
311.773009957705
 21
237.161402314134
 31
0.0
  0
LINE
  5
1EAC
330
1D
100
AcDbEntity
  8
0
100
AcDbLine
 10
313.973609957704
 20
235.252802314134
 30
0.0
 11
312.898509957704
 21
236.236402314134
 31
0.0
  0
LINE
  5
1EAD
330
1D
100
AcDbEntity
  8
0
100
AcDbLine
 10
313.973209957705
 20
235.253002314134
 30
0.0
 11
312.898809957705
 21
236.236302314134
 31
0.0
  0
LINE
  5
1EAE
330
1D
100
AcDbEntity
  8
0
100
AcDbLine
 10
314.994109957704
 20
234.213302314134
 30
0.0
 11
313.973209957705
 21
235.253002314134
 31
0.0
  0
LINE
  5
1EAF
330
1D
100
AcDbEntity
  8
0
100
AcDbLine
 10
314.993909957705
 20
234.213402314134
 30
0.0
 11
313.973609957704
 21
235.252802314134
 31
0.0
  0
LINE
  5
1EB0
330
1D
100
AcDbEntity
  8
0
100
AcDbLine
 10
311.773109957704
 20
237.161402314134
 30
0.0
 11
310.599309957704
 21
238.025002314134
 31
0.0
  0
LINE
  5
1EB1
330
1D
100
AcDbEntity
  8
0
100
AcDbLine
 10
311.773009957705
 20
237.161402314134
 30
0.0
 11
310.599209957704
 21
238.025002314134
 31
0.0
  0
LINE
  5
1EB2
330
1D
100
AcDbEntity
  8
0
100
AcDbLine
 10
311.285009957704
 20
234.033502314134
 30
0.0
 11
310.309509957704
 21
235.155902314134
 31
0.0
  0
LINE
  5
1EB3
330
1D
100
AcDbEntity
  8
0
100
AcDbLine
 10
321.937909957705
 20
220.108902314134
 30
0.0
 11
321.663409957705
 21
221.523902314134
 31
0.0
  0
LINE
  5
1EB4
330
1D
100
AcDbEntity
  8
0
100
AcDbLine
 10
321.938109957704
 20
220.108802314134
 30
0.0
 11
321.663809957704
 21
221.523802314134
 31
0.0
  0
LINE
  5
1EB5
330
1D
100
AcDbEntity
  8
0
100
AcDbLine
 10
317.019609957704
 20
219.303402314134
 30
0.0
 11
316.806509957705
 21
221.167502314134
 31
0.0
  0
LINE
  5
1EB6
330
1D
100
AcDbEntity
  8
0
100
AcDbLine
 10
317.019609957704
 20
219.303402314134
 30
0.0
 11
316.806909957704
 21
221.167402314134
 31
0.0
  0
LINE
  5
1EB7
330
1D
100
AcDbEntity
  8
0
100
AcDbLine
 10
322.309609957704
 20
215.615502314134
 30
0.0
 11
322.260409957704
 21
213.979102314134
 31
0.0
  0
LINE
  5
1EB8
330
1D
100
AcDbEntity
  8
0
100
AcDbLine
 10
322.309609957704
 20
215.615502314134
 30
0.0
 11
322.260409957704
 21
213.979002314134
 31
0.0
  0
LINE
  5
1EB9
330
1D
100
AcDbEntity
  8
0
100
AcDbLine
 10
317.102509957705
 20
215.615602314134
 30
0.0
 11
317.008009957704
 21
214.046302314134
 31
0.0
  0
LINE
  5
1EBA
330
1D
100
AcDbEntity
  8
0
100
AcDbLine
 10
322.116009957705
 20
212.370002314134
 30
0.0
 11
321.876809957705
 21
210.772602314134
 31
0.0
  0
LINE
  5
1EBB
330
1D
100
AcDbEntity
  8
0
100
AcDbLine
 10
322.116109957705
 20
212.369902314134
 30
0.0
 11
321.876909957705
 21
210.772602314134
 31
0.0
  0
LINE
  5
1EBC
330
1D
100
AcDbEntity
  8
0
100
AcDbLine
 10
321.876909957705
 20
210.772602314134
 30
0.0
 11
321.543209957704
 21
209.191702314134
 31
0.0
  0
LINE
  5
1EBD
330
1D
100
AcDbEntity
  8
0
100
AcDbLine
 10
321.876809957705
 20
210.772602314134
 30
0.0
 11
321.543109957704
 21
209.191702314134
 31
0.0
  0
LINE
  5
1EBE
330
1D
100
AcDbEntity
  8
0
100
AcDbLine
 10
322.260409957704
 20
213.979002314134
 30
0.0
 11
322.116109957705
 21
212.369902314134
 31
0.0
  0
LINE
  5
1EBF
330
1D
100
AcDbEntity
  8
0
100
AcDbLine
 10
322.260409957704
 20
213.979102314134
 30
0.0
 11
322.116009957705
 21
212.370002314134
 31
0.0
  0
LINE
  5
1EC0
330
1D
100
AcDbEntity
  8
0
100
AcDbLine
 10
316.839009957705
 20
212.478802314134
 30
0.0
 11
316.597809957705
 21
210.916402314134
 31
0.0
  0
LINE
  5
1EC1
330
1D
100
AcDbEntity
  8
0
100
AcDbLine
 10
316.839209957704
 20
212.478902314134
 30
0.0
 11
316.597909957705
 21
210.916702314134
 31
0.0
  0
LINE
  5
1EC2
330
1D
100
AcDbEntity
  8
0
100
AcDbLine
 10
317.008009957704
 20
214.046302314134
 30
0.0
 11
316.839009957705
 21
212.478802314134
 31
0.0
  0
LINE
  5
1EC3
330
1D
100
AcDbEntity
  8
0
100
AcDbLine
 10
317.008109957704
 20
214.046602314134
 30
0.0
 11
316.839209957704
 21
212.478902314134
 31
0.0
  0
LINE
  5
1EC4
330
1D
100
AcDbEntity
  8
0
100
AcDbLine
 10
322.137409957704
 20
218.681402314134
 30
0.0
 11
321.938109957704
 21
220.108802314134
 31
0.0
  0
LINE
  5
1EC5
330
1D
100
AcDbEntity
  8
0
100
AcDbLine
 10
322.137109957705
 20
218.681602314134
 30
0.0
 11
321.937909957705
 21
220.108902314134
 31
0.0
  0
LINE
  5
1EC6
330
1D
100
AcDbEntity
  8
0
100
AcDbLine
 10
322.309609957704
 20
215.615502314134
 30
0.0
 11
322.260809957704
 21
217.245402314134
 31
0.0
  0
LINE
  5
1EC7
330
1D
100
AcDbEntity
  8
0
100
AcDbLine
 10
322.309509957704
 20
215.615502314134
 30
0.0
 11
322.261109957705
 21
217.245202314134
 31
0.0
  0
LINE
  5
1EC8
330
1D
100
AcDbEntity
  8
0
100
AcDbLine
 10
322.261109957705
 20
217.245202314134
 30
0.0
 11
322.137409957704
 21
218.681402314134
 31
0.0
  0
LINE
  5
1EC9
330
1D
100
AcDbEntity
  8
0
100
AcDbLine
 10
322.260809957704
 20
217.245402314134
 30
0.0
 11
322.137109957705
 21
218.681602314134
 31
0.0
  0
LINE
  5
1ECA
330
1D
100
AcDbEntity
  8
0
100
AcDbLine
 10
317.116509957704
 20
217.419902314134
 30
0.0
 11
317.019609957704
 21
219.303402314134
 31
0.0
  0
LINE
  5
1ECB
330
1D
100
AcDbEntity
  8
0
100
AcDbLine
 10
317.116309957705
 20
217.419902314134
 30
0.0
 11
317.019609957704
 21
219.303402314134
 31
0.0
  0
LINE
  5
1ECC
330
1D
100
AcDbEntity
  8
0
100
AcDbLine
 10
317.116309957705
 20
217.419902314134
 30
0.0
 11
317.102609957705
 21
215.615502314134
 31
0.0
  0
LINE
  5
1ECD
330
1D
100
AcDbEntity
  8
0
100
AcDbLine
 10
316.619509957704
 20
217.409602314134
 30
0.0
 11
316.606509957704
 21
215.633602314134
 31
0.0
  0
LINE
  5
1ECE
330
1D
100
AcDbEntity
  8
0
100
AcDbLine
 10
316.619809957705
 20
217.409502314134
 30
0.0
 11
316.606709957704
 21
215.633102314134
 31
0.0
  0
LINE
  5
1ECF
330
1D
100
AcDbEntity
  8
0
100
AcDbLine
 10
320.398309957704
 20
225.654302314134
 30
0.0
 11
319.832709957705
 21
226.980502314134
 31
0.0
  0
LINE
  5
1ED0
330
1D
100
AcDbEntity
  8
0
100
AcDbLine
 10
320.398309957704
 20
225.654302314134
 30
0.0
 11
319.832909957704
 21
226.980302314134
 31
0.0
  0
LINE
  5
1ED1
330
1D
100
AcDbEntity
  8
0
100
AcDbLine
 10
319.832909957704
 20
226.980302314134
 30
0.0
 11
319.191309957705
 21
228.287702314134
 31
0.0
  0
LINE
  5
1ED2
330
1D
100
AcDbEntity
  8
0
100
AcDbLine
 10
319.832709957705
 20
226.980502314134
 30
0.0
 11
319.191609957704
 21
228.287602314134
 31
0.0
  0
LINE
  5
1ED3
330
1D
100
AcDbEntity
  8
0
100
AcDbLine
 10
320.892509957705
 20
224.300502314134
 30
0.0
 11
320.398309957704
 21
225.654302314134
 31
0.0
  0
LINE
  5
1ED4
330
1D
100
AcDbEntity
  8
0
100
AcDbLine
 10
320.892709957704
 20
224.300402314134
 30
0.0
 11
320.398309957704
 21
225.654302314134
 31
0.0
  0
LINE
  5
1ED5
330
1D
100
AcDbEntity
  8
0
100
AcDbLine
 10
317.704109957705
 20
230.790602314134
 30
0.0
 11
316.862009957704
 21
231.979202314134
 31
0.0
  0
LINE
  5
1ED6
330
1D
100
AcDbEntity
  8
0
100
AcDbLine
 10
317.703809957704
 20
230.790602314134
 30
0.0
 11
316.862209957704
 21
231.979002314134
 31
0.0
  0
LINE
  5
1ED7
330
1D
100
AcDbEntity
  8
0
100
AcDbLine
 10
318.481009957704
 20
229.559002314134
 30
0.0
 11
317.704109957705
 21
230.790602314134
 31
0.0
  0
LINE
  5
1ED8
330
1D
100
AcDbEntity
  8
0
100
AcDbLine
 10
318.481009957704
 20
229.559002314134
 30
0.0
 11
317.703809957704
 21
230.790602314134
 31
0.0
  0
LINE
  5
1ED9
330
1D
100
AcDbEntity
  8
0
100
AcDbLine
 10
319.191609957704
 20
228.287602314134
 30
0.0
 11
318.481009957704
 21
229.559002314134
 31
0.0
  0
LINE
  5
1EDA
330
1D
100
AcDbEntity
  8
0
100
AcDbLine
 10
319.191309957705
 20
228.287702314134
 30
0.0
 11
318.481009957704
 21
229.559002314134
 31
0.0
  0
LINE
  5
1EDB
330
1D
100
AcDbEntity
  8
0
100
AcDbLine
 10
321.663809957704
 20
221.523802314134
 30
0.0
 11
321.315109957704
 21
222.922302314134
 31
0.0
  0
LINE
  5
1EDC
330
1D
100
AcDbEntity
  8
0
100
AcDbLine
 10
321.663409957705
 20
221.523902314134
 30
0.0
 11
321.314709957705
 21
222.922502314134
 31
0.0
  0
LINE
  5
1EDD
330
1D
100
AcDbEntity
  8
0
100
AcDbLine
 10
321.314709957705
 20
222.922502314134
 30
0.0
 11
320.892709957704
 21
224.300402314134
 31
0.0
  0
LINE
  5
1EDE
330
1D
100
AcDbEntity
  8
0
100
AcDbLine
 10
321.315109957704
 20
222.922302314134
 30
0.0
 11
320.892509957705
 21
224.300502314134
 31
0.0
  0
LINE
  5
1EDF
330
1D
100
AcDbEntity
  8
0
100
AcDbLine
 10
490.021
 20
205.78265
 30
0.0
 11
490.819
 21
208.43665
 31
0.0
  0
LINE
  5
1EE0
330
1D
100
AcDbEntity
  8
0
100
AcDbLine
 10
487.284
 20
206.57465
 30
0.0
 11
490.134
 21
210.58165
 31
0.0
  0
LINE
  5
1EE1
330
1D
100
AcDbEntity
  8
0
100
AcDbLine
 10
490.02
 20
205.78165
 30
0.0
 11
490.819
 21
208.43665
 31
0.0
  0
LINE
  5
1EE2
330
1D
100
AcDbEntity
  8
0
100
AcDbLine
 10
480.247
 20
210.60965
 30
0.0
 11
480.798
 21
207.32465
 31
0.0
  0
LINE
  5
1EE3
330
1D
100
AcDbEntity
  8
0
100
AcDbLine
 10
546.49
 20
204.89065
 30
0.0
 11
547.306
 21
208.02565
 31
0.0
  0
LINE
  5
1EE4
330
1D
100
AcDbEntity
  8
0
100
AcDbLine
 10
546.49
 20
204.89165
 30
0.0
 11
547.306
 21
208.02565
 31
0.0
  0
LINE
  5
1EE5
330
1D
100
AcDbEntity
  8
0
100
AcDbLine
 10
546.256
 20
206.52065
 30
0.0
 11
546.914
 21
208.03565
 31
0.0
  0
LINE
  5
1EE6
330
1D
100
AcDbEntity
  8
0
100
AcDbLine
 10
513.396
 20
208.73965
 30
0.0
 11
515.205
 21
206.15165
 31
0.0
  0
LINE
  5
1EE7
330
1D
100
AcDbEntity
  8
0
100
AcDbLine
 10
513.396
 20
208.74065
 30
0.0
 11
515.205
 21
206.15165
 31
0.0
  0
CIRCLE
  5
1EE8
330
1D
100
AcDbEntity
  8
0
100
AcDbCircle
 10
405.0
 20
215.0
 30
0.0
 40
35.0
  0
LINE
  5
1EE9
330
1D
100
AcDbEntity
  8
0
100
AcDbLine
 10
378.454609957704
 20
209.191702314134
 30
0.0
 11
378.881409957704
 21
207.633702314134
 31
0.0
  0
LINE
  5
1EEA
330
1D
100
AcDbEntity
  8
0
100
AcDbLine
 10
378.454709957704
 20
209.191702314134
 30
0.0
 11
378.881309957705
 21
207.633802314134
 31
0.0
  0
LINE
  5
1EEB
330
1D
100
AcDbEntity
  8
0
100
AcDbLine
 10
384.193809957705
 20
209.469902314134
 30
0.0
 11
384.999909957704
 21
206.440902314134
 31
0.0
  0
LINE
  5
1EEC
330
1D
100
AcDbEntity
  8
0
100
AcDbLine
 10
384.087009957705
 20
207.821502314134
 30
0.0
 11
384.526909957704
 21
206.294902314134
 31
0.0
  0
LINE
  5
1EED
330
1D
100
AcDbEntity
  8
0
100
AcDbLine
 10
384.087109957705
 20
207.821302314134
 30
0.0
 11
384.526909957704
 21
206.294802314134
 31
0.0
  0
LINE
  5
1EEE
330
1D
100
AcDbEntity
  8
0
100
AcDbLine
 10
384.193809957705
 20
209.470102314134
 30
0.0
 11
384.999809957704
 21
206.441202314134
 31
0.0
  0
LINE
  5
1EEF
330
1D
100
AcDbEntity
  8
0
100
AcDbLine
 10
425.804009957704
 20
209.469902314134
 30
0.0
 11
424.997909957704
 21
206.440902314134
 31
0.0
  0
LINE
  5
1EF0
330
1D
100
AcDbEntity
  8
0
100
AcDbLine
 10
425.804009957704
 20
209.470102314134
 30
0.0
 11
424.998009957704
 21
206.441202314134
 31
0.0
  0
LINE
  5
1EF1
330
1D
100
AcDbEntity
  8
0
100
AcDbLine
 10
425.910809957704
 20
207.821502314134
 30
0.0
 11
425.470909957704
 21
206.294902314134
 31
0.0
  0
LINE
  5
1EF2
330
1D
100
AcDbEntity
  8
0
100
AcDbLine
 10
425.910709957705
 20
207.821302314134
 30
0.0
 11
425.470909957704
 21
206.294802314134
 31
0.0
  0
LINE
  5
1EF3
330
1D
100
AcDbEntity
  8
0
100
AcDbLine
 10
431.543209957704
 20
209.191702314134
 30
0.0
 11
431.116409957704
 21
207.633702314134
 31
0.0
  0
LINE
  5
1EF4
330
1D
100
AcDbEntity
  8
0
100
AcDbLine
 10
431.543109957704
 20
209.191702314134
 30
0.0
 11
431.116509957704
 21
207.633802314134
 31
0.0
  0
LINE
  5
1EF5
330
1D
100
AcDbEntity
  8
0
100
AcDbLine
 10
548.294233308477
 20
206.208424779995
 30
0.0
 11
549.568494441422
 21
210.855730088384
 31
0.0
  0
LINE
  5
1EF6
330
1D
100
AcDbEntity
  8
0
100
AcDbLine
 10
394.298609957704
 20
190.129102314134
 30
0.0
 11
396.498709957704
 21
187.839202314134
 31
0.0
  0
LINE
  5
1EF7
330
1D
100
AcDbEntity
  8
0
100
AcDbLine
 10
394.298509957704
 20
190.129402314134
 30
0.0
 11
396.498709957704
 21
187.839302314134
 31
0.0
  0
LINE
  5
1EF8
330
1D
100
AcDbEntity
  8
0
100
AcDbLine
 10
393.927509957704
 20
189.801402314134
 30
0.0
 11
395.018009957705
 21
188.617802314134
 31
0.0
  0
LINE
  5
1EF9
330
1D
100
AcDbEntity
  8
0
100
AcDbLine
 10
393.927509957704
 20
189.801402314134
 30
0.0
 11
395.018209957705
 21
188.617402314134
 31
0.0
  0
LINE
  5
1EFA
330
1D
100
AcDbEntity
  8
0
100
AcDbLine
 10
380.703309957705
 20
203.149602314134
 30
0.0
 11
381.484009957705
 21
201.735602314134
 31
0.0
  0
LINE
  5
1EFB
330
1D
100
AcDbEntity
  8
0
100
AcDbLine
 10
380.703309957705
 20
203.149602314134
 30
0.0
 11
381.483809957705
 21
201.735602314134
 31
0.0
  0
LINE
  5
1EFC
330
1D
100
AcDbEntity
  8
0
100
AcDbLine
 10
380.007609957705
 20
204.607302314134
 30
0.0
 11
380.703309957705
 21
203.149602314134
 31
0.0
  0
LINE
  5
1EFD
330
1D
100
AcDbEntity
  8
0
100
AcDbLine
 10
380.007909957704
 20
204.607302314134
 30
0.0
 11
380.703309957705
 21
203.149602314134
 31
0.0
  0
LINE
  5
1EFE
330
1D
100
AcDbEntity
  8
0
100
AcDbLine
 10
379.399509957705
 20
206.104102314134
 30
0.0
 11
380.007609957705
 21
204.607302314134
 31
0.0
  0
LINE
  5
1EFF
330
1D
100
AcDbEntity
  8
0
100
AcDbLine
 10
379.399609957705
 20
206.104102314134
 30
0.0
 11
380.007909957704
 21
204.607302314134
 31
0.0
  0
LINE
  5
1F00
330
1D
100
AcDbEntity
  8
0
100
AcDbLine
 10
378.881309957705
 20
207.633802314134
 30
0.0
 11
379.399509957705
 21
206.104102314134
 31
0.0
  0
LINE
  5
1F01
330
1D
100
AcDbEntity
  8
0
100
AcDbLine
 10
378.881409957704
 20
207.633702314134
 30
0.0
 11
379.399609957705
 21
206.104102314134
 31
0.0
  0
LINE
  5
1F02
330
1D
100
AcDbEntity
  8
0
100
AcDbLine
 10
390.369809957705
 20
195.260302314134
 30
0.0
 11
392.258709957704
 21
192.607102314134
 31
0.0
  0
LINE
  5
1F03
330
1D
100
AcDbEntity
  8
0
100
AcDbLine
 10
390.369809957705
 20
195.260302314134
 30
0.0
 11
392.258909957704
 21
192.607402314134
 31
0.0
  0
LINE
  5
1F04
330
1D
100
AcDbEntity
  8
0
100
AcDbLine
 10
389.728109957704
 20
195.337702314134
 30
0.0
 11
390.890109957704
 21
193.629702314134
 31
0.0
  0
LINE
  5
1F05
330
1D
100
AcDbEntity
  8
0
100
AcDbLine
 10
387.173709957704
 20
194.938702314134
 30
0.0
 11
388.302809957705
 21
194.017202314134
 31
0.0
  0
LINE
  5
1F06
330
1D
100
AcDbEntity
  8
0
100
AcDbLine
 10
387.173709957704
 20
194.938402314134
 30
0.0
 11
388.302909957705
 21
194.017202314134
 31
0.0
  0
LINE
  5
1F07
330
1D
100
AcDbEntity
  8
0
100
AcDbLine
 10
390.890209957704
 20
193.629502314134
 30
0.0
 11
392.365109957705
 21
191.666402314134
 31
0.0
  0
LINE
  5
1F08
330
1D
100
AcDbEntity
  8
0
100
AcDbLine
 10
390.700409957705
 20
192.360802314134
 30
0.0
 11
389.479609957704
 21
193.157102314134
 31
0.0
  0
LINE
  5
1F09
330
1D
100
AcDbEntity
  8
0
100
AcDbLine
 10
390.700609957705
 20
192.360902314134
 30
0.0
 11
391.962009957705
 21
191.630902314134
 31
0.0
  0
LINE
  5
1F0A
330
1D
100
AcDbEntity
  8
0
100
AcDbLine
 10
390.700409957705
 20
192.360802314134
 30
0.0
 11
391.961909957704
 21
191.630902314134
 31
0.0
  0
LINE
  5
1F0B
330
1D
100
AcDbEntity
  8
0
100
AcDbLine
 10
391.961909957704
 20
191.630902314134
 30
0.0
 11
392.338674971461
 21
191.439009754386
 31
0.0
  0
LINE
  5
1F0C
330
1D
100
AcDbEntity
  8
0
100
AcDbLine
 10
391.962009957705
 20
191.630902314134
 30
0.0
 11
392.338713245916
 21
191.438967854773
 31
0.0
  0
LINE
  5
1F0D
330
1D
100
AcDbEntity
  8
0
100
AcDbLine
 10
392.365109957705
 20
191.666402314134
 30
0.0
 11
393.927509957704
 21
189.801402314134
 31
0.0
  0
LINE
  5
1F0E
330
1D
100
AcDbEntity
  8
0
100
AcDbLine
 10
388.302909957705
 20
194.017202314134
 30
0.0
 11
389.479609957704
 21
193.157102314134
 31
0.0
  0
LINE
  5
1F0F
330
1D
100
AcDbEntity
  8
0
100
AcDbLine
 10
388.302809957705
 20
194.017202314134
 30
0.0
 11
389.479709957704
 21
193.157102314134
 31
0.0
  0
LINE
  5
1F10
330
1D
100
AcDbEntity
  8
0
100
AcDbLine
 10
392.258909957704
 20
192.607402314134
 30
0.0
 11
394.298609957704
 21
190.129102314134
 31
0.0
  0
LINE
  5
1F11
330
1D
100
AcDbEntity
  8
0
100
AcDbLine
 10
392.258709957704
 20
192.607102314134
 30
0.0
 11
394.298509957704
 21
190.129402314134
 31
0.0
  0
LINE
  5
1F12
330
1D
100
AcDbEntity
  8
0
100
AcDbLine
 10
386.986009957704
 20
200.152302314134
 30
0.0
 11
388.205009957705
 21
197.847802314134
 31
0.0
  0
LINE
  5
1F13
330
1D
100
AcDbEntity
  8
0
100
AcDbLine
 10
386.986009957704
 20
200.152302314134
 30
0.0
 11
388.205009957705
 21
197.847602314134
 31
0.0
  0
LINE
  5
1F14
330
1D
100
AcDbEntity
  8
0
100
AcDbLine
 10
387.430209957704
 20
200.370302314134
 30
0.0
 11
388.635609957704
 21
198.090502314134
 31
0.0
  0
LINE
  5
1F15
330
1D
100
AcDbEntity
  8
0
100
AcDbLine
 10
387.430009957704
 20
200.370502314134
 30
0.0
 11
388.636109957705
 21
198.090102314134
 31
0.0
  0
LINE
  5
1F16
330
1D
100
AcDbEntity
  8
0
100
AcDbLine
 10
381.484009957705
 20
201.735602314134
 30
0.0
 11
382.347009957705
 21
200.370002314134
 31
0.0
  0
LINE
  5
1F17
330
1D
100
AcDbEntity
  8
0
100
AcDbLine
 10
381.483809957705
 20
201.735602314134
 30
0.0
 11
382.347009957705
 21
200.370002314134
 31
0.0
  0
LINE
  5
1F18
330
1D
100
AcDbEntity
  8
0
100
AcDbLine
 10
386.349409957704
 20
202.737702314134
 30
0.0
 11
387.430009957704
 21
200.370502314134
 31
0.0
  0
LINE
  5
1F19
330
1D
100
AcDbEntity
  8
0
100
AcDbLine
 10
386.349409957704
 20
202.737902314134
 30
0.0
 11
387.430209957704
 21
200.370302314134
 31
0.0
  0
LINE
  5
1F1A
330
1D
100
AcDbEntity
  8
0
100
AcDbLine
 10
385.892809957704
 20
202.546802314134
 30
0.0
 11
386.986009957704
 21
200.152302314134
 31
0.0
  0
LINE
  5
1F1B
330
1D
100
AcDbEntity
  8
0
100
AcDbLine
 10
383.193709957704
 20
199.183602314134
 30
0.0
 11
384.102409957704
 21
198.044402314134
 31
0.0
  0
LINE
  5
1F1C
330
1D
100
AcDbEntity
  8
0
100
AcDbLine
 10
383.193809957705
 20
199.183502314134
 30
0.0
 11
384.102309957704
 21
198.044602314134
 31
0.0
  0
LINE
  5
1F1D
330
1D
100
AcDbEntity
  8
0
100
AcDbLine
 10
384.102409957704
 20
198.044402314134
 30
0.0
 11
385.070209957704
 21
196.955302314134
 31
0.0
  0
LINE
  5
1F1E
330
1D
100
AcDbEntity
  8
0
100
AcDbLine
 10
384.102309957704
 20
198.044602314134
 30
0.0
 11
385.070309957704
 21
196.955202314134
 31
0.0
  0
LINE
  5
1F1F
330
1D
100
AcDbEntity
  8
0
100
AcDbLine
 10
382.347009957705
 20
200.370002314134
 30
0.0
 11
383.193809957705
 21
199.183502314134
 31
0.0
  0
LINE
  5
1F20
330
1D
100
AcDbEntity
  8
0
100
AcDbLine
 10
382.347009957705
 20
200.370002314134
 30
0.0
 11
383.193709957704
 21
199.183602314134
 31
0.0
  0
LINE
  5
1F21
330
1D
100
AcDbEntity
  8
0
100
AcDbLine
 10
385.070309957704
 20
196.955202314134
 30
0.0
 11
386.095009957704
 21
195.919002314134
 31
0.0
  0
LINE
  5
1F22
330
1D
100
AcDbEntity
  8
0
100
AcDbLine
 10
385.070209957704
 20
196.955302314134
 30
0.0
 11
386.095209957705
 21
195.918702314134
 31
0.0
  0
LINE
  5
1F23
330
1D
100
AcDbEntity
  8
0
100
AcDbLine
 10
386.095009957704
 20
195.919002314134
 30
0.0
 11
387.173709957704
 21
194.938402314134
 31
0.0
  0
LINE
  5
1F24
330
1D
100
AcDbEntity
  8
0
100
AcDbLine
 10
386.095209957705
 20
195.918702314134
 30
0.0
 11
387.173709957704
 21
194.938702314134
 31
0.0
  0
LINE
  5
1F25
330
1D
100
AcDbEntity
  8
0
100
AcDbLine
 10
385.051609957704
 20
204.716002314134
 30
0.0
 11
385.892809957704
 21
202.546802314134
 31
0.0
  0
LINE
  5
1F26
330
1D
100
AcDbEntity
  8
0
100
AcDbLine
 10
385.051809957705
 20
204.715602314134
 30
0.0
 11
385.892809957704
 21
202.546802314134
 31
0.0
  0
LINE
  5
1F27
330
1D
100
AcDbEntity
  8
0
100
AcDbLine
 10
385.632709957704
 20
204.563902314134
 30
0.0
 11
386.349409957704
 21
202.737702314134
 31
0.0
  0
LINE
  5
1F28
330
1D
100
AcDbEntity
  8
0
100
AcDbLine
 10
385.632509957705
 20
204.564002314134
 30
0.0
 11
386.349409957704
 21
202.737902314134
 31
0.0
  0
LINE
  5
1F29
330
1D
100
AcDbEntity
  8
0
100
AcDbLine
 10
384.526909957704
 20
206.294802314134
 30
0.0
 11
385.051809957705
 21
204.715602314134
 31
0.0
  0
LINE
  5
1F2A
330
1D
100
AcDbEntity
  8
0
100
AcDbLine
 10
384.999909957704
 20
206.440902314134
 30
0.0
 11
385.632509957705
 21
204.564002314134
 31
0.0
  0
LINE
  5
1F2B
330
1D
100
AcDbEntity
  8
0
100
AcDbLine
 10
384.999809957704
 20
206.441202314134
 30
0.0
 11
385.632709957704
 21
204.563902314134
 31
0.0
  0
LINE
  5
1F2C
330
1D
100
AcDbEntity
  8
0
100
AcDbLine
 10
388.205009957705
 20
197.847602314134
 30
0.0
 11
389.728109957704
 21
195.337702314134
 31
0.0
  0
LINE
  5
1F2D
330
1D
100
AcDbEntity
  8
0
100
AcDbLine
 10
388.205009957705
 20
197.847802314134
 30
0.0
 11
389.728109957704
 21
195.337702314134
 31
0.0
  0
LINE
  5
1F2E
330
1D
100
AcDbEntity
  8
0
100
AcDbLine
 10
388.635609957704
 20
198.090502314134
 30
0.0
 11
390.369809957705
 21
195.260302314134
 31
0.0
  0
LINE
  5
1F2F
330
1D
100
AcDbEntity
  8
0
100
AcDbLine
 10
388.636109957705
 20
198.090102314134
 30
0.0
 11
390.369809957705
 21
195.260302314134
 31
0.0
  0
LINE
  5
1F30
330
1D
100
AcDbEntity
  8
0
100
AcDbLine
 10
421.792809957705
 20
197.847602314134
 30
0.0
 11
420.269709957704
 21
195.337702314134
 31
0.0
  0
LINE
  5
1F31
330
1D
100
AcDbEntity
  8
0
100
AcDbLine
 10
421.792809957705
 20
197.847802314134
 30
0.0
 11
420.269709957704
 21
195.337702314134
 31
0.0
  0
LINE
  5
1F32
330
1D
100
AcDbEntity
  8
0
100
AcDbLine
 10
421.362209957705
 20
198.090502314134
 30
0.0
 11
419.628009957705
 21
195.260302314134
 31
0.0
  0
LINE
  5
1F33
330
1D
100
AcDbEntity
  8
0
100
AcDbLine
 10
421.361709957705
 20
198.090102314134
 30
0.0
 11
419.628009957705
 21
195.260302314134
 31
0.0
  0
LINE
  5
1F34
330
1D
100
AcDbEntity
  8
0
100
AcDbLine
 10
420.518109957704
 20
193.157102314134
 30
0.0
 11
419.297409957705
 21
192.360802314134
 31
0.0
  0
LINE
  5
1F35
330
1D
100
AcDbEntity
  8
0
100
AcDbLine
 10
420.518209957705
 20
193.157102314134
 30
0.0
 11
419.297209957705
 21
192.360902314134
 31
0.0
  0
LINE
  5
1F36
330
1D
100
AcDbEntity
  8
0
100
AcDbLine
 10
408.601709957705
 20
184.150802314134
 30
0.0
 11
407.081309957704
 21
183.487402314134
 31
0.0
  0
LINE
  5
1F37
330
1D
100
AcDbEntity
  8
0
100
AcDbLine
 10
408.601909957704
 20
184.150502314134
 30
0.0
 11
407.081709957704
 21
183.487402314134
 31
0.0
  0
LINE
  5
1F38
330
1D
100
AcDbEntity
  8
0
100
AcDbLine
 10
407.695509957704
 20
183.184402314134
 30
0.0
 11
406.772909957705
 21
182.872902314134
 31
0.0
  0
LINE
  5
1F39
330
1D
100
AcDbEntity
  8
0
100
AcDbLine
 10
407.695509957704
 20
183.184402314134
 30
0.0
 11
406.772909957705
 21
182.873102314134
 31
0.0
  0
LINE
  5
1F3A
330
1D
100
AcDbEntity
  8
0
100
AcDbLine
 10
399.737809957704
 20
185.164402314134
 30
0.0
 11
401.396109957705
 21
184.150802314134
 31
0.0
  0
LINE
  5
1F3B
330
1D
100
AcDbEntity
  8
0
100
AcDbLine
 10
399.902209957705
 20
184.455602314134
 30
0.0
 11
401.164109957705
 21
183.711102314134
 31
0.0
  0
LINE
  5
1F3C
330
1D
100
AcDbEntity
  8
0
100
AcDbLine
 10
399.902309957704
 20
184.455502314134
 30
0.0
 11
401.163909957705
 21
183.711402314134
 31
0.0
  0
LINE
  5
1F3D
330
1D
100
AcDbEntity
  8
0
100
AcDbLine
 10
399.737809957704
 20
185.164202314134
 30
0.0
 11
401.395909957705
 21
184.150502314134
 31
0.0
  0
LINE
  5
1F3E
330
1D
100
AcDbEntity
  8
0
100
AcDbLine
 10
397.666509957704
 20
186.777202314134
 30
0.0
 11
399.737809957704
 21
185.164402314134
 31
0.0
  0
LINE
  5
1F3F
330
1D
100
AcDbEntity
  8
0
100
AcDbLine
 10
396.741609957704
 20
186.934202314134
 30
0.0
 11
398.586509957704
 21
185.387902314134
 31
0.0
  0
LINE
  5
1F40
330
1D
100
AcDbEntity
  8
0
100
AcDbLine
 10
396.741609957704
 20
186.934202314134
 30
0.0
 11
398.586509957704
 21
185.387702314134
 31
0.0
  0
LINE
  5
1F41
330
1D
100
AcDbEntity
  8
0
100
AcDbLine
 10
397.666409957704
 20
186.777602314134
 30
0.0
 11
399.737809957704
 21
185.164202314134
 31
0.0
  0
LINE
  5
1F42
330
1D
100
AcDbEntity
  8
0
100
AcDbLine
 10
395.018209957705
 20
188.617402314134
 30
0.0
 11
396.741609957704
 21
186.934202314134
 31
0.0
  0
LINE
  5
1F43
330
1D
100
AcDbEntity
  8
0
100
AcDbLine
 10
395.018009957705
 20
188.617802314134
 30
0.0
 11
396.741609957704
 21
186.934202314134
 31
0.0
  0
LINE
  5
1F44
330
1D
100
AcDbEntity
  8
0
100
AcDbLine
 10
396.498709957704
 20
187.839302314134
 30
0.0
 11
397.666409957704
 21
186.777602314134
 31
0.0
  0
LINE
  5
1F45
330
1D
100
AcDbEntity
  8
0
100
AcDbLine
 10
396.498709957704
 20
187.839202314134
 30
0.0
 11
397.666509957704
 21
186.777202314134
 31
0.0
  0
LINE
  5
1F46
330
1D
100
AcDbEntity
  8
0
100
AcDbLine
 10
398.586509957704
 20
185.387702314134
 30
0.0
 11
399.902209957705
 21
184.455602314134
 31
0.0
  0
LINE
  5
1F47
330
1D
100
AcDbEntity
  8
0
100
AcDbLine
 10
398.586509957704
 20
185.387902314134
 30
0.0
 11
399.902309957704
 21
184.455502314134
 31
0.0
  0
LINE
  5
1F48
330
1D
100
AcDbEntity
  8
0
100
AcDbLine
 10
404.035309957705
 20
183.203802314134
 30
0.0
 11
404.998609957705
 21
183.128902314134
 31
0.0
  0
LINE
  5
1F49
330
1D
100
AcDbEntity
  8
0
100
AcDbLine
 10
404.035609957705
 20
183.203402314134
 30
0.0
 11
404.998309957704
 21
183.129302314134
 31
0.0
  0
LINE
  5
1F4A
330
1D
100
AcDbEntity
  8
0
100
AcDbLine
 10
403.224909957705
 20
182.873102314134
 30
0.0
 11
404.336509957704
 21
182.663502314134
 31
0.0
  0
LINE
  5
1F4B
330
1D
100
AcDbEntity
  8
0
100
AcDbLine
 10
403.224909957705
 20
182.872902314134
 30
0.0
 11
404.336309957705
 21
182.663502314134
 31
0.0
  0
LINE
  5
1F4C
330
1D
100
AcDbEntity
  8
0
100
AcDbLine
 10
403.223
 20
182.87365
 30
0.0
 11
404.336
 21
182.66365
 31
0.0
  0
LINE
  5
1F4D
330
1D
100
AcDbEntity
  8
0
100
AcDbLine
 10
401.164109957705
 20
183.711102314134
 30
0.0
 11
402.302309957704
 21
183.184402314134
 31
0.0
  0
LINE
  5
1F4E
330
1D
100
AcDbEntity
  8
0
100
AcDbLine
 10
401.163909957705
 20
183.711402314134
 30
0.0
 11
402.302309957704
 21
183.184402314134
 31
0.0
  0
LINE
  5
1F4F
330
1D
100
AcDbEntity
  8
0
100
AcDbLine
 10
402.302309957704
 20
183.184402314134
 30
0.0
 11
403.224909957705
 21
182.872902314134
 31
0.0
  0
LINE
  5
1F50
330
1D
100
AcDbEntity
  8
0
100
AcDbLine
 10
402.302309957704
 20
183.184402314134
 30
0.0
 11
403.224909957705
 21
182.873102314134
 31
0.0
  0
LINE
  5
1F51
330
1D
100
AcDbEntity
  8
0
100
AcDbLine
 10
401.396109957705
 20
184.150802314134
 30
0.0
 11
402.916509957704
 21
183.487402314134
 31
0.0
  0
LINE
  5
1F52
330
1D
100
AcDbEntity
  8
0
100
AcDbLine
 10
401.395909957705
 20
184.150502314134
 30
0.0
 11
402.916109957705
 21
183.487402314134
 31
0.0
  0
LINE
  5
1F53
330
1D
100
AcDbEntity
  8
0
100
AcDbLine
 10
402.916109957705
 20
183.487402314134
 30
0.0
 11
404.035609957705
 21
183.203402314134
 31
0.0
  0
LINE
  5
1F54
330
1D
100
AcDbEntity
  8
0
100
AcDbLine
 10
402.916509957704
 20
183.487402314134
 30
0.0
 11
404.035309957705
 21
183.203802314134
 31
0.0
  0
LINE
  5
1F55
330
1D
100
AcDbEntity
  8
0
100
AcDbLine
 10
404.336509957704
 20
182.663502314134
 30
0.0
 11
404.998809957704
 21
182.631602314134
 31
0.0
  0
LINE
  5
1F56
330
1D
100
AcDbEntity
  8
0
100
AcDbLine
 10
404.336309957705
 20
182.663502314134
 30
0.0
 11
404.998909957704
 21
182.631702314134
 31
0.0
  0
LINE
  5
1F57
330
1D
100
AcDbEntity
  8
0
100
AcDbLine
 10
405.661309957704
 20
182.663502314134
 30
0.0
 11
404.999009957704
 21
182.631602314134
 31
0.0
  0
LINE
  5
1F58
330
1D
100
AcDbEntity
  8
0
100
AcDbLine
 10
405.661509957705
 20
182.663502314134
 30
0.0
 11
404.998909957704
 21
182.631702314134
 31
0.0
  0
LINE
  5
1F59
330
1D
100
AcDbEntity
  8
0
100
AcDbLine
 10
406.772909957705
 20
182.873102314134
 30
0.0
 11
405.661309957704
 21
182.663502314134
 31
0.0
  0
LINE
  5
1F5A
330
1D
100
AcDbEntity
  8
0
100
AcDbLine
 10
406.772909957705
 20
182.872902314134
 30
0.0
 11
405.661509957705
 21
182.663502314134
 31
0.0
  0
LINE
  5
1F5B
330
1D
100
AcDbEntity
  8
0
100
AcDbLine
 10
405.962509957704
 20
183.203802314134
 30
0.0
 11
404.999209957704
 21
183.128902314134
 31
0.0
  0
LINE
  5
1F5C
330
1D
100
AcDbEntity
  8
0
100
AcDbLine
 10
405.962209957705
 20
183.203402314134
 30
0.0
 11
404.999509957705
 21
183.129302314134
 31
0.0
  0
LINE
  5
1F5D
330
1D
100
AcDbEntity
  8
0
100
AcDbLine
 10
407.081709957704
 20
183.487402314134
 30
0.0
 11
405.962209957705
 21
183.203402314134
 31
0.0
  0
LINE
  5
1F5E
330
1D
100
AcDbEntity
  8
0
100
AcDbLine
 10
407.081309957704
 20
183.487402314134
 30
0.0
 11
405.962509957704
 21
183.203802314134
 31
0.0
  0
LINE
  5
1F5F
330
1D
100
AcDbEntity
  8
0
100
AcDbLine
 10
405.664
 20
182.66365
 30
0.0
 11
405.0
 21
182.63165
 31
0.0
  0
LINE
  5
1F60
330
1D
100
AcDbEntity
  8
0
100
AcDbLine
 10
406.777
 20
182.87365
 30
0.0
 11
405.664
 21
182.66365
 31
0.0
  0
LINE
  5
1F61
330
1D
100
AcDbEntity
  8
0
100
AcDbLine
 10
404.336
 20
182.66365
 30
0.0
 11
405.0
 21
182.63165
 31
0.0
  0
LINE
  5
1F62
330
1D
100
AcDbEntity
  8
0
100
AcDbLine
 10
419.628009957705
 20
195.260302314134
 30
0.0
 11
417.739109957704
 21
192.607102314134
 31
0.0
  0
LINE
  5
1F63
330
1D
100
AcDbEntity
  8
0
100
AcDbLine
 10
419.628009957705
 20
195.260302314134
 30
0.0
 11
417.738909957704
 21
192.607402314134
 31
0.0
  0
LINE
  5
1F64
330
1D
100
AcDbEntity
  8
0
100
AcDbLine
 10
420.269709957704
 20
195.337702314134
 30
0.0
 11
419.107709957705
 21
193.629702314134
 31
0.0
  0
LINE
  5
1F65
330
1D
100
AcDbEntity
  8
0
100
AcDbLine
 10
414.979609957704
 20
188.617402314134
 30
0.0
 11
413.256209957704
 21
186.934202314134
 31
0.0
  0
LINE
  5
1F66
330
1D
100
AcDbEntity
  8
0
100
AcDbLine
 10
414.979809957704
 20
188.617802314134
 30
0.0
 11
413.256209957704
 21
186.934202314134
 31
0.0
  0
LINE
  5
1F67
330
1D
100
AcDbEntity
  8
0
100
AcDbLine
 10
415.699209957705
 20
190.129102314134
 30
0.0
 11
413.499109957705
 21
187.839202314134
 31
0.0
  0
LINE
  5
1F68
330
1D
100
AcDbEntity
  8
0
100
AcDbLine
 10
415.699309957704
 20
190.129402314134
 30
0.0
 11
413.499109957705
 21
187.839302314134
 31
0.0
  0
LINE
  5
1F69
330
1D
100
AcDbEntity
  8
0
100
AcDbLine
 10
408.833709957705
 20
183.711102314134
 30
0.0
 11
407.695509957704
 21
183.184402314134
 31
0.0
  0
LINE
  5
1F6A
330
1D
100
AcDbEntity
  8
0
100
AcDbLine
 10
408.833909957704
 20
183.711402314134
 30
0.0
 11
407.695509957704
 21
183.184402314134
 31
0.0
  0
LINE
  5
1F6B
330
1D
100
AcDbEntity
  8
0
100
AcDbLine
 10
413.499109957705
 20
187.839302314134
 30
0.0
 11
412.331409957705
 21
186.777602314134
 31
0.0
  0
LINE
  5
1F6C
330
1D
100
AcDbEntity
  8
0
100
AcDbLine
 10
413.256209957704
 20
186.934202314134
 30
0.0
 11
411.411309957704
 21
185.387902314134
 31
0.0
  0
LINE
  5
1F6D
330
1D
100
AcDbEntity
  8
0
100
AcDbLine
 10
413.256209957704
 20
186.934202314134
 30
0.0
 11
411.411309957704
 21
185.387702314134
 31
0.0
  0
LINE
  5
1F6E
330
1D
100
AcDbEntity
  8
0
100
AcDbLine
 10
413.499109957705
 20
187.839202314134
 30
0.0
 11
412.331309957704
 21
186.777202314134
 31
0.0
  0
LINE
  5
1F6F
330
1D
100
AcDbEntity
  8
0
100
AcDbLine
 10
411.411309957704
 20
185.387702314134
 30
0.0
 11
410.095609957704
 21
184.455602314134
 31
0.0
  0
LINE
  5
1F70
330
1D
100
AcDbEntity
  8
0
100
AcDbLine
 10
411.411309957704
 20
185.387902314134
 30
0.0
 11
410.095509957705
 21
184.455502314134
 31
0.0
  0
LINE
  5
1F71
330
1D
100
AcDbEntity
  8
0
100
AcDbLine
 10
410.260009957704
 20
185.164402314134
 30
0.0
 11
408.601709957705
 21
184.150802314134
 31
0.0
  0
LINE
  5
1F72
330
1D
100
AcDbEntity
  8
0
100
AcDbLine
 10
410.260009957704
 20
185.164202314134
 30
0.0
 11
408.601909957704
 21
184.150502314134
 31
0.0
  0
LINE
  5
1F73
330
1D
100
AcDbEntity
  8
0
100
AcDbLine
 10
410.095609957704
 20
184.455602314134
 30
0.0
 11
408.833709957705
 21
183.711102314134
 31
0.0
  0
LINE
  5
1F74
330
1D
100
AcDbEntity
  8
0
100
AcDbLine
 10
410.095509957705
 20
184.455502314134
 30
0.0
 11
408.833909957704
 21
183.711402314134
 31
0.0
  0
LINE
  5
1F75
330
1D
100
AcDbEntity
  8
0
100
AcDbLine
 10
412.331309957704
 20
186.777202314134
 30
0.0
 11
410.260009957704
 21
185.164402314134
 31
0.0
  0
LINE
  5
1F76
330
1D
100
AcDbEntity
  8
0
100
AcDbLine
 10
412.331409957705
 20
186.777602314134
 30
0.0
 11
410.260009957704
 21
185.164202314134
 31
0.0
  0
LINE
  5
1F77
330
1D
100
AcDbEntity
  8
0
100
AcDbLine
 10
419.107609957704
 20
193.629502314134
 30
0.0
 11
417.632709957704
 21
191.666402314134
 31
0.0
  0
LINE
  5
1F78
330
1D
100
AcDbEntity
  8
0
100
AcDbLine
 10
419.297209957705
 20
192.360902314134
 30
0.0
 11
418.035809957704
 21
191.630902314134
 31
0.0
  0
LINE
  5
1F79
330
1D
100
AcDbEntity
  8
0
100
AcDbLine
 10
419.297409957705
 20
192.360802314134
 30
0.0
 11
418.035909957704
 21
191.630902314134
 31
0.0
  0
LINE
  5
1F7A
330
1D
100
AcDbEntity
  8
0
100
AcDbLine
 10
417.632709957704
 20
191.666402314134
 30
0.0
 11
416.070309957704
 21
189.801402314134
 31
0.0
  0
LINE
  5
1F7B
330
1D
100
AcDbEntity
  8
0
100
AcDbLine
 10
417.738909957704
 20
192.607402314134
 30
0.0
 11
415.699209957705
 21
190.129102314134
 31
0.0
  0
LINE
  5
1F7C
330
1D
100
AcDbEntity
  8
0
100
AcDbLine
 10
417.739109957704
 20
192.607102314134
 30
0.0
 11
415.699309957704
 21
190.129402314134
 31
0.0
  0
LINE
  5
1F7D
330
1D
100
AcDbEntity
  8
0
100
AcDbLine
 10
418.035909957704
 20
191.630902314134
 30
0.0
 11
417.659144943947
 21
191.439009754386
 31
0.0
  0
LINE
  5
1F7E
330
1D
100
AcDbEntity
  8
0
100
AcDbLine
 10
418.035809957704
 20
191.630902314134
 30
0.0
 11
417.659106669493
 21
191.438967854773
 31
0.0
  0
LINE
  5
1F7F
330
1D
100
AcDbEntity
  8
0
100
AcDbLine
 10
416.070309957704
 20
189.801402314134
 30
0.0
 11
414.979809957704
 21
188.617802314134
 31
0.0
  0
LINE
  5
1F80
330
1D
100
AcDbEntity
  8
0
100
AcDbLine
 10
416.070309957704
 20
189.801402314134
 30
0.0
 11
414.979609957704
 21
188.617402314134
 31
0.0
  0
LINE
  5
1F81
330
1D
100
AcDbEntity
  8
0
100
AcDbLine
 10
422.824109957704
 20
194.938702314134
 30
0.0
 11
421.695009957705
 21
194.017202314134
 31
0.0
  0
LINE
  5
1F82
330
1D
100
AcDbEntity
  8
0
100
AcDbLine
 10
422.824109957704
 20
194.938402314134
 30
0.0
 11
421.694909957705
 21
194.017202314134
 31
0.0
  0
LINE
  5
1F83
330
1D
100
AcDbEntity
  8
0
100
AcDbLine
 10
421.694909957705
 20
194.017202314134
 30
0.0
 11
420.518209957705
 21
193.157102314134
 31
0.0
  0
LINE
  5
1F84
330
1D
100
AcDbEntity
  8
0
100
AcDbLine
 10
421.695009957705
 20
194.017202314134
 30
0.0
 11
420.518109957704
 21
193.157102314134
 31
0.0
  0
LINE
  5
1F85
330
1D
100
AcDbEntity
  8
0
100
AcDbLine
 10
426.804109957704
 20
199.183602314134
 30
0.0
 11
425.895409957704
 21
198.044402314134
 31
0.0
  0
LINE
  5
1F86
330
1D
100
AcDbEntity
  8
0
100
AcDbLine
 10
426.804009957704
 20
199.183502314134
 30
0.0
 11
425.895509957704
 21
198.044602314134
 31
0.0
  0
LINE
  5
1F87
330
1D
100
AcDbEntity
  8
0
100
AcDbLine
 10
424.946209957704
 20
204.716002314134
 30
0.0
 11
424.105009957705
 21
202.546802314134
 31
0.0
  0
LINE
  5
1F88
330
1D
100
AcDbEntity
  8
0
100
AcDbLine
 10
424.946009957705
 20
204.715602314134
 30
0.0
 11
424.105009957705
 21
202.546802314134
 31
0.0
  0
LINE
  5
1F89
330
1D
100
AcDbEntity
  8
0
100
AcDbLine
 10
424.365109957705
 20
204.563902314134
 30
0.0
 11
423.648409957705
 21
202.737702314134
 31
0.0
  0
LINE
  5
1F8A
330
1D
100
AcDbEntity
  8
0
100
AcDbLine
 10
424.365309957705
 20
204.564002314134
 30
0.0
 11
423.648409957705
 21
202.737902314134
 31
0.0
  0
LINE
  5
1F8B
330
1D
100
AcDbEntity
  8
0
100
AcDbLine
 10
424.997909957704
 20
206.440902314134
 30
0.0
 11
424.365309957705
 21
204.564002314134
 31
0.0
  0
LINE
  5
1F8C
330
1D
100
AcDbEntity
  8
0
100
AcDbLine
 10
424.998009957704
 20
206.441202314134
 30
0.0
 11
424.365109957705
 21
204.563902314134
 31
0.0
  0
LINE
  5
1F8D
330
1D
100
AcDbEntity
  8
0
100
AcDbLine
 10
425.470909957704
 20
206.294802314134
 30
0.0
 11
424.946009957705
 21
204.715602314134
 31
0.0
  0
LINE
  5
1F8E
330
1D
100
AcDbEntity
  8
0
100
AcDbLine
 10
424.927509957704
 20
196.955202314134
 30
0.0
 11
423.902809957704
 21
195.919002314134
 31
0.0
  0
LINE
  5
1F8F
330
1D
100
AcDbEntity
  8
0
100
AcDbLine
 10
424.927609957705
 20
196.955302314134
 30
0.0
 11
423.902609957704
 21
195.918702314134
 31
0.0
  0
LINE
  5
1F90
330
1D
100
AcDbEntity
  8
0
100
AcDbLine
 10
423.902809957704
 20
195.919002314134
 30
0.0
 11
422.824109957704
 21
194.938402314134
 31
0.0
  0
LINE
  5
1F91
330
1D
100
AcDbEntity
  8
0
100
AcDbLine
 10
423.902609957704
 20
195.918702314134
 30
0.0
 11
422.824109957704
 21
194.938702314134
 31
0.0
  0
LINE
  5
1F92
330
1D
100
AcDbEntity
  8
0
100
AcDbLine
 10
423.011809957704
 20
200.152302314134
 30
0.0
 11
421.792809957705
 21
197.847802314134
 31
0.0
  0
LINE
  5
1F93
330
1D
100
AcDbEntity
  8
0
100
AcDbLine
 10
423.011809957704
 20
200.152302314134
 30
0.0
 11
421.792809957705
 21
197.847602314134
 31
0.0
  0
LINE
  5
1F94
330
1D
100
AcDbEntity
  8
0
100
AcDbLine
 10
422.567609957704
 20
200.370302314134
 30
0.0
 11
421.362209957705
 21
198.090502314134
 31
0.0
  0
LINE
  5
1F95
330
1D
100
AcDbEntity
  8
0
100
AcDbLine
 10
422.567809957704
 20
200.370502314134
 30
0.0
 11
421.361709957705
 21
198.090102314134
 31
0.0
  0
LINE
  5
1F96
330
1D
100
AcDbEntity
  8
0
100
AcDbLine
 10
425.895409957704
 20
198.044402314134
 30
0.0
 11
424.927609957705
 21
196.955302314134
 31
0.0
  0
LINE
  5
1F97
330
1D
100
AcDbEntity
  8
0
100
AcDbLine
 10
425.895509957704
 20
198.044602314134
 30
0.0
 11
424.927509957704
 21
196.955202314134
 31
0.0
  0
LINE
  5
1F98
330
1D
100
AcDbEntity
  8
0
100
AcDbLine
 10
424.105009957705
 20
202.546802314134
 30
0.0
 11
423.011809957704
 21
200.152302314134
 31
0.0
  0
LINE
  5
1F99
330
1D
100
AcDbEntity
  8
0
100
AcDbLine
 10
423.648409957705
 20
202.737702314134
 30
0.0
 11
422.567809957704
 21
200.370502314134
 31
0.0
  0
LINE
  5
1F9A
330
1D
100
AcDbEntity
  8
0
100
AcDbLine
 10
423.648409957705
 20
202.737902314134
 30
0.0
 11
422.567609957704
 21
200.370302314134
 31
0.0
  0
LINE
  5
1F9B
330
1D
100
AcDbEntity
  8
0
100
AcDbLine
 10
429.990209957704
 20
204.607302314134
 30
0.0
 11
429.294509957705
 21
203.149602314134
 31
0.0
  0
LINE
  5
1F9C
330
1D
100
AcDbEntity
  8
0
100
AcDbLine
 10
429.989909957705
 20
204.607302314134
 30
0.0
 11
429.294509957705
 21
203.149602314134
 31
0.0
  0
LINE
  5
1F9D
330
1D
100
AcDbEntity
  8
0
100
AcDbLine
 10
429.294509957705
 20
203.149602314134
 30
0.0
 11
428.513809957705
 21
201.735602314134
 31
0.0
  0
LINE
  5
1F9E
330
1D
100
AcDbEntity
  8
0
100
AcDbLine
 10
429.294509957705
 20
203.149602314134
 30
0.0
 11
428.514009957705
 21
201.735602314134
 31
0.0
  0
LINE
  5
1F9F
330
1D
100
AcDbEntity
  8
0
100
AcDbLine
 10
428.513809957705
 20
201.735602314134
 30
0.0
 11
427.650809957704
 21
200.370002314134
 31
0.0
  0
LINE
  5
1FA0
330
1D
100
AcDbEntity
  8
0
100
AcDbLine
 10
428.514009957705
 20
201.735602314134
 30
0.0
 11
427.650809957704
 21
200.370002314134
 31
0.0
  0
LINE
  5
1FA1
330
1D
100
AcDbEntity
  8
0
100
AcDbLine
 10
427.650809957704
 20
200.370002314134
 30
0.0
 11
426.804009957704
 21
199.183502314134
 31
0.0
  0
LINE
  5
1FA2
330
1D
100
AcDbEntity
  8
0
100
AcDbLine
 10
427.650809957704
 20
200.370002314134
 30
0.0
 11
426.804109957704
 21
199.183602314134
 31
0.0
  0
LINE
  5
1FA3
330
1D
100
AcDbEntity
  8
0
100
AcDbLine
 10
430.598309957704
 20
206.104102314134
 30
0.0
 11
429.990209957704
 21
204.607302314134
 31
0.0
  0
LINE
  5
1FA4
330
1D
100
AcDbEntity
  8
0
100
AcDbLine
 10
430.598209957705
 20
206.104102314134
 30
0.0
 11
429.989909957705
 21
204.607302314134
 31
0.0
  0
LINE
  5
1FA5
330
1D
100
AcDbEntity
  8
0
100
AcDbLine
 10
431.116509957704
 20
207.633802314134
 30
0.0
 11
430.598309957704
 21
206.104102314134
 31
0.0
  0
LINE
  5
1FA6
330
1D
100
AcDbEntity
  8
0
100
AcDbLine
 10
431.116409957704
 20
207.633702314134
 30
0.0
 11
430.598209957705
 21
206.104102314134
 31
0.0
  0
LINE
  5
1FA7
330
1D
100
AcDbEntity
  8
0
100
AcDbLine
 10
479.876
 20
141.27865
 30
0.0
 11
485.478
 21
91.55585
 31
0.0
  0
LINE
  5
1FA8
330
1D
100
AcDbEntity
  8
0
100
AcDbLine
 10
529.258
 20
93.79135
 30
0.0
 11
529.318
 21
143.62665
 31
0.0
  0
LINE
  5
1FA9
330
1D
100
AcDbEntity
  8
0
100
AcDbLine
 10
497.162666630548
 20
15.392046338255
 30
0.0
 11
498.385429210822
 21
14.197073816623
 31
0.0
  0
LINE
  5
1FAA
330
1D
100
AcDbEntity
  8
0
100
AcDbLine
 10
487.792895922551
 20
71.710353824067
 30
0.0
 11
491.51
 21
39.29025
 31
0.0
  0
LINE
  5
1FAB
330
1D
100
AcDbEntity
  8
0
100
AcDbLine
 10
487.792895922551
 20
71.710353824067
 30
0.0
 11
491.51
 21
39.29025
 31
0.0
  0
LINE
  5
1FAC
330
1D
100
AcDbEntity
  8
0
100
AcDbLine
 10
492.837
 20
28.41575
 30
0.0
 11
494.288174124792
 21
20.754749534634
 31
0.0
  0
LINE
  5
1FAD
330
1D
100
AcDbEntity
  8
0
100
AcDbLine
 10
494.288174124792
 20
20.754749534634
 30
0.0
 11
495.245152584209
 21
18.33779255437
 31
0.0
  0
LINE
  5
1FAE
330
1D
100
AcDbEntity
  8
0
100
AcDbLine
 10
495.245152584209
 20
18.33779255437
 30
0.0
 11
496.2178046367
 21
16.642598977172
 31
0.0
  0
LINE
  5
1FAF
330
1D
100
AcDbEntity
  8
0
100
AcDbLine
 10
496.2178046367
 20
16.642598977172
 30
0.0
 11
497.162666630548
 21
15.392046338255
 31
0.0
  0
LINE
  5
1FB0
330
1D
100
AcDbEntity
  8
0
100
AcDbLine
 10
491.51
 20
39.29055
 30
0.0
 11
492.837
 21
28.41575
 31
0.0
  0
LINE
  5
1FB1
330
1D
100
AcDbEntity
  8
0
100
AcDbLine
 10
487.792895922551
 20
71.710353824067
 30
0.0
 11
485.478
 21
91.55585
 31
0.0
  0
LINE
  5
1FB2
330
1D
100
AcDbEntity
  8
0
100
AcDbLine
 10
529.258
 20
93.79135
 30
0.0
 11
529.407
 21
40.22475
 31
0.0
  0
LINE
  5
1FB3
330
1D
100
AcDbEntity
  8
0
100
AcDbLine
 10
520.575
 20
11.77205
 30
0.0
 11
524.121
 21
13.79155
 31
0.0
  0
LINE
  5
1FB4
330
1D
100
AcDbEntity
  8
0
100
AcDbLine
 10
507.301
 20
10.45205
 30
0.0
 11
511.92
 21
10.10015
 31
0.0
  0
LINE
  5
1FB5
330
1D
100
AcDbEntity
  8
0
100
AcDbLine
 10
507.301
 20
10.45195
 30
0.0
 11
511.921
 21
10.10025
 31
0.0
  0
LINE
  5
1FB6
330
1D
100
AcDbEntity
  8
0
100
AcDbLine
 10
499.215
 20
13.57535
 30
0.0
 11
502.967
 21
11.63735
 31
0.0
  0
LINE
  5
1FB7
330
1D
100
AcDbEntity
  8
0
100
AcDbLine
 10
502.967
 20
11.63735
 30
0.0
 11
507.301
 21
10.45205
 31
0.0
  0
LINE
  5
1FB8
330
1D
100
AcDbEntity
  8
0
100
AcDbLine
 10
502.968
 20
11.63735
 30
0.0
 11
507.301
 21
10.45195
 31
0.0
  0
LINE
  5
1FB9
330
1D
100
AcDbEntity
  8
0
100
AcDbLine
 10
498.385429210822
 20
14.197073816623
 30
0.0
 11
499.215
 21
13.57535
 31
0.0
  0
LINE
  5
1FBA
330
1D
100
AcDbEntity
  8
0
100
AcDbLine
 10
511.92
 20
10.10015
 30
0.0
 11
516.511
 21
10.60575
 31
0.0
  0
LINE
  5
1FBB
330
1D
100
AcDbEntity
  8
0
100
AcDbLine
 10
516.512
 20
10.60575
 30
0.0
 11
520.575
 21
11.77205
 31
0.0
  0
LINE
  5
1FBC
330
1D
100
AcDbEntity
  8
0
100
AcDbLine
 10
511.921
 20
10.10025
 30
0.0
 11
516.512
 21
10.60575
 31
0.0
  0
LINE
  5
1FBD
330
1D
100
AcDbEntity
  8
0
100
AcDbLine
 10
529.366
 20
22.64375
 30
0.0
 11
529.407
 21
40.22475
 31
0.0
  0
LINE
  5
1FBE
330
1D
100
AcDbEntity
  8
0
100
AcDbLine
 10
528.213
 20
18.39395
 30
0.0
 11
528.796
 21
19.71245
 31
0.0
  0
LINE
  5
1FBF
330
1D
100
AcDbEntity
  8
0
100
AcDbLine
 10
524.379
 20
13.99535
 30
0.0
 11
525.564
 21
15.06795
 31
0.0
  0
LINE
  5
1FC0
330
1D
100
AcDbEntity
  8
0
100
AcDbLine
 10
525.564
 20
15.06795
 30
0.0
 11
527.12
 21
16.64845
 31
0.0
  0
LINE
  5
1FC1
330
1D
100
AcDbEntity
  8
0
100
AcDbLine
 10
527.12
 20
16.64845
 30
0.0
 11
527.489
 21
17.22245
 31
0.0
  0
LINE
  5
1FC2
330
1D
100
AcDbEntity
  8
0
100
AcDbLine
 10
527.489
 20
17.22215
 30
0.0
 11
528.213
 21
18.39395
 31
0.0
  0
LINE
  5
1FC3
330
1D
100
AcDbEntity
  8
0
100
AcDbLine
 10
527.489
 20
17.22245
 30
0.0
 11
528.213
 21
18.39395
 31
0.0
  0
LINE
  5
1FC4
330
1D
100
AcDbEntity
  8
0
100
AcDbLine
 10
524.121
 20
13.79155
 30
0.0
 11
524.38
 21
13.99535
 31
0.0
  0
LINE
  5
1FC5
330
1D
100
AcDbEntity
  8
0
100
AcDbLine
 10
529.339
 20
22.14005
 30
0.0
 11
529.356
 21
22.39165
 31
0.0
  0
LINE
  5
1FC6
330
1D
100
AcDbEntity
  8
0
100
AcDbLine
 10
529.356
 20
22.40355
 30
0.0
 11
529.366
 21
22.64395
 31
0.0
  0
LINE
  5
1FC7
330
1D
100
AcDbEntity
  8
0
100
AcDbLine
 10
529.339
 20
22.13975
 30
0.0
 11
529.356
 21
22.39185
 31
0.0
  0
LINE
  5
1FC8
330
1D
100
AcDbEntity
  8
0
100
AcDbLine
 10
528.977
 20
20.23575
 30
0.0
 11
529.339
 21
22.13975
 31
0.0
  0
LINE
  5
1FC9
330
1D
100
AcDbEntity
  8
0
100
AcDbLine
 10
528.977
 20
20.23575
 30
0.0
 11
529.339
 21
22.14005
 31
0.0
  0
LINE
  5
1FCA
330
1D
100
AcDbEntity
  8
0
100
AcDbLine
 10
529.356
 20
22.40365
 30
0.0
 11
529.366
 21
22.64375
 31
0.0
  0
LINE
  5
1FCB
330
1D
100
AcDbEntity
  8
0
100
AcDbLine
 10
528.796
 20
19.71245
 30
0.0
 11
528.977
 21
20.23575
 31
0.0
  0
LINE
  5
1FCC
330
1D
100
AcDbEntity
  8
0
100
AcDbLine
 10
496.414
 20
191.90665
 30
0.0
 11
498.491
 21
190.19765
 31
0.0
  0
LINE
  5
1FCD
330
1D
100
AcDbEntity
  8
0
100
AcDbLine
 10
496.413
 20
191.90665
 30
0.0
 11
498.491
 21
190.19765
 31
0.0
  0
LINE
  5
1FCE
330
1D
100
AcDbEntity
  8
0
100
AcDbLine
 10
478.106
 20
159.92965
 30
0.0
 11
479.876
 21
141.27865
 31
0.0
  0
LINE
  5
1FCF
330
1D
100
AcDbEntity
  8
0
100
AcDbLine
 10
478.202
 20
179.87865
 30
0.0
 11
478.83
 21
184.68565
 31
0.0
  0
LINE
  5
1FD0
330
1D
100
AcDbEntity
  8
0
100
AcDbLine
 10
477.695
 20
168.84365
 30
0.0
 11
478.106
 21
159.92965
 31
0.0
  0
LINE
  5
1FD1
330
1D
100
AcDbEntity
  8
0
100
AcDbLine
 10
477.7
 20
169.47865
 30
0.0
 11
477.761
 21
172.24465
 31
0.0
  0
LINE
  5
1FD2
330
1D
100
AcDbEntity
  8
0
100
AcDbLine
 10
477.695
 20
168.84365
 30
0.0
 11
477.7
 21
169.47865
 31
0.0
  0
LINE
  5
1FD3
330
1D
100
AcDbEntity
  8
0
100
AcDbLine
 10
477.761
 20
172.24465
 30
0.0
 11
477.86
 21
174.35965
 31
0.0
  0
LINE
  5
1FD4
330
1D
100
AcDbEntity
  8
0
100
AcDbLine
 10
477.848
 20
175.65565
 30
0.0
 11
477.86
 21
174.36065
 31
0.0
  0
LINE
  5
1FD5
330
1D
100
AcDbEntity
  8
0
100
AcDbLine
 10
477.848
 20
175.65565
 30
0.0
 11
478.202
 21
179.87865
 31
0.0
  0
LINE
  5
1FD6
330
1D
100
AcDbEntity
  8
0
100
AcDbLine
 10
477.761
 20
172.24565
 30
0.0
 11
477.86
 21
174.36065
 31
0.0
  0
LINE
  5
1FD7
330
1D
100
AcDbEntity
  8
0
100
AcDbLine
 10
482.933
 20
198.69665
 30
0.0
 11
485.298
 21
203.10165
 31
0.0
  0
LINE
  5
1FD8
330
1D
100
AcDbEntity
  8
0
100
AcDbLine
 10
478.83
 20
184.68565
 30
0.0
 11
480.29
 21
191.18665
 31
0.0
  0
LINE
  5
1FD9
330
1D
100
AcDbEntity
  8
0
100
AcDbLine
 10
480.29
 20
191.18665
 30
0.0
 11
481.548
 21
195.20065
 31
0.0
  0
LINE
  5
1FDA
330
1D
100
AcDbEntity
  8
0
100
AcDbLine
 10
481.548
 20
195.20065
 30
0.0
 11
482.933
 21
198.69665
 31
0.0
  0
LINE
  5
1FDB
330
1D
100
AcDbEntity
  8
0
100
AcDbLine
 10
482.823
 20
200.98665
 30
0.0
 11
483.459176338838
 21
199.676695146969
 31
0.0
  0
LINE
  5
1FDC
330
1D
100
AcDbEntity
  8
0
100
AcDbLine
 10
481.66
 20
204.10765
 30
0.0
 11
482.823
 21
200.98665
 31
0.0
  0
LINE
  5
1FDD
330
1D
100
AcDbEntity
  8
0
100
AcDbLine
 10
480.798
 20
207.32465
 30
0.0
 11
481.66
 21
204.10765
 31
0.0
  0
LINE
  5
1FDE
330
1D
100
AcDbEntity
  8
0
100
AcDbLine
 10
492.467
 20
196.34765
 30
0.0
 11
493.603
 21
194.84665
 31
0.0
  0
LINE
  5
1FDF
330
1D
100
AcDbEntity
  8
0
100
AcDbLine
 10
493.603
 20
194.84665
 30
0.0
 11
496.414
 21
191.90665
 31
0.0
  0
LINE
  5
1FE0
330
1D
100
AcDbEntity
  8
0
100
AcDbLine
 10
493.603
 20
194.84665
 30
0.0
 11
496.413
 21
191.90665
 31
0.0
  0
LINE
  5
1FE1
330
1D
100
AcDbEntity
  8
0
100
AcDbLine
 10
492.466
 20
196.34765
 30
0.0
 11
493.603
 21
194.84665
 31
0.0
  0
LINE
  5
1FE2
330
1D
100
AcDbEntity
  8
0
100
AcDbLine
 10
491.478
 20
197.94065
 30
0.0
 11
492.466
 21
196.34765
 31
0.0
  0
LINE
  5
1FE3
330
1D
100
AcDbEntity
  8
0
100
AcDbLine
 10
491.478
 20
197.93965
 30
0.0
 11
492.467
 21
196.34765
 31
0.0
  0
LINE
  5
1FE4
330
1D
100
AcDbEntity
  8
0
100
AcDbLine
 10
485.298
 20
203.10165
 30
0.0
 11
487.284
 21
206.57465
 31
0.0
  0
LINE
  5
1FE5
330
1D
100
AcDbEntity
  8
0
100
AcDbLine
 10
489.857
 20
203.20365
 30
0.0
 11
490.021
 21
205.78265
 31
0.0
  0
LINE
  5
1FE6
330
1D
100
AcDbEntity
  8
0
100
AcDbLine
 10
489.857
 20
203.20365
 30
0.0
 11
490.128
 21
201.37465
 31
0.0
  0
LINE
  5
1FE7
330
1D
100
AcDbEntity
  8
0
100
AcDbLine
 10
490.128
 20
201.37465
 30
0.0
 11
490.684
 21
199.61865
 31
0.0
  0
LINE
  5
1FE8
330
1D
100
AcDbEntity
  8
0
100
AcDbLine
 10
490.684
 20
199.61865
 30
0.0
 11
491.478
 21
197.94065
 31
0.0
  0
LINE
  5
1FE9
330
1D
100
AcDbEntity
  8
0
100
AcDbLine
 10
490.684
 20
199.61865
 30
0.0
 11
491.478
 21
197.93965
 31
0.0
  0
LINE
  5
1FEA
330
1D
100
AcDbEntity
  8
0
100
AcDbLine
 10
490.128
 20
201.37565
 30
0.0
 11
490.684
 21
199.61865
 31
0.0
  0
LINE
  5
1FEB
330
1D
100
AcDbEntity
  8
0
100
AcDbLine
 10
489.857
 20
203.20465
 30
0.0
 11
490.128
 21
201.37565
 31
0.0
  0
LINE
  5
1FEC
330
1D
100
AcDbEntity
  8
0
100
AcDbLine
 10
489.857
 20
203.20465
 30
0.0
 11
490.02
 21
205.78165
 31
0.0
  0
LINE
  5
1FED
330
1D
100
AcDbEntity
  8
0
100
AcDbLine
 10
529.318
 20
143.62665
 30
0.0
 11
530.466
 21
174.76665
 31
0.0
  0
LINE
  5
1FEE
330
1D
100
AcDbEntity
  8
0
100
AcDbLine
 10
521.956
 20
186.20165
 30
0.0
 11
524.187
 21
187.11565
 31
0.0
  0
LINE
  5
1FEF
330
1D
100
AcDbEntity
  8
0
100
AcDbLine
 10
521.956
 20
186.20065
 30
0.0
 11
524.187
 21
187.11565
 31
0.0
  0
LINE
  5
1FF0
330
1D
100
AcDbEntity
  8
0
100
AcDbLine
 10
522.413
 20
200.30365
 30
0.0
 11
524.797
 21
199.29465
 31
0.0
  0
LINE
  5
1FF1
330
1D
100
AcDbEntity
  8
0
100
AcDbLine
 10
522.413
 20
200.30365
 30
0.0
 11
524.796
 21
199.29465
 31
0.0
  0
LINE
  5
1FF2
330
1D
100
AcDbEntity
  8
0
100
AcDbLine
 10
510.182
 20
185.17465
 30
0.0
 11
512.627
 21
184.89565
 31
0.0
  0
LINE
  5
1FF3
330
1D
100
AcDbEntity
  8
0
100
AcDbLine
 10
510.182
 20
185.17465
 30
0.0
 11
512.627
 21
184.89665
 31
0.0
  0
LINE
  5
1FF4
330
1D
100
AcDbEntity
  8
0
100
AcDbLine
 10
498.491
 20
190.19765
 30
0.0
 11
500.686
 21
188.71965
 31
0.0
  0
LINE
  5
1FF5
330
1D
100
AcDbEntity
  8
0
100
AcDbLine
 10
498.491
 20
190.19765
 30
0.0
 11
500.685
 21
188.71965
 31
0.0
  0
LINE
  5
1FF6
330
1D
100
AcDbEntity
  8
0
100
AcDbLine
 10
507.743
 20
185.69965
 30
0.0
 11
510.182
 21
185.17465
 31
0.0
  0
LINE
  5
1FF7
330
1D
100
AcDbEntity
  8
0
100
AcDbLine
 10
507.744
 20
185.69965
 30
0.0
 11
510.182
 21
185.17465
 31
0.0
  0
LINE
  5
1FF8
330
1D
100
AcDbEntity
  8
0
100
AcDbLine
 10
505.334
 20
186.46765
 30
0.0
 11
507.743
 21
185.69965
 31
0.0
  0
LINE
  5
1FF9
330
1D
100
AcDbEntity
  8
0
100
AcDbLine
 10
505.333
 20
186.46765
 30
0.0
 11
507.744
 21
185.69965
 31
0.0
  0
LINE
  5
1FFA
330
1D
100
AcDbEntity
  8
0
100
AcDbLine
 10
502.973
 20
187.47465
 30
0.0
 11
505.334
 21
186.46765
 31
0.0
  0
LINE
  5
1FFB
330
1D
100
AcDbEntity
  8
0
100
AcDbLine
 10
500.685
 20
188.71965
 30
0.0
 11
502.973
 21
187.47465
 31
0.0
  0
LINE
  5
1FFC
330
1D
100
AcDbEntity
  8
0
100
AcDbLine
 10
500.686
 20
188.71965
 30
0.0
 11
502.974
 21
187.47465
 31
0.0
  0
LINE
  5
1FFD
330
1D
100
AcDbEntity
  8
0
100
AcDbLine
 10
502.974
 20
187.47465
 30
0.0
 11
505.333
 21
186.46765
 31
0.0
  0
LINE
  5
1FFE
330
1D
100
AcDbEntity
  8
0
100
AcDbLine
 10
512.627
 20
184.89665
 30
0.0
 11
515.057
 21
184.86665
 31
0.0
  0
LINE
  5
1FFF
330
1D
100
AcDbEntity
  8
0
100
AcDbLine
 10
515.057
 20
184.86665
 30
0.0
 11
517.273
 21
185.06265
 31
0.0
  0
LINE
  5
2000
330
1D
100
AcDbEntity
  8
0
100
AcDbLine
 10
515.056
 20
184.86765
 30
0.0
 11
517.273
 21
185.06265
 31
0.0
  0
LINE
  5
2001
330
1D
100
AcDbEntity
  8
0
100
AcDbLine
 10
517.273
 20
185.06265
 30
0.0
 11
519.647
 21
185.51265
 31
0.0
  0
LINE
  5
2002
330
1D
100
AcDbEntity
  8
0
100
AcDbLine
 10
517.273
 20
185.06265
 30
0.0
 11
519.647
 21
185.51365
 31
0.0
  0
LINE
  5
2003
330
1D
100
AcDbEntity
  8
0
100
AcDbLine
 10
519.647
 20
185.51365
 30
0.0
 11
521.956
 21
186.20165
 31
0.0
  0
LINE
  5
2004
330
1D
100
AcDbEntity
  8
0
100
AcDbLine
 10
519.647
 20
185.51265
 30
0.0
 11
521.956
 21
186.20065
 31
0.0
  0
LINE
  5
2005
330
1D
100
AcDbEntity
  8
0
100
AcDbLine
 10
512.627
 20
184.89565
 30
0.0
 11
515.056
 21
184.86765
 31
0.0
  0
LINE
  5
2006
330
1D
100
AcDbEntity
  8
0
100
AcDbLine
 10
519.75
 20
201.88565
 30
0.0
 11
522.413
 21
200.30365
 31
0.0
  0
LINE
  5
2007
330
1D
100
AcDbEntity
  8
0
100
AcDbLine
 10
517.322
 20
203.85865
 30
0.0
 11
519.75
 21
201.88565
 31
0.0
  0
LINE
  5
2008
330
1D
100
AcDbEntity
  8
0
100
AcDbLine
 10
517.323
 20
203.85865
 30
0.0
 11
519.75
 21
201.88565
 31
0.0
  0
LINE
  5
2009
330
1D
100
AcDbEntity
  8
0
100
AcDbLine
 10
515.205
 20
206.15165
 30
0.0
 11
517.323
 21
203.85865
 31
0.0
  0
LINE
  5
200A
330
1D
100
AcDbEntity
  8
0
100
AcDbLine
 10
515.205
 20
206.15165
 30
0.0
 11
517.322
 21
203.85865
 31
0.0
  0
LINE
  5
200B
330
1D
100
AcDbEntity
  8
0
100
AcDbLine
 10
530.876
 20
178.54465
 30
0.0
 11
531.942
 21
185.52665
 31
0.0
  0
LINE
  5
200C
330
1D
100
AcDbEntity
  8
0
100
AcDbLine
 10
530.466
 20
174.76665
 30
0.0
 11
530.876
 21
178.54465
 31
0.0
  0
LINE
  5
200D
330
1D
100
AcDbEntity
  8
0
100
AcDbLine
 10
535.97
 20
186.73465
 30
0.0
 11
537.628920214956
 21
188.104809570063
 31
0.0
  0
LINE
  5
200E
330
1D
100
AcDbEntity
  8
0
100
AcDbLine
 10
528.354
 20
189.57965
 30
0.0
 11
537.546
 21
197.89865
 31
0.0
  0
LINE
  5
200F
330
1D
100
AcDbEntity
  8
0
100
AcDbLine
 10
535.702
 20
189.05865
 30
0.0
 11
538.121
 21
191.21165
 31
0.0
  0
LINE
  5
2010
330
1D
100
AcDbEntity
  8
0
100
AcDbLine
 10
535.702
 20
189.05965
 30
0.0
 11
538.121
 21
191.21165
 31
0.0
  0
LINE
  5
2011
330
1D
100
AcDbEntity
  8
0
100
AcDbLine
 10
536.283
 20
198.66665
 30
0.0
 11
538.685563821654
 21
199.306195350155
 31
0.0
  0
LINE
  5
2012
330
1D
100
AcDbEntity
  8
0
100
AcDbLine
 10
526.324
 20
188.24465
 30
0.0
 11
528.354
 21
189.57965
 31
0.0
  0
LINE
  5
2013
330
1D
100
AcDbEntity
  8
0
100
AcDbLine
 10
524.187
 20
187.11565
 30
0.0
 11
526.324
 21
188.24565
 31
0.0
  0
LINE
  5
2014
330
1D
100
AcDbEntity
  8
0
100
AcDbLine
 10
524.187
 20
187.11565
 30
0.0
 11
526.324
 21
188.24465
 31
0.0
  0
LINE
  5
2015
330
1D
100
AcDbEntity
  8
0
100
AcDbLine
 10
526.324
 20
188.24565
 30
0.0
 11
528.354
 21
189.57965
 31
0.0
  0
LINE
  5
2016
330
1D
100
AcDbEntity
  8
0
100
AcDbLine
 10
533.211
 20
184.86765
 30
0.0
 11
535.97
 21
186.73465
 31
0.0
  0
LINE
  5
2017
330
1D
100
AcDbEntity
  8
0
100
AcDbLine
 10
531.716955221394
 20
184.052670033558
 30
0.0
 11
533.211
 21
184.86765
 31
0.0
  0
LINE
  5
2018
330
1D
100
AcDbEntity
  8
0
100
AcDbLine
 10
531.942
 20
185.52665
 30
0.0
 11
533.078
 21
191.23365
 31
0.0
  0
LINE
  5
2019
330
1D
100
AcDbEntity
  8
0
100
AcDbLine
 10
532.157800621197
 20
186.610782170044
 30
0.0
 11
533.082
 21
187.15365
 31
0.0
  0
LINE
  5
201A
330
1D
100
AcDbEntity
  8
0
100
AcDbLine
 10
533.082
 20
187.15365
 30
0.0
 11
535.702
 21
189.05865
 31
0.0
  0
LINE
  5
201B
330
1D
100
AcDbEntity
  8
0
100
AcDbLine
 10
532.157712081267
 20
186.610337366014
 30
0.0
 11
533.083
 21
187.15365
 31
0.0
  0
LINE
  5
201C
330
1D
100
AcDbEntity
  8
0
100
AcDbLine
 10
533.078
 20
191.23365
 30
0.0
 11
533.788772928247
 21
194.087510999779
 31
0.0
  0
LINE
  5
201F
330
1D
100
AcDbEntity
  8
0
100
AcDbLine
 10
528.754
 20
198.32265
 30
0.0
 11
531.801
 21
198.11265
 31
0.0
  0
LINE
  5
2020
330
1D
100
AcDbEntity
  8
0
100
AcDbLine
 10
528.754
 20
198.32165
 30
0.0
 11
531.8
 21
198.11265
 31
0.0
  0
LINE
  5
2021
330
1D
100
AcDbEntity
  8
0
100
AcDbLine
 10
527.244
 20
198.59665
 30
0.0
 11
528.754
 21
198.32165
 31
0.0
  0
LINE
  5
2022
330
1D
100
AcDbEntity
  8
0
100
AcDbLine
 10
527.244
 20
198.59665
 30
0.0
 11
528.754
 21
198.32265
 31
0.0
  0
LINE
  5
2023
330
1D
100
AcDbEntity
  8
0
100
AcDbLine
 10
524.796
 20
199.29465
 30
0.0
 11
527.244
 21
198.59665
 31
0.0
  0
LINE
  5
2024
330
1D
100
AcDbEntity
  8
0
100
AcDbLine
 10
524.797
 20
199.29465
 30
0.0
 11
527.244
 21
198.59665
 31
0.0
  0
LINE
  5
2025
330
1D
100
AcDbEntity
  8
0
100
AcDbLine
 10
531.8
 20
198.11265
 30
0.0
 11
534.818
 21
198.36365
 31
0.0
  0
LINE
  5
2026
330
1D
100
AcDbEntity
  8
0
100
AcDbLine
 10
531.801
 20
198.11265
 30
0.0
 11
534.818
 21
198.36365
 31
0.0
  0
LINE
  5
2027
330
1D
100
AcDbEntity
  8
0
100
AcDbLine
 10
534.818
 20
198.36365
 30
0.0
 11
536.283
 21
198.66665
 31
0.0
  0
LINE
  5
2028
330
1D
100
AcDbEntity
  8
0
100
AcDbLine
 10
540.317
 20
193.59165
 30
0.0
 11
542.271
 21
196.17465
 31
0.0
  0
LINE
  5
2029
330
1D
100
AcDbEntity
  8
0
100
AcDbLine
 10
540.317
 20
193.59065
 30
0.0
 11
542.27
 21
196.17465
 31
0.0
  0
LINE
  5
202A
330
1D
100
AcDbEntity
  8
0
100
AcDbLine
 10
540.92048562764
 20
191.693772826463
 30
0.0
 11
543.509626615491
 21
195.269253238257
 31
0.0
  0
LINE
  5
202B
330
1D
100
AcDbEntity
  8
0
100
AcDbLine
 10
538.121
 20
191.21165
 30
0.0
 11
540.317
 21
193.59065
 31
0.0
  0
LINE
  5
202C
330
1D
100
AcDbEntity
  8
0
100
AcDbLine
 10
538.121
 20
191.21165
 30
0.0
 11
540.317
 21
193.59165
 31
0.0
  0
LINE
  5
202D
330
1D
100
AcDbEntity
  8
0
100
AcDbLine
 10
537.628920214956
 20
188.104809570063
 30
0.0
 11
540.92048562764
 21
191.693772826463
 31
0.0
  0
LINE
  5
202E
330
1D
100
AcDbEntity
  8
0
100
AcDbLine
 10
542.271
 20
196.17465
 30
0.0
 11
543.961
 21
198.93665
 31
0.0
  0
LINE
  5
202F
330
1D
100
AcDbEntity
  8
0
100
AcDbLine
 10
542.27
 20
196.17465
 30
0.0
 11
543.961
 21
198.93665
 31
0.0
  0
LINE
  5
2030
330
1D
100
AcDbEntity
  8
0
100
AcDbLine
 10
542.603
 20
201.85265
 30
0.0
 11
543.619
 21
202.80165
 31
0.0
  0
LINE
  5
2031
330
1D
100
AcDbEntity
  8
0
100
AcDbLine
 10
542.602
 20
201.85265
 30
0.0
 11
543.619
 21
202.80165
 31
0.0
  0
LINE
  5
2032
330
1D
100
AcDbEntity
  8
0
100
AcDbLine
 10
537.546
 20
197.89865
 30
0.0
 11
542.603
 21
201.85265
 31
0.0
  0
LINE
  5
2033
330
1D
100
AcDbEntity
  8
0
100
AcDbLine
 10
538.685563821654
 20
199.306195350155
 30
0.0
 11
539.846104686114
 21
199.720410396822
 31
0.0
  0
LINE
  5
2034
330
1D
100
AcDbEntity
  8
0
100
AcDbLine
 10
543.961
 20
198.93665
 30
0.0
 11
545.371
 21
201.85165
 31
0.0
  0
LINE
  5
2035
330
1D
100
AcDbEntity
  8
0
100
AcDbLine
 10
543.961
 20
198.93665
 30
0.0
 11
545.372
 21
201.85165
 31
0.0
  0
LINE
  5
2036
330
1D
100
AcDbEntity
  8
0
100
AcDbLine
 10
543.961
 20
198.93665
 30
0.0
 11
545.371
 21
201.85265
 31
0.0
  0
LINE
  5
2037
330
1D
100
AcDbEntity
  8
0
100
AcDbLine
 10
545.372
 20
201.85165
 30
0.0
 11
546.49
 21
204.89165
 31
0.0
  0
LINE
  5
2038
330
1D
100
AcDbEntity
  8
0
100
AcDbLine
 10
544.803494475109
 20
200.67840276237
 30
0.0
 11
545.372
 21
201.85165
 31
0.0
  0
LINE
  5
2039
330
1D
100
AcDbEntity
  8
0
100
AcDbLine
 10
545.371
 20
201.85265
 30
0.0
 11
546.49
 21
204.89065
 31
0.0
  0
LINE
  5
203A
330
1D
100
AcDbEntity
  8
0
100
AcDbLine
 10
543.619
 20
202.80165
 30
0.0
 11
544.803
 21
204.18165
 31
0.0
  0
LINE
  5
203B
330
1D
100
AcDbEntity
  8
0
100
AcDbLine
 10
545.371
 20
201.85165
 30
0.0
 11
545.9305
 21
203.37165
 31
0.0
  0
LINE
  5
203C
330
1D
100
AcDbEntity
  8
0
100
AcDbLine
 10
544.803
 20
204.18165
 30
0.0
 11
546.256
 21
206.52065
 31
0.0
  0
LINE
  5
203D
330
1D
100
AcDbEntity
  8
0
100
AcDbLine
 10
543.509626615491
 20
195.269253238257
 30
0.0
 11
545.913828961353
 21
199.92354239499
 31
0.0
  0
LINE
  5
203E
330
1D
100
AcDbEntity
  8
0
100
AcDbLine
 10
545.913828961353
 20
199.92354239499
 30
0.0
 11
548.294233308477
 21
206.208424779995
 31
0.0
  0
LINE
  5
203F
330
1D
100
AcDbEntity
  8
0
100
AcDbLine
 10
394.163309957705
 20
240.676402314134
 30
0.0
 11
395.429909957704
 21
241.186302314134
 31
0.0
  0
LINE
  5
2040
330
1D
100
AcDbEntity
  8
0
100
AcDbLine
 10
394.163109957704
 20
240.676302314134
 30
0.0
 11
395.430109957705
 21
241.186202314134
 31
0.0
  0
LINE
  5
2041
330
1D
100
AcDbEntity
  8
0
100
AcDbLine
 10
393.303809957705
 20
237.695202314134
 30
0.0
 11
394.475809957705
 21
238.478102314134
 31
0.0
  0
LINE
  5
2042
330
1D
100
AcDbEntity
  8
0
100
AcDbLine
 10
393.304109957704
 20
237.695102314134
 30
0.0
 11
394.475709957705
 21
238.477902314134
 31
0.0
  0
LINE
  5
2043
330
1D
100
AcDbEntity
  8
0
100
AcDbLine
 10
393.790109957705
 20
238.632002314134
 30
0.0
 11
395.461709957704
 21
239.615502314134
 31
0.0
  0
LINE
  5
2044
330
1D
100
AcDbEntity
  8
0
100
AcDbLine
 10
393.790109957705
 20
238.632002314134
 30
0.0
 11
395.461809957705
 21
239.615602314134
 31
0.0
  0
LINE
  5
2045
330
1D
100
AcDbEntity
  8
0
100
AcDbLine
 10
387.505509957705
 20
231.514702314134
 30
0.0
 11
389.099609957705
 21
233.719502314134
 31
0.0
  0
LINE
  5
2046
330
1D
100
AcDbEntity
  8
0
100
AcDbLine
 10
387.869109957704
 20
232.934302314134
 30
0.0
 11
388.712609957704
 21
234.033502314134
 31
0.0
  0
LINE
  5
2047
330
1D
100
AcDbEntity
  8
0
100
AcDbLine
 10
387.868809957705
 20
232.934202314134
 30
0.0
 11
388.712809957704
 21
234.033502314134
 31
0.0
  0
LINE
  5
2048
330
1D
100
AcDbEntity
  8
0
100
AcDbLine
 10
387.505709957705
 20
231.514602314134
 30
0.0
 11
389.099909957705
 21
233.719102314134
 31
0.0
  0
LINE
  5
2049
330
1D
100
AcDbEntity
  8
0
100
AcDbLine
 10
384.040009957705
 20
233.121102314134
 30
0.0
 11
385.003909957705
 21
234.213402314134
 31
0.0
  0
LINE
  5
204A
330
1D
100
AcDbEntity
  8
0
100
AcDbLine
 10
384.040109957705
 20
233.121202314134
 30
0.0
 11
385.003709957705
 21
234.213302314134
 31
0.0
  0
LINE
  5
204B
330
1D
100
AcDbEntity
  8
0
100
AcDbLine
 10
380.806509957705
 20
228.287702314134
 30
0.0
 11
381.516809957704
 21
229.559002314134
 31
0.0
  0
LINE
  5
204C
330
1D
100
AcDbEntity
  8
0
100
AcDbLine
 10
380.806209957705
 20
228.287602314134
 30
0.0
 11
381.516809957704
 21
229.559002314134
 31
0.0
  0
LINE
  5
204D
330
1D
100
AcDbEntity
  8
0
100
AcDbLine
 10
378.059709957704
 20
220.108802314134
 30
0.0
 11
378.334009957704
 21
221.523802314134
 31
0.0
  0
LINE
  5
204E
330
1D
100
AcDbEntity
  8
0
100
AcDbLine
 10
378.059909957705
 20
220.108902314134
 30
0.0
 11
378.334409957705
 21
221.523902314134
 31
0.0
  0
LINE
  5
204F
330
1D
100
AcDbEntity
  8
0
100
AcDbLine
 10
377.737409957705
 20
213.979102314134
 30
0.0
 11
377.881809957704
 21
212.370002314134
 31
0.0
  0
LINE
  5
2050
330
1D
100
AcDbEntity
  8
0
100
AcDbLine
 10
377.737409957705
 20
213.979002314134
 30
0.0
 11
377.881709957705
 21
212.369902314134
 31
0.0
  0
LINE
  5
2051
330
1D
100
AcDbEntity
  8
0
100
AcDbLine
 10
377.881709957705
 20
212.369902314134
 30
0.0
 11
378.120909957704
 21
210.772602314134
 31
0.0
  0
LINE
  5
2052
330
1D
100
AcDbEntity
  8
0
100
AcDbLine
 10
377.881809957704
 20
212.370002314134
 30
0.0
 11
378.121009957704
 21
210.772602314134
 31
0.0
  0
LINE
  5
2053
330
1D
100
AcDbEntity
  8
0
100
AcDbLine
 10
378.121009957704
 20
210.772602314134
 30
0.0
 11
378.454709957704
 21
209.191702314134
 31
0.0
  0
LINE
  5
2054
330
1D
100
AcDbEntity
  8
0
100
AcDbLine
 10
378.120909957704
 20
210.772602314134
 30
0.0
 11
378.454609957704
 21
209.191702314134
 31
0.0
  0
LINE
  5
2055
330
1D
100
AcDbEntity
  8
0
100
AcDbLine
 10
377.688309957704
 20
215.615502314134
 30
0.0
 11
377.736709957705
 21
217.245202314134
 31
0.0
  0
LINE
  5
2056
330
1D
100
AcDbEntity
  8
0
100
AcDbLine
 10
377.737009957704
 20
217.245402314134
 30
0.0
 11
377.860709957705
 21
218.681602314134
 31
0.0
  0
LINE
  5
2057
330
1D
100
AcDbEntity
  8
0
100
AcDbLine
 10
377.736709957705
 20
217.245202314134
 30
0.0
 11
377.860409957704
 21
218.681402314134
 31
0.0
  0
LINE
  5
2058
330
1D
100
AcDbEntity
  8
0
100
AcDbLine
 10
377.688209957704
 20
215.615502314134
 30
0.0
 11
377.737009957704
 21
217.245402314134
 31
0.0
  0
LINE
  5
2059
330
1D
100
AcDbEntity
  8
0
100
AcDbLine
 10
377.688209957704
 20
215.615502314134
 30
0.0
 11
377.737409957705
 21
213.979002314134
 31
0.0
  0
LINE
  5
205A
330
1D
100
AcDbEntity
  8
0
100
AcDbLine
 10
377.688209957704
 20
215.615502314134
 30
0.0
 11
377.737409957705
 21
213.979102314134
 31
0.0
  0
LINE
  5
205B
330
1D
100
AcDbEntity
  8
0
100
AcDbLine
 10
377.860709957705
 20
218.681602314134
 30
0.0
 11
378.059909957705
 21
220.108902314134
 31
0.0
  0
LINE
  5
205C
330
1D
100
AcDbEntity
  8
0
100
AcDbLine
 10
377.860409957704
 20
218.681402314134
 30
0.0
 11
378.059709957704
 21
220.108802314134
 31
0.0
  0
LINE
  5
205D
330
1D
100
AcDbEntity
  8
0
100
AcDbLine
 10
378.682709957704
 20
222.922302314134
 30
0.0
 11
379.105309957705
 21
224.300502314134
 31
0.0
  0
LINE
  5
205E
330
1D
100
AcDbEntity
  8
0
100
AcDbLine
 10
378.683109957705
 20
222.922502314134
 30
0.0
 11
379.105109957704
 21
224.300402314134
 31
0.0
  0
LINE
  5
205F
330
1D
100
AcDbEntity
  8
0
100
AcDbLine
 10
378.334409957705
 20
221.523902314134
 30
0.0
 11
378.683109957705
 21
222.922502314134
 31
0.0
  0
LINE
  5
2060
330
1D
100
AcDbEntity
  8
0
100
AcDbLine
 10
378.334009957704
 20
221.523802314134
 30
0.0
 11
378.682709957704
 21
222.922302314134
 31
0.0
  0
LINE
  5
2061
330
1D
100
AcDbEntity
  8
0
100
AcDbLine
 10
379.105109957704
 20
224.300402314134
 30
0.0
 11
379.599509957704
 21
225.654302314134
 31
0.0
  0
LINE
  5
2062
330
1D
100
AcDbEntity
  8
0
100
AcDbLine
 10
379.105309957705
 20
224.300502314134
 30
0.0
 11
379.599509957704
 21
225.654302314134
 31
0.0
  0
LINE
  5
2063
330
1D
100
AcDbEntity
  8
0
100
AcDbLine
 10
380.165109957705
 20
226.980502314134
 30
0.0
 11
380.806209957705
 21
228.287602314134
 31
0.0
  0
LINE
  5
2064
330
1D
100
AcDbEntity
  8
0
100
AcDbLine
 10
380.164909957704
 20
226.980302314134
 30
0.0
 11
380.806509957705
 21
228.287702314134
 31
0.0
  0
LINE
  5
2065
330
1D
100
AcDbEntity
  8
0
100
AcDbLine
 10
379.599509957704
 20
225.654302314134
 30
0.0
 11
380.164909957704
 21
226.980302314134
 31
0.0
  0
LINE
  5
2066
330
1D
100
AcDbEntity
  8
0
100
AcDbLine
 10
379.599509957704
 20
225.654302314134
 30
0.0
 11
380.165109957705
 21
226.980502314134
 31
0.0
  0
LINE
  5
2067
330
1D
100
AcDbEntity
  8
0
100
AcDbLine
 10
383.474109957705
 20
219.262302314134
 30
0.0
 11
383.683509957704
 21
221.095602314134
 31
0.0
  0
LINE
  5
2068
330
1D
100
AcDbEntity
  8
0
100
AcDbLine
 10
383.473609957704
 20
219.262402314134
 30
0.0
 11
383.683409957704
 21
221.095402314134
 31
0.0
  0
LINE
  5
2069
330
1D
100
AcDbEntity
  8
0
100
AcDbLine
 10
382.978209957704
 20
219.303402314134
 30
0.0
 11
383.190909957704
 21
221.167402314134
 31
0.0
  0
LINE
  5
206A
330
1D
100
AcDbEntity
  8
0
100
AcDbLine
 10
382.978209957704
 20
219.303402314134
 30
0.0
 11
383.191309957705
 21
221.167502314134
 31
0.0
  0
LINE
  5
206B
330
1D
100
AcDbEntity
  8
0
100
AcDbLine
 10
383.391309957704
 20
215.633202314134
 30
0.0
 11
383.650109957704
 21
212.543002314134
 31
0.0
  0
LINE
  5
206C
330
1D
100
AcDbEntity
  8
0
100
AcDbLine
 10
383.391309957704
 20
215.633602314134
 30
0.0
 11
383.650009957704
 21
212.543302314134
 31
0.0
  0
LINE
  5
206D
330
1D
100
AcDbEntity
  8
0
100
AcDbLine
 10
382.895309957705
 20
215.615602314134
 30
0.0
 11
382.989809957704
 21
214.046302314134
 31
0.0
  0
LINE
  5
206E
330
1D
100
AcDbEntity
  8
0
100
AcDbLine
 10
382.895209957705
 20
215.615802314134
 30
0.0
 11
382.989709957704
 21
214.046602314134
 31
0.0
  0
LINE
  5
206F
330
1D
100
AcDbEntity
  8
0
100
AcDbLine
 10
382.989709957704
 20
214.046602314134
 30
0.0
 11
383.158609957705
 21
212.478902314134
 31
0.0
  0
LINE
  5
2070
330
1D
100
AcDbEntity
  8
0
100
AcDbLine
 10
382.989809957704
 20
214.046302314134
 30
0.0
 11
383.158809957705
 21
212.478802314134
 31
0.0
  0
LINE
  5
2071
330
1D
100
AcDbEntity
  8
0
100
AcDbLine
 10
383.158609957705
 20
212.478902314134
 30
0.0
 11
383.399909957704
 21
210.916702314134
 31
0.0
  0
LINE
  5
2072
330
1D
100
AcDbEntity
  8
0
100
AcDbLine
 10
383.158809957705
 20
212.478802314134
 30
0.0
 11
383.400009957704
 21
210.916402314134
 31
0.0
  0
LINE
  5
2073
330
1D
100
AcDbEntity
  8
0
100
AcDbLine
 10
383.400009957704
 20
210.916402314134
 30
0.0
 11
383.710409957705
 21
209.362802314134
 31
0.0
  0
LINE
  5
2074
330
1D
100
AcDbEntity
  8
0
100
AcDbLine
 10
383.710409957705
 20
209.362802314134
 30
0.0
 11
384.087109957705
 21
207.821302314134
 31
0.0
  0
LINE
  5
2075
330
1D
100
AcDbEntity
  8
0
100
AcDbLine
 10
383.710509957705
 20
209.362602314134
 30
0.0
 11
384.087009957705
 21
207.821502314134
 31
0.0
  0
LINE
  5
2076
330
1D
100
AcDbEntity
  8
0
100
AcDbLine
 10
383.650109957704
 20
212.543002314134
 30
0.0
 11
384.193809957705
 21
209.469902314134
 31
0.0
  0
LINE
  5
2077
330
1D
100
AcDbEntity
  8
0
100
AcDbLine
 10
383.399909957704
 20
210.916702314134
 30
0.0
 11
383.710509957705
 21
209.362602314134
 31
0.0
  0
LINE
  5
2078
330
1D
100
AcDbEntity
  8
0
100
AcDbLine
 10
383.650009957704
 20
212.543302314134
 30
0.0
 11
384.193809957705
 21
209.470102314134
 31
0.0
  0
LINE
  5
2079
330
1D
100
AcDbEntity
  8
0
100
AcDbLine
 10
383.378009957705
 20
217.409502314134
 30
0.0
 11
383.473609957704
 21
219.262402314134
 31
0.0
  0
LINE
  5
207A
330
1D
100
AcDbEntity
  8
0
100
AcDbLine
 10
383.378009957705
 20
217.409502314134
 30
0.0
 11
383.391109957704
 21
215.633102314134
 31
0.0
  0
LINE
  5
207B
330
1D
100
AcDbEntity
  8
0
100
AcDbLine
 10
383.378309957704
 20
217.409602314134
 30
0.0
 11
383.391309957704
 21
215.633602314134
 31
0.0
  0
LINE
  5
207C
330
1D
100
AcDbEntity
  8
0
100
AcDbLine
 10
383.378309957704
 20
217.409602314134
 30
0.0
 11
383.474109957705
 21
219.262302314134
 31
0.0
  0
LINE
  5
207D
330
1D
100
AcDbEntity
  8
0
100
AcDbLine
 10
382.881509957705
 20
217.419902314134
 30
0.0
 11
382.978209957704
 21
219.303402314134
 31
0.0
  0
LINE
  5
207E
330
1D
100
AcDbEntity
  8
0
100
AcDbLine
 10
382.881509957705
 20
217.419902314134
 30
0.0
 11
382.895209957705
 21
215.615502314134
 31
0.0
  0
LINE
  5
207F
330
1D
100
AcDbEntity
  8
0
100
AcDbLine
 10
382.881309957705
 20
217.419902314134
 30
0.0
 11
382.978209957704
 21
219.303402314134
 31
0.0
  0
LINE
  5
2080
330
1D
100
AcDbEntity
  8
0
100
AcDbLine
 10
382.881309957705
 20
217.419902314134
 30
0.0
 11
382.895309957705
 21
215.615602314134
 31
0.0
  0
LINE
  5
2081
330
1D
100
AcDbEntity
  8
0
100
AcDbLine
 10
385.060409957704
 20
226.562002314134
 30
0.0
 11
386.154209957705
 21
229.118602314134
 31
0.0
  0
LINE
  5
2082
330
1D
100
AcDbEntity
  8
0
100
AcDbLine
 10
385.060609957704
 20
226.562202314134
 30
0.0
 11
386.154409957705
 21
229.118402314134
 31
0.0
  0
LINE
  5
2083
330
1D
100
AcDbEntity
  8
0
100
AcDbLine
 10
384.592509957705
 20
226.732702314134
 30
0.0
 11
385.116209957705
 21
228.053502314134
 31
0.0
  0
LINE
  5
2084
330
1D
100
AcDbEntity
  8
0
100
AcDbLine
 10
384.592709957705
 20
226.732702314134
 30
0.0
 11
385.116009957705
 21
228.053502314134
 31
0.0
  0
LINE
  5
2085
330
1D
100
AcDbEntity
  8
0
100
AcDbLine
 10
383.683509957704
 20
221.095602314134
 30
0.0
 11
384.235009957705
 21
223.877402314134
 31
0.0
  0
LINE
  5
2086
330
1D
100
AcDbEntity
  8
0
100
AcDbLine
 10
383.683409957704
 20
221.095402314134
 30
0.0
 11
384.234809957705
 21
223.877402314134
 31
0.0
  0
LINE
  5
2087
330
1D
100
AcDbEntity
  8
0
100
AcDbLine
 10
383.436309957704
 20
222.593202314134
 30
0.0
 11
383.752009957705
 21
223.998602314134
 31
0.0
  0
LINE
  5
2088
330
1D
100
AcDbEntity
  8
0
100
AcDbLine
 10
383.436209957704
 20
222.593102314134
 30
0.0
 11
383.752209957705
 21
223.998802314134
 31
0.0
  0
LINE
  5
2089
330
1D
100
AcDbEntity
  8
0
100
AcDbLine
 10
383.190909957704
 20
221.167402314134
 30
0.0
 11
383.436309957704
 21
222.593202314134
 31
0.0
  0
LINE
  5
208A
330
1D
100
AcDbEntity
  8
0
100
AcDbLine
 10
383.191309957705
 20
221.167502314134
 30
0.0
 11
383.436209957704
 21
222.593102314134
 31
0.0
  0
LINE
  5
208B
330
1D
100
AcDbEntity
  8
0
100
AcDbLine
 10
383.752209957705
 20
223.998802314134
 30
0.0
 11
384.137709957704
 21
225.379802314134
 31
0.0
  0
LINE
  5
208C
330
1D
100
AcDbEntity
  8
0
100
AcDbLine
 10
383.752009957705
 20
223.998602314134
 30
0.0
 11
384.137509957704
 21
225.379802314134
 31
0.0
  0
LINE
  5
208D
330
1D
100
AcDbEntity
  8
0
100
AcDbLine
 10
384.235009957705
 20
223.877402314134
 30
0.0
 11
385.060409957704
 21
226.562002314134
 31
0.0
  0
LINE
  5
208E
330
1D
100
AcDbEntity
  8
0
100
AcDbLine
 10
384.137509957704
 20
225.379802314134
 30
0.0
 11
384.592509957705
 21
226.732702314134
 31
0.0
  0
LINE
  5
208F
330
1D
100
AcDbEntity
  8
0
100
AcDbLine
 10
384.137709957704
 20
225.379802314134
 30
0.0
 11
384.592709957705
 21
226.732702314134
 31
0.0
  0
LINE
  5
2090
330
1D
100
AcDbEntity
  8
0
100
AcDbLine
 10
384.234809957705
 20
223.877402314134
 30
0.0
 11
385.060609957704
 21
226.562202314134
 31
0.0
  0
LINE
  5
2091
330
1D
100
AcDbEntity
  8
0
100
AcDbLine
 10
382.294009957704
 20
230.790602314134
 30
0.0
 11
383.135609957704
 21
231.979002314134
 31
0.0
  0
LINE
  5
2092
330
1D
100
AcDbEntity
  8
0
100
AcDbLine
 10
382.293709957705
 20
230.790602314134
 30
0.0
 11
383.135809957704
 21
231.979202314134
 31
0.0
  0
LINE
  5
2093
330
1D
100
AcDbEntity
  8
0
100
AcDbLine
 10
381.516809957704
 20
229.559002314134
 30
0.0
 11
382.294009957704
 21
230.790602314134
 31
0.0
  0
LINE
  5
2094
330
1D
100
AcDbEntity
  8
0
100
AcDbLine
 10
381.516809957704
 20
229.559002314134
 30
0.0
 11
382.293709957705
 21
230.790602314134
 31
0.0
  0
LINE
  5
2095
330
1D
100
AcDbEntity
  8
0
100
AcDbLine
 10
385.116009957705
 20
228.053502314134
 30
0.0
 11
385.707209957704
 21
229.338202314134
 31
0.0
  0
LINE
  5
2096
330
1D
100
AcDbEntity
  8
0
100
AcDbLine
 10
385.116209957705
 20
228.053502314134
 30
0.0
 11
385.707409957704
 21
229.338102314134
 31
0.0
  0
LINE
  5
2097
330
1D
100
AcDbEntity
  8
0
100
AcDbLine
 10
385.707409957704
 20
229.338102314134
 30
0.0
 11
386.364009957704
 21
230.582402314134
 31
0.0
  0
LINE
  5
2098
330
1D
100
AcDbEntity
  8
0
100
AcDbLine
 10
383.135609957704
 20
231.979002314134
 30
0.0
 11
384.040109957705
 21
233.121202314134
 31
0.0
  0
LINE
  5
2099
330
1D
100
AcDbEntity
  8
0
100
AcDbLine
 10
383.135809957704
 20
231.979202314134
 30
0.0
 11
384.040009957705
 21
233.121102314134
 31
0.0
  0
LINE
  5
209A
330
1D
100
AcDbEntity
  8
0
100
AcDbLine
 10
385.707209957704
 20
229.338202314134
 30
0.0
 11
386.364009957704
 21
230.582402314134
 31
0.0
  0
LINE
  5
209B
330
1D
100
AcDbEntity
  8
0
100
AcDbLine
 10
386.364009957704
 20
230.582402314134
 30
0.0
 11
387.085209957705
 21
231.782302314134
 31
0.0
  0
LINE
  5
209C
330
1D
100
AcDbEntity
  8
0
100
AcDbLine
 10
386.364009957704
 20
230.582402314134
 30
0.0
 11
387.085109957704
 21
231.782402314134
 31
0.0
  0
LINE
  5
209D
330
1D
100
AcDbEntity
  8
0
100
AcDbLine
 10
386.154209957705
 20
229.118602314134
 30
0.0
 11
387.505709957705
 21
231.514602314134
 31
0.0
  0
LINE
  5
209E
330
1D
100
AcDbEntity
  8
0
100
AcDbLine
 10
386.154409957705
 20
229.118402314134
 30
0.0
 11
387.505509957705
 21
231.514702314134
 31
0.0
  0
LINE
  5
209F
330
1D
100
AcDbEntity
  8
0
100
AcDbLine
 10
387.085109957704
 20
231.782402314134
 30
0.0
 11
387.868809957705
 21
232.934202314134
 31
0.0
  0
LINE
  5
20A0
330
1D
100
AcDbEntity
  8
0
100
AcDbLine
 10
387.085209957705
 20
231.782302314134
 30
0.0
 11
387.869109957704
 21
232.934302314134
 31
0.0
  0
LINE
  5
20A1
330
1D
100
AcDbEntity
  8
0
100
AcDbLine
 10
387.099309957704
 20
236.236402314134
 30
0.0
 11
388.224809957705
 21
237.161402314134
 31
0.0
  0
LINE
  5
20A2
330
1D
100
AcDbEntity
  8
0
100
AcDbLine
 10
387.099009957705
 20
236.236302314134
 30
0.0
 11
388.224709957704
 21
237.161402314134
 31
0.0
  0
LINE
  5
20A3
330
1D
100
AcDbEntity
  8
0
100
AcDbLine
 10
385.003909957705
 20
234.213402314134
 30
0.0
 11
386.024209957704
 21
235.252802314134
 31
0.0
  0
LINE
  5
20A4
330
1D
100
AcDbEntity
  8
0
100
AcDbLine
 10
385.003709957705
 20
234.213302314134
 30
0.0
 11
386.024609957705
 21
235.253002314134
 31
0.0
  0
LINE
  5
20A5
330
1D
100
AcDbEntity
  8
0
100
AcDbLine
 10
386.024609957705
 20
235.253002314134
 30
0.0
 11
387.099009957705
 21
236.236302314134
 31
0.0
  0
LINE
  5
20A6
330
1D
100
AcDbEntity
  8
0
100
AcDbLine
 10
386.024209957704
 20
235.252802314134
 30
0.0
 11
387.099309957704
 21
236.236402314134
 31
0.0
  0
LINE
  5
20A7
330
1D
100
AcDbEntity
  8
0
100
AcDbLine
 10
392.923609957704
 20
240.103702314134
 30
0.0
 11
394.163309957705
 21
240.676402314134
 31
0.0
  0
LINE
  5
20A8
330
1D
100
AcDbEntity
  8
0
100
AcDbLine
 10
392.923409957705
 20
240.103602314134
 30
0.0
 11
394.163109957704
 21
240.676302314134
 31
0.0
  0
LINE
  5
20A9
330
1D
100
AcDbEntity
  8
0
100
AcDbLine
 10
388.712809957704
 20
234.033502314134
 30
0.0
 11
389.688309957704
 21
235.155902314134
 31
0.0
  0
LINE
  5
20AA
330
1D
100
AcDbEntity
  8
0
100
AcDbLine
 10
389.099609957705
 20
233.719502314134
 30
0.0
 11
391.071309957704
 21
235.846902314134
 31
0.0
  0
LINE
  5
20AB
330
1D
100
AcDbEntity
  8
0
100
AcDbLine
 10
392.159009957704
 20
236.811102314134
 30
0.0
 11
393.304109957704
 21
237.695102314134
 31
0.0
  0
LINE
  5
20AC
330
1D
100
AcDbEntity
  8
0
100
AcDbLine
 10
392.159009957704
 20
236.811502314134
 30
0.0
 11
393.303809957705
 21
237.695202314134
 31
0.0
  0
LINE
  5
20AD
330
1D
100
AcDbEntity
  8
0
100
AcDbLine
 10
392.208909957704
 20
237.492602314134
 30
0.0
 11
393.790109957705
 21
238.632002314134
 31
0.0
  0
LINE
  5
20AE
330
1D
100
AcDbEntity
  8
0
100
AcDbLine
 10
392.208809957704
 20
237.492602314134
 30
0.0
 11
393.790109957705
 21
238.632002314134
 31
0.0
  0
LINE
  5
20AF
330
1D
100
AcDbEntity
  8
0
100
AcDbLine
 10
389.688309957704
 20
235.155902314134
 30
0.0
 11
390.727909957704
 21
236.207902314134
 31
0.0
  0
LINE
  5
20B0
330
1D
100
AcDbEntity
  8
0
100
AcDbLine
 10
389.688209957704
 20
235.155902314134
 30
0.0
 11
390.727909957704
 21
236.207902314134
 31
0.0
  0
LINE
  5
20B1
330
1D
100
AcDbEntity
  8
0
100
AcDbLine
 10
390.727909957704
 20
236.207902314134
 30
0.0
 11
392.208809957704
 21
237.492602314134
 31
0.0
  0
LINE
  5
20B2
330
1D
100
AcDbEntity
  8
0
100
AcDbLine
 10
390.727909957704
 20
236.207902314134
 30
0.0
 11
392.208909957704
 21
237.492602314134
 31
0.0
  0
LINE
  5
20B3
330
1D
100
AcDbEntity
  8
0
100
AcDbLine
 10
391.071309957704
 20
235.846902314134
 30
0.0
 11
392.159009957704
 21
236.811502314134
 31
0.0
  0
LINE
  5
20B4
330
1D
100
AcDbEntity
  8
0
100
AcDbLine
 10
388.224809957705
 20
237.161402314134
 30
0.0
 11
389.398609957705
 21
238.025002314134
 31
0.0
  0
LINE
  5
20B5
330
1D
100
AcDbEntity
  8
0
100
AcDbLine
 10
389.398609957705
 20
238.025002314134
 30
0.0
 11
390.538309957705
 21
238.776502314134
 31
0.0
  0
LINE
  5
20B6
330
1D
100
AcDbEntity
  8
0
100
AcDbLine
 10
390.538209957705
 20
238.776402314134
 30
0.0
 11
391.714209957704
 21
239.469802314134
 31
0.0
  0
LINE
  5
20B7
330
1D
100
AcDbEntity
  8
0
100
AcDbLine
 10
391.714209957704
 20
239.469802314134
 30
0.0
 11
392.923409957705
 21
240.103602314134
 31
0.0
  0
LINE
  5
20B8
330
1D
100
AcDbEntity
  8
0
100
AcDbLine
 10
390.538309957705
 20
238.776502314134
 30
0.0
 11
391.714509957704
 21
239.470002314134
 31
0.0
  0
LINE
  5
20B9
330
1D
100
AcDbEntity
  8
0
100
AcDbLine
 10
391.714509957704
 20
239.470002314134
 30
0.0
 11
392.923609957704
 21
240.103702314134
 31
0.0
  0
LINE
  5
20BA
330
1D
100
AcDbEntity
  8
0
100
AcDbLine
 10
389.398509957704
 20
238.025002314134
 30
0.0
 11
390.538209957705
 21
238.776402314134
 31
0.0
  0
LINE
  5
20BB
330
1D
100
AcDbEntity
  8
0
100
AcDbLine
 10
388.224709957704
 20
237.161402314134
 30
0.0
 11
389.398509957704
 21
238.025002314134
 31
0.0
  0
LINE
  5
20BC
330
1D
100
AcDbEntity
  8
0
100
AcDbLine
 10
420.898209957704
 20
233.719502314134
 30
0.0
 11
418.926509957705
 21
235.846902314134
 31
0.0
  0
LINE
  5
20BD
330
1D
100
AcDbEntity
  8
0
100
AcDbLine
 10
420.309509957704
 20
235.155902314134
 30
0.0
 11
419.269909957704
 21
236.207902314134
 31
0.0
  0
LINE
  5
20BE
330
1D
100
AcDbEntity
  8
0
100
AcDbLine
 10
420.309609957704
 20
235.155902314134
 30
0.0
 11
419.269909957704
 21
236.207902314134
 31
0.0
  0
LINE
  5
20BF
330
1D
100
AcDbEntity
  8
0
100
AcDbLine
 10
420.599209957704
 20
238.025002314134
 30
0.0
 11
419.459509957705
 21
238.776502314134
 31
0.0
  0
LINE
  5
20C0
330
1D
100
AcDbEntity
  8
0
100
AcDbLine
 10
420.599309957704
 20
238.025002314134
 30
0.0
 11
419.459609957705
 21
238.776402314134
 31
0.0
  0
LINE
  5
20C1
330
1D
100
AcDbEntity
  8
0
100
AcDbLine
 10
407.809209957705
 20
241.754802314134
 30
0.0
 11
405.416609957705
 21
241.933302314134
 31
0.0
  0
LINE
  5
20C2
330
1D
100
AcDbEntity
  8
0
100
AcDbLine
 10
407.809409957704
 20
241.754502314134
 30
0.0
 11
405.416509957704
 21
241.933202314134
 31
0.0
  0
LINE
  5
20C3
330
1D
100
AcDbEntity
  8
0
100
AcDbLine
 10
407.743809957704
 20
241.261302314134
 30
0.0
 11
404.999009957704
 21
241.439602314134
 31
0.0
  0
LINE
  5
20C4
330
1D
100
AcDbEntity
  8
0
100
AcDbLine
 10
407.743709957705
 20
241.261002314134
 30
0.0
 11
404.999209957704
 21
241.439702314134
 31
0.0
  0
LINE
  5
20C5
330
1D
100
AcDbEntity
  8
0
100
AcDbLine
 10
407.939209957704
 20
242.756302314134
 30
0.0
 11
405.212509957704
 21
242.913602314134
 31
0.0
  0
LINE
  5
20C6
330
1D
100
AcDbEntity
  8
0
100
AcDbLine
 10
407.939309957705
 20
242.756202314134
 30
0.0
 11
405.212309957705
 21
242.913802314134
 31
0.0
  0
LINE
  5
20C7
330
1D
100
AcDbEntity
  8
0
100
AcDbLine
 10
399.981109957705
 20
240.823802314134
 30
0.0
 11
402.254109957704
 21
241.261002314134
 31
0.0
  0
LINE
  5
20C8
330
1D
100
AcDbEntity
  8
0
100
AcDbLine
 10
399.981009957704
 20
240.824202314134
 30
0.0
 11
402.254009957705
 21
241.261302314134
 31
0.0
  0
LINE
  5
20C9
330
1D
100
AcDbEntity
  8
0
100
AcDbLine
 10
399.858309957704
 20
241.306602314134
 30
0.0
 11
402.188609957705
 21
241.754802314134
 31
0.0
  0
LINE
  5
20CA
330
1D
100
AcDbEntity
  8
0
100
AcDbLine
 10
399.857909957705
 20
241.306502314134
 30
0.0
 11
402.188409957705
 21
241.754502314134
 31
0.0
  0
LINE
  5
20CB
330
1D
100
AcDbEntity
  8
0
100
AcDbLine
 10
399.361209957704
 20
242.327702314134
 30
0.0
 11
402.058609957704
 21
242.756302314134
 31
0.0
  0
LINE
  5
20CC
330
1D
100
AcDbEntity
  8
0
100
AcDbLine
 10
399.361109957704
 20
242.327802314134
 30
0.0
 11
402.058509957704
 21
242.756202314134
 31
0.0
  0
LINE
  5
20CD
330
1D
100
AcDbEntity
  8
0
100
AcDbLine
 10
397.788509957704
 20
240.126402314134
 30
0.0
 11
399.981109957705
 21
240.823802314134
 31
0.0
  0
LINE
  5
20CE
330
1D
100
AcDbEntity
  8
0
100
AcDbLine
 10
397.788809957704
 20
240.126302314134
 30
0.0
 11
399.981009957704
 21
240.824202314134
 31
0.0
  0
LINE
  5
20CF
330
1D
100
AcDbEntity
  8
0
100
AcDbLine
 10
397.609609957704
 20
240.590902314134
 30
0.0
 11
399.858309957704
 21
241.306602314134
 31
0.0
  0
LINE
  5
20D0
330
1D
100
AcDbEntity
  8
0
100
AcDbLine
 10
397.609509957705
 20
240.590802314134
 30
0.0
 11
399.857909957705
 21
241.306502314134
 31
0.0
  0
LINE
  5
20D1
330
1D
100
AcDbEntity
  8
0
100
AcDbLine
 10
398.032109957705
 20
242.013002314134
 30
0.0
 11
399.361109957704
 21
242.327802314134
 31
0.0
  0
LINE
  5
20D2
330
1D
100
AcDbEntity
  8
0
100
AcDbLine
 10
398.032109957705
 20
242.013002314134
 30
0.0
 11
399.361209957704
 21
242.327702314134
 31
0.0
  0
LINE
  5
20D3
330
1D
100
AcDbEntity
  8
0
100
AcDbLine
 10
394.475709957705
 20
238.477902314134
 30
0.0
 11
395.694609957704
 21
239.175402314134
 31
0.0
  0
LINE
  5
20D4
330
1D
100
AcDbEntity
  8
0
100
AcDbLine
 10
394.475809957705
 20
238.478102314134
 30
0.0
 11
395.694409957704
 21
239.175302314134
 31
0.0
  0
LINE
  5
20D5
330
1D
100
AcDbEntity
  8
0
100
AcDbLine
 10
395.429909957704
 20
241.186302314134
 30
0.0
 11
396.721009957705
 21
241.632202314134
 31
0.0
  0
LINE
  5
20D6
330
1D
100
AcDbEntity
  8
0
100
AcDbLine
 10
395.430109957705
 20
241.186202314134
 30
0.0
 11
396.720909957704
 21
241.632202314134
 31
0.0
  0
LINE
  5
20D7
330
1D
100
AcDbEntity
  8
0
100
AcDbLine
 10
395.461809957705
 20
239.615602314134
 30
0.0
 11
397.609609957704
 21
240.590902314134
 31
0.0
  0
LINE
  5
20D8
330
1D
100
AcDbEntity
  8
0
100
AcDbLine
 10
395.461709957704
 20
239.615502314134
 30
0.0
 11
397.609509957705
 21
240.590802314134
 31
0.0
  0
LINE
  5
20D9
330
1D
100
AcDbEntity
  8
0
100
AcDbLine
 10
395.694609957704
 20
239.175402314134
 30
0.0
 11
397.788509957704
 21
240.126402314134
 31
0.0
  0
LINE
  5
20DA
330
1D
100
AcDbEntity
  8
0
100
AcDbLine
 10
395.694409957704
 20
239.175302314134
 30
0.0
 11
397.788809957704
 21
240.126302314134
 31
0.0
  0
LINE
  5
20DB
330
1D
100
AcDbEntity
  8
0
100
AcDbLine
 10
396.721009957705
 20
241.632202314134
 30
0.0
 11
398.032109957705
 21
242.013002314134
 31
0.0
  0
LINE
  5
20DC
330
1D
100
AcDbEntity
  8
0
100
AcDbLine
 10
396.720909957704
 20
241.632202314134
 30
0.0
 11
398.032109957705
 21
242.013002314134
 31
0.0
  0
LINE
  5
20DD
330
1D
100
AcDbEntity
  8
0
100
AcDbLine
 10
402.254009957705
 20
241.261302314134
 30
0.0
 11
404.998809957704
 21
241.439602314134
 31
0.0
  0
LINE
  5
20DE
330
1D
100
AcDbEntity
  8
0
100
AcDbLine
 10
402.254109957704
 20
241.261002314134
 30
0.0
 11
404.998609957705
 21
241.439702314134
 31
0.0
  0
LINE
  5
20DF
330
1D
100
AcDbEntity
  8
0
100
AcDbLine
 10
402.188609957705
 20
241.754802314134
 30
0.0
 11
404.581209957704
 21
241.933302314134
 31
0.0
  0
LINE
  5
20E0
330
1D
100
AcDbEntity
  8
0
100
AcDbLine
 10
402.188409957705
 20
241.754502314134
 30
0.0
 11
404.581309957704
 21
241.933202314134
 31
0.0
  0
LINE
  5
20E1
330
1D
100
AcDbEntity
  8
0
100
AcDbLine
 10
402.058609957704
 20
242.756302314134
 30
0.0
 11
404.785309957705
 21
242.913602314134
 31
0.0
  0
LINE
  5
20E2
330
1D
100
AcDbEntity
  8
0
100
AcDbLine
 10
402.058509957704
 20
242.756202314134
 30
0.0
 11
404.785509957705
 21
242.913802314134
 31
0.0
  0
LINE
  5
20E3
330
1D
100
AcDbEntity
  8
0
100
AcDbLine
 10
404.581309957704
 20
241.933202314134
 30
0.0
 11
404.998809957704
 21
241.937202314134
 31
0.0
  0
LINE
  5
20E4
330
1D
100
AcDbEntity
  8
0
100
AcDbLine
 10
404.785509957705
 20
242.913802314134
 30
0.0
 11
404.998809957704
 21
242.914502314134
 31
0.0
  0
LINE
  5
20E5
330
1D
100
AcDbEntity
  8
0
100
AcDbLine
 10
404.785309957705
 20
242.913602314134
 30
0.0
 11
404.998909957704
 21
242.914402314134
 31
0.0
  0
LINE
  5
20E6
330
1D
100
AcDbEntity
  8
0
100
AcDbLine
 10
404.581209957704
 20
241.933302314134
 30
0.0
 11
404.998909957704
 21
241.937202314134
 31
0.0
  0
LINE
  5
20E7
330
1D
100
AcDbEntity
  8
0
100
AcDbLine
 10
405.416509957704
 20
241.933202314134
 30
0.0
 11
404.999009957704
 21
241.937202314134
 31
0.0
  0
LINE
  5
20E8
330
1D
100
AcDbEntity
  8
0
100
AcDbLine
 10
405.212309957705
 20
242.913802314134
 30
0.0
 11
404.999009957704
 21
242.914502314134
 31
0.0
  0
LINE
  5
20E9
330
1D
100
AcDbEntity
  8
0
100
AcDbLine
 10
405.212509957704
 20
242.913602314134
 30
0.0
 11
404.998909957704
 21
242.914402314134
 31
0.0
  0
LINE
  5
20EA
330
1D
100
AcDbEntity
  8
0
100
AcDbLine
 10
405.416609957705
 20
241.933302314134
 30
0.0
 11
404.998909957704
 21
241.937202314134
 31
0.0
  0
LINE
  5
20EB
330
1D
100
AcDbEntity
  8
0
100
AcDbLine
 10
414.536009957704
 20
239.615602314134
 30
0.0
 11
412.388209957704
 21
240.590902314134
 31
0.0
  0
LINE
  5
20EC
330
1D
100
AcDbEntity
  8
0
100
AcDbLine
 10
414.536109957704
 20
239.615502314134
 30
0.0
 11
412.388309957704
 21
240.590802314134
 31
0.0
  0
LINE
  5
20ED
330
1D
100
AcDbEntity
  8
0
100
AcDbLine
 10
414.303209957704
 20
239.175402314134
 30
0.0
 11
412.209309957705
 21
240.126402314134
 31
0.0
  0
LINE
  5
20EE
330
1D
100
AcDbEntity
  8
0
100
AcDbLine
 10
414.303409957704
 20
239.175302314134
 30
0.0
 11
412.209009957704
 21
240.126302314134
 31
0.0
  0
LINE
  5
20EF
330
1D
100
AcDbEntity
  8
0
100
AcDbLine
 10
414.567909957705
 20
241.186302314134
 30
0.0
 11
413.276809957704
 21
241.632202314134
 31
0.0
  0
LINE
  5
20F0
330
1D
100
AcDbEntity
  8
0
100
AcDbLine
 10
414.567709957704
 20
241.186202314134
 30
0.0
 11
413.276909957704
 21
241.632202314134
 31
0.0
  0
LINE
  5
20F1
330
1D
100
AcDbEntity
  8
0
100
AcDbLine
 10
410.016709957705
 20
240.823802314134
 30
0.0
 11
407.743709957705
 21
241.261002314134
 31
0.0
  0
LINE
  5
20F2
330
1D
100
AcDbEntity
  8
0
100
AcDbLine
 10
410.016809957704
 20
240.824202314134
 30
0.0
 11
407.743809957704
 21
241.261302314134
 31
0.0
  0
LINE
  5
20F3
330
1D
100
AcDbEntity
  8
0
100
AcDbLine
 10
410.139509957704
 20
241.306602314134
 30
0.0
 11
407.809209957705
 21
241.754802314134
 31
0.0
  0
LINE
  5
20F4
330
1D
100
AcDbEntity
  8
0
100
AcDbLine
 10
410.139909957705
 20
241.306502314134
 30
0.0
 11
407.809409957704
 21
241.754502314134
 31
0.0
  0
LINE
  5
20F5
330
1D
100
AcDbEntity
  8
0
100
AcDbLine
 10
410.636609957704
 20
242.327702314134
 30
0.0
 11
407.939209957704
 21
242.756302314134
 31
0.0
  0
LINE
  5
20F6
330
1D
100
AcDbEntity
  8
0
100
AcDbLine
 10
410.636709957705
 20
242.327802314134
 30
0.0
 11
407.939309957705
 21
242.756202314134
 31
0.0
  0
LINE
  5
20F7
330
1D
100
AcDbEntity
  8
0
100
AcDbLine
 10
413.276809957704
 20
241.632202314134
 30
0.0
 11
411.965709957704
 21
242.013002314134
 31
0.0
  0
LINE
  5
20F8
330
1D
100
AcDbEntity
  8
0
100
AcDbLine
 10
413.276909957704
 20
241.632202314134
 30
0.0
 11
411.965709957704
 21
242.013002314134
 31
0.0
  0
LINE
  5
20F9
330
1D
100
AcDbEntity
  8
0
100
AcDbLine
 10
412.209309957705
 20
240.126402314134
 30
0.0
 11
410.016709957705
 21
240.823802314134
 31
0.0
  0
LINE
  5
20FA
330
1D
100
AcDbEntity
  8
0
100
AcDbLine
 10
412.209009957704
 20
240.126302314134
 30
0.0
 11
410.016809957704
 21
240.824202314134
 31
0.0
  0
LINE
  5
20FB
330
1D
100
AcDbEntity
  8
0
100
AcDbLine
 10
412.388209957704
 20
240.590902314134
 30
0.0
 11
410.139509957704
 21
241.306602314134
 31
0.0
  0
LINE
  5
20FC
330
1D
100
AcDbEntity
  8
0
100
AcDbLine
 10
412.388309957704
 20
240.590802314134
 30
0.0
 11
410.139909957705
 21
241.306502314134
 31
0.0
  0
LINE
  5
20FD
330
1D
100
AcDbEntity
  8
0
100
AcDbLine
 10
411.965709957704
 20
242.013002314134
 30
0.0
 11
410.636709957705
 21
242.327802314134
 31
0.0
  0
LINE
  5
20FE
330
1D
100
AcDbEntity
  8
0
100
AcDbLine
 10
411.965709957704
 20
242.013002314134
 30
0.0
 11
410.636609957704
 21
242.327702314134
 31
0.0
  0
LINE
  5
20FF
330
1D
100
AcDbEntity
  8
0
100
AcDbLine
 10
417.074209957705
 20
240.103702314134
 30
0.0
 11
415.834509957705
 21
240.676402314134
 31
0.0
  0
LINE
  5
2100
330
1D
100
AcDbEntity
  8
0
100
AcDbLine
 10
417.074409957705
 20
240.103602314134
 30
0.0
 11
415.834709957704
 21
240.676302314134
 31
0.0
  0
LINE
  5
2101
330
1D
100
AcDbEntity
  8
0
100
AcDbLine
 10
419.269909957704
 20
236.207902314134
 30
0.0
 11
417.789009957704
 21
237.492602314134
 31
0.0
  0
LINE
  5
2102
330
1D
100
AcDbEntity
  8
0
100
AcDbLine
 10
419.269909957704
 20
236.207902314134
 30
0.0
 11
417.788909957705
 21
237.492602314134
 31
0.0
  0
LINE
  5
2103
330
1D
100
AcDbEntity
  8
0
100
AcDbLine
 10
418.926509957705
 20
235.846902314134
 30
0.0
 11
417.838809957705
 21
236.811502314134
 31
0.0
  0
LINE
  5
2104
330
1D
100
AcDbEntity
  8
0
100
AcDbLine
 10
419.459609957705
 20
238.776402314134
 30
0.0
 11
418.283609957704
 21
239.469802314134
 31
0.0
  0
LINE
  5
2105
330
1D
100
AcDbEntity
  8
0
100
AcDbLine
 10
419.459509957705
 20
238.776502314134
 30
0.0
 11
418.283309957704
 21
239.470002314134
 31
0.0
  0
LINE
  5
2106
330
1D
100
AcDbEntity
  8
0
100
AcDbLine
 10
417.788909957705
 20
237.492602314134
 30
0.0
 11
416.207709957705
 21
238.632002314134
 31
0.0
  0
LINE
  5
2107
330
1D
100
AcDbEntity
  8
0
100
AcDbLine
 10
417.789009957704
 20
237.492602314134
 30
0.0
 11
416.207709957705
 21
238.632002314134
 31
0.0
  0
LINE
  5
2108
330
1D
100
AcDbEntity
  8
0
100
AcDbLine
 10
416.694009957705
 20
237.695202314134
 30
0.0
 11
415.522009957705
 21
238.478102314134
 31
0.0
  0
LINE
  5
2109
330
1D
100
AcDbEntity
  8
0
100
AcDbLine
 10
416.693709957704
 20
237.695102314134
 30
0.0
 11
415.522109957705
 21
238.477902314134
 31
0.0
  0
LINE
  5
210A
330
1D
100
AcDbEntity
  8
0
100
AcDbLine
 10
418.283609957704
 20
239.469802314134
 30
0.0
 11
417.074409957705
 21
240.103602314134
 31
0.0
  0
LINE
  5
210B
330
1D
100
AcDbEntity
  8
0
100
AcDbLine
 10
418.283309957704
 20
239.470002314134
 30
0.0
 11
417.074209957705
 21
240.103702314134
 31
0.0
  0
LINE
  5
210C
330
1D
100
AcDbEntity
  8
0
100
AcDbLine
 10
417.838809957705
 20
236.811102314134
 30
0.0
 11
416.693709957704
 21
237.695102314134
 31
0.0
  0
LINE
  5
210D
330
1D
100
AcDbEntity
  8
0
100
AcDbLine
 10
417.838809957705
 20
236.811502314134
 30
0.0
 11
416.694009957705
 21
237.695202314134
 31
0.0
  0
LINE
  5
210E
330
1D
100
AcDbEntity
  8
0
100
AcDbLine
 10
415.522109957705
 20
238.477902314134
 30
0.0
 11
414.303209957704
 21
239.175402314134
 31
0.0
  0
LINE
  5
210F
330
1D
100
AcDbEntity
  8
0
100
AcDbLine
 10
415.522009957705
 20
238.478102314134
 30
0.0
 11
414.303409957704
 21
239.175302314134
 31
0.0
  0
LINE
  5
2110
330
1D
100
AcDbEntity
  8
0
100
AcDbLine
 10
416.207709957705
 20
238.632002314134
 30
0.0
 11
414.536109957704
 21
239.615502314134
 31
0.0
  0
LINE
  5
2111
330
1D
100
AcDbEntity
  8
0
100
AcDbLine
 10
416.207709957705
 20
238.632002314134
 30
0.0
 11
414.536009957704
 21
239.615602314134
 31
0.0
  0
LINE
  5
2112
330
1D
100
AcDbEntity
  8
0
100
AcDbLine
 10
415.834509957705
 20
240.676402314134
 30
0.0
 11
414.567909957705
 21
241.186302314134
 31
0.0
  0
LINE
  5
2113
330
1D
100
AcDbEntity
  8
0
100
AcDbLine
 10
415.834709957704
 20
240.676302314134
 30
0.0
 11
414.567709957704
 21
241.186202314134
 31
0.0
  0
LINE
  5
2114
330
1D
100
AcDbEntity
  8
0
100
AcDbLine
 10
425.957809957705
 20
233.121102314134
 30
0.0
 11
424.993909957705
 21
234.213402314134
 31
0.0
  0
LINE
  5
2115
330
1D
100
AcDbEntity
  8
0
100
AcDbLine
 10
425.957709957705
 20
233.121202314134
 30
0.0
 11
424.994109957704
 21
234.213302314134
 31
0.0
  0
LINE
  5
2116
330
1D
100
AcDbEntity
  8
0
100
AcDbLine
 10
422.492309957704
 20
231.514702314134
 30
0.0
 11
420.898209957704
 21
233.719502314134
 31
0.0
  0
LINE
  5
2117
330
1D
100
AcDbEntity
  8
0
100
AcDbLine
 10
422.128709957704
 20
232.934302314134
 30
0.0
 11
421.285209957704
 21
234.033502314134
 31
0.0
  0
LINE
  5
2118
330
1D
100
AcDbEntity
  8
0
100
AcDbLine
 10
422.129009957705
 20
232.934202314134
 30
0.0
 11
421.285009957704
 21
234.033502314134
 31
0.0
  0
LINE
  5
2119
330
1D
100
AcDbEntity
  8
0
100
AcDbLine
 10
422.492109957705
 20
231.514602314134
 30
0.0
 11
420.897909957705
 21
233.719102314134
 31
0.0
  0
LINE
  5
211A
330
1D
100
AcDbEntity
  8
0
100
AcDbLine
 10
427.019609957704
 20
219.303402314134
 30
0.0
 11
426.806909957705
 21
221.167402314134
 31
0.0
  0
LINE
  5
211B
330
1D
100
AcDbEntity
  8
0
100
AcDbLine
 10
427.019609957704
 20
219.303402314134
 30
0.0
 11
426.806509957705
 21
221.167502314134
 31
0.0
  0
LINE
  5
211C
330
1D
100
AcDbEntity
  8
0
100
AcDbLine
 10
431.938109957704
 20
220.108802314134
 30
0.0
 11
431.663809957704
 21
221.523802314134
 31
0.0
  0
LINE
  5
211D
330
1D
100
AcDbEntity
  8
0
100
AcDbLine
 10
431.937909957705
 20
220.108902314134
 30
0.0
 11
431.663409957705
 21
221.523902314134
 31
0.0
  0
LINE
  5
211E
330
1D
100
AcDbEntity
  8
0
100
AcDbLine
 10
426.523709957704
 20
219.262302314134
 30
0.0
 11
426.314309957705
 21
221.095602314134
 31
0.0
  0
LINE
  5
211F
330
1D
100
AcDbEntity
  8
0
100
AcDbLine
 10
426.524209957704
 20
219.262402314134
 30
0.0
 11
426.314409957704
 21
221.095402314134
 31
0.0
  0
LINE
  5
2120
330
1D
100
AcDbEntity
  8
0
100
AcDbLine
 10
426.839209957704
 20
212.478902314134
 30
0.0
 11
426.597909957704
 21
210.916702314134
 31
0.0
  0
LINE
  5
2121
330
1D
100
AcDbEntity
  8
0
100
AcDbLine
 10
426.839009957705
 20
212.478802314134
 30
0.0
 11
426.597809957705
 21
210.916402314134
 31
0.0
  0
LINE
  5
2122
330
1D
100
AcDbEntity
  8
0
100
AcDbLine
 10
426.619809957705
 20
217.409502314134
 30
0.0
 11
426.606709957704
 21
215.633102314134
 31
0.0
  0
LINE
  5
2123
330
1D
100
AcDbEntity
  8
0
100
AcDbLine
 10
426.619509957704
 20
217.409602314134
 30
0.0
 11
426.606509957704
 21
215.633602314134
 31
0.0
  0
LINE
  5
2124
330
1D
100
AcDbEntity
  8
0
100
AcDbLine
 10
426.287409957705
 20
209.362802314134
 30
0.0
 11
425.910709957705
 21
207.821302314134
 31
0.0
  0
LINE
  5
2125
330
1D
100
AcDbEntity
  8
0
100
AcDbLine
 10
426.287309957705
 20
209.362602314134
 30
0.0
 11
425.910809957704
 21
207.821502314134
 31
0.0
  0
LINE
  5
2126
330
1D
100
AcDbEntity
  8
0
100
AcDbLine
 10
426.347709957704
 20
212.543002314134
 30
0.0
 11
425.804009957704
 21
209.469902314134
 31
0.0
  0
LINE
  5
2127
330
1D
100
AcDbEntity
  8
0
100
AcDbLine
 10
426.347809957705
 20
212.543302314134
 30
0.0
 11
425.804009957704
 21
209.470102314134
 31
0.0
  0
LINE
  5
2128
330
1D
100
AcDbEntity
  8
0
100
AcDbLine
 10
426.606509957704
 20
215.633202314134
 30
0.0
 11
426.347709957704
 21
212.543002314134
 31
0.0
  0
LINE
  5
2129
330
1D
100
AcDbEntity
  8
0
100
AcDbLine
 10
426.606509957704
 20
215.633602314134
 30
0.0
 11
426.347809957705
 21
212.543302314134
 31
0.0
  0
LINE
  5
212A
330
1D
100
AcDbEntity
  8
0
100
AcDbLine
 10
426.597809957705
 20
210.916402314134
 30
0.0
 11
426.287409957705
 21
209.362802314134
 31
0.0
  0
LINE
  5
212B
330
1D
100
AcDbEntity
  8
0
100
AcDbLine
 10
426.597909957704
 20
210.916702314134
 30
0.0
 11
426.287309957705
 21
209.362602314134
 31
0.0
  0
LINE
  5
212C
330
1D
100
AcDbEntity
  8
0
100
AcDbLine
 10
426.619809957705
 20
217.409502314134
 30
0.0
 11
426.524209957704
 21
219.262402314134
 31
0.0
  0
LINE
  5
212D
330
1D
100
AcDbEntity
  8
0
100
AcDbLine
 10
426.619509957704
 20
217.409602314134
 30
0.0
 11
426.523709957704
 21
219.262302314134
 31
0.0
  0
LINE
  5
212E
330
1D
100
AcDbEntity
  8
0
100
AcDbLine
 10
427.116309957705
 20
217.419902314134
 30
0.0
 11
427.102609957705
 21
215.615502314134
 31
0.0
  0
LINE
  5
212F
330
1D
100
AcDbEntity
  8
0
100
AcDbLine
 10
427.116309957705
 20
217.419902314134
 30
0.0
 11
427.019609957704
 21
219.303402314134
 31
0.0
  0
LINE
  5
2130
330
1D
100
AcDbEntity
  8
0
100
AcDbLine
 10
427.116509957704
 20
217.419902314134
 30
0.0
 11
427.019609957704
 21
219.303402314134
 31
0.0
  0
LINE
  5
2131
330
1D
100
AcDbEntity
  8
0
100
AcDbLine
 10
432.260809957705
 20
217.245402314134
 30
0.0
 11
432.137109957705
 21
218.681602314134
 31
0.0
  0
LINE
  5
2132
330
1D
100
AcDbEntity
  8
0
100
AcDbLine
 10
432.261109957705
 20
217.245202314134
 30
0.0
 11
432.137409957704
 21
218.681402314134
 31
0.0
  0
LINE
  5
2133
330
1D
100
AcDbEntity
  8
0
100
AcDbLine
 10
432.309509957704
 20
215.615502314134
 30
0.0
 11
432.261109957705
 21
217.245202314134
 31
0.0
  0
LINE
  5
2134
330
1D
100
AcDbEntity
  8
0
100
AcDbLine
 10
432.309609957704
 20
215.615502314134
 30
0.0
 11
432.260809957705
 21
217.245402314134
 31
0.0
  0
LINE
  5
2135
330
1D
100
AcDbEntity
  8
0
100
AcDbLine
 10
432.137109957705
 20
218.681602314134
 30
0.0
 11
431.937909957705
 21
220.108902314134
 31
0.0
  0
LINE
  5
2136
330
1D
100
AcDbEntity
  8
0
100
AcDbLine
 10
432.137409957704
 20
218.681402314134
 30
0.0
 11
431.938109957704
 21
220.108802314134
 31
0.0
  0
LINE
  5
2137
330
1D
100
AcDbEntity
  8
0
100
AcDbLine
 10
427.008109957705
 20
214.046602314134
 30
0.0
 11
426.839209957704
 21
212.478902314134
 31
0.0
  0
LINE
  5
2138
330
1D
100
AcDbEntity
  8
0
100
AcDbLine
 10
427.008009957704
 20
214.046302314134
 30
0.0
 11
426.839009957705
 21
212.478802314134
 31
0.0
  0
LINE
  5
2139
330
1D
100
AcDbEntity
  8
0
100
AcDbLine
 10
432.260409957704
 20
213.979102314134
 30
0.0
 11
432.116009957705
 21
212.370002314134
 31
0.0
  0
LINE
  5
213A
330
1D
100
AcDbEntity
  8
0
100
AcDbLine
 10
432.260409957704
 20
213.979002314134
 30
0.0
 11
432.116109957704
 21
212.369902314134
 31
0.0
  0
LINE
  5
213B
330
1D
100
AcDbEntity
  8
0
100
AcDbLine
 10
431.876809957705
 20
210.772602314134
 30
0.0
 11
431.543109957704
 21
209.191702314134
 31
0.0
  0
LINE
  5
213C
330
1D
100
AcDbEntity
  8
0
100
AcDbLine
 10
431.876909957704
 20
210.772602314134
 30
0.0
 11
431.543209957704
 21
209.191702314134
 31
0.0
  0
LINE
  5
213D
330
1D
100
AcDbEntity
  8
0
100
AcDbLine
 10
432.116109957704
 20
212.369902314134
 30
0.0
 11
431.876909957704
 21
210.772602314134
 31
0.0
  0
LINE
  5
213E
330
1D
100
AcDbEntity
  8
0
100
AcDbLine
 10
432.116009957705
 20
212.370002314134
 30
0.0
 11
431.876809957705
 21
210.772602314134
 31
0.0
  0
LINE
  5
213F
330
1D
100
AcDbEntity
  8
0
100
AcDbLine
 10
427.102509957705
 20
215.615602314134
 30
0.0
 11
427.008009957704
 21
214.046302314134
 31
0.0
  0
LINE
  5
2140
330
1D
100
AcDbEntity
  8
0
100
AcDbLine
 10
432.309609957704
 20
215.615502314134
 30
0.0
 11
432.260409957704
 21
213.979002314134
 31
0.0
  0
LINE
  5
2141
330
1D
100
AcDbEntity
  8
0
100
AcDbLine
 10
432.309609957704
 20
215.615502314134
 30
0.0
 11
432.260409957704
 21
213.979102314134
 31
0.0
  0
LINE
  5
2142
330
1D
100
AcDbEntity
  8
0
100
AcDbLine
 10
426.806909957705
 20
221.167402314134
 30
0.0
 11
426.561509957704
 21
222.593202314134
 31
0.0
  0
LINE
  5
2143
330
1D
100
AcDbEntity
  8
0
100
AcDbLine
 10
426.806509957705
 20
221.167502314134
 30
0.0
 11
426.561609957705
 21
222.593102314134
 31
0.0
  0
LINE
  5
2144
330
1D
100
AcDbEntity
  8
0
100
AcDbLine
 10
426.862209957705
 20
231.979002314134
 30
0.0
 11
425.957709957705
 21
233.121202314134
 31
0.0
  0
LINE
  5
2145
330
1D
100
AcDbEntity
  8
0
100
AcDbLine
 10
426.862009957704
 20
231.979202314134
 30
0.0
 11
425.957809957705
 21
233.121102314134
 31
0.0
  0
LINE
  5
2146
330
1D
100
AcDbEntity
  8
0
100
AcDbLine
 10
424.937409957704
 20
226.562002314134
 30
0.0
 11
423.843609957705
 21
229.118602314134
 31
0.0
  0
LINE
  5
2147
330
1D
100
AcDbEntity
  8
0
100
AcDbLine
 10
424.937209957704
 20
226.562202314134
 30
0.0
 11
423.843409957704
 21
229.118402314134
 31
0.0
  0
LINE
  5
2148
330
1D
100
AcDbEntity
  8
0
100
AcDbLine
 10
425.405309957705
 20
226.732702314134
 30
0.0
 11
424.881609957705
 21
228.053502314134
 31
0.0
  0
LINE
  5
2149
330
1D
100
AcDbEntity
  8
0
100
AcDbLine
 10
425.405109957705
 20
226.732702314134
 30
0.0
 11
424.881809957704
 21
228.053502314134
 31
0.0
  0
LINE
  5
214A
330
1D
100
AcDbEntity
  8
0
100
AcDbLine
 10
426.314309957705
 20
221.095602314134
 30
0.0
 11
425.762809957705
 21
223.877402314134
 31
0.0
  0
LINE
  5
214B
330
1D
100
AcDbEntity
  8
0
100
AcDbLine
 10
426.314409957704
 20
221.095402314134
 30
0.0
 11
425.763009957705
 21
223.877402314134
 31
0.0
  0
LINE
  5
214C
330
1D
100
AcDbEntity
  8
0
100
AcDbLine
 10
426.561509957704
 20
222.593202314134
 30
0.0
 11
426.245809957705
 21
223.998602314134
 31
0.0
  0
LINE
  5
214D
330
1D
100
AcDbEntity
  8
0
100
AcDbLine
 10
426.561609957705
 20
222.593102314134
 30
0.0
 11
426.245609957704
 21
223.998802314134
 31
0.0
  0
LINE
  5
214E
330
1D
100
AcDbEntity
  8
0
100
AcDbLine
 10
425.762809957705
 20
223.877402314134
 30
0.0
 11
424.937409957704
 21
226.562002314134
 31
0.0
  0
LINE
  5
214F
330
1D
100
AcDbEntity
  8
0
100
AcDbLine
 10
425.860309957704
 20
225.379802314134
 30
0.0
 11
425.405309957705
 21
226.732702314134
 31
0.0
  0
LINE
  5
2150
330
1D
100
AcDbEntity
  8
0
100
AcDbLine
 10
425.860109957704
 20
225.379802314134
 30
0.0
 11
425.405109957705
 21
226.732702314134
 31
0.0
  0
LINE
  5
2151
330
1D
100
AcDbEntity
  8
0
100
AcDbLine
 10
425.763009957705
 20
223.877402314134
 30
0.0
 11
424.937209957704
 21
226.562202314134
 31
0.0
  0
LINE
  5
2152
330
1D
100
AcDbEntity
  8
0
100
AcDbLine
 10
426.245609957704
 20
223.998802314134
 30
0.0
 11
425.860109957704
 21
225.379802314134
 31
0.0
  0
LINE
  5
2153
330
1D
100
AcDbEntity
  8
0
100
AcDbLine
 10
426.245809957705
 20
223.998602314134
 30
0.0
 11
425.860309957704
 21
225.379802314134
 31
0.0
  0
LINE
  5
2154
330
1D
100
AcDbEntity
  8
0
100
AcDbLine
 10
424.290409957704
 20
229.338102314134
 30
0.0
 11
423.633809957704
 21
230.582402314134
 31
0.0
  0
LINE
  5
2155
330
1D
100
AcDbEntity
  8
0
100
AcDbLine
 10
424.290609957704
 20
229.338202314134
 30
0.0
 11
423.633809957704
 21
230.582402314134
 31
0.0
  0
LINE
  5
2156
330
1D
100
AcDbEntity
  8
0
100
AcDbLine
 10
423.633809957704
 20
230.582402314134
 30
0.0
 11
422.912609957704
 21
231.782302314134
 31
0.0
  0
LINE
  5
2157
330
1D
100
AcDbEntity
  8
0
100
AcDbLine
 10
423.633809957704
 20
230.582402314134
 30
0.0
 11
422.912709957704
 21
231.782402314134
 31
0.0
  0
LINE
  5
2158
330
1D
100
AcDbEntity
  8
0
100
AcDbLine
 10
422.912709957704
 20
231.782402314134
 30
0.0
 11
422.129009957705
 21
232.934202314134
 31
0.0
  0
LINE
  5
2159
330
1D
100
AcDbEntity
  8
0
100
AcDbLine
 10
422.912609957704
 20
231.782302314134
 30
0.0
 11
422.128709957704
 21
232.934302314134
 31
0.0
  0
LINE
  5
215A
330
1D
100
AcDbEntity
  8
0
100
AcDbLine
 10
423.843609957705
 20
229.118602314134
 30
0.0
 11
422.492109957705
 21
231.514602314134
 31
0.0
  0
LINE
  5
215B
330
1D
100
AcDbEntity
  8
0
100
AcDbLine
 10
423.843409957704
 20
229.118402314134
 30
0.0
 11
422.492309957704
 21
231.514702314134
 31
0.0
  0
LINE
  5
215C
330
1D
100
AcDbEntity
  8
0
100
AcDbLine
 10
424.881809957704
 20
228.053502314134
 30
0.0
 11
424.290609957704
 21
229.338202314134
 31
0.0
  0
LINE
  5
215D
330
1D
100
AcDbEntity
  8
0
100
AcDbLine
 10
424.881609957705
 20
228.053502314134
 30
0.0
 11
424.290409957704
 21
229.338102314134
 31
0.0
  0
LINE
  5
215E
330
1D
100
AcDbEntity
  8
0
100
AcDbLine
 10
431.315109957704
 20
222.922302314134
 30
0.0
 11
430.892509957705
 21
224.300502314134
 31
0.0
  0
LINE
  5
215F
330
1D
100
AcDbEntity
  8
0
100
AcDbLine
 10
431.314709957705
 20
222.922502314134
 30
0.0
 11
430.892709957704
 21
224.300402314134
 31
0.0
  0
LINE
  5
2160
330
1D
100
AcDbEntity
  8
0
100
AcDbLine
 10
431.663409957705
 20
221.523902314134
 30
0.0
 11
431.314709957705
 21
222.922502314134
 31
0.0
  0
LINE
  5
2161
330
1D
100
AcDbEntity
  8
0
100
AcDbLine
 10
431.663809957704
 20
221.523802314134
 30
0.0
 11
431.315109957704
 21
222.922302314134
 31
0.0
  0
LINE
  5
2162
330
1D
100
AcDbEntity
  8
0
100
AcDbLine
 10
429.191309957705
 20
228.287702314134
 30
0.0
 11
428.481009957704
 21
229.559002314134
 31
0.0
  0
LINE
  5
2163
330
1D
100
AcDbEntity
  8
0
100
AcDbLine
 10
429.191609957704
 20
228.287602314134
 30
0.0
 11
428.481009957704
 21
229.559002314134
 31
0.0
  0
LINE
  5
2164
330
1D
100
AcDbEntity
  8
0
100
AcDbLine
 10
428.481009957704
 20
229.559002314134
 30
0.0
 11
427.703809957704
 21
230.790602314134
 31
0.0
  0
LINE
  5
2165
330
1D
100
AcDbEntity
  8
0
100
AcDbLine
 10
428.481009957704
 20
229.559002314134
 30
0.0
 11
427.704109957705
 21
230.790602314134
 31
0.0
  0
LINE
  5
2166
330
1D
100
AcDbEntity
  8
0
100
AcDbLine
 10
427.703809957704
 20
230.790602314134
 30
0.0
 11
426.862209957705
 21
231.979002314134
 31
0.0
  0
LINE
  5
2167
330
1D
100
AcDbEntity
  8
0
100
AcDbLine
 10
427.704109957705
 20
230.790602314134
 30
0.0
 11
426.862009957704
 21
231.979202314134
 31
0.0
  0
LINE
  5
2168
330
1D
100
AcDbEntity
  8
0
100
AcDbLine
 10
430.892709957704
 20
224.300402314134
 30
0.0
 11
430.398309957704
 21
225.654302314134
 31
0.0
  0
LINE
  5
2169
330
1D
100
AcDbEntity
  8
0
100
AcDbLine
 10
430.892509957705
 20
224.300502314134
 30
0.0
 11
430.398309957704
 21
225.654302314134
 31
0.0
  0
LINE
  5
216A
330
1D
100
AcDbEntity
  8
0
100
AcDbLine
 10
429.832709957705
 20
226.980502314134
 30
0.0
 11
429.191609957704
 21
228.287602314134
 31
0.0
  0
LINE
  5
216B
330
1D
100
AcDbEntity
  8
0
100
AcDbLine
 10
429.832909957704
 20
226.980302314134
 30
0.0
 11
429.191309957705
 21
228.287702314134
 31
0.0
  0
LINE
  5
216C
330
1D
100
AcDbEntity
  8
0
100
AcDbLine
 10
430.398309957704
 20
225.654302314134
 30
0.0
 11
429.832909957704
 21
226.980302314134
 31
0.0
  0
LINE
  5
216D
330
1D
100
AcDbEntity
  8
0
100
AcDbLine
 10
430.398309957704
 20
225.654302314134
 30
0.0
 11
429.832709957705
 21
226.980502314134
 31
0.0
  0
LINE
  5
216E
330
1D
100
AcDbEntity
  8
0
100
AcDbLine
 10
421.285009957704
 20
234.033502314134
 30
0.0
 11
420.309509957704
 21
235.155902314134
 31
0.0
  0
LINE
  5
216F
330
1D
100
AcDbEntity
  8
0
100
AcDbLine
 10
421.773009957705
 20
237.161402314134
 30
0.0
 11
420.599209957704
 21
238.025002314134
 31
0.0
  0
LINE
  5
2170
330
1D
100
AcDbEntity
  8
0
100
AcDbLine
 10
421.773109957704
 20
237.161402314134
 30
0.0
 11
420.599309957704
 21
238.025002314134
 31
0.0
  0
LINE
  5
2171
330
1D
100
AcDbEntity
  8
0
100
AcDbLine
 10
424.993909957705
 20
234.213402314134
 30
0.0
 11
423.973609957704
 21
235.252802314134
 31
0.0
  0
LINE
  5
2172
330
1D
100
AcDbEntity
  8
0
100
AcDbLine
 10
424.994109957704
 20
234.213302314134
 30
0.0
 11
423.973209957705
 21
235.253002314134
 31
0.0
  0
LINE
  5
2173
330
1D
100
AcDbEntity
  8
0
100
AcDbLine
 10
423.973209957705
 20
235.253002314134
 30
0.0
 11
422.898809957705
 21
236.236302314134
 31
0.0
  0
LINE
  5
2174
330
1D
100
AcDbEntity
  8
0
100
AcDbLine
 10
423.973609957704
 20
235.252802314134
 30
0.0
 11
422.898509957704
 21
236.236402314134
 31
0.0
  0
LINE
  5
2175
330
1D
100
AcDbEntity
  8
0
100
AcDbLine
 10
422.898509957704
 20
236.236402314134
 30
0.0
 11
421.773009957705
 21
237.161402314134
 31
0.0
  0
LINE
  5
2176
330
1D
100
AcDbEntity
  8
0
100
AcDbLine
 10
422.898809957705
 20
236.236302314134
 30
0.0
 11
421.773109957704
 21
237.161402314134
 31
0.0
  0
LINE
  5
2177
330
1D
100
AcDbEntity
  8
0
100
AcDbLine
 10
497.377
 20
233.86265
 30
0.0
 11
499.555
 21
235.66865
 31
0.0
  0
LINE
  5
2178
330
1D
100
AcDbEntity
  8
0
100
AcDbLine
 10
496.79
 20
244.64765
 30
0.0
 11
499.713
 21
246.24265
 31
0.0
  0
LINE
  5
2179
330
1D
100
AcDbEntity
  8
0
100
AcDbLine
 10
496.79
 20
244.64765
 30
0.0
 11
499.714
 21
246.24365
 31
0.0
  0
LINE
  5
217A
330
1D
100
AcDbEntity
  8
0
100
AcDbLine
 10
497.338
 20
218.05565
 30
0.0
 11
503.315
 21
222.882688056749
 31
0.0
  0
LINE
  5
217B
330
1D
100
AcDbEntity
  8
0
100
AcDbLine
 10
485.118
 20
232.98065
 30
0.0
 11
486.985
 21
235.73865
 31
0.0
  0
LINE
  5
217C
330
1D
100
AcDbEntity
  8
0
100
AcDbLine
 10
495.396
 20
231.81765
 30
0.0
 11
497.377
 21
233.86265
 31
0.0
  0
LINE
  5
217D
330
1D
100
AcDbEntity
  8
0
100
AcDbLine
 10
480.01
 20
213.93265
 30
0.0
 11
480.247
 21
210.60965
 31
0.0
  0
LINE
  5
217E
330
1D
100
AcDbEntity
  8
0
100
AcDbLine
 10
480.01
 20
213.93265
 30
0.0
 11
480.09
 21
217.26165
 31
0.0
  0
LINE
  5
217F
330
1D
100
AcDbEntity
  8
0
100
AcDbLine
 10
480.09
 20
217.26165
 30
0.0
 11
480.486
 21
220.56965
 31
0.0
  0
LINE
  5
2180
330
1D
100
AcDbEntity
  8
0
100
AcDbLine
 10
480.486
 20
220.56965
 30
0.0
 11
481.195
 21
223.82365
 31
0.0
  0
LINE
  5
2181
330
1D
100
AcDbEntity
  8
0
100
AcDbLine
 10
480.612664647996
 20
221.150985352015
 30
0.0
 11
481.194
 21
223.82365
 31
0.0
  0
LINE
  5
2182
330
1D
100
AcDbEntity
  8
0
100
AcDbLine
 10
481.194
 20
223.82365
 30
0.0
 11
481.702
 21
225.40965
 31
0.0
  0
LINE
  5
2183
330
1D
100
AcDbEntity
  8
0
100
AcDbLine
 10
481.195
 20
223.82365
 30
0.0
 11
482.209
 21
226.99565
 31
0.0
  0
LINE
  5
2184
330
1D
100
AcDbEntity
  8
0
100
AcDbLine
 10
482.209
 20
226.99565
 30
0.0
 11
483.521
 21
230.05765
 31
0.0
  0
LINE
  5
2185
330
1D
100
AcDbEntity
  8
0
100
AcDbLine
 10
483.521
 20
230.05765
 30
0.0
 11
485.118
 21
232.98065
 31
0.0
  0
LINE
  5
2186
330
1D
100
AcDbEntity
  8
0
100
AcDbLine
 10
489.307
 20
218.52265
 30
0.0
 11
489.757
 21
220.85365
 31
0.0
  0
LINE
  5
2187
330
1D
100
AcDbEntity
  8
0
100
AcDbLine
 10
489.307
 20
218.52365
 30
0.0
 11
489.757
 21
220.85365
 31
0.0
  0
LINE
  5
2188
330
1D
100
AcDbEntity
  8
0
100
AcDbLine
 10
490.819
 20
208.43665
 30
0.0
 11
492.169
 21
211.16865
 31
0.0
  0
LINE
  5
2189
330
1D
100
AcDbEntity
  8
0
100
AcDbLine
 10
490.819
 20
208.43665
 30
0.0
 11
492.168
 21
211.16865
 31
0.0
  0
LINE
  5
218A
330
1D
100
AcDbEntity
  8
0
100
AcDbLine
 10
490.134
 20
210.58165
 30
0.0
 11
492.038
 21
212.80165
 31
0.0
  0
LINE
  5
218B
330
1D
100
AcDbEntity
  8
0
100
AcDbLine
 10
489.25
 20
211.43365
 30
0.0
 11
489.591305981433
 21
209.81864125179
 31
0.0
  0
LINE
  5
218C
330
1D
100
AcDbEntity
  8
0
100
AcDbLine
 10
489.053
 20
213.79965
 30
0.0
 11
489.25
 21
211.43365
 31
0.0
  0
LINE
  5
218D
330
1D
100
AcDbEntity
  8
0
100
AcDbLine
 10
489.053
 20
213.79965
 30
0.0
 11
489.307
 21
218.52365
 31
0.0
  0
LINE
  5
218E
330
1D
100
AcDbEntity
  8
0
100
AcDbLine
 10
489.053
 20
213.79865
 30
0.0
 11
489.307
 21
218.52265
 31
0.0
  0
LINE
  5
218F
330
1D
100
AcDbEntity
  8
0
100
AcDbLine
 10
489.053
 20
213.79865
 30
0.0
 11
489.25
 21
211.43365
 31
0.0
  0
LINE
  5
2190
330
1D
100
AcDbEntity
  8
0
100
AcDbLine
 10
492.168
 20
211.16865
 30
0.0
 11
492.551
 21
211.81265
 31
0.0
  0
LINE
  5
2191
330
1D
100
AcDbEntity
  8
0
100
AcDbLine
 10
492.169
 20
211.16865
 30
0.0
 11
492.551
 21
211.81265
 31
0.0
  0
LINE
  5
2192
330
1D
100
AcDbEntity
  8
0
100
AcDbLine
 10
492.551
 20
211.81265
 30
0.0
 11
494.116
 21
214.14765
 31
0.0
  0
LINE
  5
2193
330
1D
100
AcDbEntity
  8
0
100
AcDbLine
 10
492.551
 20
211.81265
 30
0.0
 11
494.116
 21
214.14865
 31
0.0
  0
LINE
  5
2194
330
1D
100
AcDbEntity
  8
0
100
AcDbLine
 10
492.038
 20
212.80165
 30
0.0
 11
493.802
 21
215.08065
 31
0.0
  0
LINE
  5
2195
330
1D
100
AcDbEntity
  8
0
100
AcDbLine
 10
494.116
 20
214.14865
 30
0.0
 11
495.34
 21
215.75665
 31
0.0
  0
LINE
  5
2196
330
1D
100
AcDbEntity
  8
0
100
AcDbLine
 10
495.34
 20
215.75665
 30
0.0
 11
496.636
 21
217.28265
 31
0.0
  0
LINE
  5
2197
330
1D
100
AcDbEntity
  8
0
100
AcDbLine
 10
495.339
 20
215.75665
 30
0.0
 11
496.636
 21
217.28265
 31
0.0
  0
LINE
  5
2198
330
1D
100
AcDbEntity
  8
0
100
AcDbLine
 10
494.116
 20
214.14765
 30
0.0
 11
495.339
 21
215.75665
 31
0.0
  0
LINE
  5
2199
330
1D
100
AcDbEntity
  8
0
100
AcDbLine
 10
496.636
 20
217.28265
 30
0.0
 11
497.338
 21
218.05565
 31
0.0
  0
LINE
  5
219A
330
1D
100
AcDbEntity
  8
0
100
AcDbLine
 10
489.757
 20
220.85365
 30
0.0
 11
491.037
 21
224.77865
 31
0.0
  0
LINE
  5
219B
330
1D
100
AcDbEntity
  8
0
100
AcDbLine
 10
491.037
 20
224.77865
 30
0.0
 11
492.924
 21
228.45465
 31
0.0
  0
LINE
  5
219C
330
1D
100
AcDbEntity
  8
0
100
AcDbLine
 10
492.924
 20
228.45465
 30
0.0
 11
495.396
 21
231.81765
 31
0.0
  0
LINE
  5
219D
330
1D
100
AcDbEntity
  8
0
100
AcDbLine
 10
486.985
 20
235.73865
 30
0.0
 11
489.106
 21
238.30665
 31
0.0
  0
LINE
  5
219E
330
1D
100
AcDbEntity
  8
0
100
AcDbLine
 10
489.106
 20
238.30665
 30
0.0
 11
491.462
 21
240.66165
 31
0.0
  0
LINE
  5
219F
330
1D
100
AcDbEntity
  8
0
100
AcDbLine
 10
494.031
 20
242.78165
 30
0.0
 11
496.79
 21
244.64765
 31
0.0
  0
LINE
  5
21A0
330
1D
100
AcDbEntity
  8
0
100
AcDbLine
 10
492.746500000018
 20
241.721150000015
 30
0.0
 11
494.031
 21
242.78165
 31
0.0
  0
LINE
  5
21A1
330
1D
100
AcDbEntity
  8
0
100
AcDbLine
 10
494.031
 20
242.78065
 30
0.0
 11
496.79
 21
244.64765
 31
0.0
  0
LINE
  5
21A2
330
1D
100
AcDbEntity
  8
0
100
AcDbLine
 10
491.462
 20
240.66165
 30
0.0
 11
494.031
 21
242.78065
 31
0.0
  0
LINE
  5
21A3
330
1D
100
AcDbEntity
  8
0
100
AcDbLine
 10
523.022
 20
236.07865
 30
0.0
 11
525.974
 21
236.38865
 31
0.0
  0
LINE
  5
21A4
330
1D
100
AcDbEntity
  8
0
100
AcDbLine
 10
522.816
 20
239.56165
 30
0.0
 11
525.197
 21
238.67865
 31
0.0
  0
LINE
  5
21A5
330
1D
100
AcDbEntity
  8
0
100
AcDbLine
 10
522.447
 20
248.95665
 30
0.0
 11
525.664
 21
248.09365
 31
0.0
  0
LINE
  5
21A6
330
1D
100
AcDbEntity
  8
0
100
AcDbLine
 10
515.636
 20
232.63865
 30
0.0
 11
517.881
 21
234.24965
 31
0.0
  0
LINE
  5
21A7
330
1D
100
AcDbEntity
  8
0
100
AcDbLine
 10
510.434
 20
216.24765
 30
0.0
 11
511.112
 21
213.66265
 31
0.0
  0
LINE
  5
21A8
330
1D
100
AcDbEntity
  8
0
100
AcDbLine
 10
510.874
 20
225.12765
 30
0.0
 11
511.677
 21
227.23665
 31
0.0
  0
LINE
  5
21A9
330
1D
100
AcDbEntity
  8
0
100
AcDbLine
 10
507.579
 20
225.96665
 30
0.0
 11
515.636
 21
232.63865
 31
0.0
  0
LINE
  5
21AA
330
1D
100
AcDbEntity
  8
0
100
AcDbLine
 10
510.101
 20
219.23165
 30
0.0
 11
510.234
 21
222.15265
 31
0.0
  0
LINE
  5
21AB
330
1D
100
AcDbEntity
  8
0
100
AcDbLine
 10
510.101
 20
219.23165
 30
0.0
 11
510.234
 21
222.15165
 31
0.0
  0
LINE
  5
21AC
330
1D
100
AcDbEntity
  8
0
100
AcDbLine
 10
510.101
 20
219.23165
 30
0.0
 11
510.434
 21
216.24765
 31
0.0
  0
LINE
  5
21AD
330
1D
100
AcDbEntity
  8
0
100
AcDbLine
 10
510.234
 20
222.15265
 30
0.0
 11
510.874
 21
225.12765
 31
0.0
  0
LINE
  5
21AE
330
1D
100
AcDbEntity
  8
0
100
AcDbLine
 10
510.234
 20
222.15165
 30
0.0
 11
510.874
 21
225.12765
 31
0.0
  0
LINE
  5
21AF
330
1D
100
AcDbEntity
  8
0
100
AcDbLine
 10
503.315
 20
222.882688056749
 30
0.0
 11
507.579
 21
225.96665
 31
0.0
  0
LINE
  5
21B0
330
1D
100
AcDbEntity
  8
0
100
AcDbLine
 10
512.595
 20
210.16365
 30
0.0
 11
513.396
 21
208.73965
 31
0.0
  0
LINE
  5
21B1
330
1D
100
AcDbEntity
  8
0
100
AcDbLine
 10
511.893
 20
211.63065
 30
0.0
 11
512.594
 21
210.16465
 31
0.0
  0
LINE
  5
21B2
330
1D
100
AcDbEntity
  8
0
100
AcDbLine
 10
511.892
 20
211.63065
 30
0.0
 11
512.595
 21
210.16365
 31
0.0
  0
LINE
  5
21B3
330
1D
100
AcDbEntity
  8
0
100
AcDbLine
 10
512.594
 20
210.16465
 30
0.0
 11
513.396
 21
208.74065
 31
0.0
  0
LINE
  5
21B4
330
1D
100
AcDbEntity
  8
0
100
AcDbLine
 10
511.112
 20
213.66265
 30
0.0
 11
511.893
 21
211.63065
 31
0.0
  0
LINE
  5
21B5
330
1D
100
AcDbEntity
  8
0
100
AcDbLine
 10
511.112
 20
213.66265
 30
0.0
 11
511.892
 21
211.63065
 31
0.0
  0
LINE
  5
21B6
330
1D
100
AcDbEntity
  8
0
100
AcDbLine
 10
511.677
 20
227.23665
 30
0.0
 11
512.976030675639
 21
229.701342427051
 31
0.0
  0
LINE
  5
21B7
330
1D
100
AcDbEntity
  8
0
100
AcDbLine
 10
512.976030675639
 20
229.701342427051
 30
0.0
 11
513.463060143808
 21
230.713431136151
 31
0.0
  0
LINE
  5
21B8
330
1D
100
AcDbEntity
  8
0
100
AcDbLine
 10
509.576
 20
240.19465
 30
0.0
 11
511.791358192952
 21
240.547954336348
 31
0.0
  0
LINE
  5
21B9
330
1D
100
AcDbEntity
  8
0
100
AcDbLine
 10
509.203
 20
249.27465
 30
0.0
 11
511.495955979137
 21
249.548446134147
 31
0.0
  0
LINE
  5
21BA
330
1D
100
AcDbEntity
  8
0
100
AcDbLine
 10
504.389
 20
238.49765
 30
0.0
 11
506.947
 21
239.48565
 31
0.0
  0
LINE
  5
21BB
330
1D
100
AcDbEntity
  8
0
100
AcDbLine
 10
504.389
 20
238.49765
 30
0.0
 11
506.946
 21
239.48565
 31
0.0
  0
LINE
  5
21BC
330
1D
100
AcDbEntity
  8
0
100
AcDbLine
 10
501.901
 20
237.21765
 30
0.0
 11
504.389
 21
238.49765
 31
0.0
  0
LINE
  5
21BD
330
1D
100
AcDbEntity
  8
0
100
AcDbLine
 10
499.555
 20
235.66865
 30
0.0
 11
501.901
 21
237.21765
 31
0.0
  0
LINE
  5
21BE
330
1D
100
AcDbEntity
  8
0
100
AcDbLine
 10
506.946
 20
239.48565
 30
0.0
 11
509.576
 21
240.19465
 31
0.0
  0
LINE
  5
21BF
330
1D
100
AcDbEntity
  8
0
100
AcDbLine
 10
506.947
 20
239.48565
 30
0.0
 11
509.576
 21
240.19465
 31
0.0
  0
LINE
  5
21C0
330
1D
100
AcDbEntity
  8
0
100
AcDbLine
 10
499.714
 20
246.24365
 30
0.0
 11
502.775
 21
247.55365
 31
0.0
  0
LINE
  5
21C1
330
1D
100
AcDbEntity
  8
0
100
AcDbLine
 10
499.713
 20
246.24265
 30
0.0
 11
502.776
 21
247.55365
 31
0.0
  0
LINE
  5
21C2
330
1D
100
AcDbEntity
  8
0
100
AcDbLine
 10
502.775
 20
247.55365
 30
0.0
 11
504.361999999927
 21
248.060149999977
 31
0.0
  0
LINE
  5
21C3
330
1D
100
AcDbEntity
  8
0
100
AcDbLine
 10
505.948
 20
248.56665
 30
0.0
 11
509.203
 21
249.27465
 31
0.0
  0
LINE
  5
21C4
330
1D
100
AcDbEntity
  8
0
100
AcDbLine
 10
502.776
 20
247.55365
 30
0.0
 11
505.948
 21
248.56665
 31
0.0
  0
LINE
  5
21C5
330
1D
100
AcDbEntity
  8
0
100
AcDbLine
 10
518.486
 20
242.80665
 30
0.0
 11
518.529
 21
252.72765
 31
0.0
  0
LINE
  5
21C6
330
1D
100
AcDbEntity
  8
0
100
AcDbLine
 10
511.494
 20
253.12365
 30
0.0
 11
511.5
 21
242.15665
 31
0.0
  0
LINE
  5
21C7
330
1D
100
AcDbEntity
  8
0
100
AcDbLine
 10
517.497
 20
236.44165
 30
0.0
 11
517.837
 21
239.02965
 31
0.0
  0
LINE
  5
21C8
330
1D
100
AcDbEntity
  8
0
100
AcDbLine
 10
511.851
 20
240.21865
 30
0.0
 11
512.163
 21
239.02965
 31
0.0
  0
LINE
  5
21C9
330
1D
100
AcDbEntity
  8
0
100
AcDbLine
 10
513.52
 20
235.20765
 30
0.0
 11
515.048
 21
235.24265
 31
0.0
  0
LINE
  5
21CA
330
1D
100
AcDbEntity
  8
0
100
AcDbLine
 10
512.263345365555
 20
238.557144624831
 30
0.0
 11
512.503
 21
236.44165
 31
0.0
  0
LINE
  5
21CB
330
1D
100
AcDbEntity
  8
0
100
AcDbLine
 10
512.503
 20
236.44165
 30
0.0
 11
512.503
 21
235.188148561841
 31
0.0
  0
LINE
  5
21CC
330
1D
100
AcDbEntity
  8
0
100
AcDbLine
 10
512.503
 20
235.188148561841
 30
0.0
 11
512.503
 21
236.44165
 31
0.0
  0
LINE
  5
21CD
330
1D
100
AcDbEntity
  8
0
100
AcDbLine
 10
512.477
 20
235.18765
 30
0.0
 11
513.52
 21
235.20765
 31
0.0
  0
LINE
  5
21CE
330
1D
100
AcDbEntity
  8
0
100
AcDbLine
 10
512.163
 20
239.02965
 30
0.0
 11
512.263345365555
 21
238.557144624831
 31
0.0
  0
LINE
  5
21CF
330
1D
100
AcDbEntity
  8
0
100
AcDbLine
 10
516.068
 20
235.24165
 30
0.0
 11
517.275
 21
235.22965
 31
0.0
  0
LINE
  5
21D0
330
1D
100
AcDbEntity
  8
0
100
AcDbLine
 10
515.048
 20
235.24265
 30
0.0
 11
516.068
 21
235.24165
 31
0.0
  0
LINE
  5
21D1
330
1D
100
AcDbEntity
  8
0
100
AcDbLine
 10
517.497
 20
235.254420526316
 30
0.0
 11
517.497
 21
236.44165
 31
0.0
  0
LINE
  5
21D2
330
1D
100
AcDbEntity
  8
0
100
AcDbLine
 10
517.497
 20
236.44165
 30
0.0
 11
517.497
 21
235.254420526316
 31
0.0
  0
LINE
  5
21D3
330
1D
100
AcDbEntity
  8
0
100
AcDbLine
 10
511.5
 20
242.15665
 30
0.0
 11
511.851
 21
240.21865
 31
0.0
  0
LINE
  5
21D4
330
1D
100
AcDbEntity
  8
0
100
AcDbLine
 10
517.881
 20
234.24965
 30
0.0
 11
520.337
 21
235.37365
 31
0.0
  0
LINE
  5
21D5
330
1D
100
AcDbEntity
  8
0
100
AcDbLine
 10
520.337
 20
235.37365
 30
0.0
 11
523.022
 21
236.07865
 31
0.0
  0
LINE
  5
21D6
330
1D
100
AcDbEntity
  8
0
100
AcDbLine
 10
517.837
 20
239.02965
 30
0.0
 11
518.149
 21
240.21865
 31
0.0
  0
LINE
  5
21D7
330
1D
100
AcDbEntity
  8
0
100
AcDbLine
 10
518.149
 20
240.21865
 30
0.0
 11
518.396
 21
241.85465
 31
0.0
  0
LINE
  5
21D8
330
1D
100
AcDbEntity
  8
0
100
AcDbLine
 10
520.357
 20
240.20865
 30
0.0
 11
522.816
 21
239.56165
 31
0.0
  0
LINE
  5
21D9
330
1D
100
AcDbEntity
  8
0
100
AcDbLine
 10
518.396
 20
241.85465
 30
0.0
 11
518.486
 21
242.80665
 31
0.0
  0
LINE
  5
21DA
330
1D
100
AcDbEntity
  8
0
100
AcDbLine
 10
518.198721815921
 20
240.547981541887
 30
0.0
 11
520.357
 21
240.20865
 31
0.0
  0
LINE
  5
21DB
330
1D
100
AcDbEntity
  8
0
100
AcDbLine
 10
516.862
 20
254.60965
 30
0.0
 11
518.254
 21
253.88465
 31
0.0
  0
LINE
  5
21DC
330
1D
100
AcDbEntity
  8
0
100
AcDbLine
 10
511.874
 20
253.91365
 30
0.0
 11
512.476
 21
254.48865
 31
0.0
  0
LINE
  5
21DD
330
1D
100
AcDbEntity
  8
0
100
AcDbLine
 10
512.476
 20
254.48865
 30
0.0
 11
513.374
 21
254.70465
 31
0.0
  0
LINE
  5
21DE
330
1D
100
AcDbEntity
  8
0
100
AcDbLine
 10
515.0
 20
254.75765
 30
0.0
 11
516.862
 21
254.60965
 31
0.0
  0
LINE
  5
21DF
330
1D
100
AcDbEntity
  8
0
100
AcDbLine
 10
513.374
 20
254.70465
 30
0.0
 11
515.0
 21
254.75765
 31
0.0
  0
LINE
  5
21E0
330
1D
100
AcDbEntity
  8
0
100
AcDbLine
 10
511.494
 20
253.12365
 30
0.0
 11
511.874
 21
253.91365
 31
0.0
  0
LINE
  5
21E1
330
1D
100
AcDbEntity
  8
0
100
AcDbLine
 10
519.162
 20
249.50965
 30
0.0
 11
522.447
 21
248.95665
 31
0.0
  0
LINE
  5
21E2
330
1D
100
AcDbEntity
  8
0
100
AcDbLine
 10
518.254
 20
253.88465
 30
0.0
 11
518.529
 21
252.72765
 31
0.0
  0
LINE
  5
21E3
330
1D
100
AcDbEntity
  8
0
100
AcDbLine
 10
518.515253242225
 20
249.555985258384
 30
0.0
 11
519.162
 21
249.50965
 31
0.0
  0
LINE
  5
21E4
330
1D
100
AcDbEntity
  8
0
100
AcDbLine
 10
543.989
 20
234.37065
 30
0.0
 11
545.722
 21
231.52565
 31
0.0
  0
LINE
  5
21E5
330
1D
100
AcDbEntity
  8
0
100
AcDbLine
 10
543.989
 20
234.36965
 30
0.0
 11
545.722
 21
231.52565
 31
0.0
  0
LINE
  5
21E6
330
1D
100
AcDbEntity
  8
0
100
AcDbLine
 10
535.305
 20
234.58565
 30
0.0
 11
538.14
 21
232.98165
 31
0.0
  0
LINE
  5
21E7
330
1D
100
AcDbEntity
  8
0
100
AcDbLine
 10
546.587
 20
222.65965
 30
0.0
 11
547.572
 21
219.73665
 31
0.0
  0
LINE
  5
21E8
330
1D
100
AcDbEntity
  8
0
100
AcDbLine
 10
549.202
 20
222.19165
 30
0.0
 11
549.753
 21
218.90665
 31
0.0
  0
LINE
  5
21E9
330
1D
100
AcDbEntity
  8
0
100
AcDbLine
 10
547.306
 20
208.02565
 30
0.0
 11
547.81
 21
211.22365
 31
0.0
  0
LINE
  5
21EA
330
1D
100
AcDbEntity
  8
0
100
AcDbLine
 10
547.306
 20
208.02565
 30
0.0
 11
547.811
 21
211.22365
 31
0.0
  0
LINE
  5
21EB
330
1D
100
AcDbEntity
  8
0
100
AcDbLine
 10
546.914
 20
208.03565
 30
0.0
 11
547.313
 21
209.14665
 31
0.0
  0
LINE
  5
21EC
330
1D
100
AcDbEntity
  8
0
100
AcDbLine
 10
547.811
 20
211.22365
 30
0.0
 11
547.818306962649
 21
211.349306437465
 31
0.0
  0
LINE
  5
21ED
330
1D
100
AcDbEntity
  8
0
100
AcDbLine
 10
547.81
 20
211.22365
 30
0.0
 11
547.817017148343
 21
211.343684077208
 31
0.0
  0
LINE
  5
21EE
330
1D
100
AcDbEntity
  8
0
100
AcDbLine
 10
547.313
 20
209.14665
 30
0.0
 11
548.026
 21
212.25465
 31
0.0
  0
LINE
  5
21EF
330
1D
100
AcDbEntity
  8
0
100
AcDbLine
 10
548.026
 20
212.25465
 30
0.0
 11
548.168
 21
214.10765
 31
0.0
  0
LINE
  5
21F0
330
1D
100
AcDbEntity
  8
0
100
AcDbLine
 10
548.143
 20
216.20765
 30
0.0
 11
548.168
 21
214.10765
 31
0.0
  0
LINE
  5
21F1
330
1D
100
AcDbEntity
  8
0
100
AcDbLine
 10
548.048
 20
217.23165
 30
0.0
 11
548.143
 21
216.20765
 31
0.0
  0
LINE
  5
21F2
330
1D
100
AcDbEntity
  8
0
100
AcDbLine
 10
549.753
 20
218.90665
 30
0.0
 11
549.99
 21
215.58365
 31
0.0
  0
LINE
  5
21F3
330
1D
100
AcDbEntity
  8
0
100
AcDbLine
 10
547.572
 20
219.73665
 30
0.0
 11
548.048
 21
217.23165
 31
0.0
  0
LINE
  5
21F4
330
1D
100
AcDbEntity
  8
0
100
AcDbLine
 10
549.568494441422
 20
210.855730088384
 30
0.0
 11
549.943277127582
 21
213.679092990792
 31
0.0
  0
LINE
  5
21F5
330
1D
100
AcDbEntity
  8
0
100
AcDbLine
 10
549.943277127582
 20
213.679092990792
 30
0.0
 11
549.99
 21
215.58365
 31
0.0
  0
LINE
  5
21F6
330
1D
100
AcDbEntity
  8
0
100
AcDbLine
 10
543.389333618773
 20
228.158916925539
 30
0.0
 11
545.359
 21
225.15065
 31
0.0
  0
LINE
  5
21F7
330
1D
100
AcDbEntity
  8
0
100
AcDbLine
 10
543.386
 20
228.16465
 30
0.0
 11
545.358
 21
225.15065
 31
0.0
  0
LINE
  5
21F8
330
1D
100
AcDbEntity
  8
0
100
AcDbLine
 10
541.134
 20
230.55565
 30
0.0
 11
543.386
 21
228.16465
 31
0.0
  0
LINE
  5
21F9
330
1D
100
AcDbEntity
  8
0
100
AcDbLine
 10
538.14
 20
232.98165
 30
0.0
 11
541.134
 21
230.55565
 31
0.0
  0
LINE
  5
21FA
330
1D
100
AcDbEntity
  8
0
100
AcDbLine
 10
545.358
 20
225.15065
 30
0.0
 11
546.587
 21
222.65965
 31
0.0
  0
LINE
  5
21FB
330
1D
100
AcDbEntity
  8
0
100
AcDbLine
 10
545.359
 20
225.15065
 30
0.0
 11
546.587
 21
222.65965
 31
0.0
  0
LINE
  5
21FC
330
1D
100
AcDbEntity
  8
0
100
AcDbLine
 10
548.341
 20
225.40765
 30
0.0
 11
548.655780851707
 21
224.230150000069
 31
0.0
  0
LINE
  5
21FD
330
1D
100
AcDbEntity
  8
0
100
AcDbLine
 10
548.34
 20
225.40865
 30
0.0
 11
549.202
 21
222.19165
 31
0.0
  0
LINE
  5
21FE
330
1D
100
AcDbEntity
  8
0
100
AcDbLine
 10
547.177
 20
228.52965
 30
0.0
 11
548.34
 21
225.40865
 31
0.0
  0
LINE
  5
21FF
330
1D
100
AcDbEntity
  8
0
100
AcDbLine
 10
547.177
 20
228.52965
 30
0.0
 11
548.341
 21
225.40765
 31
0.0
  0
LINE
  5
2200
330
1D
100
AcDbEntity
  8
0
100
AcDbLine
 10
545.722
 20
231.52565
 30
0.0
 11
547.177
 21
228.52965
 31
0.0
  0
LINE
  5
2201
330
1D
100
AcDbEntity
  8
0
100
AcDbLine
 10
534.624
 20
243.73965
 30
0.0
 11
537.29
 21
241.74265
 31
0.0
  0
LINE
  5
2202
330
1D
100
AcDbEntity
  8
0
100
AcDbLine
 10
534.624
 20
243.73865
 30
0.0
 11
537.289
 21
241.74265
 31
0.0
  0
LINE
  5
2203
330
1D
100
AcDbEntity
  8
0
100
AcDbLine
 10
528.785
 20
246.92965
 30
0.0
 11
531.78
 21
245.47365
 31
0.0
  0
LINE
  5
2204
330
1D
100
AcDbEntity
  8
0
100
AcDbLine
 10
529.214
 20
236.26665
 30
0.0
 11
532.41
 21
235.64865
 31
0.0
  0
LINE
  5
2205
330
1D
100
AcDbEntity
  8
0
100
AcDbLine
 10
525.974
 20
236.38865
 30
0.0
 11
529.214
 21
236.26665
 31
0.0
  0
LINE
  5
2206
330
1D
100
AcDbEntity
  8
0
100
AcDbLine
 10
529.642
 20
236.23965
 30
0.0
 11
529.740748949769
 21
236.164794289438
 31
0.0
  0
LINE
  5
2207
330
1D
100
AcDbEntity
  8
0
100
AcDbLine
 10
527.48
 20
237.56765
 30
0.0
 11
529.642
 21
236.23965
 31
0.0
  0
LINE
  5
2208
330
1D
100
AcDbEntity
  8
0
100
AcDbLine
 10
527.479
 20
237.56765
 30
0.0
 11
529.642
 21
236.23965
 31
0.0
  0
LINE
  5
2209
330
1D
100
AcDbEntity
  8
0
100
AcDbLine
 10
525.197
 20
238.67865
 30
0.0
 11
527.479
 21
237.56765
 31
0.0
  0
LINE
  5
220A
330
1D
100
AcDbEntity
  8
0
100
AcDbLine
 10
525.197
 20
238.67865
 30
0.0
 11
527.48
 21
237.56765
 31
0.0
  0
LINE
  5
220B
330
1D
100
AcDbEntity
  8
0
100
AcDbLine
 10
532.41
 20
235.64865
 30
0.0
 11
535.305
 21
234.58565
 31
0.0
  0
LINE
  5
220C
330
1D
100
AcDbEntity
  8
0
100
AcDbLine
 10
531.78
 20
245.47365
 30
0.0
 11
534.624
 21
243.73865
 31
0.0
  0
LINE
  5
220D
330
1D
100
AcDbEntity
  8
0
100
AcDbLine
 10
531.78
 20
245.47365
 30
0.0
 11
534.624
 21
243.73965
 31
0.0
  0
LINE
  5
220E
330
1D
100
AcDbEntity
  8
0
100
AcDbLine
 10
525.664
 20
248.09365
 30
0.0
 11
528.785
 21
246.92965
 31
0.0
  0
LINE
  5
220F
330
1D
100
AcDbEntity
  8
0
100
AcDbLine
 10
543.13485585587
 20
235.511505855837
 30
0.0
 11
543.989
 21
234.37065
 31
0.0
  0
LINE
  5
2210
330
1D
100
AcDbEntity
  8
0
100
AcDbLine
 10
539.754
 20
239.50265
 30
0.0
 11
540.819963868225
 21
238.328613868226
 31
0.0
  0
LINE
  5
2211
330
1D
100
AcDbEntity
  8
0
100
AcDbLine
 10
537.29
 20
241.74265
 30
0.0
 11
539.754
 21
239.50265
 31
0.0
  0
LINE
  5
2212
330
1D
100
AcDbEntity
  8
0
100
AcDbLine
 10
537.289
 20
241.74265
 30
0.0
 11
539.754
 21
239.50165
 31
0.0
  0
LINE
  5
2213
330
1D
100
AcDbEntity
  8
0
100
AcDbLine
 10
541.994
 20
237.03665
 30
0.0
 11
540.819963868225
 21
238.328613868226
 31
0.0
  0
LINE
  5
2214
330
1D
100
AcDbEntity
  8
0
100
AcDbLine
 10
543.13485585587
 20
235.511505855837
 30
0.0
 11
541.994
 21
237.03665
 31
0.0
  0
LINE
  5
2215
330
1D
100
AcDbEntity
  8
0
100
AcDbLine
 10
149.0
 20
149.75265
 30
0.0
 11
173.01
 21
149.75265
 31
0.0
  0
LINE
  5
2216
330
1D
100
AcDbEntity
  8
0
100
AcDbLine
 10
197.01
 20
149.75265
 30
0.0
 11
479.071808267653
 21
149.75265
 31
0.0
  0
LINE
  5
2217
330
1D
100
AcDbEntity
  8
0
100
AcDbLine
 10
529.543839691715
 20
149.75265
 30
0.0
 11
551.0
 21
149.75265
 31
0.0
  0
LINE
  5
2218
330
1D
100
AcDbEntity
  8
0
100
AcDbLine
 10
275.003709957705
 20
234.213302314134
 30
0.0
 11
276.024209957704
 21
235.252802314134
 31
0.0
  0
LINE
  5
221E
330
1D
100
AcDbEntity
  8
0
100
AcDbLine
 10
193.65
 20
99.75265
 30
0.0
 11
484.554510703339
 21
99.75265
 31
0.0
  0
LINE
  5
221F
330
1D
100
AcDbEntity
  8
0
100
AcDbLine
 10
529.265177201702
 20
99.75265
 30
0.0
 11
700.0
 21
99.75265
 31
0.0
  0
LINE
  5
2220
330
1D
100
AcDbEntity
  8
0
100
AcDbLine
 10
176.37
 20
99.75265
 30
0.0
 11
0.0
 21
99.75265
 31
0.0
  0
ENDSEC
  0
SECTION
  2
OBJECTS
  0
DICTIONARY
  5
C
330
0
100
AcDbDictionary
281
     1
  3
ACAD_GROUP
350
D
  3
ACAD_LAYOUT
350
1A
  3
ACAD_MLEADERSTYLE
350
221B
  3
ACAD_MLINESTYLE
350
17
  3
ACAD_PLOTSETTINGS
350
19
  3
ACAD_PLOTSTYLENAME
350
E
  3
ACAD_SCALELIST
350
E51
  3
AcDbVariableDictionary
350
2219
  3
DWGPROPS
350
2224
  0
DICTIONARY
  5
D
102
{ACAD_REACTORS
330
C
102
}
330
C
100
AcDbDictionary
281
     1
  0
DICTIONARY
  5
1A
102
{ACAD_REACTORS
330
C
102
}
330
C
100
AcDbDictionary
281
     1
  3
Layout1
350
1C
  3
Model
350
1E
  0
DICTIONARY
  5
221B
102
{ACAD_REACTORS
330
C
102
}
330
C
100
AcDbDictionary
281
     1
  0
DICTIONARY
  5
17
102
{ACAD_REACTORS
330
C
102
}
330
C
100
AcDbDictionary
281
     1
  3
Standard
350
18
  0
DICTIONARY
  5
19
102
{ACAD_REACTORS
330
C
102
}
330
C
100
AcDbDictionary
281
     1
  0
ACDBDICTIONARYWDFLT
  5
E
102
{ACAD_REACTORS
330
C
102
}
330
C
100
AcDbDictionary
281
     1
  3
Normal
350
F
100
AcDbDictionaryWithDefault
340
F
  0
DICTIONARY
  5
E51
102
{ACAD_REACTORS
330
C
102
}
330
C
100
AcDbDictionary
281
     1
  3
A0
350
E52
  3
A1
350
E53
  3
A2
350
E54
  3
A3
350
E55
  3
A4
350
E56
  3
A5
350
E57
  3
A6
350
E58
  3
A7
350
E59
  3
A8
350
E5A
  3
A9
350
E5B
  3
B0
350
E5C
  3
B1
350
E5D
  3
B2
350
E5E
  3
B3
350
E5F
  3
B4
350
E60
  3
B5
350
E61
  3
B6
350
E62
  3
B7
350
E63
  3
B8
350
E64
  3
B9
350
E65
  3
C0
350
E66
  3
C1
350
E67
  3
C2
350
E68
  3
C3
350
E69
  3
C4
350
E6A
  3
C5
350
E6B
  3
C6
350
E6C
  3
C7
350
E6D
  3
C8
350
E6E
  3
C9
350
E6F
  3
D0
350
E70
  3
D1
350
E71
  3
D2
350
E72
  0
DICTIONARY
  5
2219
102
{ACAD_REACTORS
330
C
102
}
330
C
100
AcDbDictionary
281
     1
  3
CANNOSCALE
350
2222
  0
XRECORD
  5
2224
102
{ACAD_REACTORS
330
C
102
}
330
C
100
AcDbXrecord
280
     1
  1
DWGPROPS COOKIE
  2

  3

  4

  6

  7

  8
MARTIN
  9

300
=
301
=
302
=
303
=
304
=
305
=
306
=
307
=
308
=
309
=
 40
0.0
 41
2456184.833042431
 42
2456184.839822118
  1

 90
        0
  0
LAYOUT
  5
1C
102
{ACAD_REACTORS
330
1A
102
}
330
1A
100
AcDbPlotSettings
  1

  2
none_device
  4

  6

 40
0.0
 41
0.0
 42
0.0
 43
0.0
 44
0.0
 45
0.0
 46
0.0
 47
0.0
 48
0.0
 49
0.0
140
0.0
141
0.0
142
1.0
143
1.0
 70
   688
 72
     0
 73
     0
 74
     5
  7

 75
    16
147
1.0
148
0.0
149
0.0
100
AcDbLayout
  1
Layout1
 70
     1
 71
     1
 10
0.0
 20
0.0
 11
12.0
 21
9.0
 12
0.0
 22
0.0
 32
0.0
 14
1.000000000000E+20
 24
1.000000000000E+20
 34
1.000000000000E+20
 15
-1.000000000000E+20
 25
-1.000000000000E+20
 35
-1.000000000000E+20
146
0.0
 13
0.0
 23
0.0
 33
0.0
 16
1.0
 26
0.0
 36
0.0
 17
0.0
 27
1.0
 37
0.0
 76
     0
330
1B
  0
LAYOUT
  5
1E
102
{ACAD_REACTORS
330
1A
102
}
330
1A
100
AcDbPlotSettings
  1

  2
none_device
  4

  6

 40
0.0
 41
0.0
 42
0.0
 43
0.0
 44
0.0
 45
0.0
 46
0.0
 47
0.0
 48
0.0
 49
0.0
140
0.0
141
0.0
142
1.0
143
1.0
 70
  1712
 72
     0
 73
     0
 74
     0
  7

 75
     0
147
1.0
148
0.0
149
0.0
100
AcDbLayout
  1
Model
 70
     1
 71
     0
 10
0.0
 20
0.0
 11
12.0
 21
9.0
 12
0.0
 22
0.0
 32
0.0
 14
0.0
 24
0.24235
 34
0.0
 15
700.0
 25
299.75265
 35
0.0
146
0.0
 13
0.0
 23
0.0
 33
0.0
 16
1.0
 26
0.0
 36
0.0
 17
0.0
 27
1.0
 37
0.0
 76
     0
330
1D
331
E4C
  0
MLINESTYLE
  5
18
102
{ACAD_REACTORS
330
17
102
}
330
17
100
AcDbMlineStyle
  2
Standard
 70
     0
  3

 62
   256
 51
90.0
 52
90.0
 71
     2
 49
0.5
 62
   256
  6
BYLAYER
 49
-0.5
 62
   256
  6
BYLAYER
  0
ACDBPLACEHOLDER
  5
F
102
{ACAD_REACTORS
330
E
102
}
330
E
  0
SCALE
  5
E52
102
{ACAD_REACTORS
330
E51
102
}
330
E51
100
AcDbScale
 70
     0
300
1:1
140
1.0
141
1.0
290
     1
  0
SCALE
  5
E53
102
{ACAD_REACTORS
330
E51
102
}
330
E51
100
AcDbScale
 70
     0
300
1:2
140
1.0
141
2.0
290
     0
  0
SCALE
  5
E54
102
{ACAD_REACTORS
330
E51
102
}
330
E51
100
AcDbScale
 70
     0
300
1:4
140
1.0
141
4.0
290
     0
  0
SCALE
  5
E55
102
{ACAD_REACTORS
330
E51
102
}
330
E51
100
AcDbScale
 70
     0
300
1:5
140
1.0
141
5.0
290
     0
  0
SCALE
  5
E56
102
{ACAD_REACTORS
330
E51
102
}
330
E51
100
AcDbScale
 70
     0
300
1:8
140
1.0
141
8.0
290
     0
  0
SCALE
  5
E57
102
{ACAD_REACTORS
330
E51
102
}
330
E51
100
AcDbScale
 70
     0
300
1:10
140
1.0
141
10.0
290
     0
  0
SCALE
  5
E58
102
{ACAD_REACTORS
330
E51
102
}
330
E51
100
AcDbScale
 70
     0
300
1:16
140
1.0
141
16.0
290
     0
  0
SCALE
  5
E59
102
{ACAD_REACTORS
330
E51
102
}
330
E51
100
AcDbScale
 70
     0
300
1:20
140
1.0
141
20.0
290
     0
  0
SCALE
  5
E5A
102
{ACAD_REACTORS
330
E51
102
}
330
E51
100
AcDbScale
 70
     0
300
1:30
140
1.0
141
30.0
290
     0
  0
SCALE
  5
E5B
102
{ACAD_REACTORS
330
E51
102
}
330
E51
100
AcDbScale
 70
     0
300
1:40
140
1.0
141
40.0
290
     0
  0
SCALE
  5
E5C
102
{ACAD_REACTORS
330
E51
102
}
330
E51
100
AcDbScale
 70
     0
300
1:50
140
1.0
141
50.0
290
     0
  0
SCALE
  5
E5D
102
{ACAD_REACTORS
330
E51
102
}
330
E51
100
AcDbScale
 70
     0
300
1:100
140
1.0
141
100.0
290
     0
  0
SCALE
  5
E5E
102
{ACAD_REACTORS
330
E51
102
}
330
E51
100
AcDbScale
 70
     0
300
2:1
140
2.0
141
1.0
290
     0
  0
SCALE
  5
E5F
102
{ACAD_REACTORS
330
E51
102
}
330
E51
100
AcDbScale
 70
     0
300
4:1
140
4.0
141
1.0
290
     0
  0
SCALE
  5
E60
102
{ACAD_REACTORS
330
E51
102
}
330
E51
100
AcDbScale
 70
     0
300
8:1
140
8.0
141
1.0
290
     0
  0
SCALE
  5
E61
102
{ACAD_REACTORS
330
E51
102
}
330
E51
100
AcDbScale
 70
     0
300
10:1
140
10.0
141
1.0
290
     0
  0
SCALE
  5
E62
102
{ACAD_REACTORS
330
E51
102
}
330
E51
100
AcDbScale
 70
     0
300
100:1
140
100.0
141
1.0
290
     0
  0
SCALE
  5
E63
102
{ACAD_REACTORS
330
E51
102
}
330
E51
100
AcDbScale
 70
     0
300
1/128" = 1'-0"
140
0.0078125
141
12.0
290
     0
  0
SCALE
  5
E64
102
{ACAD_REACTORS
330
E51
102
}
330
E51
100
AcDbScale
 70
     0
300
1/64" = 1'-0"
140
0.015625
141
12.0
290
     0
  0
SCALE
  5
E65
102
{ACAD_REACTORS
330
E51
102
}
330
E51
100
AcDbScale
 70
     0
300
1/32" = 1'-0"
140
0.03125
141
12.0
290
     0
  0
SCALE
  5
E66
102
{ACAD_REACTORS
330
E51
102
}
330
E51
100
AcDbScale
 70
     0
300
1/16" = 1'-0"
140
0.0625
141
12.0
290
     0
  0
SCALE
  5
E67
102
{ACAD_REACTORS
330
E51
102
}
330
E51
100
AcDbScale
 70
     0
300
3/32" = 1'-0"
140
0.09375
141
12.0
290
     0
  0
SCALE
  5
E68
102
{ACAD_REACTORS
330
E51
102
}
330
E51
100
AcDbScale
 70
     0
300
1/8" = 1'-0"
140
0.125
141
12.0
290
     0
  0
SCALE
  5
E69
102
{ACAD_REACTORS
330
E51
102
}
330
E51
100
AcDbScale
 70
     0
300
3/16" = 1'-0"
140
0.1875
141
12.0
290
     0
  0
SCALE
  5
E6A
102
{ACAD_REACTORS
330
E51
102
}
330
E51
100
AcDbScale
 70
     0
300
1/4" = 1'-0"
140
0.25
141
12.0
290
     0
  0
SCALE
  5
E6B
102
{ACAD_REACTORS
330
E51
102
}
330
E51
100
AcDbScale
 70
     0
300
3/8" = 1'-0"
140
0.375
141
12.0
290
     0
  0
SCALE
  5
E6C
102
{ACAD_REACTORS
330
E51
102
}
330
E51
100
AcDbScale
 70
     0
300
1/2" = 1'-0"
140
0.5
141
12.0
290
     0
  0
SCALE
  5
E6D
102
{ACAD_REACTORS
330
E51
102
}
330
E51
100
AcDbScale
 70
     0
300
3/4" = 1'-0"
140
0.75
141
12.0
290
     0
  0
SCALE
  5
E6E
102
{ACAD_REACTORS
330
E51
102
}
330
E51
100
AcDbScale
 70
     0
300
1" = 1'-0"
140
1.0
141
12.0
290
     0
  0
SCALE
  5
E6F
102
{ACAD_REACTORS
330
E51
102
}
330
E51
100
AcDbScale
 70
     0
300
1-1/2" = 1'-0"
140
1.5
141
12.0
290
     0
  0
SCALE
  5
E70
102
{ACAD_REACTORS
330
E51
102
}
330
E51
100
AcDbScale
 70
     0
300
3" = 1'-0"
140
3.0
141
12.0
290
     0
  0
SCALE
  5
E71
102
{ACAD_REACTORS
330
E51
102
}
330
E51
100
AcDbScale
 70
     0
300
6" = 1'-0"
140
6.0
141
12.0
290
     0
  0
SCALE
  5
E72
102
{ACAD_REACTORS
330
E51
102
}
330
E51
100
AcDbScale
 70
     0
300
1'-0" = 1'-0"
140
12.0
141
12.0
290
     0
  0
DICTIONARYVAR
  5
2222
102
{ACAD_REACTORS
330
2219
102
}
330
2219
100
DictionaryVariables
280
     0
  1
1:1
  0
ENDSEC
  0
SECTION
  2
THUMBNAILIMAGE
 90
    16364
310
28000000B40000005500000001000800000000000000000000000000000000000000000000000000FFFFFF000000FF0000FFFF0000FF0000FFFF0000FF000000FF00FF000000000080808000C0C0C0000000FF007F7FFF000000A5005252A50000007F003F3F7F0000004C0026264C000000260013132600003FFF007F9FFF
310
000029A5005267A500001F7F003F4F7F0000134C00262F4C000009260013172600007FFF007FBFFF000052A500527CA500003F7F003F5F7F0000264C0026394C0000132600131C260000BFFF007FDFFF00007CA5005291A500005F7F003F6F7F0000394C0026424C00001C26001321260000FFFF007FFFFF0000A5A50052A5
310
A500007F7F003F7F7F00004C4C00264C4C00002626001326260000FFBF007FFFDF0000A57C0052A59100007F5F003F7F6F00004C3900264C420000261C001326210000FF7F007FFFBF0000A5520052A57C00007F3F003F7F5F00004C2600264C39000026130013261C0000FF3F007FFF9F0000A5290052A56700007F1F003F
310
7F4F00004C1300264C2F00002609001326170000FF00007FFF7F0000A5000052A55200007F00003F7F3F00004C0000264C260000260000132613003FFF00009FFF7F0029A5000067A552001F7F00004F7F3F00134C00002F4C260009260000172613007FFF0000BFFF7F0052A500007CA552003F7F00005F7F3F00264C0000
310
394C2600132600001C261300BFFF0000DFFF7F007CA5000091A552005F7F00006F7F3F00394C0000424C26001C26000021261300FFFF0000FFFF7F00A5A50000A5A552007F7F00007F7F3F004C4C00004C4C26002626000026261300FFBF0000FFDF7F00A57C0000A59152007F5F00007F6F3F004C3900004C422600261C00
310
0026211300FF7F0000FFBF7F00A5520000A57C52007F3F00007F5F3F004C2600004C39260026130000261C1300FF3F0000FF9F7F00A5290000A56752007F1F00007F4F3F004C1300004C2F26002609000026171300FF000000FF7F7F00A5000000A55252007F0000007F3F3F004C0000004C2626002600000026131300FF00
310
3F00FF7F9F00A5002900A55267007F001F007F3F4F004C0013004C262F002600090026131700FF007F00FF7FBF00A5005200A5527C007F003F007F3F5F004C0026004C2639002600130026131C00FF00BF00FF7FDF00A5007C00A55291007F005F007F3F6F004C0039004C26420026001C0026132100FF00FF00FF7FFF00A5
310
00A500A552A5007F007F007F3F7F004C004C004C264C002600260026132600BF00FF00DF7FFF007C00A5009152A5005F007F006F3F7F0039004C0042264C001C002600211326007F00FF00BF7FFF005200A5007C52A5003F007F005F3F7F0026004C0039264C00130026001C1326003F00FF009F7FFF002900A5006752A500
310
1F007F004F3F7F0013004C002F264C000900260017132600000000002D2D2D005B5B5B0089898900B7B7B700B3B3B30000000000000000000000000000000000000000000000000000000000000000000000000000000000000000000000000000000000000000000000000000000000000000000000000000000000000000
310
00000000000000000000000000000000000000000000000000000000000000000000000000000000000000000000000000000000000000000000000000000000000000000000000000000000000000000000000000000000000000000000000000000000000000000000000000000000000000000000000000000000000000
310
00000000000000000000000000000000000000000000000000000000000000000000000000000000000000000000000000000000000000000000000000000000000000000000000000000000000000000000000000000000000000000000000000000000000000000000000000000000000000000000000000000000000000
310
00000000000000000000000000000000000000000000000000000000000000000000000000000000000000000000000000000000000000000000000000000000000000000000000000000000000000000000000000000000000000000000000000000000000000000000000000000000000000000000000000000000000000
310
00000000000000000000000000000000000000000000000000000000000000000000000000000000000000000000000000000000000000000000000000000000000000000000000000000000000000000000000000000000000000000000000000000000000000000000000000000000000000000000000000000000000000
310
00000000000000000000000000000000000000000000000000000000000000000000000000000000000000000000000000000000000000000000000000000000000000000000000000000000000000000000000000000000000000000000000000000000000000000000000000000000000000000000000000000000000000
310
00000000000000000000000000000000000000000000000000000000000000000000000000000000000000000000000000000000000000000000000000000000000000000000000000000000000000000000000000000000000000000000000000000000000000000000000000000000000000000000000000000000000000
310
00000000000000000000000000000000000000000000000000000000000000000000000000000000000000000000000000000000000000000000000000000000000000000000000000000000000000000000000000000000000000000000000000000000000000000000000000000000000000000000000000000000000000
310
00000000000000000000000000000000000000000000000000000000000000000000000000000000000000000000000000000000000000000000000000000000000000000000000000000000000000000000000000000000000000000000000000000000000000000000000000000000000000000000000000000000000000
310
00000000000000000000000000000000000000000000000000000000000000000000000000000000000000000000000000000000000000000000000000000000000000000000000000000000000000000000000000000000000000000000000000000000000000000000000000000000000000000000000000000000000000
310
00000000000000000000000000000000000000000000000000000000000000000000000000000000000000000000000000000000000000000000000000000000000000000000000000000000000000000000000000000000000000000000000000000000000000000000000000000000000000000000000000000000000000
310
00000000000000000000000000000000000000000000000000000000000000000000000000000000000000000000000000000000000000000000000000000000000000000000000000000000000000000000000000000000000000000000000000000000000000000000000000000000000000000000000000000000000000
310
00000000000000000000000000000000070707070000000000000000000000000000000000000000000000000000000000000000000000000000000000000000000000000000000000000000000000000000000000000000000000000000000000000000000000000000000000000000000000000000000000000000000000
310
00000000000000000000000000000000000000000000000000000000000000000000000000000000000000000000000000000000000000000000000000000000000007070700000000070707000000000000000000000000000000000000000000000000000000000000000000000000000000000000000000000000000000
310
00000000000000000000000000000000000000000000000000000000000000000000000000000000000000000000000000000000000000000000000000000000000000000000000000000000000000000000000000000000000000000000000000000000000000000000000000000000000000000007070000000707070700
310
00000707000000000000000000000000000000000000000000000000000000000000000000000000000000000000000000000000000000000000000000000000000000000000000000000000000000000000000000000000000000000000000000000000000000000000000000000000000000000000000000000000000000
310
00000000000000000000000000000000000000000000000000000000000000000000000000000000000007000007070707070707070707000007000000000000000000000000000000000000000000000000000000000000000000000000000000000000000000000000000000000000000000000000000707070707070700
310
00000000000000000000000000000000000000000000000000000000000000000000000000000000000000000000000000000000000000000000000000000000000000000000000000000000000000000000000000000000000000000000070007070000000000000000000007070007000000000000000000000000000000
310
00000000000000000000000000000000000000000000000000000000000000000000000000000000000000000707000000000007000000000000000000000000000000000000000000000000000000000000000000000000000000000000000000000000000000000000000000000000000000000000000000000000000000
310
00000000000000000000000000000000000000070007070000000000000000000000000707000700000000000000000000000000000000000000000000000000000000000000000000000000000000000000000000000000000000000000000000070000000000000007000000000000000000000000000000000000000000
310
00000000000000000000000000000000000000000000000000000000000000000000000000000000000000000000000000000000000000000000000000000000000000000000000700070000000000000000000000000000000007070000000000000000000000000000000000000000000000000000000000000000000000
310
00000000000000000000000000000000000000000000000700000000000000070000000000000000000000000000000000000000000000000000000000000000000000000000000000000000000000000000000000000000000000000000000000000000000000000000000000000000000000000000000000000000070700
310
00000000000000000000000000000000070707000000000000000000000000000000000000000000000000000000000000000000000000000000000000000000000000000000000000000000070000000000000007000000000000000000000000000000000000000000000000000000000000000000000000000000000000
310
00000000000000000000000000000000000000000000000000000000000000000000000000000000000000000000000000000707000000000000000000000000000000000000070700000000000000000000000000000000000000000000000000000000000000000000000000000000000000000000000000000000000000
310
00070000000000000000070000000000000000000000000000000000000000000000000000000000000000000000000000000000000000000000000000000000000000000000000000000000000000000000000000000000000000000000000000000000000007070000000000000000000000000000000000000000070000
310
00000000000000000000000000000000000000000000000000000000000000000000000000000000000000000000000000000000000007000000000000000000000000000000000000000000000000000000000000000000000000000000000000000000000000000000000000000000000000000000000000000000000000
310
00000000000000000000000000000000000000000000000000000000070700000000000000000000000000000000000000000707000000000000000000000000000000000000000000000000000000000000000000000000000000000000000000000000000000000000000700000000000000000700000000000000000000
310
00000000000000000000000000000000000000000000000000000000000000000000000000000000000000000000000000000000000000000000000000000000000000000000000000000000000000000007070000000000000000000000000000000000000000070700000000000000000000000000000000000000000000
310
00000000000000000000000000000000000000000000000000000000000000000007000000000000000007000000000000000000000000000000000000000000000000000000000000000000000000000000000000000000000000000000000000000000000000000000000000000000000000000000000000000000000000
310
00000000000000070700000000000000000000000000000000000000000007000000000000000000000000000000000000000000000000000000000000000000000000000000000000000000000000000000000000000700000000000000000700000000000000000000000000000000000000000000000000000000000000
310
00000000000000000000000000000000000000000000000000000000000000000000000000000000000000000000000000000000000000000000000007070000000000000000000000000000000000000000070000000000000000000000000000000000000000000000000000000000000000000000000000000000000000
310
00000000000000000000000007000000000000000007000000000000000000000000000000000000000000000000000000000000000000000000000000000000000000000000000000000000000000000000000000000000000000000000000000000000000000000000000000000000000707000000000000000000000000
310
00000000000000000700000000000000000000000000000000000000000000000000000000000000000000000000000000000000000000000000000000000000000700000000000000000700000000000000000000000000000000000000000000000000000000000000000000000000000000000000000000000000000000
310
00000000000000000000000000000000000000000000000000000000000000000000000000000000070000000000000000000000000000000000000000070000000000000000000000000000000000000000000000000000000000000000000000000000000000000000000000000000000000000000070000000000000000
310
07000000000000000000000000000000000000000000000000000000000000000000000000000000000000000000000000000000000000000000000000000000000000000000000000000000000000000000000000000000000000000007000000000000000000000000000000000000000007000000000000000000000000
310
00000000000000000000000000000000000000000000000000000000000000000000000000000000000000000700000000000000000700000000000000000000000000000000000000000000000000000000000000000000000000000000000000000000000000000000000000000000000000000000000000000000000000
310
00000000000000000000000000000000000000000700000000000000000000000000000000000007000000000000000000000000000000000000000000000000000000000000000000000000000000000000000000000000000000000000000000070000000000000000070000000000000000000000000000000000000000
310
00000000000000000000000000000000000000000000000000000000000000000000000000000000000000000000000000000000000000000000000000000000000000000000000000000700000000000000000000000000000000070000000000000000000000000000000000000000000000000000000000000000000000
310
00000000000000000000000000000000000000000000000700000000000000000700000000000000000000000000000000000000000000000000000000000000000000000000000000000000000000000000000000000000000000000000000000000000000000000000000000000000000000000000000000000000000000
310
00070000000000000000000000000000070000000000000000000000000000000000000000000000000000000000000000000000000000000000000000000000000000000000000000000007000000000000000000070000000000000000000000000000000000000000000000000000000000000000000000000000000000
310
00000000000000000000000000000000000000000000000000000000000000000000000000000000000000000000000000000000000000070000000000000000000000000700000000000000000000000000000000000000000000000000000000000000000000000000000000000000000000000000000000000000000000
310
00070000000000000000000700000000000000000000000000000000000000000000000000000000000000000000000000000000000000000000000000000000000000000000000000000000000000000000000000000000000000000000000000000000000000000000000000070000000000000000000007000000000000
310
00000000000000000000000000000000000000000000000000000000000000000000000000000000000000000000000000000000000000000000000000000000070000000000000000000000000000000000000000000000000000000000000000000000000000000000000000000000000000000000000000000000000007
310
07070707070707070707070707070707070707070707070707070707070707070707070707070707070707070707070707070707070707070707070707070707070707070707070707070707070707070707070707070707070707070707070707070707070707070707070700000000000000000007070707070707070707
310
07070707070707070707070707070707070707070707070707070707070000000000000000000000000000000000000000000000070007070700000000000000000000000000000000000000000000000000000000000000000000000700000700000000000000000000000000000000000000000000000000000000000000
310
00000000000000000000000000000000000000000000000000000000000000000007000000000000000000070000000000000000000000000000000000000000000000000000000000000000000707070007000000000000000000000000000000000000000000000007000000000707070000000000000000000000000000
310
00000000000000000000000000000000000707000007070000000000000000000000000000000000000000000000000000000000000000000000000000000000000000000000000000000000000000000000000000000700000000000000000007000000000000000000000000000000000000000000000000000000000000
310
07070700000000070000000000000000000000000000000000000000000000070000000000000007070700000000000000000000000000000000000000000000000000000000070707070707000000000000000000000000000000000000000000000000000000000000000000000000000000000000000000000000000000
310
00000000000000000000000007000000000000000000070000000000000000000000000000000000000000000000000000000707070000000000000007000000000000000000000000000000000000000000000007000000000000000000000707070000000000000000000000000000000000000000000000000007000700
310
00070000000000000000000000000000000000000000000000000000000000000000000000000000000000000000000000000000000000000000000000000000000700000000000000000007000000000000000000000000000000000000000000000000070707000000000000000000000700000000000000000000000000
310
00000000000000000000070000000000000000000000000007070700000000000000000000000000000000000000000000070000000007000000000000000000000000000000000000000000000000000000000000000000000000000000000000000000000000000000000000000000000000000007000000000000000000
310
00070000000000000000000000000000000000000000000707070000000000000000000000000007000000000000000000000000000000000000000000000007000000000000000000000000000000000707070000000000000000000000000000000000000007000000000700000000000000000000000000000000000000
310
00000000000000000000000000000000000000000000000000000000000000000000000000000000000000070000000000000000000007000000000000000000000000000000000000070707000000000000000000000000000000000700000000000000000000000000000000000000000000000700000000000000000000
310
00000000000000000007070700000000000000000000000000000000070000000007000000000000000000000000000000000000000000000000000000000000000000000000000000000000000000000000000000000000000000000000000007000000000000000000000700000000000000000000000000000007070700
310
00000000000000000000000000000000000007000000000000000000000000000000000000000000000007000000000000000000000000000000000000000000000707070000000000000000000000000007000000000700000000000000000000000000000000000000000000000000000000000000000000000000000000
310
00000000000000000000000000000000000000000000070000000000000000000007000000000000000000000000070707000000000000000000000000000000000000000000000700000000000000000000000000000000000000000000000700000000000000000000000000000000000000000000000000070707000000
310
00000000000000070000000007000000000000000000000000000000000000000000000000000000000000000000000000000000000000000000000000000000000000000000000000000007000000000000000000000700000000000000000007070700000000000000000000000000000000000000000000000000070000
310
00000000000000000000000000000000000000000007000000000000000000000000000000000000000000000000000000000707070000000000000007000000000700000000000000000000000000000000000000000000000000000000000000000000000000000000000000000000000000000000000000000000000000
310
00070000000000000000000007000000000000070707000000000000000000000000000000000000000000000000000000000700000000000000000000000000000000000000000000000700000000000000000000000000000000000000000000000000000000000000070707070707070700000000070707070707070707
310
07070707070707070707070707070707070707070707070707070707070707070707070707070707070707070707070707070707070707000000000000000000000707070707070700000000000000000000000000000000000000000000000000000000000000070000000000000000000000000000000000000000000000
310
07000000000000000000000000000000000000000000000000000000000000000007000000000007000000000700000000000000000000000000000000000000000000000000000000000000000000000000000000000000000000000000000000000000000000000000070000000000000000000000070000000007000000
310
00000000000000000000000000000000000000000000000000000000000700000000000000000000000000000000000000000000000700000000000000000000000000000000000000000000000000000000000000000700000000000700000000070000000000000000000000000000000000000000000000000000000000
310
00000000000000000000000000000000000000000000000000000000000000000700000000000000000000000700000000070000000000000000000000000000000000000000000000000000000000000000070000000000000000000000000000000000000000000000070000000000000000000000000000000000000000
310
00000000000000000000000007000000000007000000000700000000000000000000000000000000000000000000000000000000000000000000000000000000000000000000000000000000000000000000000000070000000000000000000000070000000007000000000000000000000000000000000000000000000000
310
00000000000000000700000000000000000000000000000000000000000000000700000000000000000000000000000000000000000000000000000000000000000700000000070700000000070700000000000000000000000000000000000000000000000000000000000000000000000000000000000000000000000000
310
00000000000000000000000700000000000000000000000700000000070000000000000000000000000000000000000000000000000000000000000000070000000000000000000000000000000000000000000000070000000000000000000000000000000000000000000000000000000000000000070000000007070000
310
00000707000000000000000000000000000000000000000000000000000000000000000000000000000000000000000000000000000000000000000000000000070000000000000000000000070000000007000000000000000000000000000000000000000000000000000000000000000007000000000000000000000000
310
00000000000000000000000700000000000000000000000000000000000000000000000000000000000000000700000000070707000007070700000000000000000000000000000000000000000000000000000000000000000000000000000000000000000000000000000000000000000000000007000000000000000000
310
00000700000000070000000000000000000000000000000000000000000000000000000000000000070000000000000000000000000000000000000000000000070000000000000000000000000000000000000000000000000000000000000000070000000007070007070007070000000000000000000000000000000000
310
00070707000000000000000000000000000000000000000000000707070000000000000000000000000000070000000000000000000000070000000007000000000000000000000000000000000000000000000000000000000000000007000000000000000000000000000000000000000000000007000000000000000000
310
00000000000000000000000000000000000000000000000700000007070007070007000707000000000000000000000000000000000707070707070707000000000000000000000000000000000707070707070707000000000000000000000000070000000000070707070007070000000700000000000000000000000000
310
00000000000000000000000000000000000000070000000000000000000000000000000000000000000000070000000000000000000000000000000000000000000000000000000000000000070000070707000000000000070707000000000000000000000000000707070700000707000007000000000000000000000000
310
00070700070700000707000700000000000000000000000700000007070000000707070707000007000000000000000000000000000000000000000000000000000000000000000007000000000000000000000000000000000000000000000007000000000000000000000000000000000000000000000000000000000000
310
00000700070707070707000007070707070000000000000000000000000700070700000000000707070000000000000000000000000700070700000000000707070000000000000000000000070000070000000000000000070700000700000000000000000000000000000000000000000000000000000000000000000700
310
00000000000000000000000000000000000000000000070000000000000000000000000000000000000000000000000000000000000000070007070707000707000700070707070000000000000000000000070707070000000000070707070000000000000000000000070707070000000000070707070000000000000000
310
00000700070700000000000007070707070007000000000000000000000000000000000000000000000000000000000000000007000000000000000000000000000000000000000000000007000000000000000000000000000000000000000000000000000000000000000007070707000700000000000007000707070000
310
00000000000000070707070000000000000007070007070707070707070707070007070000000000000007070707070700000000000000070707000000000007070000000007000700000000000000000000000000000000000000000000000000000000000000000700000000000000000000000000000000000000000000
310
00070000000000000000000000000000000000000000000000000000000000000000070707070007000000000000070007070707070707070707070707070707000000000000000707070707000000000000000707070707000000000000000707070707070707070707070707070700000000000700000000000707070000
310
00000000000000000000000000000000000000000000000000000000000007000000000000000000000000000000000000000000000007000000000000000000000000000000000000000000000000000000000000000007070700000700000000000007000007070700000000000007070007070000000000000000070707
310
07070700000000000707000707070000000000000000070707000700000000000007070007070000000700000000000000070700000000000000000000000000000000000000000000000000000000000000000700000000000000000000000000000000000000000000000700000000000000000000000000000000000000
310
00000000000000000000000000070707000007000000000000070000070700000000000000070700070700000000000000000007070707000000000000070700070700000000000000000007070707070000000000000707000707000000070000000000000007070000000000000000000000000000000000000000000000
310
00000000000000000007000000000000000000000000000000000000000000000007000000000000000000000000000000000000000000000000000000000000000007070700000700000000000700000007070700000000000007070007070000000000000000000707070707000000000007070007070000000000000000
310
00070707000700000000000007070007000700070000000000000000070700000000000000000000000000000000000000000000000000000000000000000700000000000000000000000000000000000000000000000700000000000000000000000000000000000000000000000000000000000000000707070700000700
310
00000007000007070707070707070707070707070700000000000000000707070707000000000000000707070707000000000000000007070707070707070707070707000700000707070000000000000707070000000000000000000000000000000000000000000000000000000000000000070000000000000000000000
310
00000000000000000000000007000000000000000000000000000000000000000000000000000000000000000007070707000007070707070000000707070000000000000000000707070700000000000000070700070707070707070707070700070700000000000000070707070000000000000000000707000700000007
310
00000000000707070700000000000000000000000000000000000000000000000000000000000000000700000000000000000000000000000000000000000000000700000000000000000000000000000000000000000000000000000000000000000700070707000000000000000007070700000000000000000000000707
310
07000000000000070707070000000000000000000000070707070000000000000707070000000000000000000000070007070000070707000707070700070000000000000000000000000000000000000000000000000000000000000000070000000000000000000000000000000000000000000000070000000000000000
310
00000000000000000000000000000000000000000000000007000707070707000000000707070707000000000000000000000007000707070000070707070700000000000000000000000007000707070700000707070700000000000000000000000007070007070707070707070007070007000000000000000000000000
310
00000000000000000000000000000000000000000700000000000000000000000000000000000000000000000700000000000000000000000000000000000000000000000000000000000000000700000707070707070707070707000000000000000000000000000007000707070707070000070000000000000000000000
310
00000707000707070707070007000000000000000000000000000707070007070707000007000000070000000000000000000000000000000000000000000000000000000000000000070000000000000000000000000000000000000000000000070000000000000000000000000000000000000000000000000000000000
310
00000007000000070707070700070707000000000000000000000000000000000707000000000707070000000000000000000000000000000007070000000707070000000000000000000000000000000007070707070707070000000007000000000000000000000000000000000000000000000000000000000000000007
310
00000000000000000000000000000000000000000000000700000000000000000000000000000000000000000000000000000000000000070707070707070707070707070707070707070707070707070707070707070707070707070707070707070707070707070707070707070707070707070707070707070707070707
310
07070707070707070707070707070707070707070700000000000000000000000000000000000000000000000000000000000000070000000000000000000000000000000000000000000000070000000000000000000000000000000000000000000000000000000007070700000000000000000000000000000000000000
310
00000000000000000000000000000000000000000000000000000000000000000000000000000000000000000000000000000000000000000000000000000007070000000000000000000707070000000000000000000000000000000000000000000000000000000007000000000000000000000000000000000000000000
310
00000700000000000000000000000000000000000000000000000000070707000000000000000000000000000000000000000000000000000000000000000000000000000000000000000000000000000000000000000000000000000000000000000000000000000000000000000000000000000000000000000000000000
310
00000007070700000000000000000000000000000000000000000000000000070000000000000000000000000000000000000000000000070000000000000000000000000000000000000000000007070700000000000000000000000000000000000000000000000000000000000000000000000000000000000000000000
310
00000000000000000000000000000000000000000000000000000000000000000000000000000000000000000000000000000000000000000000000707070000000000000000000000000000000000000000000007000000000000000000000000000000000000000000000007000000000000000000000000000000000000
310
00070707000000000000000000000000000000000000000000000000000000000000000000000000000000000000000000000000000000000000000000000000000000000000000000000000000000000000000000000000000000000000000000000000000000000000000000000000000000070707000000000000000000
310
00000000000000000000070000000000000000000000000000000000000000000000070000000000000000000000000000000007070700000000000000000000000000000000000000000000000000000000000000000000000000000000000000000000000000000000000000000000000000000000000000000000000000
310
00000000000000000000000000000000000000000000000000000000000000000000000000000000000000000707070000000000000000000000000000000007000000000000000000000000000000000000000000000007000000000000000000000000000707070000000000000000000000000000000000000000000000
310
00000000000000000000000000000000000000000000000000000000000000000000000000000000000000000000000000000000000000000000000000000000000000000000000000000000000000000000000000000000000000000000000000000000070707000000000000000000000000000700000000000000000000
310
00000000000000000000000000070000000000000000000007070700000000000000000000000000000000000000000000000000000000000000000000000000000000000000000000000000000000000000000000000000000000000000000000000000000000000000000000000000000000000000000000000000000000
310
00000000000000000000000000000000000000000000000000000000000707070000000000000000000007000000000000000000000000000000000000000000000007000000000000000707070000000000000000000000000000000000000000000000000000000000000000000000000000000000000000000000000000
310
00000000000000000000000000000000000000000000000000000000000000000000000000000000000000000000000000000000000000000000000000000000000000000000000000000000000000000000000000070707000000000000000700000000000000000000000000000000000000000000000700000000070707
310
00000000000000000000000000000000000000000000000000000000000000000000000000000000000000000000000000000000000000000000000000000000000000000000000000000000000000000000000000000000000000000000000000000000000000000000000000000000000000000000000000000000000000
310
00000000000000000000000000000707070000000007000000000000000000000000000000000000000000000007000707070000000000000000000000000000000000000000000000000000000000000000000000000000000000000000000000000000000000000000000000000000000000000000000000000000000000
310
00000000000000000000000000000000000000000000000000000000000000000000000000000000000000000000000000000000000000000000000000000000000000000000070707000700000000000000000000000000000000000000000000000707070707070707070707070707070707070707070707070707070707
310
07070707070707070707070707070707070707070707070707070707070707070707070707070707070707070707070707070707070707070707070707070707070707070707070707070707070707070707070707070707070707070707070707070707070707070707070707070707070707070707070707070707070707
310
07000000000000000000000000000000000000000000000000000000000000000000000000000000000000000000000000000000000000000000000000000000000000000000000000000000000000000000000000000000000000000000000000000000000000000000000000000000000000000000000000000000000000
310
00000000000000000000000000000000000000000000000000000000000000000000000000000000000000000000000000000000000000000000000000000000000000000000000000000000000000000000000000000000000000000000000000000000000000000000000000000000000000000000000000000000000000
310
00000000000000000000000000000000000000000000000000000000000000000000000000000000000000000000000000000000000000000000000000000000000000000000000000000000000000000000000000000000000000000000000000000000000000000000000000000000000000000000000000000000000000
310
00000000000000000000000000000000000000000000000000000000000000000000000000000000000000000000000000000000000000000000000000000000000000000000000000000000000000000000000000000000000000000000000000000000000000000000000000000000000000000000000000000000000000
310
00000000000000000000000000000000000000000000000000000000000000000000000000000000000000000000000000000000000000000000000000000000000000000000000000000000000000000000000000000000000000000000000000000000000000000000000000000000000000000000000000000000000000
310
00000000000000000000000000000000000000000000000000000000000000000000000000000000000000000000000000000000000000000000000000000000000000000000000000000000000000000000000000000000000000000000000000000000000000000000000000000000000000000000000000000000000000
310
00000000000000000000000000000000000000000000000000000000000000000000000000000000000000000000000000000000000000000000000000000000000000000000000000000000000000000000000000000000000000000000000000000000000000000000000000000000000000000000000000000000000000
310
00000000000000000000000000000000000000000000000000000000000000000000000000000000000000000000000000000000000000000000000000000000000000000000000000000000000000000000000000000000000000000000000000000000000000000000000000000000000000000000000000000000000000
310
00000000000000000000000000000000000000000000000000000000000000000000000000000000000000000000000000000000000000000000000000000000000000000000000000000000000000000000000000000000000000000000000000000000000000000000000000000000000000000000000000000000000000
310
00000000000000000000000000000000000000000000000000000000000000000000000000000000000000000000000000000000000000000000000000000000000000000000000000000000000000000000000000000000000000000000000000000000000000000000000000000000000000000000000000000000000000
310
00000000000000000000000000000000000000000000000000000000000000000000000000000000000000000000000000000000000000000000000000000000000000000000000000000000000000000000000000000000000000000000000000000000000000000000000000000000000000000000000000000000000000
310
00000000000000000000000000000000000000000000000000000000000000000000000000000000000000000000000000000000000000000000000000000000000000000000000000000000000000000000000000000000000000000000000000000000000000000000000000000000000000000000000000000000000000
310
000000000000000000000000000000000000000000000000000000000000000000000000000000000000000000000000000000000000000000000000000000000000000000000000000000000000000000000000000000000000000000000000000000000000000000000000
  0
ENDSEC
  0
EOF
