  0
SECTION
  2
HEADER
  9
$ACADVER
  1
AC1015
  9
$ACADMAINTVER
 70
     6
  9
$DWGCODEPAGE
  3
ANSI_1252
  9
$INSBASE
 10
0.0
 20
0.0
 30
0.0
  9
$EXTMIN
 10
0.26835
 20
0.024
 30
0.0
  9
$EXTMAX
 10
299.75265
 20
913.036980524523
 30
0.0
  9
$LIMMIN
 10
0.0
 20
0.0
  9
$LIMMAX
 10
12.0
 20
9.0
  9
$ORTHOMODE
 70
     0
  9
$REGENMODE
 70
     1
  9
$FILLMODE
 70
     1
  9
$QTEXTMODE
 70
     0
  9
$MIRRTEXT
 70
     1
  9
$LTSCALE
 40
1.0
  9
$ATTMODE
 70
     1
  9
$TEXTSIZE
 40
0.2
  9
$TRACEWID
 40
0.05
  9
$TEXTSTYLE
  7
Standard
  9
$CLAYER
  8
0
  9
$CELTYPE
  6
ByBlock
  9
$CECOLOR
 62
   256
  9
$CELTSCALE
 40
1.0
  9
$DISPSILH
 70
     0
  9
$DIMSCALE
 40
1.0
  9
$DIMASZ
 40
0.18
  9
$DIMEXO
 40
0.0625
  9
$DIMDLI
 40
0.38
  9
$DIMRND
 40
0.0
  9
$DIMDLE
 40
0.0
  9
$DIMEXE
 40
0.18
  9
$DIMTP
 40
0.0
  9
$DIMTM
 40
0.0
  9
$DIMTXT
 40
0.18
  9
$DIMCEN
 40
0.09
  9
$DIMTSZ
 40
0.0
  9
$DIMTOL
 70
     0
  9
$DIMLIM
 70
     0
  9
$DIMTIH
 70
     1
  9
$DIMTOH
 70
     1
  9
$DIMSE1
 70
     0
  9
$DIMSE2
 70
     0
  9
$DIMTAD
 70
     0
  9
$DIMZIN
 70
     0
  9
$DIMBLK
  1

  9
$DIMASO
 70
     1
  9
$DIMSHO
 70
     1
  9
$DIMPOST
  1

  9
$DIMAPOST
  1

  9
$DIMALT
 70
     0
  9
$DIMALTD
 70
     2
  9
$DIMALTF
 40
25.4
  9
$DIMLFAC
 40
1.0
  9
$DIMTOFL
 70
     0
  9
$DIMTVP
 40
0.0
  9
$DIMTIX
 70
     0
  9
$DIMSOXD
 70
     0
  9
$DIMSAH
 70
     0
  9
$DIMBLK1
  1

  9
$DIMBLK2
  1

  9
$DIMSTYLE
  2
Standard
  9
$DIMCLRD
 70
     0
  9
$DIMCLRE
 70
     0
  9
$DIMCLRT
 70
     0
  9
$DIMTFAC
 40
1.0
  9
$DIMGAP
 40
0.09
  9
$DIMJUST
 70
     0
  9
$DIMSD1
 70
     0
  9
$DIMSD2
 70
     0
  9
$DIMTOLJ
 70
     1
  9
$DIMTZIN
 70
     0
  9
$DIMALTZ
 70
     0
  9
$DIMALTTZ
 70
     0
  9
$DIMUPT
 70
     0
  9
$DIMDEC
 70
     4
  9
$DIMTDEC
 70
     4
  9
$DIMALTU
 70
     2
  9
$DIMALTTD
 70
     2
  9
$DIMTXSTY
  7
Standard
  9
$DIMAUNIT
 70
     0
  9
$DIMADEC
 70
     0
  9
$DIMALTRND
 40
0.0
  9
$DIMAZIN
 70
     0
  9
$DIMDSEP
 70
    46
  9
$DIMATFIT
 70
     3
  9
$DIMFRAC
 70
     0
  9
$DIMLDRBLK
  1

  9
$DIMLUNIT
 70
     2
  9
$DIMLWD
 70
    -2
  9
$DIMLWE
 70
    -2
  9
$DIMTMOVE
 70
     2
  9
$LUNITS
 70
     2
  9
$LUPREC
 70
     4
  9
$SKETCHINC
 40
0.1
  9
$FILLETRAD
 40
0.5
  9
$AUNITS
 70
     0
  9
$AUPREC
 70
     0
  9
$MENU
  1
.
  9
$ELEVATION
 40
0.0
  9
$PELEVATION
 40
0.0
  9
$THICKNESS
 40
0.0
  9
$LIMCHECK
 70
     0
  9
$CHAMFERA
 40
0.5
  9
$CHAMFERB
 40
0.5
  9
$CHAMFERC
 40
1.0
  9
$CHAMFERD
 40
0.0
  9
$SKPOLY
 70
     0
  9
$TDCREATE
 40
2456184.896852651
  9
$TDUCREATE
 40
2456184.813519317
  9
$TDUPDATE
 40
2456184.898607025
  9
$TDUUPDATE
 40
2456184.815273692
  9
$TDINDWG
 40
0.0014787847
  9
$TDUSRTIMER
 40
0.0014787847
  9
$USRTIMER
 70
     1
  9
$ANGBASE
 50
0.0
  9
$ANGDIR
 70
     0
  9
$PDMODE
 70
     0
  9
$PDSIZE
 40
0.0
  9
$PLINEWID
 40
0.0
  9
$SPLFRAME
 70
     0
  9
$SPLINETYPE
 70
     6
  9
$SPLINESEGS
 70
     8
  9
$HANDSEED
  5
FF3
  9
$SURFTAB1
 70
     6
  9
$SURFTAB2
 70
     6
  9
$SURFTYPE
 70
     6
  9
$SURFU
 70
     6
  9
$SURFV
 70
     6
  9
$UCSBASE
  2

  9
$UCSNAME
  2

  9
$UCSORG
 10
0.0
 20
0.0
 30
0.0
  9
$UCSXDIR
 10
1.0
 20
0.0
 30
0.0
  9
$UCSYDIR
 10
0.0
 20
1.0
 30
0.0
  9
$UCSORTHOREF
  2

  9
$UCSORTHOVIEW
 70
     0
  9
$UCSORGTOP
 10
0.0
 20
0.0
 30
0.0
  9
$UCSORGBOTTOM
 10
0.0
 20
0.0
 30
0.0
  9
$UCSORGLEFT
 10
0.0
 20
0.0
 30
0.0
  9
$UCSORGRIGHT
 10
0.0
 20
0.0
 30
0.0
  9
$UCSORGFRONT
 10
0.0
 20
0.0
 30
0.0
  9
$UCSORGBACK
 10
0.0
 20
0.0
 30
0.0
  9
$PUCSBASE
  2

  9
$PUCSNAME
  2

  9
$PUCSORG
 10
0.0
 20
0.0
 30
0.0
  9
$PUCSXDIR
 10
1.0
 20
0.0
 30
0.0
  9
$PUCSYDIR
 10
0.0
 20
1.0
 30
0.0
  9
$PUCSORTHOREF
  2

  9
$PUCSORTHOVIEW
 70
     0
  9
$PUCSORGTOP
 10
0.0
 20
0.0
 30
0.0
  9
$PUCSORGBOTTOM
 10
0.0
 20
0.0
 30
0.0
  9
$PUCSORGLEFT
 10
0.0
 20
0.0
 30
0.0
  9
$PUCSORGRIGHT
 10
0.0
 20
0.0
 30
0.0
  9
$PUCSORGFRONT
 10
0.0
 20
0.0
 30
0.0
  9
$PUCSORGBACK
 10
0.0
 20
0.0
 30
0.0
  9
$USERI1
 70
     0
  9
$USERI2
 70
     0
  9
$USERI3
 70
     0
  9
$USERI4
 70
     0
  9
$USERI5
 70
     0
  9
$USERR1
 40
0.0
  9
$USERR2
 40
0.0
  9
$USERR3
 40
0.0
  9
$USERR4
 40
0.0
  9
$USERR5
 40
0.0
  9
$WORLDVIEW
 70
     1
  9
$SHADEDGE
 70
     3
  9
$SHADEDIF
 70
    70
  9
$TILEMODE
 70
     1
  9
$MAXACTVP
 70
    64
  9
$PINSBASE
 10
0.0
 20
0.0
 30
0.0
  9
$PLIMCHECK
 70
     0
  9
$PEXTMIN
 10
1.000000000000E+20
 20
1.000000000000E+20
 30
1.000000000000E+20
  9
$PEXTMAX
 10
-1.000000000000E+20
 20
-1.000000000000E+20
 30
-1.000000000000E+20
  9
$PLIMMIN
 10
0.0
 20
0.0
  9
$PLIMMAX
 10
12.0
 20
9.0
  9
$UNITMODE
 70
     0
  9
$VISRETAIN
 70
     1
  9
$PLINEGEN
 70
     0
  9
$PSLTSCALE
 70
     1
  9
$TREEDEPTH
 70
  3020
  9
$CMLSTYLE
  2
Standard
  9
$CMLJUST
 70
     0
  9
$CMLSCALE
 40
1.0
  9
$PROXYGRAPHICS
 70
     1
  9
$MEASUREMENT
 70
     0
  9
$CELWEIGHT
370
    -1
  9
$ENDCAPS
280
     0
  9
$JOINSTYLE
280
     0
  9
$LWDISPLAY
290
     0
  9
$INSUNITS
 70
     0
  9
$HYPERLINKBASE
  1

  9
$STYLESHEET
  1

  9
$XEDIT
290
     1
  9
$CEPSNTYPE
380
     0
  9
$PSTYLEMODE
290
     1
  9
$FINGERPRINTGUID
  2
{4DADB6F6-186E-468D-B12C-8ED54AFF5B8B}
  9
$VERSIONGUID
  2
{FAEB1C32-E019-11D5-929B-00C0DF256EC4}
  9
$EXTNAMES
290
     1
  9
$PSVPSCALE
 40
0.0
  9
$OLESTARTUP
290
     0
  0
ENDSEC
  0
SECTION
  2
CLASSES
  0
CLASS
  1
ACDBDICTIONARYWDFLT
  2
AcDbDictionaryWithDefault
  3
ObjectDBX Classes
 90
        0
280
     0
281
     0
  0
CLASS
  1
SCALE
  2
AcDbScale
  3
ObjectDBX Classes
 90
     1153
280
     0
281
     0
  0
CLASS
  1
DICTIONARYVAR
  2
AcDbDictionaryVar
  3
ObjectDBX Classes
 90
        0
280
     0
281
     0
  0
CLASS
  1
ACDBPLACEHOLDER
  2
AcDbPlaceHolder
  3
ObjectDBX Classes
 90
        0
280
     0
281
     0
  0
CLASS
  1
LAYOUT
  2
AcDbLayout
  3
ObjectDBX Classes
 90
        0
280
     0
281
     0
  0
ENDSEC
  0
SECTION
  2
TABLES
  0
TABLE
  2
VPORT
  5
8
330
0
100
AcDbSymbolTable
 70
     1
  0
VPORT
  5
9EA
330
8
100
AcDbSymbolTableRecord
100
AcDbViewportTableRecord
  2
*Active
 70
     0
 10
0.0
 20
0.0
 11
1.0
 21
1.0
 12
149.876325
 22
456.518490262261
 13
0.0
 23
0.0
 14
0.5
 24
0.5
 15
0.5
 25
0.5
 16
0.0
 26
0.0
 36
1.0
 17
0.0
 27
0.0
 37
0.0
 40
931.297720135013
 41
1.863448275862
 42
50.0
 43
0.0
 44
0.0
 50
0.0
 51
0.0
 71
    16
 72
   100
 73
     1
 74
     3
 75
     0
 76
     0
 77
     0
 78
     0
281
     0
 65
     1
110
0.0
120
0.0
130
0.0
111
1.0
121
0.0
131
0.0
112
0.0
122
1.0
132
0.0
 79
     0
146
0.0
  0
ENDTAB
  0
TABLE
  2
LTYPE
  5
5
330
0
100
AcDbSymbolTable
 70
     1
  0
LTYPE
  5
14
330
5
100
AcDbSymbolTableRecord
100
AcDbLinetypeTableRecord
  2
ByBlock
 70
     0
  3

 72
    65
 73
     0
 40
0.0
  0
LTYPE
  5
15
330
5
100
AcDbSymbolTableRecord
100
AcDbLinetypeTableRecord
  2
ByLayer
 70
     0
  3

 72
    65
 73
     0
 40
0.0
  0
LTYPE
  5
16
330
5
100
AcDbSymbolTableRecord
100
AcDbLinetypeTableRecord
  2
Continuous
 70
     0
  3
Solid line
 72
    65
 73
     0
 40
0.0
  0
ENDTAB
  0
TABLE
  2
LAYER
  5
2
330
0
100
AcDbSymbolTable
 70
     1
  0
LAYER
  5
10
330
2
100
AcDbSymbolTableRecord
100
AcDbLayerTableRecord
  2
0
 70
     0
 62
     7
  6
Continuous
370
    -3
390
F
  0
ENDTAB
  0
TABLE
  2
STYLE
  5
3
330
0
100
AcDbSymbolTable
 70
     1
  0
STYLE
  5
11
330
3
100
AcDbSymbolTableRecord
100
AcDbTextStyleTableRecord
  2
Standard
 70
     0
 40
0.0
 41
1.0
 50
0.0
 71
     0
 42
0.2
  3
txt
  4

  0
ENDTAB
  0
TABLE
  2
VIEW
  5
6
330
0
100
AcDbSymbolTable
 70
     0
  0
ENDTAB
  0
TABLE
  2
UCS
  5
7
330
0
100
AcDbSymbolTable
 70
     0
  0
ENDTAB
  0
TABLE
  2
APPID
  5
9
330
0
100
AcDbSymbolTable
 70
     1
  0
APPID
  5
12
330
9
100
AcDbSymbolTableRecord
100
AcDbRegAppTableRecord
  2
ACAD
 70
     0
  0
ENDTAB
  0
TABLE
  2
DIMSTYLE
  5
A
330
0
100
AcDbSymbolTable
 70
     1
100
AcDbDimStyleTable
  0
DIMSTYLE
105
20
330
A
100
AcDbSymbolTableRecord
100
AcDbDimStyleTableRecord
  2
Standard
 70
     0
340
11
  0
ENDTAB
  0
TABLE
  2
BLOCK_RECORD
  5
1
330
0
100
AcDbSymbolTable
 70
     0
  0
BLOCK_RECORD
  5
1D
330
1
100
AcDbSymbolTableRecord
100
AcDbBlockTableRecord
  2
*Model_Space
340
1E
  0
BLOCK_RECORD
  5
1B
330
1
100
AcDbSymbolTableRecord
100
AcDbBlockTableRecord
  2
*Paper_Space
340
1C
  0
ENDTAB
  0
ENDSEC
  0
SECTION
  2
BLOCKS
  0
BLOCK
  5
9ED
330
1D
100
AcDbEntity
  8
0
100
AcDbBlockBegin
  2
*Model_Space
 70
     0
 10
0.0
 20
0.0
 30
0.0
  3
*Model_Space
  1
*Model_Space
  0
ENDBLK
  5
9EE
330
1D
100
AcDbEntity
  8
0
100
AcDbBlockEnd
  0
BLOCK
  5
9EB
330
1B
100
AcDbEntity
 67
     1
  8
0
100
AcDbBlockBegin
  2
*Paper_Space
 70
     0
 10
0.0
 20
0.0
 30
0.0
  3
*Paper_Space
  1
*Paper_Space
  0
ENDBLK
  5
9EC
330
1B
100
AcDbEntity
 67
     1
  8
0
100
AcDbBlockEnd
  0
ENDSEC
  0
SECTION
  2
ENTITIES
  0
LINE
  5
21
330
1D
100
AcDbEntity
  8
0
100
AcDbLine
 10
149.75265
 20
550.024
 30
0.0
 11
149.75265
 21
250.024
 31
0.0
  0
LINE
  5
22
330
1D
100
AcDbEntity
  8
0
100
AcDbLine
 10
149.75265
 20
550.024
 30
0.0
 11
249.75265
 21
550.024
 31
0.0
  0
LINE
  5
23
330
1D
100
AcDbEntity
  8
0
100
AcDbLine
 10
149.75265
 20
450.024
 30
0.0
 11
149.75265
 21
250.024
 31
0.0
  0
LINE
  5
24
330
1D
100
AcDbEntity
  8
0
100
AcDbLine
 10
149.75265
 20
250.024
 30
0.0
 11
149.75265
 21
450.024
 31
0.0
  0
LINE
  5
25
330
1D
100
AcDbEntity
  8
0
100
AcDbLine
 10
149.75265
 20
250.024
 30
0.0
 11
149.75265
 21
550.024
 31
0.0
  0
LINE
  5
26
330
1D
100
AcDbEntity
  8
0
100
AcDbLine
 10
149.75265
 20
250.024
 30
0.0
 11
249.75265
 21
250.024
 31
0.0
  0
LINE
  5
27
330
1D
100
AcDbEntity
  8
0
100
AcDbLine
 10
99.75265
 20
50.024
 30
0.0
 11
99.75265
 21
0.024
 31
0.0
  0
LINE
  5
28
330
1D
100
AcDbEntity
  8
0
100
AcDbLine
 10
99.75265
 20
50.024
 30
0.0
 11
299.75265
 21
50.024
 31
0.0
  0
LINE
  5
29
330
1D
100
AcDbEntity
  8
0
100
AcDbLine
 10
99.75265
 20
50.024
 30
0.0
 11
149.75265
 21
250.024
 31
0.0
  0
LINE
  5
2A
330
1D
100
AcDbEntity
  8
0
100
AcDbLine
 10
99.75265
 20
0.024
 30
0.0
 11
299.75265
 21
0.024
 31
0.0
  0
LINE
  5
2B
330
1D
100
AcDbEntity
  8
0
100
AcDbLine
 10
99.75265
 20
0.024
 30
0.0
 11
99.75265
 21
50.024
 31
0.0
  0
LINE
  5
4B4
330
1D
100
AcDbEntity
  8
0
100
AcDbLine
 10
179.75265
 20
603.024
 30
0.0
 11
179.83165
 21
603.024
 31
0.0
  0
LINE
  5
4B6
330
1D
100
AcDbEntity
  8
0
100
AcDbLine
 10
179.75265
 20
603.024
 30
0.0
 11
179.99165
 21
603.024
 31
0.0
  0
LINE
  5
4B7
330
1D
100
AcDbEntity
  8
0
100
AcDbLine
 10
179.75265
 20
603.024
 30
0.0
 11
179.99065
 21
603.024
 31
0.0
  0
LINE
  5
4B8
330
1D
100
AcDbEntity
  8
0
100
AcDbLine
 10
179.83165
 20
603.024
 30
0.0
 11
180.22565
 21
603.024
 31
0.0
  0
LINE
  5
4B9
330
1D
100
AcDbEntity
  8
0
100
AcDbLine
 10
179.77365
 20
603.024
 30
0.0
 11
179.85165
 21
603.024
 31
0.0
  0
LINE
  5
4BB
330
1D
100
AcDbEntity
  8
0
100
AcDbLine
 10
179.77365
 20
603.024
 30
0.0
 11
180.01165
 21
603.024
 31
0.0
  0
LINE
  5
4BC
330
1D
100
AcDbEntity
  8
0
100
AcDbLine
 10
179.77365
 20
603.024
 30
0.0
 11
179.85265
 21
603.024
 31
0.0
  0
LINE
  5
4BD
330
1D
100
AcDbEntity
  8
0
100
AcDbLine
 10
179.99065
 20
603.024
 30
0.0
 11
180.54465
 21
603.024
 31
0.0
  0
LINE
  5
4BE
330
1D
100
AcDbEntity
  8
0
100
AcDbLine
 10
179.99165
 20
603.024
 30
0.0
 11
180.54365
 21
603.024
 31
0.0
  0
LINE
  5
4BF
330
1D
100
AcDbEntity
  8
0
100
AcDbLine
 10
180.22565
 20
603.024
 30
0.0
 11
180.93365
 21
603.024
 31
0.0
  0
LINE
  5
4C0
330
1D
100
AcDbEntity
  8
0
100
AcDbLine
 10
179.85265
 20
603.024
 30
0.0
 11
180.24665
 21
603.024
 31
0.0
  0
LINE
  5
4C1
330
1D
100
AcDbEntity
  8
0
100
AcDbLine
 10
180.01165
 20
603.024
 30
0.0
 11
180.56465
 21
603.024
 31
0.0
  0
LINE
  5
4C2
330
1D
100
AcDbEntity
  8
0
100
AcDbLine
 10
179.85165
 20
603.024
 30
0.0
 11
180.24665
 21
603.024
 31
0.0
  0
LINE
  5
4C3
330
1D
100
AcDbEntity
  8
0
100
AcDbLine
 10
180.24665
 20
603.024
 30
0.0
 11
180.95465
 21
603.024
 31
0.0
  0
LINE
  5
4C4
330
1D
100
AcDbEntity
  8
0
100
AcDbLine
 10
180.54365
 20
603.024
 30
0.0
 11
181.40765
 21
603.024
 31
0.0
  0
LINE
  5
4C5
330
1D
100
AcDbEntity
  8
0
100
AcDbLine
 10
180.54465
 20
603.024
 30
0.0
 11
181.40665
 21
603.024
 31
0.0
  0
LINE
  5
4C6
330
1D
100
AcDbEntity
  8
0
100
AcDbLine
 10
180.56465
 20
603.024
 30
0.0
 11
181.42765
 21
603.024
 31
0.0
  0
LINE
  5
4C7
330
1D
100
AcDbEntity
  8
0
100
AcDbLine
 10
180.88665
 20
603.024
 30
0.0
 11
180.96265
 21
603.024
 31
0.0
  0
LINE
  5
4C8
330
1D
100
AcDbEntity
  8
0
100
AcDbLine
 10
180.88665
 20
603.024
 30
0.0
 11
181.11765
 21
603.024
 31
0.0
  0
LINE
  5
4C9
330
1D
100
AcDbEntity
  8
0
100
AcDbLine
 10
180.90665
 20
603.024
 30
0.0
 11
181.13765
 21
603.024
 31
0.0
  0
LINE
  5
4CA
330
1D
100
AcDbEntity
  8
0
100
AcDbLine
 10
180.90665
 20
603.024
 30
0.0
 11
180.98265
 21
603.024
 31
0.0
  0
LINE
  5
4CB
330
1D
100
AcDbEntity
  8
0
100
AcDbLine
 10
181.11765
 20
603.024
 30
0.0
 11
181.65265
 21
603.024
 31
0.0
  0
LINE
  5
4CC
330
1D
100
AcDbEntity
  8
0
100
AcDbLine
 10
180.96265
 20
603.024
 30
0.0
 11
181.34465
 21
603.024
 31
0.0
  0
LINE
  5
4CD
330
1D
100
AcDbEntity
  8
0
100
AcDbLine
 10
180.93365
 20
603.024
 30
0.0
 11
181.94765
 21
603.024
 31
0.0
  0
LINE
  5
4CE
330
1D
100
AcDbEntity
  8
0
100
AcDbLine
 10
181.34465
 20
603.024
 30
0.0
 11
182.02965
 21
603.024
 31
0.0
  0
LINE
  5
4CF
330
1D
100
AcDbEntity
  8
0
100
AcDbLine
 10
181.13765
 20
603.024
 30
0.0
 11
181.67265
 21
603.024
 31
0.0
  0
LINE
  5
4D0
330
1D
100
AcDbEntity
  8
0
100
AcDbLine
 10
180.98265
 20
603.024
 30
0.0
 11
181.36565
 21
603.024
 31
0.0
  0
LINE
  5
4D1
330
1D
100
AcDbEntity
  8
0
100
AcDbLine
 10
180.98265
 20
603.024
 30
0.0
 11
181.36465
 21
603.024
 31
0.0
  0
LINE
  5
4D2
330
1D
100
AcDbEntity
  8
0
100
AcDbLine
 10
180.90765
 20
603.024
 30
0.0
 11
180.98265
 21
603.024
 31
0.0
  0
LINE
  5
4D3
330
1D
100
AcDbEntity
  8
0
100
AcDbLine
 10
180.90765
 20
603.024
 30
0.0
 11
181.13765
 21
603.024
 31
0.0
  0
LINE
  5
4D4
330
1D
100
AcDbEntity
  8
0
100
AcDbLine
 10
180.95465
 20
603.024
 30
0.0
 11
181.96765
 21
603.024
 31
0.0
  0
LINE
  5
4D7
330
1D
100
AcDbEntity
  8
0
100
AcDbLine
 10
181.40665
 20
603.024
 30
0.0
 11
182.57165
 21
603.024
 31
0.0
  0
LINE
  5
4D8
330
1D
100
AcDbEntity
  8
0
100
AcDbLine
 10
181.40765
 20
603.024
 30
0.0
 11
182.57165
 21
603.024
 31
0.0
  0
LINE
  5
4D9
330
1D
100
AcDbEntity
  8
0
100
AcDbLine
 10
181.36465
 20
603.024
 30
0.0
 11
182.04965
 21
603.024
 31
0.0
  0
LINE
  5
4DA
330
1D
100
AcDbEntity
  8
0
100
AcDbLine
 10
181.36565
 20
603.024
 30
0.0
 11
182.04965
 21
603.024
 31
0.0
  0
LINE
  5
4DB
330
1D
100
AcDbEntity
  8
0
100
AcDbLine
 10
181.65265
 20
603.024
 30
0.0
 11
182.48665
 21
603.024
 31
0.0
  0
LINE
  5
4DC
330
1D
100
AcDbEntity
  8
0
100
AcDbLine
 10
182.02965
 20
603.024
 30
0.0
 11
183.00965
 21
603.024
 31
0.0
  0
LINE
  5
4DD
330
1D
100
AcDbEntity
  8
0
100
AcDbLine
 10
181.94765
 20
603.024
 30
0.0
 11
183.25765
 21
603.024
 31
0.0
  0
LINE
  5
4DE
330
1D
100
AcDbEntity
  8
0
100
AcDbLine
 10
182.48665
 20
603.024
 30
0.0
 11
183.52065
 21
603.024
 31
0.0
  0
LINE
  5
4DF
330
1D
100
AcDbEntity
  8
0
100
AcDbLine
 10
182.04965
 20
603.024
 30
0.0
 11
183.03065
 21
603.024
 31
0.0
  0
LINE
  5
4E0
330
1D
100
AcDbEntity
  8
0
100
AcDbLine
 10
182.04965
 20
603.024
 30
0.0
 11
183.02965
 21
603.024
 31
0.0
  0
LINE
  5
4E1
330
1D
100
AcDbEntity
  8
0
100
AcDbLine
 10
181.67265
 20
603.024
 30
0.0
 11
182.50765
 21
603.024
 31
0.0
  0
LINE
  5
4E2
330
1D
100
AcDbEntity
  8
0
100
AcDbLine
 10
181.67265
 20
603.024
 30
0.0
 11
182.50665
 21
603.024
 31
0.0
  0
LINE
  5
4E3
330
1D
100
AcDbEntity
  8
0
100
AcDbLine
 10
182.57165
 20
603.024
 30
0.0
 11
183.52065
 21
603.024
 31
0.0
  0
LINE
  5
4E4
330
1D
100
AcDbEntity
  8
0
100
AcDbLine
 10
182.50765
 20
603.024
 30
0.0
 11
183.52065
 21
603.024
 31
0.0
  0
LINE
  5
4E5
330
1D
100
AcDbEntity
  8
0
100
AcDbLine
 10
182.50665
 20
603.024
 30
0.0
 11
183.52065
 21
603.024
 31
0.0
  0
LINE
  5
4E6
330
1D
100
AcDbEntity
  8
0
100
AcDbLine
 10
181.42765
 20
603.024
 30
0.0
 11
182.59165
 21
603.024
 31
0.0
  0
LINE
  5
4E7
330
1D
100
AcDbEntity
  8
0
100
AcDbLine
 10
181.42765
 20
603.024
 30
0.0
 11
182.59265
 21
603.024
 31
0.0
  0
LINE
  5
4E8
330
1D
100
AcDbEntity
  8
0
100
AcDbLine
 10
181.96765
 20
603.024
 30
0.0
 11
183.27865
 21
603.024
 31
0.0
  0
LINE
  5
4E9
330
1D
100
AcDbEntity
  8
0
100
AcDbLine
 10
181.96765
 20
603.024
 30
0.0
 11
183.27765
 21
603.024
 31
0.0
  0
LINE
  5
4EA
330
1D
100
AcDbEntity
  8
0
100
AcDbLine
 10
182.75265
 20
583.024
 30
0.0
 11
183.90465
 21
583.024
 31
0.0
  0
LINE
  5
4EB
330
1D
100
AcDbEntity
  8
0
100
AcDbLine
 10
182.75265
 20
583.024
 30
0.0
 11
182.75265
 21
588.024
 31
0.0
  0
LINE
  5
4EC
330
1D
100
AcDbEntity
  8
0
100
AcDbLine
 10
182.75265
 20
588.024
 30
0.0
 11
182.75265
 21
590.024
 31
0.0
  0
LINE
  5
4ED
330
1D
100
AcDbEntity
  8
0
100
AcDbLine
 10
182.75265
 20
588.024
 30
0.0
 11
182.75265
 21
583.024
 31
0.0
  0
LINE
  5
4EE
330
1D
100
AcDbEntity
  8
0
100
AcDbLine
 10
182.75265
 20
588.024
 30
0.0
 11
183.90465
 21
588.024
 31
0.0
  0
LINE
  5
4EF
330
1D
100
AcDbEntity
  8
0
100
AcDbLine
 10
182.75265
 20
590.024
 30
0.0
 11
182.75265
 21
588.024
 31
0.0
  0
LINE
  5
4F0
330
1D
100
AcDbEntity
  8
0
100
AcDbLine
 10
182.75265
 20
590.024
 30
0.0
 11
183.90465
 21
590.024
 31
0.0
  0
LINE
  5
4F1
330
1D
100
AcDbEntity
  8
0
100
AcDbLine
 10
182.75265
 20
600.198
 30
0.0
 11
182.75265
 21
602.85
 31
0.0
  0
LINE
  5
4F2
330
1D
100
AcDbEntity
  8
0
100
AcDbLine
 10
182.75265
 20
600.198
 30
0.0
 11
183.90465
 21
600.198
 31
0.0
  0
LINE
  5
4F3
330
1D
100
AcDbEntity
  8
0
100
AcDbLine
 10
182.75265
 20
600.198
 30
0.0
 11
183.52065
 21
600.024
 31
0.0
  0
LINE
  5
4F4
330
1D
100
AcDbEntity
  8
0
100
AcDbLine
 10
182.75265
 20
602.85
 30
0.0
 11
182.75265
 21
600.198
 31
0.0
  0
LINE
  5
4F5
330
1D
100
AcDbEntity
  8
0
100
AcDbLine
 10
182.75265
 20
602.85
 30
0.0
 11
183.428950747299
 21
603.00322438806
 31
0.0
  0
LINE
  5
4F6
330
1D
100
AcDbEntity
  8
0
100
AcDbLine
 10
182.75265
 20
602.85
 30
0.0
 11
183.52065
 21
603.024
 31
0.0
  0
LINE
  5
4F7
330
1D
100
AcDbEntity
  8
0
100
AcDbLine
 10
182.75265
 20
602.85
 30
0.0
 11
183.90465
 21
602.85
 31
0.0
  0
LINE
  5
4F8
330
1D
100
AcDbEntity
  8
0
100
AcDbLine
 10
183.00965
 20
603.024
 30
0.0
 11
183.52065
 21
603.024
 31
0.0
  0
LINE
  5
4F9
330
1D
100
AcDbEntity
  8
0
100
AcDbLine
 10
183.02965
 20
603.024
 30
0.0
 11
184.29765
 21
603.024
 31
0.0
  0
LINE
  5
4FA
330
1D
100
AcDbEntity
  8
0
100
AcDbLine
 10
183.25765
 20
603.024
 30
0.0
 11
183.52065
 21
603.024
 31
0.0
  0
LINE
  5
4FB
330
1D
100
AcDbEntity
  8
0
100
AcDbLine
 10
183.27765
 20
603.024
 30
0.0
 11
184.87265
 21
603.024
 31
0.0
  0
LINE
  5
4FC
330
1D
100
AcDbEntity
  8
0
100
AcDbLine
 10
183.03065
 20
603.024
 30
0.0
 11
184.29865
 21
603.024
 31
0.0
  0
LINE
  5
4FD
330
1D
100
AcDbEntity
  8
0
100
AcDbLine
 10
182.59265
 20
603.024
 30
0.0
 11
183.52065
 21
603.024
 31
0.0
  0
LINE
  5
4FE
330
1D
100
AcDbEntity
  8
0
100
AcDbLine
 10
183.52065
 20
603.024
 30
0.0
 11
184.67265
 21
603.024
 31
0.0
  0
LINE
  5
4FF
330
1D
100
AcDbEntity
  8
0
100
AcDbLine
 10
183.90465
 20
588.024
 30
0.0
 11
186.97665
 21
588.024
 31
0.0
  0
LINE
  5
500
330
1D
100
AcDbEntity
  8
0
100
AcDbLine
 10
183.90465
 20
590.024
 30
0.0
 11
186.97665
 21
590.024
 31
0.0
  0
LINE
  5
501
330
1D
100
AcDbEntity
  8
0
100
AcDbLine
 10
183.90465
 20
583.024
 30
0.0
 11
184.75265
 21
583.024
 31
0.0
  0
LINE
  5
502
330
1D
100
AcDbEntity
  8
0
100
AcDbLine
 10
183.90465
 20
583.024
 30
0.0
 11
186.97665
 21
583.024
 31
0.0
  0
LINE
  5
503
330
1D
100
AcDbEntity
  8
0
100
AcDbLine
 10
184.75265
 20
550.024
 30
0.0
 11
184.75265
 21
583.024
 31
0.0
  0
LINE
  5
504
330
1D
100
AcDbEntity
  8
0
100
AcDbLine
 10
184.75265
 20
583.024
 30
0.0
 11
184.75265
 21
550.024
 31
0.0
  0
LINE
  5
505
330
1D
100
AcDbEntity
  8
0
100
AcDbLine
 10
183.90465
 20
602.85
 30
0.0
 11
186.97665
 21
602.85
 31
0.0
  0
LINE
  5
506
330
1D
100
AcDbEntity
  8
0
100
AcDbLine
 10
184.67265
 20
603.024
 30
0.0
 11
187.74465
 21
603.024
 31
0.0
  0
LINE
  5
507
330
1D
100
AcDbEntity
  8
0
100
AcDbLine
 10
183.90465
 20
600.198
 30
0.0
 11
186.97665
 21
600.198
 31
0.0
  0
LINE
  5
508
330
1D
100
AcDbEntity
  8
0
100
AcDbLine
 10
184.67265
 20
600.024
 30
0.0
 11
187.74465
 21
600.024
 31
0.0
  0
LINE
  5
509
330
1D
100
AcDbEntity
  8
0
100
AcDbLine
 10
183.52065
 20
600.024
 30
0.0
 11
184.67265
 21
600.024
 31
0.0
  0
LINE
  5
50A
330
1D
100
AcDbEntity
  8
0
100
AcDbLine
 10
184.29765
 20
603.024
 30
0.0
 11
185.84165
 21
603.024
 31
0.0
  0
LINE
  5
50B
330
1D
100
AcDbEntity
  8
0
100
AcDbLine
 10
186.73965
 20
603.024
 30
0.0
 11
188.86065
 21
603.024
 31
0.0
  0
LINE
  5
50C
330
1D
100
AcDbEntity
  8
0
100
AcDbLine
 10
184.87265
 20
603.024
 30
0.0
 11
186.73965
 21
603.024
 31
0.0
  0
LINE
  5
50D
330
1D
100
AcDbEntity
  8
0
100
AcDbLine
 10
184.29865
 20
603.024
 30
0.0
 11
185.84165
 21
603.024
 31
0.0
  0
LINE
  5
50E
330
1D
100
AcDbEntity
  8
0
100
AcDbLine
 10
183.27865
 20
603.024
 30
0.0
 11
184.87365
 21
603.024
 31
0.0
  0
LINE
  5
50F
330
1D
100
AcDbEntity
  8
0
100
AcDbLine
 10
184.87365
 20
603.024
 30
0.0
 11
186.74065
 21
603.024
 31
0.0
  0
LINE
  5
510
330
1D
100
AcDbEntity
  8
0
100
AcDbLine
 10
186.97665
 20
583.024
 30
0.0
 11
192.09665
 21
583.024
 31
0.0
  0
LINE
  5
511
330
1D
100
AcDbEntity
  8
0
100
AcDbLine
 10
186.97665
 20
588.024
 30
0.0
 11
192.09665
 21
588.024
 31
0.0
  0
LINE
  5
512
330
1D
100
AcDbEntity
  8
0
100
AcDbLine
 10
186.97665
 20
590.024
 30
0.0
 11
192.09665
 21
590.024
 31
0.0
  0
LINE
  5
513
330
1D
100
AcDbEntity
  8
0
100
AcDbLine
 10
188.75265
 20
590.024
 30
0.0
 11
188.75265
 21
600.024
 31
0.0
  0
LINE
  5
514
330
1D
100
AcDbEntity
  8
0
100
AcDbLine
 10
189.68865
 20
600.024
 30
0.0
 11
192.18465
 21
600.024
 31
0.0
  0
LINE
  5
515
330
1D
100
AcDbEntity
  8
0
100
AcDbLine
 10
188.75265
 20
600.024
 30
0.0
 11
188.75265
 21
590.024
 31
0.0
  0
LINE
  5
516
330
1D
100
AcDbEntity
  8
0
100
AcDbLine
 10
188.75265
 20
600.024
 30
0.0
 11
189.68865
 21
600.024
 31
0.0
  0
LINE
  5
517
330
1D
100
AcDbEntity
  8
0
100
AcDbLine
 10
186.97665
 20
602.85
 30
0.0
 11
192.09665
 21
602.85
 31
0.0
  0
LINE
  5
518
330
1D
100
AcDbEntity
  8
0
100
AcDbLine
 10
187.74465
 20
603.024
 30
0.0
 11
192.73665
 21
603.024
 31
0.0
  0
LINE
  5
519
330
1D
100
AcDbEntity
  8
0
100
AcDbLine
 10
186.97665
 20
600.198
 30
0.0
 11
192.09665
 21
600.198
 31
0.0
  0
LINE
  5
51A
330
1D
100
AcDbEntity
  8
0
100
AcDbLine
 10
187.74465
 20
600.024
 30
0.0
 11
188.75265
 21
600.024
 31
0.0
  0
LINE
  5
51B
330
1D
100
AcDbEntity
  8
0
100
AcDbLine
 10
187.74465
 20
600.024
 30
0.0
 11
192.73665
 21
600.024
 31
0.0
  0
LINE
  5
51C
330
1D
100
AcDbEntity
  8
0
100
AcDbLine
 10
189.69865
 20
603.024
 30
0.0
 11
191.97765
 21
603.024
 31
0.0
  0
LINE
  5
51D
330
1D
100
AcDbEntity
  8
0
100
AcDbLine
 10
187.64865
 20
603.024
 30
0.0
 11
189.69865
 21
603.024
 31
0.0
  0
LINE
  5
51E
330
1D
100
AcDbEntity
  8
0
100
AcDbLine
 10
187.64865
 20
603.024
 30
0.0
 11
189.69965
 21
603.024
 31
0.0
  0
LINE
  5
51F
330
1D
100
AcDbEntity
  8
0
100
AcDbLine
 10
189.69965
 20
603.024
 30
0.0
 11
191.97765
 21
603.024
 31
0.0
  0
LINE
  5
520
330
1D
100
AcDbEntity
  8
0
100
AcDbLine
 10
188.86065
 20
603.024
 30
0.0
 11
191.21465
 21
603.024
 31
0.0
  0
LINE
  5
521
330
1D
100
AcDbEntity
  8
0
100
AcDbLine
 10
186.74065
 20
603.024
 30
0.0
 11
188.85965
 21
603.024
 31
0.0
  0
LINE
  5
522
330
1D
100
AcDbEntity
  8
0
100
AcDbLine
 10
188.85965
 20
603.024
 30
0.0
 11
191.21465
 21
603.024
 31
0.0
  0
LINE
  5
523
330
1D
100
AcDbEntity
  8
0
100
AcDbLine
 10
192.09665
 20
583.024
 30
0.0
 11
198.88065
 21
583.024
 31
0.0
  0
LINE
  5
524
330
1D
100
AcDbEntity
  8
0
100
AcDbLine
 10
192.09665
 20
588.024
 30
0.0
 11
198.88065
 21
588.024
 31
0.0
  0
LINE
  5
525
330
1D
100
AcDbEntity
  8
0
100
AcDbLine
 10
192.09665
 20
590.024
 30
0.0
 11
198.88065
 21
590.024
 31
0.0
  0
LINE
  5
526
330
1D
100
AcDbEntity
  8
0
100
AcDbLine
 10
192.18465
 20
600.024
 30
0.0
 11
196.34465
 21
600.024
 31
0.0
  0
LINE
  5
527
330
1D
100
AcDbEntity
  8
0
100
AcDbLine
 10
192.73665
 20
600.024
 30
0.0
 11
199.26465
 21
600.024
 31
0.0
  0
LINE
  5
528
330
1D
100
AcDbEntity
  8
0
100
AcDbLine
 10
192.73665
 20
603.024
 30
0.0
 11
199.26465
 21
603.024
 31
0.0
  0
LINE
  5
529
330
1D
100
AcDbEntity
  8
0
100
AcDbLine
 10
192.09665
 20
602.85
 30
0.0
 11
198.88065
 21
602.85
 31
0.0
  0
LINE
  5
52A
330
1D
100
AcDbEntity
  8
0
100
AcDbLine
 10
192.09665
 20
600.198
 30
0.0
 11
198.88065
 21
600.198
 31
0.0
  0
LINE
  5
52B
330
1D
100
AcDbEntity
  8
0
100
AcDbLine
 10
196.34465
 20
600.024
 30
0.0
 11
201.85665
 21
600.024
 31
0.0
  0
LINE
  5
52C
330
1D
100
AcDbEntity
  8
0
100
AcDbLine
 10
194.46265
 20
603.024
 30
0.0
 11
197.13065
 21
603.024
 31
0.0
  0
LINE
  5
52D
330
1D
100
AcDbEntity
  8
0
100
AcDbLine
 10
191.97765
 20
603.024
 30
0.0
 11
194.46265
 21
603.024
 31
0.0
  0
LINE
  5
52E
330
1D
100
AcDbEntity
  8
0
100
AcDbLine
 10
191.21465
 20
603.024
 30
0.0
 11
193.78265
 21
603.024
 31
0.0
  0
LINE
  5
52F
330
1D
100
AcDbEntity
  8
0
100
AcDbLine
 10
193.78265
 20
603.024
 30
0.0
 11
196.54065
 21
603.024
 31
0.0
  0
LINE
  5
530
330
1D
100
AcDbEntity
  8
0
100
AcDbLine
 10
193.78265
 20
603.024
 30
0.0
 11
196.54165
 21
603.024
 31
0.0
  0
LINE
  5
531
330
1D
100
AcDbEntity
  8
0
100
AcDbLine
 10
198.88065
 20
588.024
 30
0.0
 11
203.18465
 21
588.024
 31
0.0
  0
LINE
  5
532
330
1D
100
AcDbEntity
  8
0
100
AcDbLine
 10
198.88065
 20
583.024
 30
0.0
 11
203.18465
 21
583.024
 31
0.0
  0
LINE
  5
533
330
1D
100
AcDbEntity
  8
0
100
AcDbLine
 10
198.88065
 20
590.024
 30
0.0
 11
206.56065
 21
590.024
 31
0.0
  0
LINE
  5
534
330
1D
100
AcDbEntity
  8
0
100
AcDbLine
 10
199.26465
 20
600.024
 30
0.0
 11
206.68865
 21
600.024
 31
0.0
  0
LINE
  5
535
330
1D
100
AcDbEntity
  8
0
100
AcDbLine
 10
199.26465
 20
603.024
 30
0.0
 11
206.68865
 21
603.024
 31
0.0
  0
LINE
  5
536
330
1D
100
AcDbEntity
  8
0
100
AcDbLine
 10
198.88065
 20
602.85
 30
0.0
 11
206.56065
 21
602.85
 31
0.0
  0
LINE
  5
537
330
1D
100
AcDbEntity
  8
0
100
AcDbLine
 10
198.88065
 20
600.198
 30
0.0
 11
206.56065
 21
600.198
 31
0.0
  0
LINE
  5
538
330
1D
100
AcDbEntity
  8
0
100
AcDbLine
 10
201.85665
 20
600.024
 30
0.0
 11
208.09665
 21
600.024
 31
0.0
  0
LINE
  5
539
330
1D
100
AcDbEntity
  8
0
100
AcDbLine
 10
199.95865
 20
603.024
 30
0.0
 11
202.92165
 21
603.024
 31
0.0
  0
LINE
  5
53A
330
1D
100
AcDbEntity
  8
0
100
AcDbLine
 10
199.95965
 20
603.024
 30
0.0
 11
202.92165
 21
603.024
 31
0.0
  0
LINE
  5
53B
330
1D
100
AcDbEntity
  8
0
100
AcDbLine
 10
197.13065
 20
603.024
 30
0.0
 11
199.95965
 21
603.024
 31
0.0
  0
LINE
  5
53C
330
1D
100
AcDbEntity
  8
0
100
AcDbLine
 10
197.13065
 20
603.024
 30
0.0
 11
199.95865
 21
603.024
 31
0.0
  0
LINE
  5
53D
330
1D
100
AcDbEntity
  8
0
100
AcDbLine
 10
196.54165
 20
603.024
 30
0.0
 11
199.46365
 21
603.024
 31
0.0
  0
LINE
  5
53E
330
1D
100
AcDbEntity
  8
0
100
AcDbLine
 10
196.54065
 20
603.024
 30
0.0
 11
199.46365
 21
603.024
 31
0.0
  0
LINE
  5
53F
330
1D
100
AcDbEntity
  8
0
100
AcDbLine
 10
199.46365
 20
603.024
 30
0.0
 11
202.52565
 21
603.024
 31
0.0
  0
LINE
  5
540
330
1D
100
AcDbEntity
  8
0
100
AcDbLine
 10
203.18465
 20
588.024
 30
0.0
 11
203.18465
 21
583.024
 31
0.0
  0
LINE
  5
541
330
1D
100
AcDbEntity
  8
0
100
AcDbLine
 10
203.18465
 20
588.024
 30
0.0
 11
204.33665
 21
588.024
 31
0.0
  0
LINE
  5
542
330
1D
100
AcDbEntity
  8
0
100
AcDbLine
 10
204.33665
 20
588.024
 30
0.0
 11
206.25665
 21
588.024
 31
0.0
  0
LINE
  5
543
330
1D
100
AcDbEntity
  8
0
100
AcDbLine
 10
203.18465
 20
583.024
 30
0.0
 11
204.33665
 21
583.024
 31
0.0
  0
LINE
  5
544
330
1D
100
AcDbEntity
  8
0
100
AcDbLine
 10
203.18465
 20
583.024
 30
0.0
 11
203.18465
 21
588.024
 31
0.0
  0
LINE
  5
545
330
1D
100
AcDbEntity
  8
0
100
AcDbLine
 10
204.33665
 20
583.024
 30
0.0
 11
206.25665
 21
583.024
 31
0.0
  0
LINE
  5
546
330
1D
100
AcDbEntity
  8
0
100
AcDbLine
 10
205.99065
 20
603.024
 30
0.0
 11
209.13965
 21
603.024
 31
0.0
  0
LINE
  5
547
330
1D
100
AcDbEntity
  8
0
100
AcDbLine
 10
206.25665
 20
588.024
 30
0.0
 11
208.80065
 21
588.024
 31
0.0
  0
LINE
  5
548
330
1D
100
AcDbEntity
  8
0
100
AcDbLine
 10
206.25665
 20
583.024
 30
0.0
 11
208.80065
 21
583.024
 31
0.0
  0
LINE
  5
549
330
1D
100
AcDbEntity
  8
0
100
AcDbLine
 10
206.56065
 20
590.024
 30
0.0
 11
212.81665
 21
590.024
 31
0.0
  0
LINE
  5
54A
330
1D
100
AcDbEntity
  8
0
100
AcDbLine
 10
208.80065
 20
588.024
 30
0.0
 11
211.68065
 21
588.024
 31
0.0
  0
LINE
  5
54B
330
1D
100
AcDbEntity
  8
0
100
AcDbLine
 10
208.80065
 20
583.024
 30
0.0
 11
211.68065
 21
583.024
 31
0.0
  0
LINE
  5
54C
330
1D
100
AcDbEntity
  8
0
100
AcDbLine
 10
208.09665
 20
600.024
 30
0.0
 11
214.75265
 21
600.024
 31
0.0
  0
LINE
  5
54D
330
1D
100
AcDbEntity
  8
0
100
AcDbLine
 10
206.68865
 20
600.024
 30
0.0
 11
214.75265
 21
600.024
 31
0.0
  0
LINE
  5
54E
330
1D
100
AcDbEntity
  8
0
100
AcDbLine
 10
206.68865
 20
603.024
 30
0.0
 11
214.75265
 21
603.024
 31
0.0
  0
LINE
  5
54F
330
1D
100
AcDbEntity
  8
0
100
AcDbLine
 10
206.56065
 20
602.85
 30
0.0
 11
214.75265
 21
602.85
 31
0.0
  0
LINE
  5
550
330
1D
100
AcDbEntity
  8
0
100
AcDbLine
 10
206.56065
 20
600.198
 30
0.0
 11
214.75265
 21
600.198
 31
0.0
  0
LINE
  5
551
330
1D
100
AcDbEntity
  8
0
100
AcDbLine
 10
205.99165
 20
603.024
 30
0.0
 11
209.14065
 21
603.024
 31
0.0
  0
LINE
  5
552
330
1D
100
AcDbEntity
  8
0
100
AcDbLine
 10
202.92165
 20
603.024
 30
0.0
 11
205.99165
 21
603.024
 31
0.0
  0
LINE
  5
553
330
1D
100
AcDbEntity
  8
0
100
AcDbLine
 10
202.92165
 20
603.024
 30
0.0
 11
205.99065
 21
603.024
 31
0.0
  0
LINE
  5
554
330
1D
100
AcDbEntity
  8
0
100
AcDbLine
 10
202.52565
 20
603.024
 30
0.0
 11
205.69765
 21
603.024
 31
0.0
  0
LINE
  5
555
330
1D
100
AcDbEntity
  8
0
100
AcDbLine
 10
205.69765
 20
603.024
 30
0.0
 11
208.95165
 21
603.024
 31
0.0
  0
LINE
  5
556
330
1D
100
AcDbEntity
  8
0
100
AcDbLine
 10
205.69765
 20
603.024
 30
0.0
 11
208.95265
 21
603.024
 31
0.0
  0
LINE
  5
557
330
1D
100
AcDbEntity
  8
0
100
AcDbLine
 10
209.13965
 20
603.024
 30
0.0
 11
212.34065
 21
603.024
 31
0.0
  0
LINE
  5
558
330
1D
100
AcDbEntity
  8
0
100
AcDbLine
 10
211.68065
 20
588.024
 30
0.0
 11
214.75265
 21
588.024
 31
0.0
  0
LINE
  5
559
330
1D
100
AcDbEntity
  8
0
100
AcDbLine
 10
211.81965
 20
578.877
 30
0.0
 11
211.91065
 21
578.877
 31
0.0
  0
LINE
  5
55A
330
1D
100
AcDbEntity
  8
0
100
AcDbLine
 10
211.81965
 20
578.877
 30
0.0
 11
211.91365
 21
578.877
 31
0.0
  0
LINE
  5
55B
330
1D
100
AcDbEntity
  8
0
100
AcDbLine
 10
211.81965
 20
578.877
 30
0.0
 11
211.81965
 21
582.877
 31
0.0
  0
LINE
  5
55C
330
1D
100
AcDbEntity
  8
0
100
AcDbLine
 10
211.91065
 20
578.877
 30
0.0
 11
212.20965
 21
578.877
 31
0.0
  0
LINE
  5
55D
330
1D
100
AcDbEntity
  8
0
100
AcDbLine
 10
212.20965
 20
578.877
 30
0.0
 11
212.69965
 21
578.877
 31
0.0
  0
LINE
  5
55E
330
1D
100
AcDbEntity
  8
0
100
AcDbLine
 10
211.91365
 20
578.877
 30
0.0
 11
212.21665
 21
578.877
 31
0.0
  0
LINE
  5
55F
330
1D
100
AcDbEntity
  8
0
100
AcDbLine
 10
212.69965
 20
578.877
 30
0.0
 11
213.32065
 21
578.877
 31
0.0
  0
LINE
  5
560
330
1D
100
AcDbEntity
  8
0
100
AcDbLine
 10
212.21665
 20
578.877
 30
0.0
 11
212.68165
 21
578.877
 31
0.0
  0
LINE
  5
561
330
1D
100
AcDbEntity
  8
0
100
AcDbLine
 10
212.68165
 20
578.877
 30
0.0
 11
213.30965
 21
578.877
 31
0.0
  0
LINE
  5
562
330
1D
100
AcDbEntity
  8
0
100
AcDbLine
 10
214.03465
 20
578.877
 30
0.0
 11
214.80465
 21
578.877
 31
0.0
  0
LINE
  5
563
330
1D
100
AcDbEntity
  8
0
100
AcDbLine
 10
213.32065
 20
578.877
 30
0.0
 11
214.03465
 21
578.877
 31
0.0
  0
LINE
  5
564
330
1D
100
AcDbEntity
  8
0
100
AcDbLine
 10
213.30965
 20
578.877
 30
0.0
 11
214.04765
 21
578.877
 31
0.0
  0
LINE
  5
565
330
1D
100
AcDbEntity
  8
0
100
AcDbLine
 10
211.81965
 20
582.877
 30
0.0
 11
211.81965
 21
578.877
 31
0.0
  0
LINE
  5
566
330
1D
100
AcDbEntity
  8
0
100
AcDbLine
 10
211.81965
 20
582.877
 30
0.0
 11
211.91365
 21
582.877
 31
0.0
  0
LINE
  5
567
330
1D
100
AcDbEntity
  8
0
100
AcDbLine
 10
211.91365
 20
582.877
 30
0.0
 11
212.21665
 21
582.877
 31
0.0
  0
LINE
  5
568
330
1D
100
AcDbEntity
  8
0
100
AcDbLine
 10
212.21665
 20
582.877
 30
0.0
 11
212.68165
 21
582.877
 31
0.0
  0
LINE
  5
569
330
1D
100
AcDbEntity
  8
0
100
AcDbLine
 10
212.81665
 20
582.877
 30
0.0
 11
212.81665
 21
583.024
 31
0.0
  0
LINE
  5
56A
330
1D
100
AcDbEntity
  8
0
100
AcDbLine
 10
212.68165
 20
582.877
 30
0.0
 11
213.30965
 21
582.877
 31
0.0
  0
LINE
  5
56B
330
1D
100
AcDbEntity
  8
0
100
AcDbLine
 10
212.81665
 20
588.024
 30
0.0
 11
212.81665
 21
592.877
 31
0.0
  0
LINE
  5
56C
330
1D
100
AcDbEntity
  8
0
100
AcDbLine
 10
212.81665
 20
583.024
 30
0.0
 11
212.81665
 21
582.877
 31
0.0
  0
LINE
  5
56D
330
1D
100
AcDbEntity
  8
0
100
AcDbLine
 10
212.81665
 20
592.877
 30
0.0
 11
212.81665
 21
588.024
 31
0.0
  0
LINE
  5
56E
330
1D
100
AcDbEntity
  8
0
100
AcDbLine
 10
212.81665
 20
592.877
 30
0.0
 11
212.87965
 21
592.877
 31
0.0
  0
LINE
  5
56F
330
1D
100
AcDbEntity
  8
0
100
AcDbLine
 10
212.87965
 20
592.877
 30
0.0
 11
213.08165
 21
592.877
 31
0.0
  0
LINE
  5
570
330
1D
100
AcDbEntity
  8
0
100
AcDbLine
 10
213.08165
 20
592.877
 30
0.0
 11
213.39165
 21
592.877
 31
0.0
  0
LINE
  5
571
330
1D
100
AcDbEntity
  8
0
100
AcDbLine
 10
213.39165
 20
592.877
 30
0.0
 11
213.80965
 21
592.877
 31
0.0
  0
LINE
  5
572
330
1D
100
AcDbEntity
  8
0
100
AcDbLine
 10
213.80965
 20
592.877
 30
0.0
 11
214.30265
 21
592.877
 31
0.0
  0
LINE
  5
573
330
1D
100
AcDbEntity
  8
0
100
AcDbLine
 10
213.30965
 20
582.877
 30
0.0
 11
214.04765
 21
582.877
 31
0.0
  0
LINE
  5
574
330
1D
100
AcDbEntity
  8
0
100
AcDbLine
 10
214.75265
 20
588.024
 30
0.0
 11
217.82465
 21
588.024
 31
0.0
  0
LINE
  5
575
330
1D
100
AcDbEntity
  8
0
100
AcDbLine
 10
214.75265
 20
583.024
 30
0.0
 11
217.82465
 21
583.024
 31
0.0
  0
LINE
  5
576
330
1D
100
AcDbEntity
  8
0
100
AcDbLine
 10
214.30265
 20
592.877
 30
0.0
 11
214.81565
 21
592.877
 31
0.0
  0
LINE
  5
577
330
1D
100
AcDbEntity
  8
0
100
AcDbLine
 10
214.04765
 20
582.877
 30
0.0
 11
214.81765
 21
582.877
 31
0.0
  0
LINE
  5
578
330
1D
100
AcDbEntity
  8
0
100
AcDbLine
 10
214.04765
 20
578.877
 30
0.0
 11
214.81765
 21
578.877
 31
0.0
  0
LINE
  5
579
330
1D
100
AcDbEntity
  8
0
100
AcDbLine
 10
211.68065
 20
583.024
 30
0.0
 11
214.75265
 21
583.024
 31
0.0
  0
LINE
  5
57A
330
1D
100
AcDbEntity
  8
0
100
AcDbLine
 10
214.75265
 20
600.024
 30
0.0
 11
222.81665
 21
600.024
 31
0.0
  0
LINE
  5
57B
330
1D
100
AcDbEntity
  8
0
100
AcDbLine
 10
214.75265
 20
600.024
 30
0.0
 11
221.40865
 21
600.024
 31
0.0
  0
LINE
  5
57C
330
1D
100
AcDbEntity
  8
0
100
AcDbLine
 10
214.80465
 20
578.877
 30
0.0
 11
215.57465
 21
578.877
 31
0.0
  0
LINE
  5
57D
330
1D
100
AcDbEntity
  8
0
100
AcDbLine
 10
214.81565
 20
592.877
 30
0.0
 11
215.32865
 21
592.877
 31
0.0
  0
LINE
  5
57E
330
1D
100
AcDbEntity
  8
0
100
AcDbLine
 10
215.32865
 20
592.877
 30
0.0
 11
215.80465
 21
592.877
 31
0.0
  0
LINE
  5
57F
330
1D
100
AcDbEntity
  8
0
100
AcDbLine
 10
214.81765
 20
582.877
 30
0.0
 11
215.58765
 21
582.877
 31
0.0
  0
LINE
  5
580
330
1D
100
AcDbEntity
  8
0
100
AcDbLine
 10
214.81765
 20
578.877
 30
0.0
 11
215.58765
 21
578.877
 31
0.0
  0
LINE
  5
581
330
1D
100
AcDbEntity
  8
0
100
AcDbLine
 10
214.75265
 20
600.198
 30
0.0
 11
222.94465
 21
600.198
 31
0.0
  0
LINE
  5
582
330
1D
100
AcDbEntity
  8
0
100
AcDbLine
 10
214.75265
 20
603.024
 30
0.0
 11
222.81665
 21
603.024
 31
0.0
  0
LINE
  5
583
330
1D
100
AcDbEntity
  8
0
100
AcDbLine
 10
214.75265
 20
602.85
 30
0.0
 11
222.94465
 21
602.85
 31
0.0
  0
LINE
  5
584
330
1D
100
AcDbEntity
  8
0
100
AcDbLine
 10
215.58765
 20
578.877
 30
0.0
 11
216.30165
 21
578.877
 31
0.0
  0
LINE
  5
585
330
1D
100
AcDbEntity
  8
0
100
AcDbLine
 10
215.58765
 20
582.877
 30
0.0
 11
216.30165
 21
582.877
 31
0.0
  0
LINE
  5
586
330
1D
100
AcDbEntity
  8
0
100
AcDbLine
 10
215.57465
 20
578.877
 30
0.0
 11
216.31365
 21
578.877
 31
0.0
  0
LINE
  5
587
330
1D
100
AcDbEntity
  8
0
100
AcDbLine
 10
215.56265
 20
603.024
 30
0.0
 11
218.77665
 21
603.024
 31
0.0
  0
LINE
  5
588
330
1D
100
AcDbEntity
  8
0
100
AcDbLine
 10
215.56265
 20
603.024
 30
0.0
 11
218.77765
 21
603.024
 31
0.0
  0
LINE
  5
589
330
1D
100
AcDbEntity
  8
0
100
AcDbLine
 10
212.34065
 20
603.024
 30
0.0
 11
215.56265
 21
603.024
 31
0.0
  0
LINE
  5
58A
330
1D
100
AcDbEntity
  8
0
100
AcDbLine
 10
209.14065
 20
603.024
 30
0.0
 11
212.34065
 21
603.024
 31
0.0
  0
LINE
  5
58B
330
1D
100
AcDbEntity
  8
0
100
AcDbLine
 10
208.95265
 20
603.024
 30
0.0
 11
212.25965
 21
603.024
 31
0.0
  0
LINE
  5
58C
330
1D
100
AcDbEntity
  8
0
100
AcDbLine
 10
208.95165
 20
603.024
 30
0.0
 11
212.25965
 21
603.024
 31
0.0
  0
LINE
  5
58D
330
1D
100
AcDbEntity
  8
0
100
AcDbLine
 10
212.25965
 20
603.024
 30
0.0
 11
215.58865
 21
603.024
 31
0.0
  0
LINE
  5
58E
330
1D
100
AcDbEntity
  8
0
100
AcDbLine
 10
216.30165
 20
582.877
 30
0.0
 11
216.92265
 21
582.877
 31
0.0
  0
LINE
  5
58F
330
1D
100
AcDbEntity
  8
0
100
AcDbLine
 10
216.30165
 20
578.877
 30
0.0
 11
216.92265
 21
578.877
 31
0.0
  0
LINE
  5
590
330
1D
100
AcDbEntity
  8
0
100
AcDbLine
 10
216.92265
 20
578.877
 30
0.0
 11
217.41265
 21
578.877
 31
0.0
  0
LINE
  5
591
330
1D
100
AcDbEntity
  8
0
100
AcDbLine
 10
217.70965
 20
578.877
 30
0.0
 11
217.80365
 21
578.877
 31
0.0
  0
LINE
  5
592
330
1D
100
AcDbEntity
  8
0
100
AcDbLine
 10
217.80365
 20
578.877
 30
0.0
 11
217.80365
 21
582.877
 31
0.0
  0
LINE
  5
593
330
1D
100
AcDbEntity
  8
0
100
AcDbLine
 10
217.71165
 20
578.877
 30
0.0
 11
217.80365
 21
578.877
 31
0.0
  0
LINE
  5
594
330
1D
100
AcDbEntity
  8
0
100
AcDbLine
 10
217.41265
 20
578.877
 30
0.0
 11
217.71165
 21
578.877
 31
0.0
  0
LINE
  5
595
330
1D
100
AcDbEntity
  8
0
100
AcDbLine
 10
217.40565
 20
578.877
 30
0.0
 11
217.70965
 21
578.877
 31
0.0
  0
LINE
  5
596
330
1D
100
AcDbEntity
  8
0
100
AcDbLine
 10
216.80665
 20
582.877
 30
0.0
 11
216.80665
 21
583.024
 31
0.0
  0
LINE
  5
597
330
1D
100
AcDbEntity
  8
0
100
AcDbLine
 10
216.80665
 20
588.024
 30
0.0
 11
216.80665
 21
592.877
 31
0.0
  0
LINE
  5
598
330
1D
100
AcDbEntity
  8
0
100
AcDbLine
 10
216.80665
 20
583.024
 30
0.0
 11
216.80665
 21
582.877
 31
0.0
  0
LINE
  5
599
330
1D
100
AcDbEntity
  8
0
100
AcDbLine
 10
217.71165
 20
582.877
 30
0.0
 11
217.80365
 21
582.877
 31
0.0
  0
LINE
  5
59A
330
1D
100
AcDbEntity
  8
0
100
AcDbLine
 10
217.80365
 20
582.877
 30
0.0
 11
217.80365
 21
578.877
 31
0.0
  0
LINE
  5
59B
330
1D
100
AcDbEntity
  8
0
100
AcDbLine
 10
217.82465
 20
588.024
 30
0.0
 11
220.70465
 21
588.024
 31
0.0
  0
LINE
  5
59C
330
1D
100
AcDbEntity
  8
0
100
AcDbLine
 10
217.82465
 20
583.024
 30
0.0
 11
220.70465
 21
583.024
 31
0.0
  0
LINE
  5
59D
330
1D
100
AcDbEntity
  8
0
100
AcDbLine
 10
217.41265
 20
582.877
 30
0.0
 11
217.71165
 21
582.877
 31
0.0
  0
LINE
  5
59E
330
1D
100
AcDbEntity
  8
0
100
AcDbLine
 10
216.92265
 20
582.877
 30
0.0
 11
217.41265
 21
582.877
 31
0.0
  0
LINE
  5
59F
330
1D
100
AcDbEntity
  8
0
100
AcDbLine
 10
216.94165
 20
578.877
 30
0.0
 11
217.40565
 21
578.877
 31
0.0
  0
LINE
  5
5A0
330
1D
100
AcDbEntity
  8
0
100
AcDbLine
 10
216.31365
 20
578.877
 30
0.0
 11
216.94165
 21
578.877
 31
0.0
  0
LINE
  5
5A1
330
1D
100
AcDbEntity
  8
0
100
AcDbLine
 10
216.74465
 20
592.877
 30
0.0
 11
216.80665
 21
592.877
 31
0.0
  0
LINE
  5
5A2
330
1D
100
AcDbEntity
  8
0
100
AcDbLine
 10
216.80665
 20
592.877
 30
0.0
 11
216.80665
 21
588.024
 31
0.0
  0
LINE
  5
5A3
330
1D
100
AcDbEntity
  8
0
100
AcDbLine
 10
216.54565
 20
592.877
 30
0.0
 11
216.74465
 21
592.877
 31
0.0
  0
LINE
  5
5A4
330
1D
100
AcDbEntity
  8
0
100
AcDbLine
 10
216.21865
 20
592.877
 30
0.0
 11
216.54565
 21
592.877
 31
0.0
  0
LINE
  5
5A5
330
1D
100
AcDbEntity
  8
0
100
AcDbLine
 10
215.80465
 20
592.877
 30
0.0
 11
216.21865
 21
592.877
 31
0.0
  0
LINE
  5
5A6
330
1D
100
AcDbEntity
  8
0
100
AcDbLine
 10
216.80665
 20
590.024
 30
0.0
 11
222.94465
 21
590.024
 31
0.0
  0
LINE
  5
5A7
330
1D
100
AcDbEntity
  8
0
100
AcDbLine
 10
220.70465
 20
588.024
 30
0.0
 11
223.24865
 21
588.024
 31
0.0
  0
LINE
  5
5A8
330
1D
100
AcDbEntity
  8
0
100
AcDbLine
 10
220.70465
 20
583.024
 30
0.0
 11
223.24865
 21
583.024
 31
0.0
  0
LINE
  5
5A9
330
1D
100
AcDbEntity
  8
0
100
AcDbLine
 10
221.40865
 20
600.024
 30
0.0
 11
227.64865
 21
600.024
 31
0.0
  0
LINE
  5
5AA
330
1D
100
AcDbEntity
  8
0
100
AcDbLine
 10
218.77765
 20
603.024
 30
0.0
 11
221.95565
 21
603.024
 31
0.0
  0
LINE
  5
5AB
330
1D
100
AcDbEntity
  8
0
100
AcDbLine
 10
222.19565
 20
603.024
 30
0.0
 11
225.41265
 21
603.024
 31
0.0
  0
LINE
  5
5AC
330
1D
100
AcDbEntity
  8
0
100
AcDbLine
 10
218.77665
 20
603.024
 30
0.0
 11
221.95565
 21
603.024
 31
0.0
  0
LINE
  5
5AD
330
1D
100
AcDbEntity
  8
0
100
AcDbLine
 10
218.91065
 20
603.024
 30
0.0
 11
222.19565
 21
603.024
 31
0.0
  0
LINE
  5
5AE
330
1D
100
AcDbEntity
  8
0
100
AcDbLine
 10
215.58865
 20
603.024
 30
0.0
 11
218.91165
 21
603.024
 31
0.0
  0
LINE
  5
5AF
330
1D
100
AcDbEntity
  8
0
100
AcDbLine
 10
215.58865
 20
603.024
 30
0.0
 11
218.91065
 21
603.024
 31
0.0
  0
LINE
  5
5B0
330
1D
100
AcDbEntity
  8
0
100
AcDbLine
 10
218.91165
 20
603.024
 30
0.0
 11
222.19665
 21
603.024
 31
0.0
  0
LINE
  5
5B1
330
1D
100
AcDbEntity
  8
0
100
AcDbLine
 10
222.94465
 20
590.024
 30
0.0
 11
230.62465
 21
590.024
 31
0.0
  0
LINE
  5
5B2
330
1D
100
AcDbEntity
  8
0
100
AcDbLine
 10
222.81665
 20
600.024
 30
0.0
 11
230.24065
 21
600.024
 31
0.0
  0
LINE
  5
5B3
330
1D
100
AcDbEntity
  8
0
100
AcDbLine
 10
223.24865
 20
588.024
 30
0.0
 11
225.16865
 21
588.024
 31
0.0
  0
LINE
  5
5B4
330
1D
100
AcDbEntity
  8
0
100
AcDbLine
 10
223.24865
 20
583.024
 30
0.0
 11
225.16865
 21
583.024
 31
0.0
  0
LINE
  5
5B5
330
1D
100
AcDbEntity
  8
0
100
AcDbLine
 10
222.94465
 20
600.198
 30
0.0
 11
230.62465
 21
600.198
 31
0.0
  0
LINE
  5
5B6
330
1D
100
AcDbEntity
  8
0
100
AcDbLine
 10
222.81665
 20
603.024
 30
0.0
 11
230.24065
 21
603.024
 31
0.0
  0
LINE
  5
5B7
330
1D
100
AcDbEntity
  8
0
100
AcDbLine
 10
222.94465
 20
602.85
 30
0.0
 11
230.62465
 21
602.85
 31
0.0
  0
LINE
  5
5B8
330
1D
100
AcDbEntity
  8
0
100
AcDbLine
 10
225.16865
 20
588.024
 30
0.0
 11
226.32065
 21
588.024
 31
0.0
  0
LINE
  5
5B9
330
1D
100
AcDbEntity
  8
0
100
AcDbLine
 10
226.32065
 20
588.024
 30
0.0
 11
226.32065
 21
583.024
 31
0.0
  0
LINE
  5
5BA
330
1D
100
AcDbEntity
  8
0
100
AcDbLine
 10
226.32065
 20
588.024
 30
0.0
 11
230.62465
 21
588.024
 31
0.0
  0
LINE
  5
5BB
330
1D
100
AcDbEntity
  8
0
100
AcDbLine
 10
226.32065
 20
583.024
 30
0.0
 11
230.62465
 21
583.024
 31
0.0
  0
LINE
  5
5BC
330
1D
100
AcDbEntity
  8
0
100
AcDbLine
 10
226.32065
 20
583.024
 30
0.0
 11
226.32065
 21
588.024
 31
0.0
  0
LINE
  5
5BD
330
1D
100
AcDbEntity
  8
0
100
AcDbLine
 10
225.16865
 20
583.024
 30
0.0
 11
226.32065
 21
583.024
 31
0.0
  0
LINE
  5
5BE
330
1D
100
AcDbEntity
  8
0
100
AcDbLine
 10
227.64865
 20
600.024
 30
0.0
 11
233.16065
 21
600.024
 31
0.0
  0
LINE
  5
5BF
330
1D
100
AcDbEntity
  8
0
100
AcDbLine
 10
228.08865
 20
603.024
 30
0.0
 11
230.98665
 21
603.024
 31
0.0
  0
LINE
  5
5C0
330
1D
100
AcDbEntity
  8
0
100
AcDbLine
 10
228.08765
 20
603.024
 30
0.0
 11
230.98665
 21
603.024
 31
0.0
  0
LINE
  5
5C1
330
1D
100
AcDbEntity
  8
0
100
AcDbLine
 10
225.06865
 20
603.024
 30
0.0
 11
228.08765
 21
603.024
 31
0.0
  0
LINE
  5
5C2
330
1D
100
AcDbEntity
  8
0
100
AcDbLine
 10
225.06865
 20
603.024
 30
0.0
 11
228.08865
 21
603.024
 31
0.0
  0
LINE
  5
5C3
330
1D
100
AcDbEntity
  8
0
100
AcDbLine
 10
225.41265
 20
603.024
 30
0.0
 11
228.53465
 21
603.024
 31
0.0
  0
LINE
  5
5C4
330
1D
100
AcDbEntity
  8
0
100
AcDbLine
 10
222.19665
 20
603.024
 30
0.0
 11
225.41365
 21
603.024
 31
0.0
  0
LINE
  5
5C5
330
1D
100
AcDbEntity
  8
0
100
AcDbLine
 10
225.41365
 20
603.024
 30
0.0
 11
228.53465
 21
603.024
 31
0.0
  0
LINE
  5
5C6
330
1D
100
AcDbEntity
  8
0
100
AcDbLine
 10
230.62465
 20
583.024
 30
0.0
 11
237.40865
 21
583.024
 31
0.0
  0
LINE
  5
5C7
330
1D
100
AcDbEntity
  8
0
100
AcDbLine
 10
230.62465
 20
588.024
 30
0.0
 11
237.40865
 21
588.024
 31
0.0
  0
LINE
  5
5C8
330
1D
100
AcDbEntity
  8
0
100
AcDbLine
 10
230.62465
 20
590.024
 30
0.0
 11
237.40865
 21
590.024
 31
0.0
  0
LINE
  5
5C9
330
1D
100
AcDbEntity
  8
0
100
AcDbLine
 10
230.24065
 20
600.024
 30
0.0
 11
236.76865
 21
600.024
 31
0.0
  0
LINE
  5
5CA
330
1D
100
AcDbEntity
  8
0
100
AcDbLine
 10
233.16065
 20
600.024
 30
0.0
 11
237.32065
 21
600.024
 31
0.0
  0
LINE
  5
5CB
330
1D
100
AcDbEntity
  8
0
100
AcDbLine
 10
230.62465
 20
600.198
 30
0.0
 11
237.40865
 21
600.198
 31
0.0
  0
LINE
  5
5CC
330
1D
100
AcDbEntity
  8
0
100
AcDbLine
 10
230.24065
 20
603.024
 30
0.0
 11
236.76865
 21
603.024
 31
0.0
  0
LINE
  5
5CD
330
1D
100
AcDbEntity
  8
0
100
AcDbLine
 10
230.62465
 20
602.85
 30
0.0
 11
237.40865
 21
602.85
 31
0.0
  0
LINE
  5
5CE
330
1D
100
AcDbEntity
  8
0
100
AcDbLine
 10
233.73965
 20
603.024
 30
0.0
 11
236.31965
 21
603.024
 31
0.0
  0
LINE
  5
5CF
330
1D
100
AcDbEntity
  8
0
100
AcDbLine
 10
230.98665
 20
603.024
 30
0.0
 11
233.73965
 21
603.024
 31
0.0
  0
LINE
  5
5D0
330
1D
100
AcDbEntity
  8
0
100
AcDbLine
 10
228.53465
 20
603.024
 30
0.0
 11
231.53065
 21
603.024
 31
0.0
  0
LINE
  5
5D1
330
1D
100
AcDbEntity
  8
0
100
AcDbLine
 10
231.53065
 20
603.024
 30
0.0
 11
234.37465
 21
603.024
 31
0.0
  0
LINE
  5
5D2
330
1D
100
AcDbEntity
  8
0
100
AcDbLine
 10
231.53065
 20
603.024
 30
0.0
 11
234.37565
 21
603.024
 31
0.0
  0
LINE
  5
5D3
330
1D
100
AcDbEntity
  8
0
100
AcDbLine
 10
237.40865
 20
583.024
 30
0.0
 11
242.52865
 21
583.024
 31
0.0
  0
LINE
  5
5D4
330
1D
100
AcDbEntity
  8
0
100
AcDbLine
 10
237.40865
 20
588.024
 30
0.0
 11
242.52865
 21
588.024
 31
0.0
  0
LINE
  5
5D5
330
1D
100
AcDbEntity
  8
0
100
AcDbLine
 10
237.40865
 20
590.024
 30
0.0
 11
242.52865
 21
590.024
 31
0.0
  0
LINE
  5
5D6
330
1D
100
AcDbEntity
  8
0
100
AcDbLine
 10
237.32065
 20
600.024
 30
0.0
 11
239.81665
 21
600.024
 31
0.0
  0
LINE
  5
5D7
330
1D
100
AcDbEntity
  8
0
100
AcDbLine
 10
236.76865
 20
600.024
 30
0.0
 11
241.76065
 21
600.024
 31
0.0
  0
LINE
  5
5D8
330
1D
100
AcDbEntity
  8
0
100
AcDbLine
 10
237.40865
 20
600.198
 30
0.0
 11
242.52865
 21
600.198
 31
0.0
  0
LINE
  5
5D9
330
1D
100
AcDbEntity
  8
0
100
AcDbLine
 10
236.76865
 20
603.024
 30
0.0
 11
241.76065
 21
603.024
 31
0.0
  0
LINE
  5
5DA
330
1D
100
AcDbEntity
  8
0
100
AcDbLine
 10
237.40865
 20
602.85
 30
0.0
 11
242.52865
 21
602.85
 31
0.0
  0
LINE
  5
5DB
330
1D
100
AcDbEntity
  8
0
100
AcDbLine
 10
238.70565
 20
603.024
 30
0.0
 11
240.87265
 21
603.024
 31
0.0
  0
LINE
  5
5DC
330
1D
100
AcDbEntity
  8
0
100
AcDbLine
 10
238.70565
 20
603.024
 30
0.0
 11
240.87365
 21
603.024
 31
0.0
  0
LINE
  5
5DD
330
1D
100
AcDbEntity
  8
0
100
AcDbLine
 10
234.37565
 20
603.024
 30
0.0
 11
237.04165
 21
603.024
 31
0.0
  0
LINE
  5
5DE
330
1D
100
AcDbEntity
  8
0
100
AcDbLine
 10
234.37465
 20
603.024
 30
0.0
 11
237.04165
 21
603.024
 31
0.0
  0
LINE
  5
5DF
330
1D
100
AcDbEntity
  8
0
100
AcDbLine
 10
237.04165
 20
603.024
 30
0.0
 11
239.50665
 21
603.024
 31
0.0
  0
LINE
  5
5E0
330
1D
100
AcDbEntity
  8
0
100
AcDbLine
 10
237.04165
 20
603.024
 30
0.0
 11
239.50765
 21
603.024
 31
0.0
  0
LINE
  5
5E1
330
1D
100
AcDbEntity
  8
0
100
AcDbLine
 10
240.75265
 20
590.024
 30
0.0
 11
240.75265
 21
600.024
 31
0.0
  0
LINE
  5
5E2
330
1D
100
AcDbEntity
  8
0
100
AcDbLine
 10
239.81665
 20
600.024
 30
0.0
 11
240.75265
 21
600.024
 31
0.0
  0
LINE
  5
5E3
330
1D
100
AcDbEntity
  8
0
100
AcDbLine
 10
240.75265
 20
600.024
 30
0.0
 11
241.76065
 21
600.024
 31
0.0
  0
LINE
  5
5E4
330
1D
100
AcDbEntity
  8
0
100
AcDbLine
 10
240.75265
 20
600.024
 30
0.0
 11
240.75265
 21
590.024
 31
0.0
  0
LINE
  5
5E5
330
1D
100
AcDbEntity
  8
0
100
AcDbLine
 10
241.76065
 20
603.024
 30
0.0
 11
244.83265
 21
603.024
 31
0.0
  0
LINE
  5
5E6
330
1D
100
AcDbEntity
  8
0
100
AcDbLine
 10
242.52865
 20
583.024
 30
0.0
 11
245.60065
 21
583.024
 31
0.0
  0
LINE
  5
5E7
330
1D
100
AcDbEntity
  8
0
100
AcDbLine
 10
242.52865
 20
588.024
 30
0.0
 11
245.60065
 21
588.024
 31
0.0
  0
LINE
  5
5E8
330
1D
100
AcDbEntity
  8
0
100
AcDbLine
 10
242.52865
 20
590.024
 30
0.0
 11
245.60065
 21
590.024
 31
0.0
  0
LINE
  5
5E9
330
1D
100
AcDbEntity
  8
0
100
AcDbLine
 10
242.52865
 20
600.198
 30
0.0
 11
245.60065
 21
600.198
 31
0.0
  0
LINE
  5
5EA
330
1D
100
AcDbEntity
  8
0
100
AcDbLine
 10
242.52865
 20
602.85
 30
0.0
 11
245.60065
 21
602.85
 31
0.0
  0
LINE
  5
5EB
330
1D
100
AcDbEntity
  8
0
100
AcDbLine
 10
241.76065
 20
600.024
 30
0.0
 11
244.83265
 21
600.024
 31
0.0
  0
LINE
  5
5EC
330
1D
100
AcDbEntity
  8
0
100
AcDbLine
 10
240.87365
 20
603.024
 30
0.0
 11
242.80465
 21
603.024
 31
0.0
  0
LINE
  5
5ED
330
1D
100
AcDbEntity
  8
0
100
AcDbLine
 10
240.87265
 20
603.024
 30
0.0
 11
242.80565
 21
603.024
 31
0.0
  0
LINE
  5
5EE
330
1D
100
AcDbEntity
  8
0
100
AcDbLine
 10
239.50765
 20
603.024
 30
0.0
 11
241.74765
 21
603.024
 31
0.0
  0
LINE
  5
5EF
330
1D
100
AcDbEntity
  8
0
100
AcDbLine
 10
239.50665
 20
603.024
 30
0.0
 11
241.74765
 21
603.024
 31
0.0
  0
LINE
  5
5F0
330
1D
100
AcDbEntity
  8
0
100
AcDbLine
 10
241.74765
 20
603.024
 30
0.0
 11
243.74365
 21
603.024
 31
0.0
  0
LINE
  5
5F1
330
1D
100
AcDbEntity
  8
0
100
AcDbLine
 10
241.74765
 20
603.024
 30
0.0
 11
243.74465
 21
603.024
 31
0.0
  0
LINE
  5
5F2
330
1D
100
AcDbEntity
  8
0
100
AcDbLine
 10
242.80565
 20
603.024
 30
0.0
 11
244.48365
 21
603.024
 31
0.0
  0
LINE
  5
5F3
330
1D
100
AcDbEntity
  8
0
100
AcDbLine
 10
244.75265
 20
550.024
 30
0.0
 11
244.75265
 21
583.024
 31
0.0
  0
LINE
  5
5F4
330
1D
100
AcDbEntity
  8
0
100
AcDbLine
 10
245.60065
 20
588.024
 30
0.0
 11
246.75265
 21
588.024
 31
0.0
  0
LINE
  5
5F5
330
1D
100
AcDbEntity
  8
0
100
AcDbLine
 10
245.60065
 20
590.024
 30
0.0
 11
246.75265
 21
590.024
 31
0.0
  0
LINE
  5
5F6
330
1D
100
AcDbEntity
  8
0
100
AcDbLine
 10
245.60065
 20
583.024
 30
0.0
 11
246.75265
 21
583.024
 31
0.0
  0
LINE
  5
5F7
330
1D
100
AcDbEntity
  8
0
100
AcDbLine
 10
244.75265
 20
583.024
 30
0.0
 11
245.60065
 21
583.024
 31
0.0
  0
LINE
  5
5F8
330
1D
100
AcDbEntity
  8
0
100
AcDbLine
 10
244.75265
 20
583.024
 30
0.0
 11
244.75265
 21
550.024
 31
0.0
  0
LINE
  5
5F9
330
1D
100
AcDbEntity
  8
0
100
AcDbLine
 10
245.60065
 20
600.198
 30
0.0
 11
246.75265
 21
600.198
 31
0.0
  0
LINE
  5
5FA
330
1D
100
AcDbEntity
  8
0
100
AcDbLine
 10
244.83265
 20
603.024
 30
0.0
 11
245.98465
 21
603.024
 31
0.0
  0
LINE
  5
5FB
330
1D
100
AcDbEntity
  8
0
100
AcDbLine
 10
245.60065
 20
602.85
 30
0.0
 11
246.75265
 21
602.85
 31
0.0
  0
LINE
  5
5FC
330
1D
100
AcDbEntity
  8
0
100
AcDbLine
 10
244.83265
 20
600.024
 30
0.0
 11
245.98465
 21
600.024
 31
0.0
  0
LINE
  5
5FD
330
1D
100
AcDbEntity
  8
0
100
AcDbLine
 10
245.98465
 20
600.024
 30
0.0
 11
246.75265
 21
600.198
 31
0.0
  0
LINE
  5
5FE
330
1D
100
AcDbEntity
  8
0
100
AcDbLine
 10
245.89265
 20
603.024
 30
0.0
 11
247.01865
 21
603.024
 31
0.0
  0
LINE
  5
5FF
330
1D
100
AcDbEntity
  8
0
100
AcDbLine
 10
245.89165
 20
603.024
 30
0.0
 11
247.01965
 21
603.024
 31
0.0
  0
LINE
  5
600
330
1D
100
AcDbEntity
  8
0
100
AcDbLine
 10
243.74465
 20
603.024
 30
0.0
 11
245.47865
 21
603.024
 31
0.0
  0
LINE
  5
601
330
1D
100
AcDbEntity
  8
0
100
AcDbLine
 10
244.48365
 20
603.024
 30
0.0
 11
245.89265
 21
603.024
 31
0.0
  0
LINE
  5
602
330
1D
100
AcDbEntity
  8
0
100
AcDbLine
 10
244.48365
 20
603.024
 30
0.0
 11
245.89165
 21
603.024
 31
0.0
  0
LINE
  5
603
330
1D
100
AcDbEntity
  8
0
100
AcDbLine
 10
242.80465
 20
603.024
 30
0.0
 11
244.48365
 21
603.024
 31
0.0
  0
LINE
  5
604
330
1D
100
AcDbEntity
  8
0
100
AcDbLine
 10
245.47865
 20
603.024
 30
0.0
 11
246.93465
 21
603.024
 31
0.0
  0
LINE
  5
605
330
1D
100
AcDbEntity
  8
0
100
AcDbLine
 10
245.47865
 20
603.024
 30
0.0
 11
246.93365
 21
603.024
 31
0.0
  0
LINE
  5
606
330
1D
100
AcDbEntity
  8
0
100
AcDbLine
 10
182.59165
 20
603.024
 30
0.0
 11
183.52065
 21
603.024
 31
0.0
  0
LINE
  5
607
330
1D
100
AcDbEntity
  8
0
100
AcDbLine
 10
243.74365
 20
603.024
 30
0.0
 11
245.47865
 21
603.024
 31
0.0
  0
LINE
  5
608
330
1D
100
AcDbEntity
  8
0
100
AcDbLine
 10
246.05765
 20
603.024
 30
0.0
 11
247.35665
 21
603.024
 31
0.0
  0
LINE
  5
609
330
1D
100
AcDbEntity
  8
0
100
AcDbLine
 10
182.35765
 20
603.024
 30
0.0
 11
183.52065
 21
603.024
 31
0.0
  0
LINE
  5
60B
330
1D
100
AcDbEntity
  8
0
100
AcDbLine
 10
181.35365
 20
603.024
 30
0.0
 11
182.35765
 21
603.024
 31
0.0
  0
LINE
  5
60C
330
1D
100
AcDbEntity
  8
0
100
AcDbLine
 10
180.65265
 20
603.024
 30
0.0
 11
181.35365
 21
603.024
 31
0.0
  0
LINE
  5
60D
330
1D
100
AcDbEntity
  8
0
100
AcDbLine
 10
180.26165
 20
603.024
 30
0.0
 11
180.65265
 21
603.024
 31
0.0
  0
LINE
  5
60F
330
1D
100
AcDbEntity
  8
0
100
AcDbLine
 10
180.18365
 20
603.024
 30
0.0
 11
180.26165
 21
603.024
 31
0.0
  0
LINE
  5
610
330
1D
100
AcDbEntity
  8
0
100
AcDbLine
 10
246.47565
 20
603.024
 30
0.0
 11
247.45665
 21
603.024
 31
0.0
  0
LINE
  5
611
330
1D
100
AcDbEntity
  8
0
100
AcDbLine
 10
246.22865
 20
603.024
 30
0.0
 11
247.53865
 21
603.024
 31
0.0
  0
LINE
  5
612
330
1D
100
AcDbEntity
  8
0
100
AcDbLine
 10
246.22765
 20
603.024
 30
0.0
 11
247.53865
 21
603.024
 31
0.0
  0
LINE
  5
613
330
1D
100
AcDbEntity
  8
0
100
AcDbLine
 10
246.24865
 20
603.024
 30
0.0
 11
247.55865
 21
603.024
 31
0.0
  0
LINE
  5
614
330
1D
100
AcDbEntity
  8
0
100
AcDbLine
 10
246.49665
 20
603.024
 30
0.0
 11
247.47665
 21
603.024
 31
0.0
  0
LINE
  5
615
330
1D
100
AcDbEntity
  8
0
100
AcDbLine
 10
246.49565
 20
603.024
 30
0.0
 11
247.47665
 21
603.024
 31
0.0
  0
LINE
  5
616
330
1D
100
AcDbEntity
  8
0
100
AcDbLine
 10
246.24765
 20
603.024
 30
0.0
 11
247.55865
 21
603.024
 31
0.0
  0
LINE
  5
617
330
1D
100
AcDbEntity
  8
0
100
AcDbLine
 10
246.05865
 20
603.024
 30
0.0
 11
247.35665
 21
603.024
 31
0.0
  0
LINE
  5
618
330
1D
100
AcDbEntity
  8
0
100
AcDbLine
 10
246.43465
 20
603.024
 30
0.0
 11
247.41065
 21
603.024
 31
0.0
  0
LINE
  5
619
330
1D
100
AcDbEntity
  8
0
100
AcDbLine
 10
246.75265
 20
583.024
 30
0.0
 11
246.75265
 21
588.024
 31
0.0
  0
LINE
  5
61A
330
1D
100
AcDbEntity
  8
0
100
AcDbLine
 10
246.75265
 20
588.024
 30
0.0
 11
246.75265
 21
590.024
 31
0.0
  0
LINE
  5
61B
330
1D
100
AcDbEntity
  8
0
100
AcDbLine
 10
246.75265
 20
588.024
 30
0.0
 11
246.75265
 21
583.024
 31
0.0
  0
LINE
  5
61C
330
1D
100
AcDbEntity
  8
0
100
AcDbLine
 10
246.75265
 20
590.024
 30
0.0
 11
246.75265
 21
588.024
 31
0.0
  0
LINE
  5
61D
330
1D
100
AcDbEntity
  8
0
100
AcDbLine
 10
246.75265
 20
602.85
 30
0.0
 11
246.75265
 21
600.198
 31
0.0
  0
LINE
  5
61E
330
1D
100
AcDbEntity
  8
0
100
AcDbLine
 10
246.75265
 20
600.198
 30
0.0
 11
246.75265
 21
602.85
 31
0.0
  0
LINE
  5
61F
330
1D
100
AcDbEntity
  8
0
100
AcDbLine
 10
246.91365
 20
603.024
 30
0.0
 11
248.07865
 21
603.024
 31
0.0
  0
LINE
  5
620
330
1D
100
AcDbEntity
  8
0
100
AcDbLine
 10
246.91465
 20
603.024
 30
0.0
 11
248.07865
 21
603.024
 31
0.0
  0
LINE
  5
621
330
1D
100
AcDbEntity
  8
0
100
AcDbLine
 10
246.99965
 20
603.024
 30
0.0
 11
247.83365
 21
603.024
 31
0.0
  0
LINE
  5
622
330
1D
100
AcDbEntity
  8
0
100
AcDbLine
 10
247.01865
 20
603.024
 30
0.0
 11
247.85365
 21
603.024
 31
0.0
  0
LINE
  5
623
330
1D
100
AcDbEntity
  8
0
100
AcDbLine
 10
247.01965
 20
603.024
 30
0.0
 11
247.85365
 21
603.024
 31
0.0
  0
LINE
  5
624
330
1D
100
AcDbEntity
  8
0
100
AcDbLine
 10
246.93365
 20
603.024
 30
0.0
 11
248.09865
 21
603.024
 31
0.0
  0
LINE
  5
625
330
1D
100
AcDbEntity
  8
0
100
AcDbLine
 10
246.93465
 20
603.024
 30
0.0
 11
248.09865
 21
603.024
 31
0.0
  0
LINE
  5
626
330
1D
100
AcDbEntity
  8
0
100
AcDbLine
 10
246.73865
 20
603.024
 30
0.0
 11
247.89265
 21
603.024
 31
0.0
  0
LINE
  5
627
330
1D
100
AcDbEntity
  8
0
100
AcDbLine
 10
246.95565
 20
603.024
 30
0.0
 11
247.78565
 21
603.024
 31
0.0
  0
LINE
  5
628
330
1D
100
AcDbEntity
  8
0
100
AcDbLine
 10
246.73765
 20
603.024
 30
0.0
 11
247.89165
 21
603.024
 31
0.0
  0
LINE
  5
751
330
1D
100
AcDbEntity
  8
0
100
AcDbLine
 10
245.98465
 20
603.024
 30
0.0
 11
246.73765
 21
603.024
 31
0.0
  0
LINE
  5
752
330
1D
100
AcDbEntity
  8
0
100
AcDbLine
 10
245.98465
 20
603.024
 30
0.0
 11
246.95565
 21
603.024
 31
0.0
  0
LINE
  5
753
330
1D
100
AcDbEntity
  8
0
100
AcDbLine
 10
245.98465
 20
603.024
 30
0.0
 11
246.43465
 21
603.024
 31
0.0
  0
LINE
  5
754
330
1D
100
AcDbEntity
  8
0
100
AcDbLine
 10
245.98465
 20
603.024
 30
0.0
 11
246.05865
 21
603.024
 31
0.0
  0
LINE
  5
755
330
1D
100
AcDbEntity
  8
0
100
AcDbLine
 10
245.98465
 20
603.024
 30
0.0
 11
246.05765
 21
603.024
 31
0.0
  0
LINE
  5
756
330
1D
100
AcDbEntity
  8
0
100
AcDbLine
 10
245.98465
 20
603.024
 30
0.0
 11
246.73865
 21
603.024
 31
0.0
  0
LINE
  5
757
330
1D
100
AcDbEntity
  8
0
100
AcDbLine
 10
245.98465
 20
603.024
 30
0.0
 11
246.24765
 21
603.024
 31
0.0
  0
LINE
  5
758
330
1D
100
AcDbEntity
  8
0
100
AcDbLine
 10
245.98465
 20
603.024
 30
0.0
 11
246.49565
 21
603.024
 31
0.0
  0
LINE
  5
759
330
1D
100
AcDbEntity
  8
0
100
AcDbLine
 10
245.98465
 20
603.024
 30
0.0
 11
246.49665
 21
603.024
 31
0.0
  0
LINE
  5
75A
330
1D
100
AcDbEntity
  8
0
100
AcDbLine
 10
245.98465
 20
603.024
 30
0.0
 11
246.24865
 21
603.024
 31
0.0
  0
LINE
  5
75B
330
1D
100
AcDbEntity
  8
0
100
AcDbLine
 10
245.98465
 20
603.024
 30
0.0
 11
246.91465
 21
603.024
 31
0.0
  0
LINE
  5
75C
330
1D
100
AcDbEntity
  8
0
100
AcDbLine
 10
245.98465
 20
603.024
 30
0.0
 11
246.22765
 21
603.024
 31
0.0
  0
LINE
  5
75D
330
1D
100
AcDbEntity
  8
0
100
AcDbLine
 10
245.98465
 20
603.024
 30
0.0
 11
246.91365
 21
603.024
 31
0.0
  0
LINE
  5
75E
330
1D
100
AcDbEntity
  8
0
100
AcDbLine
 10
245.98465
 20
603.024
 30
0.0
 11
246.99965
 21
603.024
 31
0.0
  0
LINE
  5
75F
330
1D
100
AcDbEntity
  8
0
100
AcDbLine
 10
245.98465
 20
603.024
 30
0.0
 11
246.22865
 21
603.024
 31
0.0
  0
LINE
  5
760
330
1D
100
AcDbEntity
  8
0
100
AcDbLine
 10
245.98465
 20
603.024
 30
0.0
 11
246.47565
 21
603.024
 31
0.0
  0
LINE
  5
761
330
1D
100
AcDbEntity
  8
0
100
AcDbLine
 10
245.98465
 20
603.024
 30
0.0
 11
246.75265
 21
602.85
 31
0.0
  0
LINE
  5
762
330
1D
100
AcDbEntity
  8
0
100
AcDbLine
 10
247.45665
 20
603.024
 30
0.0
 11
248.14065
 21
603.024
 31
0.0
  0
LINE
  5
763
330
1D
100
AcDbEntity
  8
0
100
AcDbLine
 10
247.53865
 20
603.024
 30
0.0
 11
248.55165
 21
603.024
 31
0.0
  0
LINE
  5
764
330
1D
100
AcDbEntity
  8
0
100
AcDbLine
 10
247.47665
 20
603.024
 30
0.0
 11
248.16165
 21
603.024
 31
0.0
  0
LINE
  5
765
330
1D
100
AcDbEntity
  8
0
100
AcDbLine
 10
247.47665
 20
603.024
 30
0.0
 11
248.16065
 21
603.024
 31
0.0
  0
LINE
  5
766
330
1D
100
AcDbEntity
  8
0
100
AcDbLine
 10
247.83365
 20
603.024
 30
0.0
 11
248.36765
 21
603.024
 31
0.0
  0
LINE
  5
767
330
1D
100
AcDbEntity
  8
0
100
AcDbLine
 10
248.14065
 20
603.024
 30
0.0
 11
248.52265
 21
603.024
 31
0.0
  0
LINE
  5
768
330
1D
100
AcDbEntity
  8
0
100
AcDbLine
 10
248.07865
 20
603.024
 30
0.0
 11
248.94165
 21
603.024
 31
0.0
  0
LINE
  5
769
330
1D
100
AcDbEntity
  8
0
100
AcDbLine
 10
248.16065
 20
603.024
 30
0.0
 11
248.54365
 21
603.024
 31
0.0
  0
LINE
  5
76A
330
1D
100
AcDbEntity
  8
0
100
AcDbLine
 10
248.16165
 20
603.024
 30
0.0
 11
248.54365
 21
603.024
 31
0.0
  0
LINE
  5
76B
330
1D
100
AcDbEntity
  8
0
100
AcDbLine
 10
247.85365
 20
603.024
 30
0.0
 11
248.38865
 21
603.024
 31
0.0
  0
LINE
  5
76C
330
1D
100
AcDbEntity
  8
0
100
AcDbLine
 10
248.09865
 20
603.024
 30
0.0
 11
248.96165
 21
603.024
 31
0.0
  0
LINE
  5
76D
330
1D
100
AcDbEntity
  8
0
100
AcDbLine
 10
247.55865
 20
603.024
 30
0.0
 11
248.57165
 21
603.024
 31
0.0
  0
LINE
  5
76E
330
1D
100
AcDbEntity
  8
0
100
AcDbLine
 10
247.89265
 20
603.024
 30
0.0
 11
248.74765
 21
603.024
 31
0.0
  0
LINE
  5
76F
330
1D
100
AcDbEntity
  8
0
100
AcDbLine
 10
247.41065
 20
603.024
 30
0.0
 11
248.09165
 21
603.024
 31
0.0
  0
LINE
  5
770
330
1D
100
AcDbEntity
  8
0
100
AcDbLine
 10
248.09165
 20
603.024
 30
0.0
 11
248.47165
 21
603.024
 31
0.0
  0
LINE
  5
771
330
1D
100
AcDbEntity
  8
0
100
AcDbLine
 10
248.36765
 20
603.024
 30
0.0
 11
248.59865
 21
603.024
 31
0.0
  0
LINE
  5
772
330
1D
100
AcDbEntity
  8
0
100
AcDbLine
 10
248.52265
 20
603.024
 30
0.0
 11
248.59865
 21
603.024
 31
0.0
  0
LINE
  5
773
330
1D
100
AcDbEntity
  8
0
100
AcDbLine
 10
248.55165
 20
603.024
 30
0.0
 11
249.25965
 21
603.024
 31
0.0
  0
LINE
  5
774
330
1D
100
AcDbEntity
  8
0
100
AcDbLine
 10
248.38865
 20
603.024
 30
0.0
 11
248.61965
 21
603.024
 31
0.0
  0
LINE
  5
775
330
1D
100
AcDbEntity
  8
0
100
AcDbLine
 10
248.38865
 20
603.024
 30
0.0
 11
248.61865
 21
603.024
 31
0.0
  0
LINE
  5
776
330
1D
100
AcDbEntity
  8
0
100
AcDbLine
 10
248.54365
 20
603.024
 30
0.0
 11
248.61865
 21
603.024
 31
0.0
  0
LINE
  5
777
330
1D
100
AcDbEntity
  8
0
100
AcDbLine
 10
248.54365
 20
603.024
 30
0.0
 11
248.61965
 21
603.024
 31
0.0
  0
LINE
  5
778
330
1D
100
AcDbEntity
  8
0
100
AcDbLine
 10
248.57165
 20
603.024
 30
0.0
 11
249.27965
 21
603.024
 31
0.0
  0
LINE
  5
77A
330
1D
100
AcDbEntity
  8
0
100
AcDbLine
 10
248.36065
 20
603.024
 30
0.0
 11
249.06265
 21
603.024
 31
0.0
  0
LINE
  5
77B
330
1D
100
AcDbEntity
  8
0
100
AcDbLine
 10
248.47165
 20
603.024
 30
0.0
 11
248.54665
 21
603.024
 31
0.0
  0
LINE
  5
77C
330
1D
100
AcDbEntity
  8
0
100
AcDbLine
 10
248.31865
 20
603.024
 30
0.0
 11
248.54665
 21
603.024
 31
0.0
  0
LINE
  5
77D
330
1D
100
AcDbEntity
  8
0
100
AcDbLine
 10
247.78565
 20
603.024
 30
0.0
 11
248.31865
 21
603.024
 31
0.0
  0
LINE
  5
77E
330
1D
100
AcDbEntity
  8
0
100
AcDbLine
 10
248.94165
 20
603.024
 30
0.0
 11
249.49465
 21
603.024
 31
0.0
  0
LINE
  5
77F
330
1D
100
AcDbEntity
  8
0
100
AcDbLine
 10
248.96165
 20
603.024
 30
0.0
 11
249.51465
 21
603.024
 31
0.0
  0
LINE
  5
780
330
1D
100
AcDbEntity
  8
0
100
AcDbLine
 10
248.74765
 20
603.024
 30
0.0
 11
249.29565
 21
603.024
 31
0.0
  0
LINE
  5
781
330
1D
100
AcDbEntity
  8
0
100
AcDbLine
 10
249.25965
 20
603.024
 30
0.0
 11
249.65465
 21
603.024
 31
0.0
  0
LINE
  5
782
330
1D
100
AcDbEntity
  8
0
100
AcDbLine
 10
249.25965
 20
603.024
 30
0.0
 11
249.65365
 21
603.024
 31
0.0
  0
LINE
  5
783
330
1D
100
AcDbEntity
  8
0
100
AcDbLine
 10
249.27965
 20
603.024
 30
0.0
 11
249.67465
 21
603.024
 31
0.0
  0
LINE
  5
784
330
1D
100
AcDbEntity
  8
0
100
AcDbLine
 10
249.27965
 20
603.024
 30
0.0
 11
249.67365
 21
603.024
 31
0.0
  0
LINE
  5
785
330
1D
100
AcDbEntity
  8
0
100
AcDbLine
 10
249.29565
 20
603.024
 30
0.0
 11
249.53065
 21
603.024
 31
0.0
  0
LINE
  5
787
330
1D
100
AcDbEntity
  8
0
100
AcDbLine
 10
249.06265
 20
603.024
 30
0.0
 11
249.45265
 21
603.024
 31
0.0
  0
LINE
  5
788
330
1D
100
AcDbEntity
  8
0
100
AcDbLine
 10
249.65365
 20
603.024
 30
0.0
 11
249.73265
 21
603.024
 31
0.0
  0
LINE
  5
789
330
1D
100
AcDbEntity
  8
0
100
AcDbLine
 10
249.49465
 20
603.024
 30
0.0
 11
249.73265
 21
603.024
 31
0.0
  0
LINE
  5
78A
330
1D
100
AcDbEntity
  8
0
100
AcDbLine
 10
249.65465
 20
603.024
 30
0.0
 11
249.73265
 21
603.024
 31
0.0
  0
LINE
  5
78B
330
1D
100
AcDbEntity
  8
0
100
AcDbLine
 10
249.75265
 20
250.024
 30
0.0
 11
249.75265
 21
550.024
 31
0.0
  0
LINE
  5
78C
330
1D
100
AcDbEntity
  8
0
100
AcDbLine
 10
249.75265
 20
250.024
 30
0.0
 11
299.75265
 21
50.024
 31
0.0
  0
LINE
  5
78D
330
1D
100
AcDbEntity
  8
0
100
AcDbLine
 10
249.75265
 20
250.024
 30
0.0
 11
299.75265
 21
50.024
 31
0.0
  0
LINE
  5
78E
330
1D
100
AcDbEntity
  8
0
100
AcDbLine
 10
249.67365
 20
603.024
 30
0.0
 11
249.75265
 21
603.024
 31
0.0
  0
LINE
  5
78F
330
1D
100
AcDbEntity
  8
0
100
AcDbLine
 10
249.51465
 20
603.024
 30
0.0
 11
249.75265
 21
603.024
 31
0.0
  0
LINE
  5
790
330
1D
100
AcDbEntity
  8
0
100
AcDbLine
 10
299.75265
 20
50.024
 30
0.0
 11
299.75265
 21
0.024
 31
0.0
  0
LINE
  5
791
330
1D
100
AcDbEntity
  8
0
100
AcDbLine
 10
299.75265
 20
0.024
 30
0.0
 11
299.75265
 21
50.024
 31
0.0
  0
LINE
  5
793
330
1D
100
AcDbEntity
  8
0
100
AcDbLine
 10
249.67465
 20
603.024
 30
0.0
 11
249.75265
 21
603.024
 31
0.0
  0
LINE
  5
794
330
1D
100
AcDbEntity
  8
0
100
AcDbLine
 10
249.45265
 20
603.024
 30
0.0
 11
249.53165
 21
603.024
 31
0.0
  0
LINE
  5
795
330
1D
100
AcDbEntity
  8
0
100
AcDbLine
 10
249.45265
 20
603.024
 30
0.0
 11
249.53065
 21
603.024
 31
0.0
  0
LINE
  5
796
330
1D
100
AcDbEntity
  8
0
100
AcDbLine
 10
249.29465
 20
603.024
 30
0.0
 11
249.53165
 21
603.024
 31
0.0
  0
LINE
  5
797
330
1D
100
AcDbEntity
  8
0
100
AcDbLine
 10
248.74665
 20
603.024
 30
0.0
 11
249.29465
 21
603.024
 31
0.0
  0
LINE
  5
7A6
330
1D
100
AcDbEntity
  8
0
100
AcDbLine
 10
247.89165
 20
603.024
 30
0.0
 11
248.74665
 21
603.024
 31
0.0
  0
LINE
  5
7A7
330
1D
100
AcDbEntity
  8
0
100
AcDbLine
 10
247.35665
 20
603.024
 30
0.0
 11
248.36165
 21
603.024
 31
0.0
  0
LINE
  5
7A8
330
1D
100
AcDbEntity
  8
0
100
AcDbLine
 10
247.35665
 20
603.024
 30
0.0
 11
248.36065
 21
603.024
 31
0.0
  0
LINE
  5
CFD
330
1D
100
AcDbEntity
  8
0
100
AcDbLine
 10
171.76765
 20
637.7097
 30
0.0
 11
187.271976368536
 21
619.259236401331
 31
0.0
  0
LINE
  5
CFE
330
1D
100
AcDbEntity
  8
0
100
AcDbLine
 10
171.76765
 20
637.7097
 30
0.0
 11
187.271976368536
 21
619.259236401331
 31
0.0
  0
LINE
  5
CFF
330
1D
100
AcDbEntity
  8
0
100
AcDbLine
 10
159.23965
 20
652.6525
 30
0.0
 11
171.26365
 21
638.3304
 31
0.0
  0
LINE
  5
D00
330
1D
100
AcDbEntity
  8
0
100
AcDbLine
 10
158.84865
 20
654.6804
 30
0.0
 11
159.28465
 21
655.1348
 31
0.0
  0
LINE
  5
D01
330
1D
100
AcDbEntity
  8
0
100
AcDbLine
 10
158.80165
 20
653.8313
 30
0.0
 11
159.19965
 21
652.6238
 31
0.0
  0
LINE
  5
D02
330
1D
100
AcDbEntity
  8
0
100
AcDbLine
 10
158.80165
 20
653.8313
 30
0.0
 11
158.84865
 21
654.6804
 31
0.0
  0
LINE
  5
D03
330
1D
100
AcDbEntity
  8
0
100
AcDbLine
 10
159.28465
 20
655.1348
 30
0.0
 11
160.22965
 21
655.9265
 31
0.0
  0
LINE
  5
D04
330
1D
100
AcDbEntity
  8
0
100
AcDbLine
 10
159.75465
 20
656.4009
 30
0.0
 11
160.13065
 21
656.7554
 31
0.0
  0
LINE
  5
D05
330
1D
100
AcDbEntity
  8
0
100
AcDbLine
 10
159.75465
 20
656.4009
 30
0.0
 11
160.697978535095
 21
656.315937959753
 31
0.0
  0
LINE
  5
D06
330
1D
100
AcDbEntity
  8
0
100
AcDbLine
 10
160.13065
 20
656.7554
 30
0.0
 11
161.01065
 21
657.5095
 31
0.0
  0
LINE
  5
D07
330
1D
100
AcDbEntity
  8
0
100
AcDbLine
 10
161.01065
 20
657.5095
 30
0.0
 11
162.43465
 21
658.7512
 31
0.0
  0
LINE
  5
D08
330
1D
100
AcDbEntity
  8
0
100
AcDbLine
 10
162.43465
 20
658.7512
 30
0.0
 11
164.32465
 21
660.3042
 31
0.0
  0
LINE
  5
D09
330
1D
100
AcDbEntity
  8
0
100
AcDbLine
 10
164.32465
 20
660.3042
 30
0.0
 11
166.59065
 21
662.2117
 31
0.0
  0
LINE
  5
D0A
330
1D
100
AcDbEntity
  8
0
100
AcDbLine
 10
166.59065
 20
662.2117
 30
0.0
 11
168.89465
 21
664.2075
 31
0.0
  0
LINE
  5
D0B
330
1D
100
AcDbEntity
  8
0
100
AcDbLine
 10
168.89465
 20
664.2075
 30
0.0
 11
171.28865
 21
666.16
 31
0.0
  0
LINE
  5
D0C
330
1D
100
AcDbEntity
  8
0
100
AcDbLine
 10
171.28865
 20
666.16
 30
0.0
 11
173.51465
 21
667.9793
 31
0.0
  0
LINE
  5
D0D
330
1D
100
AcDbEntity
  8
0
100
AcDbLine
 10
173.51465
 20
667.9793
 30
0.0
 11
175.44465
 21
669.6205
 31
0.0
  0
LINE
  5
D0E
330
1D
100
AcDbEntity
  8
0
100
AcDbLine
 10
10.12615
 20
712.555
 30
0.0
 11
10.24875
 21
712.777
 31
0.0
  0
LINE
  5
D0F
330
1D
100
AcDbEntity
  8
0
100
AcDbLine
 10
10.28485
 20
711.348
 30
0.0
 11
10.347540378548
 21
711.285422712935
 31
0.0
  0
LINE
  5
D10
330
1D
100
AcDbEntity
  8
0
100
AcDbLine
 10
10.24875
 20
712.777
 30
0.0
 11
20.27505
 21
721.593
 31
0.0
  0
LINE
  5
D11
330
1D
100
AcDbEntity
  8
0
100
AcDbLine
 10
10.24875
 20
712.777
 30
0.0
 11
20.27515
 21
721.592
 31
0.0
  0
LINE
  5
D12
330
1D
100
AcDbEntity
  8
0
100
AcDbLine
 10
10.12625
 20
712.555
 30
0.0
 11
10.28495
 21
711.348
 31
0.0
  0
LINE
  5
D13
330
1D
100
AcDbEntity
  8
0
100
AcDbLine
 10
0.50715
 20
784.248
 30
0.0
 11
0.96985
 21
784.031
 31
0.0
  0
LINE
  5
D14
330
1D
100
AcDbEntity
  8
0
100
AcDbLine
 10
3.46385
 20
781.765
 30
0.0
 11
3.852685549431
 21
782.599073415899
 31
0.0
  0
LINE
  5
D15
330
1D
100
AcDbEntity
  8
0
100
AcDbLine
 10
3.46385
 20
781.765
 30
0.0
 11
4.12525
 21
781.456
 31
0.0
  0
LINE
  5
D16
330
1D
100
AcDbEntity
  8
0
100
AcDbLine
 10
2.491761357031
 20
783.321770805118
 30
0.0
 11
3.839523894138
 21
782.570840948973
 31
0.0
  0
LINE
  5
D17
330
1D
100
AcDbEntity
  8
0
100
AcDbLine
 10
2.491761357031
 20
783.321770805118
 30
0.0
 11
3.839523894138
 21
782.570840948973
 31
0.0
  0
LINE
  5
D18
330
1D
100
AcDbEntity
  8
0
100
AcDbLine
 10
2.09475
 20
783.507
 30
0.0
 11
4.01305
 21
782.612
 31
0.0
  0
LINE
  5
D19
330
1D
100
AcDbEntity
  8
0
100
AcDbLine
 10
2.09475
 20
783.507
 30
0.0
 11
2.491761357031
 21
783.321770805118
 31
0.0
  0
LINE
  5
D1A
330
1D
100
AcDbEntity
  8
0
100
AcDbLine
 10
0.96985
 20
784.031
 30
0.0
 11
2.09475
 21
783.507
 31
0.0
  0
LINE
  5
D1B
330
1D
100
AcDbEntity
  8
0
100
AcDbLine
 10
6.497661253825
 20
780.35012000005
 30
0.0
 11
6.66301
 21
780.273
 31
0.0
  0
LINE
  5
D1C
330
1D
100
AcDbEntity
  8
0
100
AcDbLine
 10
6.66301
 20
780.273
 30
0.0
 11
6.728204439913
 21
780.242686617815
 31
0.0
  0
LINE
  5
D1D
330
1D
100
AcDbEntity
  8
0
100
AcDbLine
 10
6.66301
 20
780.273
 30
0.0
 11
6.728204439913
 21
780.242686617815
 31
0.0
  0
LINE
  5
D1E
330
1D
100
AcDbEntity
  8
0
100
AcDbLine
 10
7.03881280501
 20
780.098263410964
 30
0.0
 11
7.32542
 21
779.965
 31
0.0
  0
LINE
  5
D1F
330
1D
100
AcDbEntity
  8
0
100
AcDbLine
 10
7.038926120695
 20
780.098506467772
 30
0.0
 11
7.32542
 21
779.965
 31
0.0
  0
LINE
  5
D20
330
1D
100
AcDbEntity
  8
0
100
AcDbLine
 10
7.03869
 20
780.098
 30
0.0
 11
7.400830890922
 21
780.874775158821
 31
0.0
  0
LINE
  5
D21
330
1D
100
AcDbEntity
  8
0
100
AcDbLine
 10
5.89277
 20
780.632
 30
0.0
 11
6.296887185364
 21
781.498802078751
 31
0.0
  0
LINE
  5
D22
330
1D
100
AcDbEntity
  8
0
100
AcDbLine
 10
5.89277
 20
780.632
 30
0.0
 11
7.03869
 21
780.098
 31
0.0
  0
LINE
  5
D23
330
1D
100
AcDbEntity
  8
0
100
AcDbLine
 10
7.32542
 20
779.965
 30
0.0
 11
7.571116889824
 21
780.491717576501
 31
0.0
  0
LINE
  5
D24
330
1D
100
AcDbEntity
  8
0
100
AcDbLine
 10
7.294181431456
 20
780.646017090093
 30
0.0
 11
8.803966563531
 21
779.804813464955
 31
0.0
  0
LINE
  5
D25
330
1D
100
AcDbEntity
  8
0
100
AcDbLine
 10
4.517779238498
 20
781.273076147486
 30
0.0
 11
4.68715
 21
781.194
 31
0.0
  0
LINE
  5
D26
330
1D
100
AcDbEntity
  8
0
100
AcDbLine
 10
4.517779238498
 20
781.273076147485
 30
0.0
 11
4.68715
 21
781.194
 31
0.0
  0
LINE
  5
D27
330
1D
100
AcDbEntity
  8
0
100
AcDbLine
 10
4.68715
 20
781.194
 30
0.0
 11
5.077696815622
 21
781.012147100034
 31
0.0
  0
LINE
  5
D28
330
1D
100
AcDbEntity
  8
0
100
AcDbLine
 10
4.12525
 20
781.456
 30
0.0
 11
4.494999108888
 21
782.24912257831
 31
0.0
  0
LINE
  5
D29
330
1D
100
AcDbEntity
  8
0
100
AcDbLine
 10
4.12525
 20
781.456
 30
0.0
 11
5.27114
 21
780.922
 31
0.0
  0
LINE
  5
D2A
330
1D
100
AcDbEntity
  8
0
100
AcDbLine
 10
5.51809
 20
780.807
 30
0.0
 11
5.578206606631
 21
780.77896112572
 31
0.0
  0
LINE
  5
D2B
330
1D
100
AcDbEntity
  8
0
100
AcDbLine
 10
5.51809
 20
780.807
 30
0.0
 11
5.578206606631
 21
780.77896112572
 31
0.0
  0
LINE
  5
D2C
330
1D
100
AcDbEntity
  8
0
100
AcDbLine
 10
5.271167912894
 20
780.922059871842
 30
0.0
 11
5.34861
 21
780.886
 31
0.0
  0
LINE
  5
D2D
330
1D
100
AcDbEntity
  8
0
100
AcDbLine
 10
5.271178241592
 20
780.922082026414
 30
0.0
 11
5.34861
 21
780.886
 31
0.0
  0
LINE
  5
D2E
330
1D
100
AcDbEntity
  8
0
100
AcDbLine
 10
5.23137
 20
780.941
 30
0.0
 11
5.602036570541
 21
781.735623806043
 31
0.0
  0
LINE
  5
D2F
330
1D
100
AcDbEntity
  8
0
100
AcDbLine
 10
5.23137
 20
780.941
 30
0.0
 11
5.89277
 21
780.632
 31
0.0
  0
LINE
  5
D30
330
1D
100
AcDbEntity
  8
0
100
AcDbLine
 10
7.294181431456
 20
780.646017090093
 30
0.0
 11
8.803966563531
 21
779.804813464955
 31
0.0
  0
LINE
  5
D31
330
1D
100
AcDbEntity
  8
0
100
AcDbLine
 10
9.26254
 20
779.061
 30
0.0
 11
9.636968531552
 21
779.864131569381
 31
0.0
  0
LINE
  5
D32
330
1D
100
AcDbEntity
  8
0
100
AcDbLine
 10
9.26254
 20
779.061
 30
0.0
 11
10.40846
 21
778.527
 31
0.0
  0
LINE
  5
D33
330
1D
100
AcDbEntity
  8
0
100
AcDbLine
 10
8.60114
 20
779.37
 30
0.0
 11
8.991191007124
 21
780.206179576107
 31
0.0
  0
LINE
  5
D34
330
1D
100
AcDbEntity
  8
0
100
AcDbLine
 10
8.60114
 20
779.37
 30
0.0
 11
9.26254
 21
779.061
 31
0.0
  0
LINE
  5
D35
330
1D
100
AcDbEntity
  8
0
100
AcDbLine
 10
8.60114
 20
779.37
 30
0.0
 11
9.74606
 21
778.835
 31
0.0
  0
LINE
  5
D36
330
1D
100
AcDbEntity
  8
0
100
AcDbLine
 10
8.60114
 20
779.37
 30
0.0
 11
8.803966563531
 21
779.804813464955
 31
0.0
  0
LINE
  5
D37
330
1D
100
AcDbEntity
  8
0
100
AcDbLine
 10
8.075633472644
 20
780.718282662244
 30
0.0
 11
8.18129
 21
780.669
 31
0.0
  0
LINE
  5
D38
330
1D
100
AcDbEntity
  8
0
100
AcDbLine
 10
8.075633472643
 20
780.718282662244
 30
0.0
 11
9.023884305409
 21
780.276266482184
 31
0.0
  0
LINE
  5
D39
330
1D
100
AcDbEntity
  8
0
100
AcDbLine
 10
8.075633472644
 20
780.718282662244
 30
0.0
 11
9.023884305409
 21
780.276266482184
 31
0.0
  0
LINE
  5
D3A
330
1D
100
AcDbEntity
  8
0
100
AcDbLine
 10
8.18129
 20
780.669
 30
0.0
 11
11.35644
 21
779.188
 31
0.0
  0
LINE
  5
D3B
330
1D
100
AcDbEntity
  8
0
100
AcDbLine
 10
8.075633472643
 20
780.718282662244
 30
0.0
 11
8.18129
 21
780.669
 31
0.0
  0
LINE
  5
D3C
330
1D
100
AcDbEntity
  8
0
100
AcDbLine
 10
6.46084
 20
781.471
 30
0.0
 11
9.76887
 21
779.929
 31
0.0
  0
LINE
  5
D3D
330
1D
100
AcDbEntity
  8
0
100
AcDbLine
 10
4.01305
 20
782.612
 30
0.0
 11
6.46084
 21
781.471
 31
0.0
  0
LINE
  5
D3E
330
1D
100
AcDbEntity
  8
0
100
AcDbLine
 10
6.35393
 20
782.624
 30
0.0
 11
9.66197
 21
781.082
 31
0.0
  0
LINE
  5
D3F
330
1D
100
AcDbEntity
  8
0
100
AcDbLine
 10
3.77425
 20
783.827
 30
0.0
 11
6.35393
 21
782.624
 31
0.0
  0
LINE
  5
D40
330
1D
100
AcDbEntity
  8
0
100
AcDbLine
 10
1.92195
 20
784.691
 30
0.0
 11
3.77425
 21
783.827
 31
0.0
  0
LINE
  5
D41
330
1D
100
AcDbEntity
  8
0
100
AcDbLine
 10
0.73105
 20
785.246
 30
0.0
 11
1.92195
 21
784.691
 31
0.0
  0
LINE
  5
D42
330
1D
100
AcDbEntity
  8
0
100
AcDbLine
 10
0.26835
 20
785.463
 30
0.0
 11
0.73105
 21
785.246
 31
0.0
  0
LINE
  5
D43
330
1D
100
AcDbEntity
  8
0
100
AcDbLine
 10
0.26835
 20
785.463
 30
0.0
 11
9.14342
 21
804.495
 31
0.0
  0
LINE
  5
D44
330
1D
100
AcDbEntity
  8
0
100
AcDbLine
 10
0.26835
 20
785.463
 30
0.0
 11
0.50715
 21
784.248
 31
0.0
  0
LINE
  5
D45
330
1D
100
AcDbEntity
  8
0
100
AcDbLine
 10
9.74606
 20
778.835
 30
0.0
 11
10.40846
 21
778.527
 31
0.0
  0
LINE
  5
D46
330
1D
100
AcDbEntity
  8
0
100
AcDbLine
 10
9.76887
 20
779.929
 30
0.0
 11
13.60543
 21
778.139
 31
0.0
  0
LINE
  5
D47
330
1D
100
AcDbEntity
  8
0
100
AcDbLine
 10
9.66197
 20
781.082
 30
0.0
 11
13.56542
 21
779.262
 31
0.0
  0
LINE
  5
D48
330
1D
100
AcDbEntity
  8
0
100
AcDbLine
 10
9.60597
 20
804.279
 30
0.0
 11
10.7969
 21
803.724
 31
0.0
  0
LINE
  5
D49
330
1D
100
AcDbEntity
  8
0
100
AcDbLine
 10
9.14342
 20
804.495
 30
0.0
 11
9.60597
 21
804.279
 31
0.0
  0
LINE
  5
D4A
330
1D
100
AcDbEntity
  8
0
100
AcDbLine
 10
9.14342
 20
804.495
 30
0.0
 11
10.22745
 21
805.092
 31
0.0
  0
LINE
  5
D4B
330
1D
100
AcDbEntity
  8
0
100
AcDbLine
 10
10.40846
 20
778.527
 30
0.0
 11
10.745971293772
 21
779.250945832673
 31
0.0
  0
LINE
  5
D4C
330
1D
100
AcDbEntity
  8
0
100
AcDbLine
 10
10.550511917203
 20
778.831694673571
 30
0.0
 11
12.386084225527
 21
777.808972931807
 31
0.0
  0
LINE
  5
D4D
330
1D
100
AcDbEntity
  8
0
100
AcDbLine
 10
11.21959
 20
777.597
 30
0.0
 11
11.546683657403
 21
778.2986004932
 31
0.0
  0
LINE
  5
D4E
330
1D
100
AcDbEntity
  8
0
100
AcDbLine
 10
11.21959
 20
777.597
 30
0.0
 11
11.88099
 21
777.289
 31
0.0
  0
LINE
  5
D4F
330
1D
100
AcDbEntity
  8
0
100
AcDbLine
 10
11.21959
 20
777.597
 30
0.0
 11
12.096701838029
 21
777.188261336835
 31
0.0
  0
LINE
  5
D50
330
1D
100
AcDbEntity
  8
0
100
AcDbLine
 10
10.550511917203
 20
778.831694673571
 30
0.0
 11
12.386084225527
 21
777.808972931807
 31
0.0
  0
LINE
  5
D51
330
1D
100
AcDbEntity
  8
0
100
AcDbLine
 10
10.831046023373
 20
779.433427121735
 30
0.0
 11
11.853377470235
 21
778.956444280366
 31
0.0
  0
LINE
  5
D52
330
1D
100
AcDbEntity
  8
0
100
AcDbLine
 10
11.35644
 20
779.188
 30
0.0
 11
15.06112
 21
777.46
 31
0.0
  0
LINE
  5
D53
330
1D
100
AcDbEntity
  8
0
100
AcDbLine
 10
10.7969
 20
803.724
 30
0.0
 11
12.64924
 21
802.86
 31
0.0
  0
LINE
  5
D54
330
1D
100
AcDbEntity
  8
0
100
AcDbLine
 10
11.88099
 20
777.289
 30
0.0
 11
12.189387249125
 21
777.950132714277
 31
0.0
  0
LINE
  5
D55
330
1D
100
AcDbEntity
  8
0
100
AcDbLine
 10
11.88099
 20
777.289
 30
0.0
 11
12.096712735508
 21
777.188284711414
 31
0.0
  0
LINE
  5
D56
330
1D
100
AcDbEntity
  8
0
100
AcDbLine
 10
12.75799
 20
776.879
 30
0.0
 11
12.969458177995
 21
777.33258928435
 31
0.0
  0
LINE
  5
D57
330
1D
100
AcDbEntity
  8
0
100
AcDbLine
 10
12.75799
 20
776.879
 30
0.0
 11
13.902908
 21
776.345
 31
0.0
  0
LINE
  5
D58
330
1D
100
AcDbEntity
  8
0
100
AcDbLine
 10
12.09658
 20
777.188
 30
0.0
 11
12.425816892809
 21
777.894197632226
 31
0.0
  0
LINE
  5
D59
330
1D
100
AcDbEntity
  8
0
100
AcDbLine
 10
12.09658
 20
777.188
 30
0.0
 11
12.75799
 21
776.879
 31
0.0
  0
LINE
  5
D5A
330
1D
100
AcDbEntity
  8
0
100
AcDbLine
 10
12.95357
 20
777.34
 30
0.0
 11
13.375982162408
 21
778.246052054259
 31
0.0
  0
LINE
  5
D5B
330
1D
100
AcDbEntity
  8
0
100
AcDbLine
 10
12.95357
 20
777.34
 30
0.0
 11
14.276385
 21
776.723
 31
0.0
  0
LINE
  5
D5C
330
1D
100
AcDbEntity
  8
0
100
AcDbLine
 10
12.95357
 20
777.34
 30
0.0
 11
13.308177416876
 21
778.100614411964
 31
0.0
  0
LINE
  5
D5D
330
1D
100
AcDbEntity
  8
0
100
AcDbLine
 10
13.903373154277
 20
776.345997732841
 30
0.0
 11
14.212598
 21
776.202
 31
0.0
  0
LINE
  5
D5E
330
1D
100
AcDbEntity
  8
0
100
AcDbLine
 10
14.212598
 20
776.202
 30
0.0
 11
14.430781073914
 21
776.669733735031
 31
0.0
  0
LINE
  5
D5F
330
1D
100
AcDbEntity
  8
0
100
AcDbLine
 10
13.903412083434
 20
776.346081233951
 30
0.0
 11
14.212598
 21
776.202
 31
0.0
  0
LINE
  5
D60
330
1D
100
AcDbEntity
  8
0
100
AcDbLine
 10
13.902908
 20
776.345
 30
0.0
 11
14.114367352622
 21
776.798569817724
 31
0.0
  0
LINE
  5
D61
330
1D
100
AcDbEntity
  8
0
100
AcDbLine
 10
14.276385
 20
776.723
 30
0.0
 11
14.698898938229
 21
777.62927143029
 31
0.0
  0
LINE
  5
D62
330
1D
100
AcDbEntity
  8
0
100
AcDbLine
 10
14.288508175378
 20
776.749003609575
 30
0.0
 11
14.638499
 21
776.554
 31
0.0
  0
LINE
  5
D63
330
1D
100
AcDbEntity
  8
0
100
AcDbLine
 10
14.638499
 20
776.554
 30
0.0
 11
15.456639180578
 21
776.122592240622
 31
0.0
  0
LINE
  5
D64
330
1D
100
AcDbEntity
  8
0
100
AcDbLine
 10
14.638499
 20
776.554
 30
0.0
 11
15.456639180578
 21
776.122592240622
 31
0.0
  0
LINE
  5
D65
330
1D
100
AcDbEntity
  8
0
100
AcDbLine
 10
14.288508175378
 20
776.749003609575
 30
0.0
 11
14.638499
 21
776.554
 31
0.0
  0
LINE
  5
D66
330
1D
100
AcDbEntity
  8
0
100
AcDbLine
 10
14.846319054361
 20
777.560550461349
 30
0.0
 11
15.898148168054
 21
777.070232601411
 31
0.0
  0
LINE
  5
D67
330
1D
100
AcDbEntity
  8
0
100
AcDbLine
 10
14.846319054361
 20
777.560550461349
 30
0.0
 11
15.898148168054
 21
777.070232601411
 31
0.0
  0
LINE
  5
D68
330
1D
100
AcDbEntity
  8
0
100
AcDbLine
 10
15.06112
 20
777.46
 30
0.0
 11
19.22834
 21
775.517
 31
0.0
  0
LINE
  5
D69
330
1D
100
AcDbEntity
  8
0
100
AcDbLine
 10
13.60543
 20
778.139
 30
0.0
 11
18.03741
 21
776.073
 31
0.0
  0
LINE
  5
D6A
330
1D
100
AcDbEntity
  8
0
100
AcDbLine
 10
13.56542
 20
779.262
 30
0.0
 11
18.06338
 21
777.164
 31
0.0
  0
LINE
  5
D6B
330
1D
100
AcDbEntity
  8
0
100
AcDbLine
 10
15.92573
 20
775.403
 30
0.0
 11
16.290612158192
 21
776.185223357441
 31
0.0
  0
LINE
  5
D6C
330
1D
100
AcDbEntity
  8
0
100
AcDbLine
 10
15.92573
 20
775.403
 30
0.0
 11
17.07173
 21
774.868
 31
0.0
  0
LINE
  5
D6D
330
1D
100
AcDbEntity
  8
0
100
AcDbLine
 10
15.264411
 20
775.71
 30
0.0
 11
15.599727040695
 21
776.429711314598
 31
0.0
  0
LINE
  5
D6E
330
1D
100
AcDbEntity
  8
0
100
AcDbLine
 10
15.264411
 20
775.71
 30
0.0
 11
15.92573
 21
775.403
 31
0.0
  0
LINE
  5
D6F
330
1D
100
AcDbEntity
  8
0
100
AcDbLine
 10
15.264411
 20
775.71
 30
0.0
 11
16.41033
 21
775.176
 31
0.0
  0
LINE
  5
D70
330
1D
100
AcDbEntity
  8
0
100
AcDbLine
 10
15.264411
 20
775.71
 30
0.0
 11
15.456639180578
 21
776.122592240622
 31
0.0
  0
LINE
  5
D71
330
1D
100
AcDbEntity
  8
0
100
AcDbLine
 10
15.228877
 20
801.657
 30
0.0
 11
18.53691
 21
800.115
 31
0.0
  0
LINE
  5
D72
330
1D
100
AcDbEntity
  8
0
100
AcDbLine
 10
12.64924
 20
802.86
 30
0.0
 11
15.228877
 21
801.657
 31
0.0
  0
LINE
  5
D73
330
1D
100
AcDbEntity
  8
0
100
AcDbLine
 10
16.41033
 20
775.176
 30
0.0
 11
17.07173
 21
774.868
 31
0.0
  0
LINE
  5
D74
330
1D
100
AcDbEntity
  8
0
100
AcDbLine
 10
17.07173
 20
774.868
 30
0.0
 11
17.337097050705
 21
775.436885873689
 31
0.0
  0
LINE
  5
D75
330
1D
100
AcDbEntity
  8
0
100
AcDbLine
 10
17.2225870003
 20
775.191402683905
 30
0.0
 11
19.899545290366
 21
773.779834586796
 31
0.0
  0
LINE
  5
D76
330
1D
100
AcDbEntity
  8
0
100
AcDbLine
 10
17.705908166684
 20
776.227532012246
 30
0.0
 11
18.03741
 21
776.073
 31
0.0
  0
LINE
  5
D77
330
1D
100
AcDbEntity
  8
0
100
AcDbLine
 10
18.03741
 20
776.073
 30
0.0
 11
22.93301
 21
773.79
 31
0.0
  0
LINE
  5
D78
330
1D
100
AcDbEntity
  8
0
100
AcDbLine
 10
18.03741
 20
776.073
 30
0.0
 11
19.482637214691
 21
775.399036904335
 31
0.0
  0
LINE
  5
D79
330
1D
100
AcDbEntity
  8
0
100
AcDbLine
 10
18.06338
 20
777.164
 30
0.0
 11
23.02489
 21
774.851
 31
0.0
  0
LINE
  5
D7A
330
1D
100
AcDbEntity
  8
0
100
AcDbLine
 10
19.65457
 20
773.112
 30
0.0
 11
20.035449999977
 21
772.934634916326
 31
0.0
  0
LINE
  5
D7B
330
1D
100
AcDbEntity
  8
0
100
AcDbLine
 10
19.65457
 20
773.112
 30
0.0
 11
20.035449999977
 21
772.934634916326
 31
0.0
  0
LINE
  5
D7C
330
1D
100
AcDbEntity
  8
0
100
AcDbLine
 10
19.65457
 20
773.112
 30
0.0
 11
20.141503540378
 21
772.885088426276
 31
0.0
  0
LINE
  5
D7D
330
1D
100
AcDbEntity
  8
0
100
AcDbLine
 10
19.65457
 20
773.112
 30
0.0
 11
20.141503540378
 21
772.885088426276
 31
0.0
  0
LINE
  5
D7E
330
1D
100
AcDbEntity
  8
0
100
AcDbLine
 10
20.26156
 20
772.829
 30
0.0
 11
20.472854780221
 21
773.282217354291
 31
0.0
  0
LINE
  5
D7F
330
1D
100
AcDbEntity
  8
0
100
AcDbLine
 10
20.26156
 20
772.829
 30
0.0
 11
21.40748
 21
772.295
 31
0.0
  0
LINE
  5
D80
330
1D
100
AcDbEntity
  8
0
100
AcDbLine
 10
19.60015
 20
773.138
 30
0.0
 11
19.919918884692
 21
773.823510883372
 31
0.0
  0
LINE
  5
D81
330
1D
100
AcDbEntity
  8
0
100
AcDbLine
 10
19.60015
 20
773.138
 30
0.0
 11
20.26156
 21
772.829
 31
0.0
  0
LINE
  5
D82
330
1D
100
AcDbEntity
  8
0
100
AcDbLine
 10
19.06
 20
774.493
 30
0.0
 11
19.468296712398
 21
775.36829416836
 31
0.0
  0
LINE
  5
D83
330
1D
100
AcDbEntity
  8
0
100
AcDbLine
 10
19.06
 20
774.493
 30
0.0
 11
20.38381
 21
773.876
 31
0.0
  0
LINE
  5
D84
330
1D
100
AcDbEntity
  8
0
100
AcDbLine
 10
19.22834
 20
775.517
 30
0.0
 11
23.92508
 21
773.327
 31
0.0
  0
LINE
  5
D85
330
1D
100
AcDbEntity
  8
0
100
AcDbLine
 10
18.53691
 20
800.115
 30
0.0
 11
22.44045
 21
798.294
 31
0.0
  0
LINE
  5
D86
330
1D
100
AcDbEntity
  8
0
100
AcDbLine
 10
19.48905
 20
800.774
 30
0.0
 11
23.32561
 21
798.985
 31
0.0
  0
LINE
  5
D87
330
1D
100
AcDbEntity
  8
0
100
AcDbLine
 10
16.18102
 20
802.317
 30
0.0
 11
19.48905
 21
800.774
 31
0.0
  0
LINE
  5
D88
330
1D
100
AcDbEntity
  8
0
100
AcDbLine
 10
13.73326
 20
803.458
 30
0.0
 11
16.18102
 21
802.317
 31
0.0
  0
LINE
  5
D89
330
1D
100
AcDbEntity
  8
0
100
AcDbLine
 10
11.81503
 20
804.352
 30
0.0
 11
13.73326
 21
803.458
 31
0.0
  0
LINE
  5
D8A
330
1D
100
AcDbEntity
  8
0
100
AcDbLine
 10
10.68999
 20
804.877
 30
0.0
 11
11.81503
 21
804.352
 31
0.0
  0
LINE
  5
D8B
330
1D
100
AcDbEntity
  8
0
100
AcDbLine
 10
10.22745
 20
805.092
 30
0.0
 11
10.68999
 21
804.877
 31
0.0
  0
LINE
  5
D8C
330
1D
100
AcDbEntity
  8
0
100
AcDbLine
 10
10.22745
 20
805.092
 30
0.0
 11
55.72645
 21
786.082
 31
0.0
  0
LINE
  5
D8D
330
1D
100
AcDbEntity
  8
0
100
AcDbLine
 10
10.22745
 20
805.092
 30
0.0
 11
55.72645
 21
786.082
 31
0.0
  0
LINE
  5
D8E
330
1D
100
AcDbEntity
  8
0
100
AcDbLine
 10
20.496489999964
 20
772.719522357598
 30
0.0
 11
20.74607
 21
772.603
 31
0.0
  0
LINE
  5
D8F
330
1D
100
AcDbEntity
  8
0
100
AcDbLine
 10
20.496489999964
 20
772.719522357598
 30
0.0
 11
20.74607
 21
772.603
 31
0.0
  0
LINE
  5
D90
330
1D
100
AcDbEntity
  8
0
100
AcDbLine
 10
20.3211
 20
773.353
 30
0.0
 11
20.673808858192
 21
774.109543892743
 31
0.0
  0
LINE
  5
D91
330
1D
100
AcDbEntity
  8
0
100
AcDbLine
 10
20.3211
 20
773.353
 30
0.0
 11
21.64392
 21
772.736
 31
0.0
  0
LINE
  5
D92
330
1D
100
AcDbEntity
  8
0
100
AcDbLine
 10
20.3211
 20
773.353
 30
0.0
 11
20.632138517665
 21
774.020162974453
 31
0.0
  0
LINE
  5
D93
330
1D
100
AcDbEntity
  8
0
100
AcDbLine
 10
20.38381
 20
773.876
 30
0.0
 11
20.745026165499
 21
774.650364312958
 31
0.0
  0
LINE
  5
D94
330
1D
100
AcDbEntity
  8
0
100
AcDbLine
 10
20.27505
 20
721.593
 30
0.0
 11
26.88475
 21
727.134
 31
0.0
  0
LINE
  5
D95
330
1D
100
AcDbEntity
  8
0
100
AcDbLine
 10
20.27515
 20
721.592
 30
0.0
 11
26.88475
 21
727.134
 31
0.0
  0
LINE
  5
D96
330
1D
100
AcDbEntity
  8
0
100
AcDbLine
 10
20.74607
 20
772.603
 30
0.0
 11
21.40748
 21
772.295
 31
0.0
  0
LINE
  5
D97
330
1D
100
AcDbEntity
  8
0
100
AcDbLine
 10
21.407609370982
 20
772.295277341605
 30
0.0
 11
21.46189
 21
772.27
 31
0.0
  0
LINE
  5
D98
330
1D
100
AcDbEntity
  8
0
100
AcDbLine
 10
21.46189
 20
772.27
 30
0.0
 11
21.720037842544
 21
772.823409553132
 31
0.0
  0
LINE
  5
D99
330
1D
100
AcDbEntity
  8
0
100
AcDbLine
 10
21.407616158114
 20
772.295291891655
 30
0.0
 11
21.46189
 21
772.27
 31
0.0
  0
LINE
  5
D9A
330
1D
100
AcDbEntity
  8
0
100
AcDbLine
 10
21.40748
 20
772.295
 30
0.0
 11
21.61868323804
 21
772.747771126933
 31
0.0
  0
LINE
  5
D9B
330
1D
100
AcDbEntity
  8
0
100
AcDbLine
 10
21.64392
 20
772.736
 30
0.0
 11
21.93366209347
 21
773.357483147344
 31
0.0
  0
LINE
  5
D9C
330
1D
100
AcDbEntity
  8
0
100
AcDbLine
 10
21.9276
 20
772.052
 30
0.0
 11
22.258221778451
 21
772.761168146718
 31
0.0
  0
LINE
  5
D9D
330
1D
100
AcDbEntity
  8
0
100
AcDbLine
 10
21.9276
 20
772.052
 30
0.0
 11
22.589
 21
771.744
 31
0.0
  0
LINE
  5
D9E
330
1D
100
AcDbEntity
  8
0
100
AcDbLine
 10
21.9276
 20
772.052
 30
0.0
 11
23.07351
 21
771.518
 31
0.0
  0
LINE
  5
D9F
330
1D
100
AcDbEntity
  8
0
100
AcDbLine
 10
21.9276
 20
772.052
 30
0.0
 11
22.173996793503
 21
772.580509519924
 31
0.0
  0
LINE
  5
DA0
330
1D
100
AcDbEntity
  8
0
100
AcDbLine
 10
21.690330448762
 20
772.835548227256
 30
0.0
 11
22.173996793503
 21
772.580509519924
 31
0.0
  0
LINE
  5
DA1
330
1D
100
AcDbEntity
  8
0
100
AcDbLine
 10
21.690330448762
 20
772.835548227256
 30
0.0
 11
22.173996793503
 21
772.580509519924
 31
0.0
  0
LINE
  5
DA2
330
1D
100
AcDbEntity
  8
0
100
AcDbLine
 10
22.307080605881
 20
774.081894110379
 30
0.0
 11
22.772722516443
 21
773.864748003301
 31
0.0
  0
LINE
  5
DA3
330
1D
100
AcDbEntity
  8
0
100
AcDbLine
 10
22.589
 20
771.744
 30
0.0
 11
22.903045423971
 21
772.417233136038
 31
0.0
  0
LINE
  5
DA4
330
1D
100
AcDbEntity
  8
0
100
AcDbLine
 10
22.589
 20
771.744
 30
0.0
 11
23.73492
 21
771.21
 31
0.0
  0
LINE
  5
DA5
330
1D
100
AcDbEntity
  8
0
100
AcDbLine
 10
23.07351
 20
771.518
 30
0.0
 11
23.73492
 21
771.21
 31
0.0
  0
LINE
  5
DA6
330
1D
100
AcDbEntity
  8
0
100
AcDbLine
 10
23.73492
 20
771.21
 30
0.0
 11
24.020122436632
 21
771.821408375346
 31
0.0
  0
LINE
  5
DA7
330
1D
100
AcDbEntity
  8
0
100
AcDbLine
 10
23.93986763504
 20
771.649360554034
 30
0.0
 11
27.503802973135
 21
769.770086811861
 31
0.0
  0
LINE
  5
DA8
330
1D
100
AcDbEntity
  8
0
100
AcDbLine
 10
23.93986763504
 20
771.649360554034
 30
0.0
 11
27.503802973135
 21
769.770086811862
 31
0.0
  0
LINE
  5
DA9
330
1D
100
AcDbEntity
  8
0
100
AcDbLine
 10
24.57571296451
 20
773.024077614101
 30
0.0
 11
26.840663025572
 21
771.96802792515
 31
0.0
  0
LINE
  5
DAA
330
1D
100
AcDbEntity
  8
0
100
AcDbLine
 10
24.575712964511
 20
773.024077614101
 30
0.0
 11
26.840663025572
 21
771.96802792515
 31
0.0
  0
LINE
  5
DAB
330
1D
100
AcDbEntity
  8
0
100
AcDbLine
 10
23.117797415959
 20
773.703841502954
 30
0.0
 11
23.43425
 21
773.556
 31
0.0
  0
LINE
  5
DAC
330
1D
100
AcDbEntity
  8
0
100
AcDbLine
 10
23.117797415959
 20
773.703841502954
 30
0.0
 11
23.43425
 21
773.556
 31
0.0
  0
LINE
  5
DAD
330
1D
100
AcDbEntity
  8
0
100
AcDbLine
 10
23.43425
 20
773.556
 30
0.0
 11
24.58016
 21
773.022
 31
0.0
  0
LINE
  5
DAE
330
1D
100
AcDbEntity
  8
0
100
AcDbLine
 10
23.92508
 20
773.327
 30
0.0
 11
28.88655
 21
771.014
 31
0.0
  0
LINE
  5
DAF
330
1D
100
AcDbEntity
  8
0
100
AcDbLine
 10
22.93301
 20
773.79
 30
0.0
 11
28.09325
 21
771.384
 31
0.0
  0
LINE
  5
DB0
330
1D
100
AcDbEntity
  8
0
100
AcDbLine
 10
23.02489
 20
774.851
 30
0.0
 11
28.25115
 21
772.414
 31
0.0
  0
LINE
  5
DB1
330
1D
100
AcDbEntity
  8
0
100
AcDbLine
 10
22.44045
 20
798.294
 30
0.0
 11
26.93835
 21
796.197
 31
0.0
  0
LINE
  5
DB2
330
1D
100
AcDbEntity
  8
0
100
AcDbLine
 10
23.32561
 20
798.985
 30
0.0
 11
27.75755
 21
796.918
 31
0.0
  0
LINE
  5
DB3
330
1D
100
AcDbEntity
  8
0
100
AcDbLine
 10
26.35435
 20
770.539
 30
0.0
 11
26.565996246235
 21
770.992992717019
 31
0.0
  0
LINE
  5
DB4
330
1D
100
AcDbEntity
  8
0
100
AcDbLine
 10
26.35435
 20
770.539
 30
0.0
 11
27.67715
 21
769.922
 31
0.0
  0
LINE
  5
DB5
330
1D
100
AcDbEntity
  8
0
100
AcDbLine
 10
27.43135
 20
768.934
 30
0.0
 11
27.642481928297
 21
769.386889477049
 31
0.0
  0
LINE
  5
DB6
330
1D
100
AcDbEntity
  8
0
100
AcDbLine
 10
27.43135
 20
768.934
 30
0.0
 11
28.57735
 21
768.399
 31
0.0
  0
LINE
  5
DB7
330
1D
100
AcDbEntity
  8
0
100
AcDbLine
 10
26.76995
 20
769.243
 30
0.0
 11
27.116896200447
 21
769.986807992439
 31
0.0
  0
LINE
  5
DB8
330
1D
100
AcDbEntity
  8
0
100
AcDbLine
 10
26.76995
 20
769.243
 30
0.0
 11
27.43135
 21
768.934
 31
0.0
  0
LINE
  5
DB9
330
1D
100
AcDbEntity
  8
0
100
AcDbLine
 10
26.76995
 20
769.243
 30
0.0
 11
27.91595
 21
768.707
 31
0.0
  0
LINE
  5
DBA
330
1D
100
AcDbEntity
  8
0
100
AcDbLine
 10
27.39355
 20
769.503
 30
0.0
 11
27.604668805543
 21
769.955807753992
 31
0.0
  0
LINE
  5
DBB
330
1D
100
AcDbEntity
  8
0
100
AcDbLine
 10
27.39355
 20
769.503
 30
0.0
 11
28.71635
 21
768.886
 31
0.0
  0
LINE
  5
DBC
330
1D
100
AcDbEntity
  8
0
100
AcDbLine
 10
27.67715
 20
769.922
 30
0.0
 11
28.013202545007
 21
770.642850998695
 31
0.0
  0
LINE
  5
DBD
330
1D
100
AcDbEntity
  8
0
100
AcDbLine
 10
27.74085
 20
770.445
 30
0.0
 11
28.163550446232
 21
771.351215343791
 31
0.0
  0
LINE
  5
DBE
330
1D
100
AcDbEntity
  8
0
100
AcDbLine
 10
26.41805
 20
771.062
 30
0.0
 11
26.840663025572
 21
771.96802792515
 31
0.0
  0
LINE
  5
DBF
330
1D
100
AcDbEntity
  8
0
100
AcDbLine
 10
26.41805
 20
771.062
 30
0.0
 11
27.74085
 21
770.445
 31
0.0
  0
LINE
  5
DC0
330
1D
100
AcDbEntity
  8
0
100
AcDbLine
 10
26.41805
 20
771.062
 30
0.0
 11
26.713744914518
 21
771.695931832828
 31
0.0
  0
LINE
  5
DC1
330
1D
100
AcDbEntity
  8
0
100
AcDbLine
 10
26.93835
 20
796.197
 30
0.0
 11
31.89995
 21
793.882
 31
0.0
  0
LINE
  5
DC2
330
1D
100
AcDbEntity
  8
0
100
AcDbLine
 10
27.91595
 20
768.707
 30
0.0
 11
28.57735
 21
768.399
 31
0.0
  0
LINE
  5
DC3
330
1D
100
AcDbEntity
  8
0
100
AcDbLine
 10
28.57735
 20
768.399
 30
0.0
 11
28.887418771635
 21
769.064193093095
 31
0.0
  0
LINE
  5
DC4
330
1D
100
AcDbEntity
  8
0
100
AcDbLine
 10
28.71635
 20
768.886
 30
0.0
 11
29.037530471665
 21
769.574488128069
 31
0.0
  0
LINE
  5
DC5
330
1D
100
AcDbEntity
  8
0
100
AcDbLine
 10
28.59185
 20
768.393
 30
0.0
 11
28.947010217451
 21
769.154747869678
 31
0.0
  0
LINE
  5
DC6
330
1D
100
AcDbEntity
  8
0
100
AcDbLine
 10
28.59185
 20
768.393
 30
0.0
 11
29.25325
 21
768.085
 31
0.0
  0
LINE
  5
DC7
330
1D
100
AcDbEntity
  8
0
100
AcDbLine
 10
28.59185
 20
768.393
 30
0.0
 11
29.73675
 21
767.859
 31
0.0
  0
LINE
  5
DC8
330
1D
100
AcDbEntity
  8
0
100
AcDbLine
 10
28.59185
 20
768.393
 30
0.0
 11
28.892495660775
 21
769.037825012403
 31
0.0
  0
LINE
  5
DC9
330
1D
100
AcDbEntity
  8
0
100
AcDbLine
 10
28.807969025242
 20
769.082396159633
 30
0.0
 11
28.892495660775
 21
769.037825012403
 31
0.0
  0
LINE
  5
DCA
330
1D
100
AcDbEntity
  8
0
100
AcDbLine
 10
28.807969025242
 20
769.082396159633
 30
0.0
 11
28.892495660775
 21
769.037825012403
 31
0.0
  0
LINE
  5
DCB
330
1D
100
AcDbEntity
  8
0
100
AcDbLine
 10
28.311309950652
 20
771.282307608296
 30
0.0
 11
33.91505
 21
768.669
 31
0.0
  0
LINE
  5
DCC
330
1D
100
AcDbEntity
  8
0
100
AcDbLine
 10
28.09325
 20
771.384
 30
0.0
 11
33.91505
 21
768.669
 31
0.0
  0
LINE
  5
DCD
330
1D
100
AcDbEntity
  8
0
100
AcDbLine
 10
28.25115
 20
772.414
 30
0.0
 11
33.87415
 21
769.791
 31
0.0
  0
LINE
  5
DCE
330
1D
100
AcDbEntity
  8
0
100
AcDbLine
 10
27.75755
 20
796.918
 30
0.0
 11
32.65315
 21
794.635
 31
0.0
  0
LINE
  5
DCF
330
1D
100
AcDbEntity
  8
0
100
AcDbLine
 10
26.88495
 20
727.135
 30
0.0
 11
79.07555
 21
770.357
 31
0.0
  0
LINE
  5
DD0
330
1D
100
AcDbEntity
  8
0
100
AcDbLine
 10
28.88655
 20
771.014
 30
0.0
 11
34.84125
 21
768.237
 31
0.0
  0
LINE
  5
DD1
330
1D
100
AcDbEntity
  8
0
100
AcDbLine
 10
29.73675
 20
767.859
 30
0.0
 11
30.39815
 21
767.55
 31
0.0
  0
LINE
  5
DD2
330
1D
100
AcDbEntity
  8
0
100
AcDbLine
 10
30.39815
 20
767.55
 30
0.0
 11
30.722813195455
 21
768.246337836696
 31
0.0
  0
LINE
  5
DD3
330
1D
100
AcDbEntity
  8
0
100
AcDbLine
 10
29.25325
 20
768.085
 30
0.0
 11
29.606321538299
 21
768.8418503814
 31
0.0
  0
LINE
  5
DD4
330
1D
100
AcDbEntity
  8
0
100
AcDbLine
 10
29.25325
 20
768.085
 30
0.0
 11
30.39815
 21
767.55
 31
0.0
  0
LINE
  5
DD5
330
1D
100
AcDbEntity
  8
0
100
AcDbLine
 10
35.29015
 20
687.3913
 30
0.0
 11
35.52065
 21
687.5266
 31
0.0
  0
LINE
  5
DD6
330
1D
100
AcDbEntity
  8
0
100
AcDbLine
 10
35.488621914265
 20
687.5078
 30
0.0
 11
46.66985
 21
695.1681
 31
0.0
  0
LINE
  5
DD7
330
1D
100
AcDbEntity
  8
0
100
AcDbLine
 10
35.488621914265
 20
687.5078
 30
0.0
 11
46.66975
 21
695.1681
 31
0.0
  0
LINE
  5
DD8
330
1D
100
AcDbEntity
  8
0
100
AcDbLine
 10
34.65965
 20
687.2658
 30
0.0
 11
35.29015
 21
687.3913
 31
0.0
  0
LINE
  5
DD9
330
1D
100
AcDbEntity
  8
0
100
AcDbLine
 10
34.08335
 20
687.5502
 30
0.0
 11
34.65965
 21
687.2658
 31
0.0
  0
LINE
  5
DDA
330
1D
100
AcDbEntity
  8
0
100
AcDbLine
 10
46.66975
 20
695.1681
 30
0.0
 11
53.76835
 21
700.2505
 31
0.0
  0
LINE
  5
DDB
330
1D
100
AcDbEntity
  8
0
100
AcDbLine
 10
175.44465
 20
669.6205
 30
0.0
 11
176.86865
 21
670.8622
 31
0.0
  0
LINE
  5
DDC
330
1D
100
AcDbEntity
  8
0
100
AcDbLine
 10
46.66985
 20
695.1681
 30
0.0
 11
53.76835
 21
700.2504
 31
0.0
  0
LINE
  5
DDD
330
1D
100
AcDbEntity
  8
0
100
AcDbLine
 10
30.657828918361
 20
768.106959516134
 30
0.0
 11
32.294298288328
 21
767.244044332468
 31
0.0
  0
LINE
  5
DDE
330
1D
100
AcDbEntity
  8
0
100
AcDbLine
 10
30.657828918361
 20
768.106959516134
 30
0.0
 11
32.294298288328
 21
767.244044332468
 31
0.0
  0
LINE
  5
DDF
330
1D
100
AcDbEntity
  8
0
100
AcDbLine
 10
33.00545
 20
765.641
 30
0.0
 11
33.46915
 21
765.425
 31
0.0
  0
LINE
  5
DE0
330
1D
100
AcDbEntity
  8
0
100
AcDbLine
 10
32.62045
 20
765.82
 30
0.0
 11
33.00545
 21
765.641
 31
0.0
  0
LINE
  5
DE1
330
1D
100
AcDbEntity
  8
0
100
AcDbLine
 10
32.38915
 20
765.929
 30
0.0
 11
32.62045
 21
765.82
 31
0.0
  0
LINE
  5
DE2
330
1D
100
AcDbEntity
  8
0
100
AcDbLine
 10
32.30855
 20
765.966
 30
0.0
 11
32.38915
 21
765.929
 31
0.0
  0
LINE
  5
DE3
330
1D
100
AcDbEntity
  8
0
100
AcDbLine
 10
33.46915
 20
765.425
 30
0.0
 11
34.01325
 21
765.171
 31
0.0
  0
LINE
  5
DE4
330
1D
100
AcDbEntity
  8
0
100
AcDbLine
 10
33.13585
 20
766.825
 30
0.0
 11
33.66435
 21
766.578
 31
0.0
  0
LINE
  5
DE5
330
1D
100
AcDbEntity
  8
0
100
AcDbLine
 10
32.294023391959
 20
767.268696090388
 30
0.0
 11
32.30855
 21
765.966
 31
0.0
  0
LINE
  5
DE6
330
1D
100
AcDbEntity
  8
0
100
AcDbLine
 10
32.87105
 20
766.949
 30
0.0
 11
33.13585
 21
766.825
 31
0.0
  0
LINE
  5
DE7
330
1D
100
AcDbEntity
  8
0
100
AcDbLine
 10
34.01325
 20
765.171
 30
0.0
 11
34.62965
 21
764.884
 31
0.0
  0
LINE
  5
DE8
330
1D
100
AcDbEntity
  8
0
100
AcDbLine
 10
34.62965
 20
764.884
 30
0.0
 11
35.24505
 21
764.597
 31
0.0
  0
LINE
  5
DE9
330
1D
100
AcDbEntity
  8
0
100
AcDbLine
 10
34.83435
 20
765.482
 30
0.0
 11
35.205845382726
 21
766.27887781458
 31
0.0
  0
LINE
  5
DEA
330
1D
100
AcDbEntity
  8
0
100
AcDbLine
 10
34.83435
 20
765.482
 30
0.0
 11
36.15715
 21
764.865
 31
0.0
  0
LINE
  5
DEB
330
1D
100
AcDbEntity
  8
0
100
AcDbLine
 10
34.83435
 20
765.482
 30
0.0
 11
35.163674344668
 21
766.188418642787
 31
0.0
  0
LINE
  5
DEC
330
1D
100
AcDbEntity
  8
0
100
AcDbLine
 10
35.24505
 20
764.597
 30
0.0
 11
35.78925
 21
764.343
 31
0.0
  0
LINE
  5
DED
330
1D
100
AcDbEntity
  8
0
100
AcDbLine
 10
35.78925
 20
764.343
 30
0.0
 11
36.25285
 21
764.127
 31
0.0
  0
LINE
  5
DEE
330
1D
100
AcDbEntity
  8
0
100
AcDbLine
 10
36.25285
 20
764.127
 30
0.0
 11
36.63695
 21
763.947
 31
0.0
  0
LINE
  5
DEF
330
1D
100
AcDbEntity
  8
0
100
AcDbLine
 10
35.56055
 20
765.695
 30
0.0
 11
35.771856494778
 21
766.148263931653
 31
0.0
  0
LINE
  5
DF0
330
1D
100
AcDbEntity
  8
0
100
AcDbLine
 10
35.56055
 20
765.695
 30
0.0
 11
36.88335
 21
765.078
 31
0.0
  0
LINE
  5
DF1
330
1D
100
AcDbEntity
  8
0
100
AcDbLine
 10
36.15715
 20
764.865
 30
0.0
 11
36.36841833096
 21
765.318182068187
 31
0.0
  0
LINE
  5
DF2
330
1D
100
AcDbEntity
  8
0
100
AcDbLine
 10
36.43325
 20
765.84
 30
0.0
 11
36.702477991133
 21
766.417190156097
 31
0.0
  0
LINE
  5
DF3
330
1D
100
AcDbEntity
  8
0
100
AcDbLine
 10
35.10945
 20
766.457
 30
0.0
 11
35.320622542398
 21
766.909726747309
 31
0.0
  0
LINE
  5
DF4
330
1D
100
AcDbEntity
  8
0
100
AcDbLine
 10
35.10945
 20
766.457
 30
0.0
 11
36.43325
 21
765.84
 31
0.0
  0
LINE
  5
DF5
330
1D
100
AcDbEntity
  8
0
100
AcDbLine
 10
36.63695
 20
763.947
 30
0.0
 11
36.86925
 21
763.839
 31
0.0
  0
LINE
  5
DF6
330
1D
100
AcDbEntity
  8
0
100
AcDbLine
 10
36.94885
 20
763.802
 30
0.0
 11
37.916797969857
 21
764.595831707244
 31
0.0
  0
LINE
  5
DF7
330
1D
100
AcDbEntity
  8
0
100
AcDbLine
 10
36.86925
 20
763.839
 30
0.0
 11
36.94885
 21
763.802
 31
0.0
  0
LINE
  5
DF8
330
1D
100
AcDbEntity
  8
0
100
AcDbLine
 10
36.88335
 20
765.078
 30
0.0
 11
37.278662040475
 21
765.925965841671
 31
0.0
  0
LINE
  5
DF9
330
1D
100
AcDbEntity
  8
0
100
AcDbLine
 10
36.49705
 20
766.361
 30
0.0
 11
36.919831295192
 21
767.267888888054
 31
0.0
  0
LINE
  5
DFA
330
1D
100
AcDbEntity
  8
0
100
AcDbLine
 10
35.17425
 20
766.978
 30
0.0
 11
35.54715708645
 21
767.777905995899
 31
0.0
  0
LINE
  5
DFB
330
1D
100
AcDbEntity
  8
0
100
AcDbLine
 10
35.17425
 20
766.978
 30
0.0
 11
36.49705
 21
766.361
 31
0.0
  0
LINE
  5
DFC
330
1D
100
AcDbEntity
  8
0
100
AcDbLine
 10
34.84125
 20
768.237
 30
0.0
 11
39.53795
 21
766.047
 31
0.0
  0
LINE
  5
DFD
330
1D
100
AcDbEntity
  8
0
100
AcDbLine
 10
33.91505
 20
768.669
 30
0.0
 11
39.40515
 21
766.109
 31
0.0
  0
LINE
  5
DFE
330
1D
100
AcDbEntity
  8
0
100
AcDbLine
 10
33.91505
 20
768.669
 30
0.0
 11
35.596959890353
 21
767.884735720788
 31
0.0
  0
LINE
  5
DFF
330
1D
100
AcDbEntity
  8
0
100
AcDbLine
 10
33.87415
 20
769.791
 30
0.0
 11
39.76185
 21
767.046
 31
0.0
  0
LINE
  5
E00
330
1D
100
AcDbEntity
  8
0
100
AcDbLine
 10
31.89995
 20
793.882
 30
0.0
 11
37.12615
 21
791.446
 31
0.0
  0
LINE
  5
E01
330
1D
100
AcDbEntity
  8
0
100
AcDbLine
 10
37.30305
 20
764.882
 30
0.0
 11
38.55985
 21
764.296
 31
0.0
  0
LINE
  5
E02
330
1D
100
AcDbEntity
  8
0
100
AcDbLine
 10
37.728468934547
 20
766.890826110191
 30
0.0
 11
39.40515
 21
766.109
 31
0.0
  0
LINE
  5
E03
330
1D
100
AcDbEntity
  8
0
100
AcDbLine
 10
37.12615
 20
791.446
 30
0.0
 11
42.74905
 21
788.824
 31
0.0
  0
LINE
  5
E04
330
1D
100
AcDbEntity
  8
0
100
AcDbLine
 10
32.65315
 20
794.635
 30
0.0
 11
37.81355
 21
792.229
 31
0.0
  0
LINE
  5
E05
330
1D
100
AcDbEntity
  8
0
100
AcDbLine
 10
37.916797969857
 20
764.595831707244
 30
0.0
 11
38.55985
 21
764.296
 31
0.0
  0
LINE
  5
E06
330
1D
100
AcDbEntity
  8
0
100
AcDbLine
 10
37.81355
 20
792.229
 30
0.0
 11
43.63525
 21
789.515
 31
0.0
  0
LINE
  5
E07
330
1D
100
AcDbEntity
  8
0
100
AcDbLine
 10
38.58965
 20
763.589
 30
0.0
 11
38.78535
 21
763.498
 31
0.0
  0
LINE
  5
E08
330
1D
100
AcDbEntity
  8
0
100
AcDbLine
 10
38.58965
 20
763.589
 30
0.0
 11
38.855094043887
 21
764.158391920926
 31
0.0
  0
LINE
  5
E09
330
1D
100
AcDbEntity
  8
0
100
AcDbLine
 10
38.78535
 20
763.498
 30
0.0
 11
39.30755
 21
763.255
 31
0.0
  0
LINE
  5
E0A
330
1D
100
AcDbEntity
  8
0
100
AcDbLine
 10
39.30755
 20
763.255
 30
0.0
 11
40.17715
 21
762.849
 31
0.0
  0
LINE
  5
E0B
330
1D
100
AcDbEntity
  8
0
100
AcDbLine
 10
39.53795
 20
766.047
 30
0.0
 11
45.16085
 21
763.425
 31
0.0
  0
LINE
  5
E0C
330
1D
100
AcDbEntity
  8
0
100
AcDbLine
 10
39.40515
 20
766.109
 30
0.0
 11
45.16085
 21
763.425
 31
0.0
  0
LINE
  5
E0D
330
1D
100
AcDbEntity
  8
0
100
AcDbLine
 10
39.40515
 20
766.109
 30
0.0
 11
44.499229531862
 21
763.733527083844
 31
0.0
  0
LINE
  5
E0E
330
1D
100
AcDbEntity
  8
0
100
AcDbLine
 10
40.17715
 20
762.849
 30
0.0
 11
41.33045
 21
762.311
 31
0.0
  0
LINE
  5
E0F
330
1D
100
AcDbEntity
  8
0
100
AcDbLine
 10
39.76185
 20
767.046
 30
0.0
 11
45.58355
 21
764.332
 31
0.0
  0
LINE
  5
E10
330
1D
100
AcDbEntity
  8
0
100
AcDbLine
 10
41.33045
 20
762.311
 30
0.0
 11
42.63545
 21
761.703
 31
0.0
  0
LINE
  5
E11
330
1D
100
AcDbEntity
  8
0
100
AcDbLine
 10
42.63545
 20
761.703
 30
0.0
 11
44.02725
 21
761.054
 31
0.0
  0
LINE
  5
E12
330
1D
100
AcDbEntity
  8
0
100
AcDbLine
 10
41.33835
 20
763.001
 30
0.0
 11
42.79405
 21
762.322
 31
0.0
  0
LINE
  5
E13
330
1D
100
AcDbEntity
  8
0
100
AcDbLine
 10
44.02725
 20
761.054
 30
0.0
 11
45.41915
 21
760.404
 31
0.0
  0
LINE
  5
E14
330
1D
100
AcDbEntity
  8
0
100
AcDbLine
 10
44.97705
 20
761.304
 30
0.0
 11
45.188274794227
 21
761.757035078592
 31
0.0
  0
LINE
  5
E15
330
1D
100
AcDbEntity
  8
0
100
AcDbLine
 10
44.76575
 20
760.851
 30
0.0
 11
44.976954269183
 21
761.304044652188
 31
0.0
  0
LINE
  5
E16
330
1D
100
AcDbEntity
  8
0
100
AcDbLine
 10
43.65425
 20
761.921
 30
0.0
 11
44.97705
 21
761.304
 31
0.0
  0
LINE
  5
E17
330
1D
100
AcDbEntity
  8
0
100
AcDbLine
 10
43.65425
 20
761.921
 30
0.0
 11
44.076805763783
 21
762.827405110907
 31
0.0
  0
LINE
  5
E18
330
1D
100
AcDbEntity
  8
0
100
AcDbLine
 10
43.44305
 20
761.467
 30
0.0
 11
44.76575
 21
760.851
 31
0.0
  0
LINE
  5
E19
330
1D
100
AcDbEntity
  8
0
100
AcDbLine
 10
43.44305
 20
761.467
 30
0.0
 11
43.654502968041
 21
761.920882006894
 31
0.0
  0
LINE
  5
E1A
330
1D
100
AcDbEntity
  8
0
100
AcDbLine
 10
44.977203834804
 20
761.304329944989
 30
0.0
 11
45.83735
 21
760.903
 31
0.0
  0
LINE
  5
E1B
330
1D
100
AcDbEntity
  8
0
100
AcDbLine
 10
43.86555
 20
762.374
 30
0.0
 11
45.18835
 21
761.757
 31
0.0
  0
LINE
  5
E1C
330
1D
100
AcDbEntity
  8
0
100
AcDbLine
 10
43.86555
 20
762.374
 30
0.0
 11
44.077137192451
 21
762.827866043437
 31
0.0
  0
LINE
  5
E1D
330
1D
100
AcDbEntity
  8
0
100
AcDbLine
 10
44.07685
 20
762.828
 30
0.0
 11
45.39965
 21
762.211
 31
0.0
  0
LINE
  5
E1E
330
1D
100
AcDbEntity
  8
0
100
AcDbLine
 10
44.07685
 20
762.828
 30
0.0
 11
44.499270476942
 21
763.733507990321
 31
0.0
  0
LINE
  5
E1F
330
1D
100
AcDbEntity
  8
0
100
AcDbLine
 10
42.79405
 20
762.322
 30
0.0
 11
43.654320426881
 21
761.921151069493
 31
0.0
  0
LINE
  5
E20
330
1D
100
AcDbEntity
  8
0
100
AcDbLine
 10
45.41915
 20
760.404
 30
0.0
 11
46.083715427228
 21
760.094378712832
 31
0.0
  0
LINE
  5
E21
330
1D
100
AcDbEntity
  8
0
100
AcDbLine
 10
45.18835
 20
761.757
 30
0.0
 11
45.449452434163
 21
762.31701267377
 31
0.0
  0
LINE
  5
E22
330
1D
100
AcDbEntity
  8
0
100
AcDbLine
 10
45.39965
 20
762.211
 30
0.0
 11
45.822132610513
 21
763.116641180942
 31
0.0
  0
LINE
  5
E23
330
1D
100
AcDbEntity
  8
0
100
AcDbLine
 10
45.83735
 20
760.903
 30
0.0
 11
47.29305
 21
760.224
 31
0.0
  0
LINE
  5
E24
330
1D
100
AcDbEntity
  8
0
100
AcDbLine
 10
45.16085
 20
763.425
 30
0.0
 11
50.91675
 21
760.741
 31
0.0
  0
LINE
  5
E25
330
1D
100
AcDbEntity
  8
0
100
AcDbLine
 10
45.16085
 20
763.425
 30
0.0
 11
50.78385
 21
760.802
 31
0.0
  0
LINE
  5
E26
330
1D
100
AcDbEntity
  8
0
100
AcDbLine
 10
45.58355
 20
764.332
 30
0.0
 11
51.40525
 21
761.617
 31
0.0
  0
LINE
  5
E27
330
1D
100
AcDbEntity
  8
0
100
AcDbLine
 10
42.74905
 20
788.824
 30
0.0
 11
48.63675
 21
786.079
 31
0.0
  0
LINE
  5
E28
330
1D
100
AcDbEntity
  8
0
100
AcDbLine
 10
43.63525
 20
789.515
 30
0.0
 11
49.12535
 21
786.953
 31
0.0
  0
LINE
  5
E29
330
1D
100
AcDbEntity
  8
0
100
AcDbLine
 10
46.77345
 20
759.221
 30
0.0
 11
47.24655
 21
759.0
 31
0.0
  0
LINE
  5
E2A
330
1D
100
AcDbEntity
  8
0
100
AcDbLine
 10
46.346121803853
 20
759.420180385289
 30
0.0
 11
46.40405
 21
759.393
 31
0.0
  0
LINE
  5
E2B
330
1D
100
AcDbEntity
  8
0
100
AcDbLine
 10
46.19475
 20
759.49
 30
0.0
 11
46.40505
 21
759.393
 31
0.0
  0
LINE
  5
E2C
330
1D
100
AcDbEntity
  8
0
100
AcDbLine
 10
46.15705
 20
759.508
 30
0.0
 11
46.39675
 21
759.397
 31
0.0
  0
LINE
  5
E2D
330
1D
100
AcDbEntity
  8
0
100
AcDbLine
 10
46.08695
 20
759.541
 30
0.0
 11
46.15705
 21
759.508
 31
0.0
  0
LINE
  5
E2E
330
1D
100
AcDbEntity
  8
0
100
AcDbLine
 10
46.0796495371
 20
760.789981255966
 30
0.0
 11
46.08695
 21
759.541
 31
0.0
  0
LINE
  5
E2F
330
1D
100
AcDbEntity
  8
0
100
AcDbLine
 10
46.40405
 20
759.393
 30
0.0
 11
46.532848059841
 21
759.333323906613
 31
0.0
  0
LINE
  5
E30
330
1D
100
AcDbEntity
  8
0
100
AcDbLine
 10
46.39675
 20
759.397
 30
0.0
 11
46.75155
 21
759.231
 31
0.0
  0
LINE
  5
E31
330
1D
100
AcDbEntity
  8
0
100
AcDbLine
 10
46.39675
 20
759.397
 30
0.0
 11
46.77345
 21
759.221
 31
0.0
  0
LINE
  5
E32
330
1D
100
AcDbEntity
  8
0
100
AcDbLine
 10
46.75155
 20
759.231
 30
0.0
 11
46.910256727672
 21
759.157093242833
 31
0.0
  0
LINE
  5
E33
330
1D
100
AcDbEntity
  8
0
100
AcDbLine
 10
49.520240563285
 20
757.940094367224
 30
0.0
 11
49.57395
 21
757.915
 31
0.0
  0
LINE
  5
E34
330
1D
100
AcDbEntity
  8
0
100
AcDbLine
 10
50.156371701328
 20
757.643233270319
 30
0.0
 11
50.42265
 21
757.519
 31
0.0
  0
LINE
  5
E35
330
1D
100
AcDbEntity
  8
0
100
AcDbLine
 10
50.186613417722
 20
757.629250632911
 30
0.0
 11
50.42265
 21
757.519
 31
0.0
  0
LINE
  5
E36
330
1D
100
AcDbEntity
  8
0
100
AcDbLine
 10
50.282941909717
 20
757.58471194476
 30
0.0
 11
50.41435
 21
757.523
 31
0.0
  0
LINE
  5
E37
330
1D
100
AcDbEntity
  8
0
100
AcDbLine
 10
50.73245
 20
757.375
 30
0.0
 11
51.692967924951
 21
758.171609582376
 31
0.0
  0
LINE
  5
E38
330
1D
100
AcDbEntity
  8
0
100
AcDbLine
 10
50.42265
 20
757.519
 30
0.0
 11
50.66125
 21
757.408
 31
0.0
  0
LINE
  5
E39
330
1D
100
AcDbEntity
  8
0
100
AcDbLine
 10
50.41435
 20
757.523
 30
0.0
 11
50.65385
 21
757.412
 31
0.0
  0
LINE
  5
E3A
330
1D
100
AcDbEntity
  8
0
100
AcDbLine
 10
50.65385
 20
757.412
 30
0.0
 11
50.72515
 21
757.378
 31
0.0
  0
LINE
  5
E3B
330
1D
100
AcDbEntity
  8
0
100
AcDbLine
 10
50.62455
 20
757.426
 30
0.0
 11
50.72515
 21
757.378
 31
0.0
  0
LINE
  5
E3C
330
1D
100
AcDbEntity
  8
0
100
AcDbLine
 10
50.72515
 20
757.378
 30
0.0
 11
51.685978294337
 21
758.174866988532
 31
0.0
  0
LINE
  5
E3D
330
1D
100
AcDbEntity
  8
0
100
AcDbLine
 10
50.41425
 20
757.524
 30
0.0
 11
50.62455
 21
757.426
 31
0.0
  0
LINE
  5
E3E
330
1D
100
AcDbEntity
  8
0
100
AcDbLine
 10
49.57395
 20
757.915
 30
0.0
 11
49.647093976636
 21
757.88086911214
 31
0.0
  0
LINE
  5
E3F
330
1D
100
AcDbEntity
  8
0
100
AcDbLine
 10
50.05955
 20
757.688
 30
0.0
 11
50.41425
 21
757.524
 31
0.0
  0
LINE
  5
E40
330
1D
100
AcDbEntity
  8
0
100
AcDbLine
 10
49.56555
 20
757.919
 30
0.0
 11
50.05955
 21
757.688
 31
0.0
  0
LINE
  5
E41
330
1D
100
AcDbEntity
  8
0
100
AcDbLine
 10
48.40495
 20
758.46
 30
0.0
 11
48.99205
 21
758.186
 31
0.0
  0
LINE
  5
E42
330
1D
100
AcDbEntity
  8
0
100
AcDbLine
 10
48.99205
 20
758.186
 30
0.0
 11
49.56555
 21
757.919
 31
0.0
  0
LINE
  5
E43
330
1D
100
AcDbEntity
  8
0
100
AcDbLine
 10
53.37445
 20
756.836
 30
0.0
 11
53.746106243722
 21
757.633222870169
 31
0.0
  0
LINE
  5
E44
330
1D
100
AcDbEntity
  8
0
100
AcDbLine
 10
53.07075
 20
757.53
 30
0.0
 11
53.281890387154
 21
757.982854042246
 31
0.0
  0
LINE
  5
E45
330
1D
100
AcDbEntity
  8
0
100
AcDbLine
 10
53.94455
 20
757.674
 30
0.0
 11
54.155920069075
 21
758.127346664182
 31
0.0
  0
LINE
  5
E46
330
1D
100
AcDbEntity
  8
0
100
AcDbLine
 10
52.62075
 20
758.291
 30
0.0
 11
53.94455
 21
757.674
 31
0.0
  0
LINE
  5
E47
330
1D
100
AcDbEntity
  8
0
100
AcDbLine
 10
52.62075
 20
758.291
 30
0.0
 11
52.890287254986
 21
758.869103683058
 31
0.0
  0
LINE
  5
E48
330
1D
100
AcDbEntity
  8
0
100
AcDbLine
 10
54.30245
 20
758.059
 30
0.0
 11
54.67500311763
 21
758.85770592658
 31
0.0
  0
LINE
  5
E49
330
1D
100
AcDbEntity
  8
0
100
AcDbLine
 10
51.74705
 20
758.146
 30
0.0
 11
52.262823437542
 21
757.905978516639
 31
0.0
  0
LINE
  5
E4A
330
1D
100
AcDbEntity
  8
0
100
AcDbLine
 10
51.74705
 20
758.146
 30
0.0
 11
53.07075
 21
757.53
 31
0.0
  0
LINE
  5
E4B
330
1D
100
AcDbEntity
  8
0
100
AcDbLine
 10
51.74705
 20
758.146
 30
0.0
 11
52.142647502085
 21
758.995046224304
 31
0.0
  0
LINE
  5
E4C
330
1D
100
AcDbEntity
  8
0
100
AcDbLine
 10
51.74705
 20
758.146
 30
0.0
 11
51.967876688362
 21
758.619946536547
 31
0.0
  0
LINE
  5
E4D
330
1D
100
AcDbEntity
  8
0
100
AcDbLine
 10
52.05165
 20
757.453
 30
0.0
 11
53.37445
 21
756.836
 31
0.0
  0
LINE
  5
E4E
330
1D
100
AcDbEntity
  8
0
100
AcDbLine
 10
52.05165
 20
757.453
 30
0.0
 11
52.262823437542
 21
757.905978516639
 31
0.0
  0
LINE
  5
E4F
330
1D
100
AcDbEntity
  8
0
100
AcDbLine
 10
51.692967924951
 20
758.171609582376
 30
0.0
 11
51.74720522568
 21
758.146333151186
 31
0.0
  0
LINE
  5
E50
330
1D
100
AcDbEntity
  8
0
100
AcDbLine
 10
54.37065
 20
756.923
 30
0.0
 11
54.96605
 21
756.646
 31
0.0
  0
LINE
  5
E51
330
1D
100
AcDbEntity
  8
0
100
AcDbLine
 10
55.49555
 20
756.399
 30
0.0
 11
55.76035
 21
756.276
 31
0.0
  0
LINE
  5
E52
330
1D
100
AcDbEntity
  8
0
100
AcDbLine
 10
55.89225
 20
756.214
 30
0.0
 11
58.069629325247
 21
755.32551063214
 31
0.0
  0
LINE
  5
E53
330
1D
100
AcDbEntity
  8
0
100
AcDbLine
 10
51.32735
 20
758.342
 30
0.0
 11
51.74720522568
 21
758.146333151186
 31
0.0
  0
LINE
  5
E54
330
1D
100
AcDbEntity
  8
0
100
AcDbLine
 10
47.81895
 20
758.733
 30
0.0
 11
48.268564918335
 21
758.523894595051
 31
0.0
  0
LINE
  5
E55
330
1D
100
AcDbEntity
  8
0
100
AcDbLine
 10
47.381945958721
 20
758.937214617372
 30
0.0
 11
47.81895
 21
758.733
 31
0.0
  0
LINE
  5
E56
330
1D
100
AcDbEntity
  8
0
100
AcDbLine
 10
47.24655
 20
759.0
 30
0.0
 11
47.81155
 21
758.738
 31
0.0
  0
LINE
  5
E57
330
1D
100
AcDbEntity
  8
0
100
AcDbLine
 10
47.81155
 20
758.738
 30
0.0
 11
48.40495
 21
758.46
 31
0.0
  0
LINE
  5
E58
330
1D
100
AcDbEntity
  8
0
100
AcDbLine
 10
52.97965
 20
758.676
 30
0.0
 11
54.30245
 21
758.059
 31
0.0
  0
LINE
  5
E59
330
1D
100
AcDbEntity
  8
0
100
AcDbLine
 10
52.97965
 20
758.676
 30
0.0
 11
53.402260181389
 21
759.582021827588
 31
0.0
  0
LINE
  5
E5A
330
1D
100
AcDbEntity
  8
0
100
AcDbLine
 10
52.97965
 20
758.676
 30
0.0
 11
53.264989609525
 21
759.287731391931
 31
0.0
  0
LINE
  5
E5B
330
1D
100
AcDbEntity
  8
0
100
AcDbLine
 10
55.48065
 20
758.612
 30
0.0
 11
61.43465
 21
755.837
 31
0.0
  0
LINE
  5
E5C
330
1D
100
AcDbEntity
  8
0
100
AcDbLine
 10
56.40685
 20
758.181
 30
0.0
 11
61.503794019984
 21
755.804830893528
 31
0.0
  0
LINE
  5
E5D
330
1D
100
AcDbEntity
  8
0
100
AcDbLine
 10
50.78385
 20
760.802
 30
0.0
 11
55.48065
 21
758.612
 31
0.0
  0
LINE
  5
E5E
330
1D
100
AcDbEntity
  8
0
100
AcDbLine
 10
50.91675
 20
760.741
 30
0.0
 11
56.40685
 21
758.181
 31
0.0
  0
LINE
  5
E5F
330
1D
100
AcDbEntity
  8
0
100
AcDbLine
 10
58.47095
 20
754.459
 30
0.0
 11
59.371820584519
 21
754.039222607214
 31
0.0
  0
LINE
  5
E60
330
1D
100
AcDbEntity
  8
0
100
AcDbLine
 10
59.886015323792
 20
754.465056474249
 30
0.0
 11
59.941411942038
 21
754.583885235347
 31
0.0
  0
LINE
  5
E61
330
1D
100
AcDbEntity
  8
0
100
AcDbLine
 10
59.886015323792
 20
754.465056474249
 30
0.0
 11
59.941411942038
 21
754.583885235347
 31
0.0
  0
LINE
  5
E62
330
1D
100
AcDbEntity
  8
0
100
AcDbLine
 10
59.857840552797
 20
754.441723346216
 30
0.0
 11
59.972226469
 21
754.687087361922
 31
0.0
  0
LINE
  5
E63
330
1D
100
AcDbEntity
  8
0
100
AcDbLine
 10
58.95545
 20
754.234
 30
0.0
 11
59.372038522318
 21
754.039403093883
 31
0.0
  0
LINE
  5
E64
330
1D
100
AcDbEntity
  8
0
100
AcDbLine
 10
58.95545
 20
754.234
 30
0.0
 11
59.308671528406
 21
754.99117190284
 31
0.0
  0
LINE
  5
E65
330
1D
100
AcDbEntity
  8
0
100
AcDbLine
 10
58.95545
 20
754.234
 30
0.0
 11
59.372038522318
 21
754.039403093883
 31
0.0
  0
LINE
  5
E66
330
1D
100
AcDbEntity
  8
0
100
AcDbLine
 10
60.02899286358
 20
754.583464295288
 30
0.0
 11
60.235585193401
 21
755.026319259957
 31
0.0
  0
LINE
  5
E67
330
1D
100
AcDbEntity
  8
0
100
AcDbLine
 10
60.02899286358
 20
754.583464295288
 30
0.0
 11
60.169691775298
 21
754.885068965858
 31
0.0
  0
LINE
  5
E68
330
1D
100
AcDbEntity
  8
0
100
AcDbLine
 10
57.80955
 20
754.768
 30
0.0
 11
58.95545
 21
754.234
 31
0.0
  0
LINE
  5
E69
330
1D
100
AcDbEntity
  8
0
100
AcDbLine
 10
57.80955
 20
754.768
 30
0.0
 11
58.134221015981
 21
755.463970520476
 31
0.0
  0
LINE
  5
E6A
330
1D
100
AcDbEntity
  8
0
100
AcDbLine
 10
57.80955
 20
754.768
 30
0.0
 11
58.47095
 21
754.459
 31
0.0
  0
LINE
  5
E6B
330
1D
100
AcDbEntity
  8
0
100
AcDbLine
 10
59.918198221211
 20
754.571193829928
 30
0.0
 11
59.98249537879
 21
754.544957087331
 31
0.0
  0
LINE
  5
E6C
330
1D
100
AcDbEntity
  8
0
100
AcDbLine
 10
99.622974417025
 20
733.388154554827
 30
0.0
 11
104.50915
 21
727.505
 31
0.0
  0
LINE
  5
E6D
330
1D
100
AcDbEntity
  8
0
100
AcDbLine
 10
61.43465
 20
755.837
 30
0.0
 11
61.503722698561
 21
755.804771828207
 31
0.0
  0
LINE
  5
E6E
330
1D
100
AcDbEntity
  8
0
100
AcDbLine
 10
57.29295
 20
758.871
 30
0.0
 11
62.35552657845
 21
756.510198998934
 31
0.0
  0
LINE
  5
E6F
330
1D
100
AcDbEntity
  8
0
100
AcDbLine
 10
51.40525
 20
761.617
 30
0.0
 11
57.29295
 21
758.871
 31
0.0
  0
LINE
  5
E70
330
1D
100
AcDbEntity
  8
0
100
AcDbLine
 10
102.97105
 20
724.063
 30
0.0
 11
103.16825
 21
724.504
 31
0.0
  0
LINE
  5
E71
330
1D
100
AcDbEntity
  8
0
100
AcDbLine
 10
102.97105
 20
724.063
 30
0.0
 11
159.75465
 21
656.4009
 31
0.0
  0
LINE
  5
E72
330
1D
100
AcDbEntity
  8
0
100
AcDbLine
 10
103.16825
 20
724.504
 30
0.0
 11
103.72035
 21
725.74
 31
0.0
  0
LINE
  5
E73
330
1D
100
AcDbEntity
  8
0
100
AcDbLine
 10
103.72035
 20
725.74
 30
0.0
 11
104.58805
 21
727.681
 31
0.0
  0
LINE
  5
E74
330
1D
100
AcDbEntity
  8
0
100
AcDbLine
 10
104.58805
 20
727.681
 30
0.0
 11
105.73165
 21
730.241
 31
0.0
  0
LINE
  5
E75
330
1D
100
AcDbEntity
  8
0
100
AcDbLine
 10
104.58805
 20
727.681
 30
0.0
 11
104.959458904111
 21
728.512415525118
 31
0.0
  0
LINE
  5
E76
330
1D
100
AcDbEntity
  8
0
100
AcDbLine
 10
104.58805
 20
727.681
 30
0.0
 11
104.959458904112
 21
728.512415525118
 31
0.0
  0
LINE
  5
E77
330
1D
100
AcDbEntity
  8
0
100
AcDbLine
 10
104.50915
 20
727.505
 30
0.0
 11
104.66695
 21
727.858
 31
0.0
  0
LINE
  5
E78
330
1D
100
AcDbEntity
  8
0
100
AcDbLine
 10
104.66695
 20
727.858
 30
0.0
 11
104.959458904111
 21
728.512415525118
 31
0.0
  0
LINE
  5
E79
330
1D
100
AcDbEntity
  8
0
100
AcDbLine
 10
104.66695
 20
727.858
 30
0.0
 11
104.959458904111
 21
728.512415525118
 31
0.0
  0
LINE
  5
E7A
330
1D
100
AcDbEntity
  8
0
100
AcDbLine
 10
110.622609639884
 20
741.185313932372
 30
0.0
 11
110.722942353384
 21
741.409696746067
 31
0.0
  0
LINE
  5
E7B
330
1D
100
AcDbEntity
  8
0
100
AcDbLine
 10
116.336309590897
 20
745.466272619871
 30
0.0
 11
178.08565
 21
671.8825
 31
0.0
  0
LINE
  5
E7C
330
1D
100
AcDbEntity
  8
0
100
AcDbLine
 10
116.336309590897
 20
745.466272619871
 30
0.0
 11
178.08565
 21
671.8825
 31
0.0
  0
LINE
  5
E7D
330
1D
100
AcDbEntity
  8
0
100
AcDbLine
 10
110.622609639884
 20
741.185313932372
 30
0.0
 11
110.722836065147
 21
741.409619935433
 31
0.0
  0
LINE
  5
E7E
330
1D
100
AcDbEntity
  8
0
100
AcDbLine
 10
110.622609639884
 20
741.185313932372
 30
0.0
 11
110.722942353384
 21
741.409696746067
 31
0.0
  0
LINE
  5
E7F
330
1D
100
AcDbEntity
  8
0
100
AcDbLine
 10
110.622609639884
 20
741.185313932372
 30
0.0
 11
110.722836065147
 21
741.409619935433
 31
0.0
  0
LINE
  5
E80
330
1D
100
AcDbEntity
  8
0
100
AcDbLine
 10
147.51365
 20
767.997
 30
0.0
 11
175.24965
 21
787.2
 31
0.0
  0
LINE
  5
E81
330
1D
100
AcDbEntity
  8
0
100
AcDbLine
 10
77.01685
 20
772.845
 30
0.0
 11
80.250189000187
 21
771.337029497252
 31
0.0
  0
LINE
  5
E82
330
1D
100
AcDbEntity
  8
0
100
AcDbLine
 10
71.79085
 20
775.281
 30
0.0
 11
77.01685
 21
772.845
 31
0.0
  0
LINE
  5
E83
330
1D
100
AcDbEntity
  8
0
100
AcDbLine
 10
77.10875
 20
773.905
 30
0.0
 11
81.098758948517
 21
772.045011762197
 31
0.0
  0
LINE
  5
E84
330
1D
100
AcDbEntity
  8
0
100
AcDbLine
 10
48.63675
 20
786.079
 30
0.0
 11
54.45855
 21
783.364
 31
0.0
  0
LINE
  5
E85
330
1D
100
AcDbEntity
  8
0
100
AcDbLine
 10
60.28005
 20
780.649
 30
0.0
 11
66.16765
 21
777.903
 31
0.0
  0
LINE
  5
E86
330
1D
100
AcDbEntity
  8
0
100
AcDbLine
 10
54.45855
 20
783.364
 30
0.0
 11
60.28005
 21
780.649
 31
0.0
  0
LINE
  5
E87
330
1D
100
AcDbEntity
  8
0
100
AcDbLine
 10
66.16765
 20
777.903
 30
0.0
 11
71.79085
 21
775.281
 31
0.0
  0
LINE
  5
E88
330
1D
100
AcDbEntity
  8
0
100
AcDbLine
 10
71.94875
 20
776.311
 30
0.0
 11
77.10875
 21
773.905
 31
0.0
  0
LINE
  5
E89
330
1D
100
AcDbEntity
  8
0
100
AcDbLine
 10
66.12715
 20
779.026
 30
0.0
 11
71.94875
 21
776.311
 31
0.0
  0
LINE
  5
E8A
330
1D
100
AcDbEntity
  8
0
100
AcDbLine
 10
60.63645
 20
781.586
 30
0.0
 11
66.12715
 21
779.026
 31
0.0
  0
LINE
  5
E8B
330
1D
100
AcDbEntity
  8
0
100
AcDbLine
 10
55.72645
 20
786.082
 30
0.0
 11
81.785343530212
 21
772.617845749757
 31
0.0
  0
LINE
  5
E8C
330
1D
100
AcDbEntity
  8
0
100
AcDbLine
 10
54.88115
 20
784.27
 30
0.0
 11
60.63645
 21
781.586
 31
0.0
  0
LINE
  5
E8D
330
1D
100
AcDbEntity
  8
0
100
AcDbLine
 10
49.12535
 20
786.953
 30
0.0
 11
54.88115
 21
784.27
 31
0.0
  0
LINE
  5
E8E
330
1D
100
AcDbEntity
  8
0
100
AcDbLine
 10
138.66665
 20
820.401
 30
0.0
 11
147.77665
 21
828.556
 31
0.0
  0
LINE
  5
E8F
330
1D
100
AcDbEntity
  8
0
100
AcDbLine
 10
120.04165
 20
804.536
 30
0.0
 11
138.66665
 21
820.401
 31
0.0
  0
LINE
  5
E90
330
1D
100
AcDbEntity
  8
0
100
AcDbLine
 10
147.77665
 20
828.556
 30
0.0
 11
157.15365
 21
837.713
 31
0.0
  0
LINE
  5
E91
330
1D
100
AcDbEntity
  8
0
100
AcDbLine
 10
157.15365
 20
837.713
 30
0.0
 11
165.342408006944
 21
847.385495881579
 31
0.0
  0
LINE
  5
E92
330
1D
100
AcDbEntity
  8
0
100
AcDbLine
 10
157.15365
 20
837.713
 30
0.0
 11
165.342408006944
 21
847.385495881579
 31
0.0
  0
LINE
  5
E93
330
1D
100
AcDbEntity
  8
0
100
AcDbLine
 10
171.36265
 20
855.456
 30
0.0
 11
177.19765
 21
864.646
 31
0.0
  0
LINE
  5
E94
330
1D
100
AcDbEntity
  8
0
100
AcDbLine
 10
79.07555
 20
770.357
 30
0.0
 11
120.04165
 21
804.536
 31
0.0
  0
LINE
  5
E95
330
1D
100
AcDbEntity
  8
0
100
AcDbLine
 10
176.86865
 20
670.8622
 30
0.0
 11
177.74865
 21
671.6162
 31
0.0
  0
LINE
  5
E96
330
1D
100
AcDbEntity
  8
0
100
AcDbLine
 10
176.915231404601
 20
787.999374204311
 30
0.0
 11
178.36165
 21
788.231
 31
0.0
  0
LINE
  5
E97
330
1D
100
AcDbEntity
  8
0
100
AcDbLine
 10
179.77365
 20
603.024
 30
0.0
 11
179.77365
 21
611.024
 31
0.0
  0
LINE
  5
E98
330
1D
100
AcDbEntity
  8
0
100
AcDbLine
 10
179.77365
 20
611.024
 30
0.0
 11
179.77365
 21
603.024
 31
0.0
  0
LINE
  5
E99
330
1D
100
AcDbEntity
  8
0
100
AcDbLine
 10
179.77365
 20
611.024
 30
0.0
 11
179.90765
 21
611.79072
 31
0.0
  0
LINE
  5
E9A
330
1D
100
AcDbEntity
  8
0
100
AcDbLine
 10
179.90765
 20
611.79072
 30
0.0
 11
180.40065
 21
612.43955
 31
0.0
  0
LINE
  5
E9B
330
1D
100
AcDbEntity
  8
0
100
AcDbLine
 10
180.40065
 20
612.43955
 30
0.0
 11
181.04765
 21
612.87175
 31
0.0
  0
LINE
  5
E9C
330
1D
100
AcDbEntity
  8
0
100
AcDbLine
 10
181.047934428505
 20
612.87194
 30
0.0
 11
181.76565
 21
613.024
 31
0.0
  0
LINE
  5
E9D
330
1D
100
AcDbEntity
  8
0
100
AcDbLine
 10
181.91465
 20
613.024
 30
0.0
 11
182.36065
 21
613.024
 31
0.0
  0
LINE
  5
E9E
330
1D
100
AcDbEntity
  8
0
100
AcDbLine
 10
182.36065
 20
613.024
 30
0.0
 11
183.11865
 21
613.024
 31
0.0
  0
LINE
  5
E9F
330
1D
100
AcDbEntity
  8
0
100
AcDbLine
 10
183.11865
 20
613.024
 30
0.0
 11
184.18265
 21
613.024
 31
0.0
  0
LINE
  5
EA0
330
1D
100
AcDbEntity
  8
0
100
AcDbLine
 10
181.78565
 20
613.024
 30
0.0
 11
181.91465
 21
613.024
 31
0.0
  0
LINE
  5
EA1
330
1D
100
AcDbEntity
  8
0
100
AcDbLine
 10
184.18265
 20
613.024
 30
0.0
 11
185.53965
 21
613.024
 31
0.0
  0
LINE
  5
EA2
330
1D
100
AcDbEntity
  8
0
100
AcDbLine
 10
185.53965
 20
613.024
 30
0.0
 11
187.17965
 21
613.024
 31
0.0
  0
LINE
  5
EA3
330
1D
100
AcDbEntity
  8
0
100
AcDbLine
 10
187.17965
 20
613.024
 30
0.0
 11
189.08565
 21
613.024
 31
0.0
  0
LINE
  5
EA4
330
1D
100
AcDbEntity
  8
0
100
AcDbLine
 10
187.17965
 20
613.024
 30
0.0
 11
189.08465
 21
613.024
 31
0.0
  0
LINE
  5
EA5
330
1D
100
AcDbEntity
  8
0
100
AcDbLine
 10
189.08465
 20
613.024
 30
0.0
 11
191.23765
 21
613.024
 31
0.0
  0
LINE
  5
EA6
330
1D
100
AcDbEntity
  8
0
100
AcDbLine
 10
189.08565
 20
613.024
 30
0.0
 11
191.23765
 21
613.024
 31
0.0
  0
LINE
  5
EA7
330
1D
100
AcDbEntity
  8
0
100
AcDbLine
 10
188.92465
 20
613.0622
 30
0.0
 11
189.07065
 21
613.024
 31
0.0
  0
LINE
  5
EA8
330
1D
100
AcDbEntity
  8
0
100
AcDbLine
 10
188.77065
 20
613.3121
 30
0.0
 11
188.81465
 21
613.1672
 31
0.0
  0
LINE
  5
EA9
330
1D
100
AcDbEntity
  8
0
100
AcDbLine
 10
188.81465
 20
613.1672
 30
0.0
 11
188.92465
 21
613.0622
 31
0.0
  0
LINE
  5
EAA
330
1D
100
AcDbEntity
  8
0
100
AcDbLine
 10
193.61765
 20
613.024
 30
0.0
 11
196.20065
 21
613.024
 31
0.0
  0
LINE
  5
EAB
330
1D
100
AcDbEntity
  8
0
100
AcDbLine
 10
191.23765
 20
613.024
 30
0.0
 11
193.61665
 21
613.024
 31
0.0
  0
LINE
  5
EAC
330
1D
100
AcDbEntity
  8
0
100
AcDbLine
 10
191.23765
 20
613.024
 30
0.0
 11
193.61765
 21
613.024
 31
0.0
  0
LINE
  5
EAD
330
1D
100
AcDbEntity
  8
0
100
AcDbLine
 10
193.61665
 20
613.024
 30
0.0
 11
196.20065
 21
613.024
 31
0.0
  0
LINE
  5
EAE
330
1D
100
AcDbEntity
  8
0
100
AcDbLine
 10
187.80265
 20
613.424
 30
0.0
 11
188.21365
 21
613.424
 31
0.0
  0
LINE
  5
EAF
330
1D
100
AcDbEntity
  8
0
100
AcDbLine
 10
187.66365
 20
613.424
 30
0.0
 11
187.80265
 21
613.424
 31
0.0
  0
LINE
  5
EB0
330
1D
100
AcDbEntity
  8
0
100
AcDbLine
 10
187.66365
 20
613.424
 30
0.0
 11
187.77065
 21
613.424
 31
0.0
  0
LINE
  5
EB1
330
1D
100
AcDbEntity
  8
0
100
AcDbLine
 10
186.957796056805
 20
626.3638
 30
0.0
 11
186.97365
 21
626.1426
 31
0.0
  0
LINE
  5
EB2
330
1D
100
AcDbEntity
  8
0
100
AcDbLine
 10
186.97365
 20
626.1426
 30
0.0
 11
187.18565
 21
622.0082
 31
0.0
  0
LINE
  5
EB3
330
1D
100
AcDbEntity
  8
0
100
AcDbLine
 10
186.97365
 20
626.1426
 30
0.0
 11
187.18665
 21
622.0082
 31
0.0
  0
LINE
  5
EB4
330
1D
100
AcDbEntity
  8
0
100
AcDbLine
 10
187.18665
 20
622.0082
 30
0.0
 11
187.31665
 21
617.8685
 31
0.0
  0
LINE
  5
EB5
330
1D
100
AcDbEntity
  8
0
100
AcDbLine
 10
187.18565
 20
622.0082
 30
0.0
 11
187.31565
 21
617.8685
 31
0.0
  0
LINE
  5
EB6
330
1D
100
AcDbEntity
  8
0
100
AcDbLine
 10
186.957795672914
 20
626.3638
 30
0.0
 11
186.97365
 21
626.1426
 31
0.0
  0
LINE
  5
EB7
330
1D
100
AcDbEntity
  8
0
100
AcDbLine
 10
187.40365
 20
613.5737
 30
0.0
 11
187.51365
 21
613.4641
 31
0.0
  0
LINE
  5
EB8
330
1D
100
AcDbEntity
  8
0
100
AcDbLine
 10
187.51365
 20
613.4641
 30
0.0
 11
187.66365
 21
613.424
 31
0.0
  0
LINE
  5
EB9
330
1D
100
AcDbEntity
  8
0
100
AcDbLine
 10
187.31665
 20
617.8685
 30
0.0
 11
187.36365
 21
613.7236
 31
0.0
  0
LINE
  5
EBA
330
1D
100
AcDbEntity
  8
0
100
AcDbLine
 10
187.36365
 20
613.7236
 30
0.0
 11
187.40365
 21
613.5737
 31
0.0
  0
LINE
  5
EBB
330
1D
100
AcDbEntity
  8
0
100
AcDbLine
 10
187.31565
 20
617.8685
 30
0.0
 11
187.36365
 21
613.7236
 31
0.0
  0
LINE
  5
EBC
330
1D
100
AcDbEntity
  8
0
100
AcDbLine
 10
188.21365
 20
613.424
 30
0.0
 11
188.766949594298
 21
613.424
 31
0.0
  0
LINE
  5
EBD
330
1D
100
AcDbEntity
  8
0
100
AcDbLine
 10
186.29965
 20
634.3971
 30
0.0
 11
186.48598777002
 21
632.3638
 31
0.0
  0
LINE
  5
EBE
330
1D
100
AcDbEntity
  8
0
100
AcDbLine
 10
187.99165
 20
636.8271
 30
0.0
 11
188.77065
 21
613.3123
 31
0.0
  0
LINE
  5
EBF
330
1D
100
AcDbEntity
  8
0
100
AcDbLine
 10
187.99165
 20
636.8274
 30
0.0
 11
188.77065
 21
613.3126
 31
0.0
  0
LINE
  5
EC0
330
1D
100
AcDbEntity
  8
0
100
AcDbLine
 10
196.20065
 20
613.024
 30
0.0
 11
198.96265
 21
613.024
 31
0.0
  0
LINE
  5
EC1
330
1D
100
AcDbEntity
  8
0
100
AcDbLine
 10
198.96265
 20
613.024
 30
0.0
 11
201.87765
 21
613.024
 31
0.0
  0
LINE
  5
EC2
330
1D
100
AcDbEntity
  8
0
100
AcDbLine
 10
198.96265
 20
613.024
 30
0.0
 11
201.87865
 21
613.024
 31
0.0
  0
LINE
  5
EC3
330
1D
100
AcDbEntity
  8
0
100
AcDbLine
 10
201.87865
 20
613.024
 30
0.0
 11
204.91665
 21
613.024
 31
0.0
  0
LINE
  5
EC4
330
1D
100
AcDbEntity
  8
0
100
AcDbLine
 10
204.91665
 20
613.024
 30
0.0
 11
208.05165
 21
613.024
 31
0.0
  0
LINE
  5
EC5
330
1D
100
AcDbEntity
  8
0
100
AcDbLine
 10
211.24965
 20
613.024
 30
0.0
 11
214.48265
 21
613.024
 31
0.0
  0
LINE
  5
EC6
330
1D
100
AcDbEntity
  8
0
100
AcDbLine
 10
208.05165
 20
613.024
 30
0.0
 11
211.24965
 21
613.024
 31
0.0
  0
LINE
  5
EC7
330
1D
100
AcDbEntity
  8
0
100
AcDbLine
 10
204.91765
 20
613.024
 30
0.0
 11
208.05165
 21
613.024
 31
0.0
  0
LINE
  5
EC8
330
1D
100
AcDbEntity
  8
0
100
AcDbLine
 10
201.87765
 20
613.024
 30
0.0
 11
204.91765
 21
613.024
 31
0.0
  0
LINE
  5
EC9
330
1D
100
AcDbEntity
  8
0
100
AcDbLine
 10
200.64265
 20
613.063
 30
0.0
 11
200.72265
 21
613.024
 31
0.0
  0
LINE
  5
ECA
330
1D
100
AcDbEntity
  8
0
100
AcDbLine
 10
200.64265
 20
613.063
 30
0.0
 11
200.72365
 21
613.024
 31
0.0
  0
LINE
  5
ECB
330
1D
100
AcDbEntity
  8
0
100
AcDbLine
 10
214.48265
 20
613.024
 30
0.0
 11
217.71865
 21
613.024
 31
0.0
  0
LINE
  5
ECC
330
1D
100
AcDbEntity
  8
0
100
AcDbLine
 10
214.48265
 20
613.024
 30
0.0
 11
217.71965
 21
613.024
 31
0.0
  0
LINE
  5
ECD
330
1D
100
AcDbEntity
  8
0
100
AcDbLine
 10
217.71965
 20
613.024
 30
0.0
 11
220.92665
 21
613.024
 31
0.0
  0
LINE
  5
ECE
330
1D
100
AcDbEntity
  8
0
100
AcDbLine
 10
217.71865
 20
613.024
 30
0.0
 11
220.92665
 21
613.024
 31
0.0
  0
LINE
  5
ECF
330
1D
100
AcDbEntity
  8
0
100
AcDbLine
 10
220.92665
 20
613.024
 30
0.0
 11
224.07465
 21
613.024
 31
0.0
  0
LINE
  5
ED0
330
1D
100
AcDbEntity
  8
0
100
AcDbLine
 10
224.07465
 20
613.024
 30
0.0
 11
227.13365
 21
613.024
 31
0.0
  0
LINE
  5
ED1
330
1D
100
AcDbEntity
  8
0
100
AcDbLine
 10
227.13365
 20
613.024
 30
0.0
 11
230.07365
 21
613.024
 31
0.0
  0
LINE
  5
ED2
330
1D
100
AcDbEntity
  8
0
100
AcDbLine
 10
230.07365
 20
613.024
 30
0.0
 11
232.86665
 21
613.024
 31
0.0
  0
LINE
  5
ED3
330
1D
100
AcDbEntity
  8
0
100
AcDbLine
 10
249.77365
 20
603.024
 30
0.0
 11
249.77365
 21
611.024
 31
0.0
  0
LINE
  5
ED4
330
1D
100
AcDbEntity
  8
0
100
AcDbLine
 10
232.86665
 20
613.024
 30
0.0
 11
235.48565
 21
613.024
 31
0.0
  0
LINE
  5
ED5
330
1D
100
AcDbEntity
  8
0
100
AcDbLine
 10
235.48565
 20
613.024
 30
0.0
 11
237.90465
 21
613.024
 31
0.0
  0
LINE
  5
ED6
330
1D
100
AcDbEntity
  8
0
100
AcDbLine
 10
237.90465
 20
613.024
 30
0.0
 11
240.10165
 21
613.024
 31
0.0
  0
LINE
  5
ED7
330
1D
100
AcDbEntity
  8
0
100
AcDbLine
 10
237.90465
 20
613.024
 30
0.0
 11
240.10065
 21
613.024
 31
0.0
  0
LINE
  5
ED8
330
1D
100
AcDbEntity
  8
0
100
AcDbLine
 10
240.10065
 20
613.024
 30
0.0
 11
242.05465
 21
613.024
 31
0.0
  0
LINE
  5
ED9
330
1D
100
AcDbEntity
  8
0
100
AcDbLine
 10
240.10165
 20
613.024
 30
0.0
 11
242.05465
 21
613.024
 31
0.0
  0
LINE
  5
EDA
330
1D
100
AcDbEntity
  8
0
100
AcDbLine
 10
240.31467014218
 20
619.905166469195
 30
0.0
 11
240.32865
 21
619.8316
 31
0.0
  0
LINE
  5
EDB
330
1D
100
AcDbEntity
  8
0
100
AcDbLine
 10
242.05465
 20
613.024
 30
0.0
 11
242.38865
 21
613.024
 31
0.0
  0
LINE
  5
EDC
330
1D
100
AcDbEntity
  8
0
100
AcDbLine
 10
242.05465
 20
613.024
 30
0.0
 11
243.74365
 21
613.024
 31
0.0
  0
LINE
  5
EDD
330
1D
100
AcDbEntity
  8
0
100
AcDbLine
 10
242.05465
 20
613.024
 30
0.0
 11
243.74465
 21
613.024
 31
0.0
  0
LINE
  5
EDE
330
1D
100
AcDbEntity
  8
0
100
AcDbLine
 10
246.27465
 20
613.024
 30
0.0
 11
247.08965
 21
613.024
 31
0.0
  0
LINE
  5
EDF
330
1D
100
AcDbEntity
  8
0
100
AcDbLine
 10
245.15565
 20
613.024
 30
0.0
 11
246.27365
 21
613.024
 31
0.0
  0
LINE
  5
EE0
330
1D
100
AcDbEntity
  8
0
100
AcDbLine
 10
245.15565
 20
613.024
 30
0.0
 11
246.27465
 21
613.024
 31
0.0
  0
LINE
  5
EE1
330
1D
100
AcDbEntity
  8
0
100
AcDbLine
 10
246.27365
 20
613.024
 30
0.0
 11
247.08965
 21
613.024
 31
0.0
  0
LINE
  5
EE2
330
1D
100
AcDbEntity
  8
0
100
AcDbLine
 10
248.47965
 20
612.87171
 30
0.0
 11
249.20665
 21
612.43929
 31
0.0
  0
LINE
  5
EE3
330
1D
100
AcDbEntity
  8
0
100
AcDbLine
 10
247.802338230625
 20
613.015570264098
 30
0.0
 11
248.47965
 21
612.87171
 31
0.0
  0
LINE
  5
EE4
330
1D
100
AcDbEntity
  8
0
100
AcDbLine
 10
249.20665
 20
612.43929
 30
0.0
 11
249.60165
 21
611.78936
 31
0.0
  0
LINE
  5
EE5
330
1D
100
AcDbEntity
  8
0
100
AcDbLine
 10
247.59465
 20
613.024
 30
0.0
 11
247.78265
 21
613.024
 31
0.0
  0
LINE
  5
EE6
330
1D
100
AcDbEntity
  8
0
100
AcDbLine
 10
247.08965
 20
613.024
 30
0.0
 11
247.59465
 21
613.024
 31
0.0
  0
LINE
  5
EE7
330
1D
100
AcDbEntity
  8
0
100
AcDbLine
 10
243.74465
 20
613.024
 30
0.0
 11
245.15565
 21
613.024
 31
0.0
  0
LINE
  5
EE8
330
1D
100
AcDbEntity
  8
0
100
AcDbLine
 10
249.60165
 20
611.78936
 30
0.0
 11
249.77365
 21
611.024
 31
0.0
  0
LINE
  5
EE9
330
1D
100
AcDbEntity
  8
0
100
AcDbLine
 10
249.77365
 20
611.024
 30
0.0
 11
249.77365
 21
603.024
 31
0.0
  0
LINE
  5
EEA
330
1D
100
AcDbEntity
  8
0
100
AcDbLine
 10
242.38865
 20
613.024
 30
0.0
 11
244.02865
 21
613.024
 31
0.0
  0
LINE
  5
EEB
330
1D
100
AcDbEntity
  8
0
100
AcDbLine
 10
240.65065
 20
613.0679
 30
0.0
 11
240.76165
 21
613.1866
 31
0.0
  0
LINE
  5
EEC
330
1D
100
AcDbEntity
  8
0
100
AcDbLine
 10
240.788022629729
 20
613.424
 30
0.0
 11
241.24965
 21
613.424
 31
0.0
  0
LINE
  5
EED
330
1D
100
AcDbEntity
  8
0
100
AcDbLine
 10
241.24965
 20
613.424
 30
0.0
 11
241.71065
 21
613.424
 31
0.0
  0
LINE
  5
EEE
330
1D
100
AcDbEntity
  8
0
100
AcDbLine
 10
241.86365
 20
613.424
 30
0.0
 11
242.01365
 21
613.4642
 31
0.0
  0
LINE
  5
EEF
330
1D
100
AcDbEntity
  8
0
100
AcDbLine
 10
242.01365
 20
613.4642
 30
0.0
 11
242.12365
 21
613.574
 31
0.0
  0
LINE
  5
EF0
330
1D
100
AcDbEntity
  8
0
100
AcDbLine
 10
242.12365
 20
613.574
 30
0.0
 11
242.16365
 21
613.7241
 31
0.0
  0
LINE
  5
EF1
330
1D
100
AcDbEntity
  8
0
100
AcDbLine
 10
241.71065
 20
613.424
 30
0.0
 11
241.86365
 21
613.424
 31
0.0
  0
LINE
  5
EF2
330
1D
100
AcDbEntity
  8
0
100
AcDbLine
 10
241.70665
 20
613.424
 30
0.0
 11
241.86365
 21
613.424
 31
0.0
  0
LINE
  5
EF3
330
1D
100
AcDbEntity
  8
0
100
AcDbLine
 10
240.76165
 20
613.1866
 30
0.0
 11
240.79365
 21
613.3455
 31
0.0
  0
LINE
  5
EF4
330
1D
100
AcDbEntity
  8
0
100
AcDbLine
 10
240.49465
 20
613.024
 30
0.0
 11
240.65065
 21
613.0679
 31
0.0
  0
LINE
  5
EF5
330
1D
100
AcDbEntity
  8
0
100
AcDbLine
 10
240.32865
 20
619.8321
 30
0.0
 11
240.79365
 21
613.3455
 31
0.0
  0
LINE
  5
EF6
330
1D
100
AcDbEntity
  8
0
100
AcDbLine
 10
240.166069295559
 20
620.746025206739
 30
0.0
 11
240.212792523939
 21
620.470907844338
 31
0.0
  0
LINE
  5
EF7
330
1D
100
AcDbEntity
  8
0
100
AcDbLine
 10
240.07665
 20
621.3386
 30
0.0
 11
240.18065
 21
620.6494
 31
0.0
  0
LINE
  5
EF8
330
1D
100
AcDbEntity
  8
0
100
AcDbLine
 10
240.07665
 20
621.3379
 30
0.0
 11
240.18065
 21
620.6494
 31
0.0
  0
LINE
  5
EF9
330
1D
100
AcDbEntity
  8
0
100
AcDbLine
 10
240.18065
 20
620.6494
 30
0.0
 11
240.32365
 21
619.855
 31
0.0
  0
LINE
  5
EFA
330
1D
100
AcDbEntity
  8
0
100
AcDbLine
 10
240.18065
 20
620.6494
 30
0.0
 11
240.32365
 21
619.8553
 31
0.0
  0
LINE
  5
EFB
330
1D
100
AcDbEntity
  8
0
100
AcDbLine
 10
240.166475421133
 20
620.743333843799
 30
0.0
 11
240.211897237909
 21
620.475879499138
 31
0.0
  0
LINE
  5
EFC
330
1D
100
AcDbEntity
  8
0
100
AcDbLine
 10
239.809211818971
 20
624.395231935789
 30
0.0
 11
239.84265
 21
624.1996
 31
0.0
  0
LINE
  5
EFD
330
1D
100
AcDbEntity
  8
0
100
AcDbLine
 10
239.90065
 20
623.0182
 30
0.0
 11
240.07665
 21
621.3386
 31
0.0
  0
LINE
  5
EFE
330
1D
100
AcDbEntity
  8
0
100
AcDbLine
 10
240.020582251554
 20
621.873664717561
 30
0.0
 11
240.15262749627
 21
620.835102976643
 31
0.0
  0
LINE
  5
EFF
330
1D
100
AcDbEntity
  8
0
100
AcDbLine
 10
239.90065
 20
623.018
 30
0.0
 11
240.07665
 21
621.3379
 31
0.0
  0
LINE
  5
F00
330
1D
100
AcDbEntity
  8
0
100
AcDbLine
 10
239.826504373254
 20
624.134811187786
 30
0.0
 11
239.84265
 21
624.1996
 31
0.0
  0
LINE
  5
F01
330
1D
100
AcDbEntity
  8
0
100
AcDbLine
 10
239.840990711258
 20
624.636900350289
 30
0.0
 11
239.859292134891
 21
623.861116074916
 31
0.0
  0
LINE
  5
F02
330
1D
100
AcDbEntity
  8
0
100
AcDbLine
 10
239.826504373254
 20
624.134811187786
 30
0.0
 11
239.84265
 21
624.1996
 31
0.0
  0
LINE
  5
F03
330
1D
100
AcDbEntity
  8
0
100
AcDbLine
 10
239.882743820878
 20
623.383146454146
 30
0.0
 11
239.927657192459
 21
622.760465451967
 31
0.0
  0
LINE
  5
F04
330
1D
100
AcDbEntity
  8
0
100
AcDbLine
 10
239.84265
 20
624.2003
 30
0.0
 11
239.90065
 21
623.0182
 31
0.0
  0
LINE
  5
F05
330
1D
100
AcDbEntity
  8
0
100
AcDbLine
 10
239.84265
 20
624.1996
 30
0.0
 11
239.90065
 21
623.018
 31
0.0
  0
LINE
  5
F06
330
1D
100
AcDbEntity
  8
0
100
AcDbLine
 10
239.840993187224
 20
624.636248861705
 30
0.0
 11
239.859258409678
 21
623.861803429646
 31
0.0
  0
LINE
  5
F07
330
1D
100
AcDbEntity
  8
0
100
AcDbLine
 10
239.882850886851
 20
623.380964338856
 30
0.0
 11
239.927553831701
 21
622.761451842471
 31
0.0
  0
LINE
  5
F08
330
1D
100
AcDbEntity
  8
0
100
AcDbLine
 10
239.809211818971
 20
624.395231935789
 30
0.0
 11
239.84265
 21
624.1996
 31
0.0
  0
LINE
  5
F09
330
1D
100
AcDbEntity
  8
0
100
AcDbLine
 10
240.02076103734
 20
621.871958532295
 30
0.0
 11
240.152385223363
 21
620.836708500563
 31
0.0
  0
LINE
  5
F0A
330
1D
100
AcDbEntity
  8
0
100
AcDbLine
 10
240.313105834656
 20
619.9138532986
 30
0.0
 11
240.32865
 21
619.8321
 31
0.0
  0
LINE
  5
F0B
330
1D
100
AcDbEntity
  8
0
100
AcDbLine
 10
239.83865
 20
625.2528
 30
0.0
 11
239.84265
 21
624.2003
 31
0.0
  0
LINE
  5
F0C
330
1D
100
AcDbEntity
  8
0
100
AcDbLine
 10
239.83865
 20
625.2528
 30
0.0
 11
239.86865
 21
626.1214
 31
0.0
  0
LINE
  5
F0D
330
1D
100
AcDbEntity
  8
0
100
AcDbLine
 10
239.839635588533
 20
624.993467017217
 30
0.0
 11
239.849614871736
 21
625.570269586317
 31
0.0
  0
LINE
  5
F0E
330
1D
100
AcDbEntity
  8
0
100
AcDbLine
 10
239.839636972016
 20
624.993102988258
 30
0.0
 11
239.849623771959
 21
625.57052727745
 31
0.0
  0
LINE
  5
F0F
330
1D
100
AcDbEntity
  8
0
100
AcDbLine
 10
239.83865
 20
625.2527
 30
0.0
 11
239.84265
 21
624.1996
 31
0.0
  0
LINE
  5
F10
330
1D
100
AcDbEntity
  8
0
100
AcDbLine
 10
239.83865
 20
625.2527
 30
0.0
 11
239.86865
 21
626.1219
 31
0.0
  0
LINE
  5
F11
330
1D
100
AcDbEntity
  8
0
100
AcDbLine
 10
239.86617523172
 20
626.049747209064
 30
0.0
 11
239.87265
 21
626.1953
 31
0.0
  0
LINE
  5
F12
330
1D
100
AcDbEntity
  8
0
100
AcDbLine
 10
239.86865
 20
626.1214
 30
0.0
 11
239.87265
 21
626.1953
 31
0.0
  0
LINE
  5
F13
330
1D
100
AcDbEntity
  8
0
100
AcDbLine
 10
239.86624937727
 20
626.051893969903
 30
0.0
 11
239.87265
 21
626.1961
 31
0.0
  0
LINE
  5
F14
330
1D
100
AcDbEntity
  8
0
100
AcDbLine
 10
242.09965
 20
626.0757
 30
0.0
 11
242.16365
 21
613.7241
 31
0.0
  0
LINE
  5
F15
330
1D
100
AcDbEntity
  8
0
100
AcDbLine
 10
239.86865
 20
626.1219
 30
0.0
 11
239.87265
 21
626.1961
 31
0.0
  0
LINE
  5
F16
330
1D
100
AcDbEntity
  8
0
100
AcDbLine
 10
241.91365
 20
638.4266
 30
0.0
 11
242.09965
 21
626.0757
 31
0.0
  0
LINE
  5
F17
330
1D
100
AcDbEntity
  8
0
100
AcDbLine
 10
177.74865
 20
671.6162
 30
0.0
 11
178.08565
 21
671.8825
 31
0.0
  0
LINE
  5
F18
330
1D
100
AcDbEntity
  8
0
100
AcDbLine
 10
178.033963101317
 20
670.830093027108
 30
0.0
 11
178.08565
 21
671.8825
 31
0.0
  0
LINE
  5
F19
330
1D
100
AcDbEntity
  8
0
100
AcDbLine
 10
178.36165
 20
788.231
 30
0.0
 11
180.44765
 21
788.165
 31
0.0
  0
LINE
  5
F1A
330
1D
100
AcDbEntity
  8
0
100
AcDbLine
 10
184.98065
 20
644.7609
 30
0.0
 11
185.83865
 21
638.5164
 31
0.0
  0
LINE
  5
F1B
330
1D
100
AcDbEntity
  8
0
100
AcDbLine
 10
181.67465
 20
661.7239
 30
0.0
 11
182.87465
 21
656.3628
 31
0.0
  0
LINE
  5
F1C
330
1D
100
AcDbEntity
  8
0
100
AcDbLine
 10
181.73365
 20
663.189
 30
0.0
 11
181.91465
 21
663.3613
 31
0.0
  0
LINE
  5
F1D
330
1D
100
AcDbEntity
  8
0
100
AcDbLine
 10
181.73265
 20
663.189
 30
0.0
 11
181.91465
 21
663.3613
 31
0.0
  0
LINE
  5
F1E
330
1D
100
AcDbEntity
  8
0
100
AcDbLine
 10
181.91465
 20
663.3613
 30
0.0
 11
182.15665
 21
663.424
 31
0.0
  0
LINE
  5
F1F
330
1D
100
AcDbEntity
  8
0
100
AcDbLine
 10
181.65765
 20
662.9502
 30
0.0
 11
181.73265
 21
663.189
 31
0.0
  0
LINE
  5
F20
330
1D
100
AcDbEntity
  8
0
100
AcDbLine
 10
181.65765
 20
662.9502
 30
0.0
 11
181.73365
 21
663.189
 31
0.0
  0
LINE
  5
F21
330
1D
100
AcDbEntity
  8
0
100
AcDbLine
 10
181.62365
 20
662.2904
 30
0.0
 11
181.67465
 21
661.7239
 31
0.0
  0
LINE
  5
F22
330
1D
100
AcDbEntity
  8
0
100
AcDbLine
 10
181.62365
 20
662.2904
 30
0.0
 11
181.65765
 21
662.9502
 31
0.0
  0
LINE
  5
F23
330
1D
100
AcDbEntity
  8
0
100
AcDbLine
 10
180.44765
 20
788.165
 30
0.0
 11
182.59565
 21
787.567
 31
0.0
  0
LINE
  5
F24
330
1D
100
AcDbEntity
  8
0
100
AcDbLine
 10
181.58765
 20
673.859
 30
0.0
 11
182.85365
 21
673.8777
 31
0.0
  0
LINE
  5
F25
330
1D
100
AcDbEntity
  8
0
100
AcDbLine
 10
182.15665
 20
663.424
 30
0.0
 11
182.23365
 21
663.424
 31
0.0
  0
LINE
  5
F26
330
1D
100
AcDbEntity
  8
0
100
AcDbLine
 10
182.15665
 20
663.424
 30
0.0
 11
182.23165
 21
663.424
 31
0.0
  0
LINE
  5
F27
330
1D
100
AcDbEntity
  8
0
100
AcDbLine
 10
182.15765
 20
663.424
 30
0.0
 11
182.23165
 21
663.424
 31
0.0
  0
LINE
  5
F28
330
1D
100
AcDbEntity
  8
0
100
AcDbLine
 10
182.15765
 20
663.424
 30
0.0
 11
182.23365
 21
663.424
 31
0.0
  0
LINE
  5
F29
330
1D
100
AcDbEntity
  8
0
100
AcDbLine
 10
182.23365
 20
663.424
 30
0.0
 11
182.57365
 21
663.424
 31
0.0
  0
LINE
  5
F2A
330
1D
100
AcDbEntity
  8
0
100
AcDbLine
 10
182.23365
 20
663.424
 30
0.0
 11
182.57465
 21
663.424
 31
0.0
  0
LINE
  5
F2B
330
1D
100
AcDbEntity
  8
0
100
AcDbLine
 10
182.57465
 20
663.424
 30
0.0
 11
183.11465
 21
663.424
 31
0.0
  0
LINE
  5
F2C
330
1D
100
AcDbEntity
  8
0
100
AcDbLine
 10
182.57365
 20
663.424
 30
0.0
 11
183.11465
 21
663.424
 31
0.0
  0
LINE
  5
F2D
330
1D
100
AcDbEntity
  8
0
100
AcDbLine
 10
182.59565
 20
787.567
 30
0.0
 11
184.30565
 21
786.667
 31
0.0
  0
LINE
  5
F2E
330
1D
100
AcDbEntity
  8
0
100
AcDbLine
 10
182.85365
 20
673.8777
 30
0.0
 11
183.71865
 21
673.1944
 31
0.0
  0
LINE
  5
F2F
330
1D
100
AcDbEntity
  8
0
100
AcDbLine
 10
183.11465
 20
663.424
 30
0.0
 11
184.21965
 21
663.424
 31
0.0
  0
LINE
  5
F30
330
1D
100
AcDbEntity
  8
0
100
AcDbLine
 10
183.46903354444
 20
653.29225060059
 30
0.0
 11
184.055650077461
 21
650.261825111862
 31
0.0
  0
LINE
  5
F31
330
1D
100
AcDbEntity
  8
0
100
AcDbLine
 10
183.46903354444
 20
653.29225060059
 30
0.0
 11
184.055650077461
 21
650.261825111862
 31
0.0
  0
LINE
  5
F32
330
1D
100
AcDbEntity
  8
0
100
AcDbLine
 10
184.055650077461
 20
650.261825111862
 30
0.0
 11
184.98065
 21
644.7609
 31
0.0
  0
LINE
  5
F33
330
1D
100
AcDbEntity
  8
0
100
AcDbLine
 10
241.60165
 20
650.9256
 30
0.0
 11
241.91365
 21
638.4266
 31
0.0
  0
LINE
  5
F34
330
1D
100
AcDbEntity
  8
0
100
AcDbLine
 10
187.52565
 20
658.5999
 30
0.0
 11
187.99165
 21
636.8271
 31
0.0
  0
LINE
  5
F35
330
1D
100
AcDbEntity
  8
0
100
AcDbLine
 10
187.52565
 20
658.5994
 30
0.0
 11
187.99165
 21
636.8274
 31
0.0
  0
LINE
  5
F36
330
1D
100
AcDbEntity
  8
0
100
AcDbLine
 10
184.21965
 20
663.424
 30
0.0
 11
185.87065
 21
663.424
 31
0.0
  0
LINE
  5
F37
330
1D
100
AcDbEntity
  8
0
100
AcDbLine
 10
185.87065
 20
663.424
 30
0.0
 11
187.472237789136
 21
663.424
 31
0.0
  0
LINE
  5
F38
330
1D
100
AcDbEntity
  8
0
100
AcDbLine
 10
237.23576349831
 20
663.424
 30
0.0
 11
238.39865
 21
663.424
 31
0.0
  0
LINE
  5
F39
330
1D
100
AcDbEntity
  8
0
100
AcDbLine
 10
238.39865
 20
663.424
 30
0.0
 11
239.39065
 21
663.424
 31
0.0
  0
LINE
  5
F3A
330
1D
100
AcDbEntity
  8
0
100
AcDbLine
 10
240.92765
 20
663.3603
 30
0.0
 11
241.10965
 21
663.1853
 31
0.0
  0
LINE
  5
F3B
330
1D
100
AcDbEntity
  8
0
100
AcDbLine
 10
241.10965
 20
663.1853
 30
0.0
 11
241.18265
 21
662.9438
 31
0.0
  0
LINE
  5
F3C
330
1D
100
AcDbEntity
  8
0
100
AcDbLine
 10
240.53765
 20
663.424
 30
0.0
 11
240.68365
 21
663.424
 31
0.0
  0
LINE
  5
F3D
330
1D
100
AcDbEntity
  8
0
100
AcDbLine
 10
240.68365
 20
663.424
 30
0.0
 11
240.92765
 21
663.3603
 31
0.0
  0
LINE
  5
F3E
330
1D
100
AcDbEntity
  8
0
100
AcDbLine
 10
239.39065
 20
663.424
 30
0.0
 11
240.10665
 21
663.424
 31
0.0
  0
LINE
  5
F3F
330
1D
100
AcDbEntity
  8
0
100
AcDbLine
 10
240.10665
 20
663.424
 30
0.0
 11
240.53765
 21
663.424
 31
0.0
  0
LINE
  5
F40
330
1D
100
AcDbEntity
  8
0
100
AcDbLine
 10
241.18265
 20
662.9436
 30
0.0
 11
241.60165
 21
650.9256
 31
0.0
  0
LINE
  5
F41
330
1D
100
AcDbEntity
  8
0
100
AcDbLine
 10
236.31565
 20
677.797
 30
0.0
 11
239.87265
 21
626.1953
 31
0.0
  0
LINE
  5
F42
330
1D
100
AcDbEntity
  8
0
100
AcDbLine
 10
236.31565
 20
677.797
 30
0.0
 11
239.87265
 21
626.1953
 31
0.0
  0
LINE
  5
F43
330
1D
100
AcDbEntity
  8
0
100
AcDbLine
 10
184.32865
 20
786.643
 30
0.0
 11
185.62565
 21
785.46
 31
0.0
  0
LINE
  5
F44
330
1D
100
AcDbEntity
  8
0
100
AcDbLine
 10
185.62565
 20
785.46
 30
0.0
 11
186.81965
 21
782.254
 31
0.0
  0
LINE
  5
F45
330
1D
100
AcDbEntity
  8
0
100
AcDbLine
 10
186.81965
 20
782.255
 30
0.0
 11
187.38294379977
 21
763.189962199726
 31
0.0
  0
LINE
  5
F46
330
1D
100
AcDbEntity
  8
0
100
AcDbLine
 10
187.19665
 20
688.3172
 30
0.0
 11
187.52565
 21
658.5994
 31
0.0
  0
LINE
  5
F47
330
1D
100
AcDbEntity
  8
0
100
AcDbLine
 10
187.19665
 20
688.3172
 30
0.0
 11
187.25065
 21
698.7216
 31
0.0
  0
LINE
  5
F48
330
1D
100
AcDbEntity
  8
0
100
AcDbLine
 10
187.38294379977
 20
763.189962199721
 30
0.0
 11
187.45165
 21
751.744
 31
0.0
  0
LINE
  5
F49
330
1D
100
AcDbEntity
  8
0
100
AcDbLine
 10
187.25065
 20
698.7216
 30
0.0
 11
187.251212005218
 21
698.212391659914
 31
0.0
  0
LINE
  5
F4A
330
1D
100
AcDbEntity
  8
0
100
AcDbLine
 10
187.25065
 20
698.7216
 30
0.0
 11
187.36765
 21
720.236
 31
0.0
  0
LINE
  5
F4B
330
1D
100
AcDbEntity
  8
0
100
AcDbLine
 10
187.36765
 20
720.236
 30
0.0
 11
187.45165
 21
751.744
 31
0.0
  0
LINE
  5
F4C
330
1D
100
AcDbEntity
  8
0
100
AcDbLine
 10
187.25065
 20
698.7206
 30
0.0
 11
187.36765
 21
720.236
 31
0.0
  0
LINE
  5
F4D
330
1D
100
AcDbEntity
  8
0
100
AcDbLine
 10
187.25065
 20
698.7206
 30
0.0
 11
187.251240020252
 21
698.217472377419
 31
0.0
  0
LINE
  5
F4E
330
1D
100
AcDbEntity
  8
0
100
AcDbLine
 10
188.27065
 20
875.997
 30
0.0
 11
189.60565
 21
874.835
 31
0.0
  0
LINE
  5
F4F
330
1D
100
AcDbEntity
  8
0
100
AcDbLine
 10
184.89265
 20
879.289
 30
0.0
 11
184.92265
 21
879.403
 31
0.0
  0
LINE
  5
F50
330
1D
100
AcDbEntity
  8
0
100
AcDbLine
 10
184.89265
 20
879.289
 30
0.0
 11
185.08865
 21
879.01
 31
0.0
  0
LINE
  5
F51
330
1D
100
AcDbEntity
  8
0
100
AcDbLine
 10
184.89365
 20
879.289
 30
0.0
 11
185.08865
 21
879.01
 31
0.0
  0
LINE
  5
F52
330
1D
100
AcDbEntity
  8
0
100
AcDbLine
 10
184.894718034544
 20
879.293310282267
 30
0.0
 11
184.92165
 21
879.402
 31
0.0
  0
LINE
  5
F53
330
1D
100
AcDbEntity
  8
0
100
AcDbLine
 10
185.53965
 20
878.522
 30
0.0
 11
186.22765
 21
877.85
 31
0.0
  0
LINE
  5
F54
330
1D
100
AcDbEntity
  8
0
100
AcDbLine
 10
185.53865
 20
878.521
 30
0.0
 11
186.22665
 21
877.85
 31
0.0
  0
LINE
  5
F55
330
1D
100
AcDbEntity
  8
0
100
AcDbLine
 10
185.08865
 20
879.01
 30
0.0
 11
185.53865
 21
878.521
 31
0.0
  0
LINE
  5
F56
330
1D
100
AcDbEntity
  8
0
100
AcDbLine
 10
185.08865
 20
879.01
 30
0.0
 11
185.53965
 21
878.522
 31
0.0
  0
LINE
  5
F57
330
1D
100
AcDbEntity
  8
0
100
AcDbLine
 10
186.22765
 20
877.85
 30
0.0
 11
187.14165
 21
877.006
 31
0.0
  0
LINE
  5
F58
330
1D
100
AcDbEntity
  8
0
100
AcDbLine
 10
186.22665
 20
877.85
 30
0.0
 11
187.14165
 21
877.006
 31
0.0
  0
LINE
  5
F59
330
1D
100
AcDbEntity
  8
0
100
AcDbLine
 10
187.14165
 20
877.006
 30
0.0
 11
188.27165
 21
875.997
 31
0.0
  0
LINE
  5
F5A
330
1D
100
AcDbEntity
  8
0
100
AcDbLine
 10
187.14165
 20
877.006
 30
0.0
 11
188.27065
 21
875.997
 31
0.0
  0
LINE
  5
F5B
330
1D
100
AcDbEntity
  8
0
100
AcDbLine
 10
236.27465
 20
678.0827
 30
0.0
 11
236.31565
 21
677.797
 31
0.0
  0
LINE
  5
F5C
330
1D
100
AcDbEntity
  8
0
100
AcDbLine
 10
236.11565
 20
679.2243
 30
0.0
 11
236.27465
 21
678.0827
 31
0.0
  0
LINE
  5
F5D
330
1D
100
AcDbEntity
  8
0
100
AcDbLine
 10
236.280658551255
 20
677.989908141417
 30
0.0
 11
236.31565
 21
677.797
 31
0.0
  0
LINE
  5
F5E
330
1D
100
AcDbEntity
  8
0
100
AcDbLine
 10
236.69470978093
 20
682.828551784397
 30
0.0
 11
239.05565
 21
682.487
 31
0.0
  0
LINE
  5
F5F
330
1D
100
AcDbEntity
  8
0
100
AcDbLine
 10
239.05565
 20
682.487
 30
0.0
 11
240.24465
 21
682.1656
 31
0.0
  0
LINE
  5
F60
330
1D
100
AcDbEntity
  8
0
100
AcDbLine
 10
240.24465
 20
682.1656
 30
0.0
 11
241.89065
 21
681.8371
 31
0.0
  0
LINE
  5
F61
330
1D
100
AcDbEntity
  8
0
100
AcDbLine
 10
235.99565
 20
680.5235
 30
0.0
 11
236.11565
 21
679.2243
 31
0.0
  0
LINE
  5
F62
330
1D
100
AcDbEntity
  8
0
100
AcDbLine
 10
253.10565
 20
681.8347
 30
0.0
 11
253.87365
 21
682.1491
 31
0.0
  0
LINE
  5
F63
330
1D
100
AcDbEntity
  8
0
100
AcDbLine
 10
253.87365
 20
682.1491
 30
0.0
 11
254.60665
 21
683.0741
 31
0.0
  0
LINE
  5
F64
330
1D
100
AcDbEntity
  8
0
100
AcDbLine
 10
241.89065
 20
681.8371
 30
0.0
 11
253.10565
 21
681.8347
 31
0.0
  0
LINE
  5
F65
330
1D
100
AcDbEntity
  8
0
100
AcDbLine
 10
254.60665
 20
683.0741
 30
0.0
 11
254.73065
 21
683.6977
 31
0.0
  0
LINE
  5
F66
330
1D
100
AcDbEntity
  8
0
100
AcDbLine
 10
254.73065
 20
683.7308
 30
0.0
 11
254.78365
 21
685.324
 31
0.0
  0
LINE
  5
F67
330
1D
100
AcDbEntity
  8
0
100
AcDbLine
 10
235.844921399185
 20
682.8273
 30
0.0
 11
236.69470978093
 21
682.828551784397
 31
0.0
  0
LINE
  5
F68
330
1D
100
AcDbEntity
  8
0
100
AcDbLine
 10
235.30865
 20
691.0239
 30
0.0
 11
235.99565
 21
680.5235
 31
0.0
  0
LINE
  5
F69
330
1D
100
AcDbEntity
  8
0
100
AcDbLine
 10
235.25565
 20
692.5694
 30
0.0
 11
235.30865
 21
691.0239
 31
0.0
  0
LINE
  5
F6A
330
1D
100
AcDbEntity
  8
0
100
AcDbLine
 10
235.25565
 20
692.5694
 30
0.0
 11
235.26765
 21
693.5575
 31
0.0
  0
LINE
  5
F6B
330
1D
100
AcDbEntity
  8
0
100
AcDbLine
 10
235.518222816274
 20
687.8207
 30
0.0
 11
236.46765
 21
687.8207
 31
0.0
  0
LINE
  5
F6C
330
1D
100
AcDbEntity
  8
0
100
AcDbLine
 10
235.260420733234
 20
693.671927335911
 30
0.0
 11
235.26865
 21
693.7735
 31
0.0
  0
LINE
  5
F6D
330
1D
100
AcDbEntity
  8
0
100
AcDbLine
 10
235.26765
 20
693.5575
 30
0.0
 11
235.26865
 21
693.7735
 31
0.0
  0
LINE
  5
F6E
330
1D
100
AcDbEntity
  8
0
100
AcDbLine
 10
239.05565
 20
688.161
 30
0.0
 11
240.24465
 21
688.4824
 31
0.0
  0
LINE
  5
F6F
330
1D
100
AcDbEntity
  8
0
100
AcDbLine
 10
236.46765
 20
687.8207
 30
0.0
 11
239.05565
 21
688.161
 31
0.0
  0
LINE
  5
F70
330
1D
100
AcDbEntity
  8
0
100
AcDbLine
 10
254.73065
 20
686.9172
 30
0.0
 11
254.78365
 21
685.324
 31
0.0
  0
LINE
  5
F71
330
1D
100
AcDbEntity
  8
0
100
AcDbLine
 10
241.80465
 20
688.7751
 30
0.0
 11
253.05465
 21
688.8196
 31
0.0
  0
LINE
  5
F72
330
1D
100
AcDbEntity
  8
0
100
AcDbLine
 10
253.05465
 20
688.8196
 30
0.0
 11
254.07865
 21
688.3369
 31
0.0
  0
LINE
  5
F73
330
1D
100
AcDbEntity
  8
0
100
AcDbLine
 10
254.07865
 20
688.3369
 30
0.0
 11
254.42165
 21
687.8882
 31
0.0
  0
LINE
  5
F74
330
1D
100
AcDbEntity
  8
0
100
AcDbLine
 10
254.42165
 20
687.8882
 30
0.0
 11
254.73065
 21
686.9502
 31
0.0
  0
LINE
  5
F75
330
1D
100
AcDbEntity
  8
0
100
AcDbLine
 10
240.24465
 20
688.4824
 30
0.0
 11
241.80465
 21
688.7751
 31
0.0
  0
LINE
  5
F76
330
1D
100
AcDbEntity
  8
0
100
AcDbLine
 10
226.48265
 20
840.999
 30
0.0
 11
226.57165
 21
841.033
 31
0.0
  0
LINE
  5
F77
330
1D
100
AcDbEntity
  8
0
100
AcDbLine
 10
226.48265
 20
840.999
 30
0.0
 11
226.57165
 21
841.032
 31
0.0
  0
LINE
  5
F78
330
1D
100
AcDbEntity
  8
0
100
AcDbLine
 10
202.29765
 20
864.628
 30
0.0
 11
204.69965
 21
863.019
 31
0.0
  0
LINE
  5
F79
330
1D
100
AcDbEntity
  8
0
100
AcDbLine
 10
197.83465
 20
867.984
 30
0.0
 11
200.00565
 21
866.299
 31
0.0
  0
LINE
  5
F7A
330
1D
100
AcDbEntity
  8
0
100
AcDbLine
 10
197.83365
 20
867.985
 30
0.0
 11
200.00565
 21
866.299
 31
0.0
  0
LINE
  5
F7B
330
1D
100
AcDbEntity
  8
0
100
AcDbLine
 10
200.00565
 20
866.299
 30
0.0
 11
202.29865
 21
864.629
 31
0.0
  0
LINE
  5
F7C
330
1D
100
AcDbEntity
  8
0
100
AcDbLine
 10
200.00565
 20
866.299
 30
0.0
 11
202.29765
 21
864.628
 31
0.0
  0
LINE
  5
F7D
330
1D
100
AcDbEntity
  8
0
100
AcDbLine
 10
204.69965
 20
863.019
 30
0.0
 11
207.82365
 21
861.081
 31
0.0
  0
LINE
  5
F7E
330
1D
100
AcDbEntity
  8
0
100
AcDbLine
 10
202.29865
 20
864.629
 30
0.0
 11
204.69965
 21
863.018
 31
0.0
  0
LINE
  5
F7F
330
1D
100
AcDbEntity
  8
0
100
AcDbLine
 10
204.69965
 20
863.018
 30
0.0
 11
207.82365
 21
861.081
 31
0.0
  0
LINE
  5
F80
330
1D
100
AcDbEntity
  8
0
100
AcDbLine
 10
233.27665
 20
722.642
 30
0.0
 11
233.36365
 21
722.647
 31
0.0
  0
LINE
  5
F81
330
1D
100
AcDbEntity
  8
0
100
AcDbLine
 10
233.27665
 20
722.642
 30
0.0
 11
233.42965
 21
722.65
 31
0.0
  0
LINE
  5
F82
330
1D
100
AcDbEntity
  8
0
100
AcDbLine
 10
226.57165
 20
841.032
 30
0.0
 11
227.824358861201
 21
856.524423817253
 31
0.0
  0
LINE
  5
F83
330
1D
100
AcDbEntity
  8
0
100
AcDbLine
 10
226.54965
 20
835.216
 30
0.0
 11
226.89965
 21
827.12
 31
0.0
  0
LINE
  5
F84
330
1D
100
AcDbEntity
  8
0
100
AcDbLine
 10
226.89965
 20
827.12
 30
0.0
 11
229.85465
 21
780.003
 31
0.0
  0
LINE
  5
F85
330
1D
100
AcDbEntity
  8
0
100
AcDbLine
 10
226.53165
 20
838.69
 30
0.0
 11
226.57165
 21
841.033
 31
0.0
  0
LINE
  5
F86
330
1D
100
AcDbEntity
  8
0
100
AcDbLine
 10
226.53165
 20
838.69
 30
0.0
 11
226.54965
 21
835.216
 31
0.0
  0
LINE
  5
F87
330
1D
100
AcDbEntity
  8
0
100
AcDbLine
 10
229.248511516227
 20
865.804265937433
 30
0.0
 11
235.249295940452
 21
891.507436827233
 31
0.0
  0
LINE
  5
F88
330
1D
100
AcDbEntity
  8
0
100
AcDbLine
 10
227.80465
 20
856.396
 30
0.0
 11
229.248511516227
 21
865.804265937433
 31
0.0
  0
LINE
  5
F89
330
1D
100
AcDbEntity
  8
0
100
AcDbLine
 10
227.80465
 20
856.396
 30
0.0
 11
229.248511516227
 21
865.804265937433
 31
0.0
  0
LINE
  5
F8A
330
1D
100
AcDbEntity
  8
0
100
AcDbLine
 10
229.85465
 20
780.003
 30
0.0
 11
233.36365
 21
722.647
 31
0.0
  0
LINE
  5
F8B
330
1D
100
AcDbEntity
  8
0
100
AcDbLine
 10
233.36365
 20
722.647
 30
0.0
 11
233.42965
 21
722.65
 31
0.0
  0
LINE
  5
F8C
330
1D
100
AcDbEntity
  8
0
100
AcDbLine
 10
233.42965
 20
722.65
 30
0.0
 11
235.26765
 21
693.5575
 31
0.0
  0
LINE
  5
F8D
330
1D
100
AcDbEntity
  8
0
100
AcDbLine
 10
192.84465
 20
872.084
 30
0.0
 11
195.79365
 21
869.635
 31
0.0
  0
LINE
  5
F8E
330
1D
100
AcDbEntity
  8
0
100
AcDbLine
 10
189.60565
 20
874.835
 30
0.0
 11
191.13365
 21
873.527
 31
0.0
  0
LINE
  5
F8F
330
1D
100
AcDbEntity
  8
0
100
AcDbLine
 10
191.13365
 20
873.527
 30
0.0
 11
192.84465
 21
872.085
 31
0.0
  0
LINE
  5
F90
330
1D
100
AcDbEntity
  8
0
100
AcDbLine
 10
191.13365
 20
873.527
 30
0.0
 11
192.84465
 21
872.084
 31
0.0
  0
LINE
  5
F91
330
1D
100
AcDbEntity
  8
0
100
AcDbLine
 10
195.79365
 20
869.635
 30
0.0
 11
197.83465
 21
867.984
 31
0.0
  0
LINE
  5
F92
330
1D
100
AcDbEntity
  8
0
100
AcDbLine
 10
196.600754453616
 20
905.34982981356
 30
0.0
 11
198.34865
 21
909.954
 31
0.0
  0
LINE
  5
F93
330
1D
100
AcDbEntity
  8
0
100
AcDbLine
 10
198.38965
 20
907.42
 30
0.0
 11
198.69265
 21
906.691
 31
0.0
  0
LINE
  5
F94
330
1D
100
AcDbEntity
  8
0
100
AcDbLine
 10
198.13865
 20
908.773
 30
0.0
 11
198.34765
 21
909.954
 31
0.0
  0
LINE
  5
F95
330
1D
100
AcDbEntity
  8
0
100
AcDbLine
 10
198.13865
 20
908.773
 30
0.0
 11
198.38965
 21
907.42
 31
0.0
  0
LINE
  5
F96
330
1D
100
AcDbEntity
  8
0
100
AcDbLine
 10
198.13865
 20
908.773
 30
0.0
 11
198.34865
 21
909.954
 31
0.0
  0
LINE
  5
F97
330
1D
100
AcDbEntity
  8
0
100
AcDbLine
 10
199.65865
 20
905.149
 30
0.0
 11
201.03165
 21
903.603
 31
0.0
  0
LINE
  5
F98
330
1D
100
AcDbEntity
  8
0
100
AcDbLine
 10
195.79365
 20
869.636
 30
0.0
 11
197.83365
 21
867.985
 31
0.0
  0
LINE
  5
F99
330
1D
100
AcDbEntity
  8
0
100
AcDbLine
 10
192.84465
 20
872.085
 30
0.0
 11
195.79365
 21
869.636
 31
0.0
  0
LINE
  5
F9A
330
1D
100
AcDbEntity
  8
0
100
AcDbLine
 10
198.34865
 20
909.954
 30
0.0
 11
198.62265
 21
910.472
 31
0.0
  0
LINE
  5
F9B
330
1D
100
AcDbEntity
  8
0
100
AcDbLine
 10
198.62265
 20
910.472
 30
0.0
 11
199.32065
 21
911.211
 31
0.0
  0
LINE
  5
F9C
330
1D
100
AcDbEntity
  8
0
100
AcDbLine
 10
199.32065
 20
911.211
 30
0.0
 11
202.37965
 21
912.71
 31
0.0
  0
LINE
  5
F9D
330
1D
100
AcDbEntity
  8
0
100
AcDbLine
 10
222.68565
 20
893.333
 30
0.0
 11
225.17665
 21
892.9
 31
0.0
  0
LINE
  5
F9E
330
1D
100
AcDbEntity
  8
0
100
AcDbLine
 10
230.58165
 20
892.59
 30
0.0
 11
233.00765
 21
892.878
 31
0.0
  0
LINE
  5
F9F
330
1D
100
AcDbEntity
  8
0
100
AcDbLine
 10
230.58165
 20
892.589
 30
0.0
 11
233.00765
 21
892.878
 31
0.0
  0
LINE
  5
FA0
330
1D
100
AcDbEntity
  8
0
100
AcDbLine
 10
228.13665
 20
892.609
 30
0.0
 11
230.58165
 21
892.59
 31
0.0
  0
LINE
  5
FA1
330
1D
100
AcDbEntity
  8
0
100
AcDbLine
 10
228.13765
 20
892.61
 30
0.0
 11
230.58165
 21
892.589
 31
0.0
  0
LINE
  5
FA2
330
1D
100
AcDbEntity
  8
0
100
AcDbLine
 10
225.17665
 20
892.9
 30
0.0
 11
228.13665
 21
892.609
 31
0.0
  0
LINE
  5
FA3
330
1D
100
AcDbEntity
  8
0
100
AcDbLine
 10
219.76265
 20
894.028
 30
0.0
 11
222.68565
 21
893.333
 31
0.0
  0
LINE
  5
FA4
330
1D
100
AcDbEntity
  8
0
100
AcDbLine
 10
219.76265
 20
894.029
 30
0.0
 11
222.68565
 21
893.333
 31
0.0
  0
LINE
  5
FA5
330
1D
100
AcDbEntity
  8
0
100
AcDbLine
 10
214.13365
 20
895.892
 30
0.0
 11
216.23365
 21
895.117
 31
0.0
  0
LINE
  5
FA6
330
1D
100
AcDbEntity
  8
0
100
AcDbLine
 10
214.13365
 20
895.891
 30
0.0
 11
216.23365
 21
895.117
 31
0.0
  0
LINE
  5
FA7
330
1D
100
AcDbEntity
  8
0
100
AcDbLine
 10
217.25765
 20
894.773
 30
0.0
 11
219.76265
 21
894.029
 31
0.0
  0
LINE
  5
FA8
330
1D
100
AcDbEntity
  8
0
100
AcDbLine
 10
217.25765
 20
894.773
 30
0.0
 11
219.76265
 21
894.028
 31
0.0
  0
LINE
  5
FA9
330
1D
100
AcDbEntity
  8
0
100
AcDbLine
 10
216.23365
 20
895.117
 30
0.0
 11
217.25765
 21
894.773
 31
0.0
  0
LINE
  5
FAA
330
1D
100
AcDbEntity
  8
0
100
AcDbLine
 10
212.07765
 20
896.74
 30
0.0
 11
214.13365
 21
895.892
 31
0.0
  0
LINE
  5
FAB
330
1D
100
AcDbEntity
  8
0
100
AcDbLine
 10
212.07865
 20
896.739
 30
0.0
 11
214.13365
 21
895.891
 31
0.0
  0
LINE
  5
FAC
330
1D
100
AcDbEntity
  8
0
100
AcDbLine
 10
233.00765
 20
892.878
 30
0.0
 11
234.61165
 21
893.407
 31
0.0
  0
LINE
  5
FAD
330
1D
100
AcDbEntity
  8
0
100
AcDbLine
 10
234.61165
 20
893.407
 30
0.0
 11
235.67465
 21
894.168
 31
0.0
  0
LINE
  5
FAE
330
1D
100
AcDbEntity
  8
0
100
AcDbLine
 10
234.61165
 20
893.407
 30
0.0
 11
235.67465
 21
894.169
 31
0.0
  0
LINE
  5
FAF
330
1D
100
AcDbEntity
  8
0
100
AcDbLine
 10
235.67465
 20
894.169
 30
0.0
 11
236.29265
 21
895.229
 31
0.0
  0
LINE
  5
FB0
330
1D
100
AcDbEntity
  8
0
100
AcDbLine
 10
235.67465
 20
894.168
 30
0.0
 11
236.29265
 21
895.229
 31
0.0
  0
LINE
  5
FB1
330
1D
100
AcDbEntity
  8
0
100
AcDbLine
 10
236.29265
 20
895.229
 30
0.0
 11
236.41465
 21
896.499
 31
0.0
  0
LINE
  5
FB2
330
1D
100
AcDbEntity
  8
0
100
AcDbLine
 10
236.29265
 20
895.229
 30
0.0
 11
236.41465
 21
896.498
 31
0.0
  0
LINE
  5
FB3
330
1D
100
AcDbEntity
  8
0
100
AcDbLine
 10
209.17265
 20
898.099
 30
0.0
 11
212.07765
 21
896.74
 31
0.0
  0
LINE
  5
FB4
330
1D
100
AcDbEntity
  8
0
100
AcDbLine
 10
206.54665
 20
899.521
 30
0.0
 11
209.17265
 21
898.098
 31
0.0
  0
LINE
  5
FB5
330
1D
100
AcDbEntity
  8
0
100
AcDbLine
 10
206.54665
 20
899.521
 30
0.0
 11
209.17265
 21
898.099
 31
0.0
  0
LINE
  5
FB6
330
1D
100
AcDbEntity
  8
0
100
AcDbLine
 10
209.17265
 20
898.098
 30
0.0
 11
212.07865
 21
896.739
 31
0.0
  0
LINE
  5
FB7
330
1D
100
AcDbEntity
  8
0
100
AcDbLine
 10
204.20765
 20
901.01
 30
0.0
 11
206.54665
 21
899.521
 31
0.0
  0
LINE
  5
FB8
330
1D
100
AcDbEntity
  8
0
100
AcDbLine
 10
202.82765
 20
902.029
 30
0.0
 11
204.20765
 21
901.01
 31
0.0
  0
LINE
  5
FB9
330
1D
100
AcDbEntity
  8
0
100
AcDbLine
 10
201.87865
 20
902.816
 30
0.0
 11
202.82765
 21
902.029
 31
0.0
  0
LINE
  5
FBA
330
1D
100
AcDbEntity
  8
0
100
AcDbLine
 10
201.03165
 20
903.603
 30
0.0
 11
201.87865
 21
902.816
 31
0.0
  0
LINE
  5
FBC
330
1D
100
AcDbEntity
  8
0
100
AcDbLine
 10
208.23565
 20
912.775
 30
0.0
 11
212.25265
 21
912.155
 31
0.0
  0
LINE
  5
FBE
330
1D
100
AcDbEntity
  8
0
100
AcDbLine
 10
208.23565
 20
912.776
 30
0.0
 11
212.25265
 21
912.155
 31
0.0
  0
LINE
  5
FBF
330
1D
100
AcDbEntity
  8
0
100
AcDbLine
 10
212.25265
 20
912.155
 30
0.0
 11
216.16765
 21
911.177
 31
0.0
  0
LINE
  5
FC0
330
1D
100
AcDbEntity
  8
0
100
AcDbLine
 10
216.16765
 20
911.177
 30
0.0
 11
218.08365
 21
910.568
 31
0.0
  0
LINE
  5
FC1
330
1D
100
AcDbEntity
  8
0
100
AcDbLine
 10
231.64165
 20
903.478
 30
0.0
 11
233.76565
 21
901.523
 31
0.0
  0
LINE
  5
FC2
330
1D
100
AcDbEntity
  8
0
100
AcDbLine
 10
228.99765
 20
905.457
 30
0.0
 11
231.64165
 21
903.478
 31
0.0
  0
LINE
  5
FC3
330
1D
100
AcDbEntity
  8
0
100
AcDbLine
 10
233.76565
 20
901.523
 30
0.0
 11
234.82465
 21
900.162
 31
0.0
  0
LINE
  5
FC4
330
1D
100
AcDbEntity
  8
0
100
AcDbLine
 10
227.29765
 20
906.48
 30
0.0
 11
228.99765
 21
905.457
 31
0.0
  0
LINE
  5
FC5
330
1D
100
AcDbEntity
  8
0
100
AcDbLine
 10
225.08965
 20
907.602
 30
0.0
 11
227.29765
 21
906.48
 31
0.0
  0
LINE
  5
FC6
330
1D
100
AcDbEntity
  8
0
100
AcDbLine
 10
221.79265
 20
909.146
 30
0.0
 11
225.08965
 21
907.602
 31
0.0
  0
LINE
  5
FC7
330
1D
100
AcDbEntity
  8
0
100
AcDbLine
 10
218.08365
 20
910.568
 30
0.0
 11
221.79265
 21
909.146
 31
0.0
  0
LINE
  5
FC8
330
1D
100
AcDbEntity
  8
0
100
AcDbLine
 10
236.10465
 20
897.81
 30
0.0
 11
236.41465
 21
896.499
 31
0.0
  0
LINE
  5
FC9
330
1D
100
AcDbEntity
  8
0
100
AcDbLine
 10
236.10465
 20
897.81
 30
0.0
 11
236.41465
 21
896.498
 31
0.0
  0
LINE
  5
FCA
330
1D
100
AcDbEntity
  8
0
100
AcDbLine
 10
188.27165
 20
875.997
 30
0.0
 11
189.60565
 21
874.835
 31
0.0
  0
LINE
  5
FCB
330
1D
100
AcDbEntity
  8
0
100
AcDbLine
 10
183.74065
 20
673.2115
 30
0.0
 11
187.412249191716
 21
668.84262960612
 31
0.0
  0
LINE
  5
FCC
330
1D
100
AcDbEntity
  8
0
100
AcDbLine
 10
183.81265
 20
648.4694
 30
0.0
 11
184.294346572952
 21
648.842309807953
 31
0.0
  0
LINE
  5
FCD
330
1D
100
AcDbEntity
  8
0
100
AcDbLine
 10
198.69265
 20
906.691
 30
0.0
 11
199.65865
 21
905.149
 31
0.0
  0
LINE
  5
FCE
330
1D
100
AcDbEntity
  8
0
100
AcDbLine
 10
234.82465
 20
900.162
 30
0.0
 11
235.58886541844
 21
898.948041911471
 31
0.0
  0
LINE
  5
FCF
330
1D
100
AcDbEntity
  8
0
100
AcDbLine
 10
235.58886541844
 20
898.948041911471
 30
0.0
 11
236.10465
 21
897.81
 31
0.0
  0
LINE
  5
FD0
330
1D
100
AcDbEntity
  8
0
100
AcDbLine
 10
184.92265
 20
879.403
 30
0.0
 11
196.600754453616
 21
905.34982981356
 31
0.0
  0
LINE
  5
FD1
330
1D
100
AcDbEntity
  8
0
100
AcDbLine
 10
235.249295940452
 20
891.507436827233
 30
0.0
 11
236.29265
 21
895.229
 31
0.0
  0
LINE
  5
FD2
330
1D
100
AcDbEntity
  8
0
100
AcDbLine
 10
177.19765
 20
864.646
 30
0.0
 11
184.89265
 21
879.289
 31
0.0
  0
LINE
  5
FD3
330
1D
100
AcDbEntity
  8
0
100
AcDbLine
 10
165.342408006944
 20
847.385495881579
 30
0.0
 11
171.36265
 21
855.456
 31
0.0
  0
LINE
  5
FD4
330
1D
100
AcDbEntity
  8
0
100
AcDbLine
 10
207.823649999999
 20
861.081
 30
0.0
 11
213.349155841508
 21
859.127022130089
 31
0.0
  0
LINE
  5
FD5
330
1D
100
AcDbEntity
  8
0
100
AcDbLine
 10
213.349155841508
 20
859.127022130089
 30
0.0
 11
216.872414980768
 21
858.409115352067
 31
0.0
  0
LINE
  5
FD6
330
1D
100
AcDbEntity
  8
0
100
AcDbLine
 10
216.872414980768
 20
858.409115352067
 30
0.0
 11
219.732589778743
 21
858.11874227613
 31
0.0
  0
LINE
  5
FD7
330
1D
100
AcDbEntity
  8
0
100
AcDbLine
 10
219.732589778743
 20
858.11874227613
 30
0.0
 11
224.534764530813
 21
858.11874227613
 31
0.0
  0
LINE
  5
FD8
330
1D
100
AcDbEntity
  8
0
100
AcDbLine
 10
224.534764530813
 20
858.11874227613
 30
0.0
 11
227.61943796859
 21
858.532955174156
 31
0.0
  0
LINE
  5
FD9
330
1D
100
AcDbEntity
  8
0
100
AcDbLine
 10
227.61943796859
 20
858.532955174156
 30
0.0
 11
228.133506270757
 21
858.532955174156
 31
0.0
  0
LINE
  5
FDA
330
1D
100
AcDbEntity
  8
0
100
AcDbLine
 10
53.76795
 20
700.2504
 30
0.0
 11
147.51365
 21
767.997
 31
0.0
  0
LINE
  5
FDB
330
1D
100
AcDbEntity
  8
0
100
AcDbLine
 10
175.24965
 20
787.2
 30
0.0
 11
176.915231404601
 21
787.999374204311
 31
0.0
  0
LINE
  5
FDC
330
1D
100
AcDbEntity
  8
0
100
AcDbLine
 10
186.957795672914
 20
626.3638
 30
0.0
 11
186.48598777002
 21
632.3638
 31
0.0
  0
LINE
  5
FDD
330
1D
100
AcDbEntity
  8
0
100
AcDbLine
 10
186.29965
 20
634.3971
 30
0.0
 11
185.83865
 21
638.5164
 31
0.0
  0
LINE
  5
FDE
330
1D
100
AcDbEntity
  8
0
100
AcDbLine
 10
183.46903354444
 20
653.29225060059
 30
0.0
 11
182.87465
 21
656.3628
 31
0.0
  0
LINE
  5
FDF
330
1D
100
AcDbEntity
  8
0
100
AcDbLine
 10
160.22965
 20
655.9265
 30
0.0
 11
181.58765
 21
673.859
 31
0.0
  0
LINE
  5
FE0
330
1D
100
AcDbEntity
  8
0
100
AcDbLine
 10
183.71865
 20
673.1944
 30
0.0
 11
159.19965
 21
652.6238
 31
0.0
  0
LINE
  5
FE1
330
1D
100
AcDbEntity
  8
0
100
AcDbLine
 10
183.81265
 20
648.4694
 30
0.0
 11
171.76765
 21
637.7097
 31
0.0
  0
LINE
  5
FE2
330
1D
100
AcDbEntity
  8
0
100
AcDbLine
 10
171.76765
 20
637.7097
 30
0.0
 11
171.26365
 21
638.3304
 31
0.0
  0
LINE
  5
FE3
330
1D
100
AcDbEntity
  8
0
100
AcDbLine
 10
105.73165
 20
730.241
 30
0.0
 11
110.622609639884
 21
741.185313932372
 31
0.0
  0
LINE
  5
FE4
330
1D
100
AcDbEntity
  8
0
100
AcDbLine
 10
10.347540378548
 20
711.285422712935
 30
0.0
 11
34.08335
 21
687.5502
 31
0.0
  0
LINE
  5
FE5
330
1D
100
AcDbEntity
  8
0
100
AcDbLine
 10
179.77365
 20
603.024
 30
0.0
 11
249.77365
 21
603.024
 31
0.0
  0
LINE
  5
FEF
330
1D
100
AcDbEntity
  8
0
100
AcDbLine
 10
202.37965
 20
912.71
 30
0.0
 11
204.774246545402
 21
913.036980524523
 31
0.0
  0
LINE
  5
FF0
330
1D
100
AcDbEntity
  8
0
100
AcDbLine
 10
204.774246545402
 20
913.036980524523
 30
0.0
 11
208.23565
 21
912.776
 31
0.0
  0
ENDSEC
  0
SECTION
  2
OBJECTS
  0
DICTIONARY
  5
C
330
0
100
AcDbDictionary
281
     1
  3
ACAD_GROUP
350
D
  3
ACAD_LAYOUT
350
1A
  3
ACAD_MLEADERSTYLE
350
FE8
  3
ACAD_MLINESTYLE
350
17
  3
ACAD_PLOTSETTINGS
350
19
  3
ACAD_PLOTSTYLENAME
350
E
  3
ACAD_SCALELIST
350
9EF
  3
AcDbVariableDictionary
350
FE6
  3
DWGPROPS
350
FF2
  0
DICTIONARY
  5
D
102
{ACAD_REACTORS
330
C
102
}
330
C
100
AcDbDictionary
281
     1
  0
DICTIONARY
  5
1A
102
{ACAD_REACTORS
330
C
102
}
330
C
100
AcDbDictionary
281
     1
  3
Layout1
350
1C
  3
Model
350
1E
  0
DICTIONARY
  5
FE8
102
{ACAD_REACTORS
330
C
102
}
330
C
100
AcDbDictionary
281
     1
  0
DICTIONARY
  5
17
102
{ACAD_REACTORS
330
C
102
}
330
C
100
AcDbDictionary
281
     1
  3
Standard
350
18
  0
DICTIONARY
  5
19
102
{ACAD_REACTORS
330
C
102
}
330
C
100
AcDbDictionary
281
     1
  0
ACDBDICTIONARYWDFLT
  5
E
102
{ACAD_REACTORS
330
C
102
}
330
C
100
AcDbDictionary
281
     1
  3
Normal
350
F
100
AcDbDictionaryWithDefault
340
F
  0
DICTIONARY
  5
9EF
102
{ACAD_REACTORS
330
C
102
}
330
C
100
AcDbDictionary
281
     1
  3
A0
350
9F0
  3
A1
350
9F1
  3
A2
350
9F2
  3
A3
350
9F3
  3
A4
350
9F4
  3
A5
350
9F5
  3
A6
350
9F6
  3
A7
350
9F7
  3
A8
350
9F8
  3
A9
350
9F9
  3
B0
350
9FA
  3
B1
350
9FB
  3
B2
350
9FC
  3
B3
350
9FD
  3
B4
350
9FE
  3
B5
350
9FF
  3
B6
350
A00
  3
B7
350
A01
  3
B8
350
A02
  3
B9
350
A03
  3
C0
350
A04
  3
C1
350
A05
  3
C2
350
A06
  3
C3
350
A07
  3
C4
350
A08
  3
C5
350
A09
  3
C6
350
A0A
  3
C7
350
A0B
  3
C8
350
A0C
  3
C9
350
A0D
  3
D0
350
A0E
  3
D1
350
A0F
  3
D2
350
A10
  0
DICTIONARY
  5
FE6
102
{ACAD_REACTORS
330
C
102
}
330
C
100
AcDbDictionary
281
     1
  3
CANNOSCALE
350
FEC
  0
XRECORD
  5
FF2
102
{ACAD_REACTORS
330
C
102
}
330
C
100
AcDbXrecord
280
     1
  1
DWGPROPS COOKIE
  2

  3

  4

  6

  7

  8
MARTIN
  9

300
=
301
=
302
=
303
=
304
=
305
=
306
=
307
=
308
=
309
=
 40
0.0
 41
2456184.813519317
 42
2456184.815273692
  1

 90
        0
  0
LAYOUT
  5
1C
102
{ACAD_REACTORS
330
1A
102
}
330
1A
100
AcDbPlotSettings
  1

  2
none_device
  4

  6

 40
0.0
 41
0.0
 42
0.0
 43
0.0
 44
0.0
 45
0.0
 46
0.0
 47
0.0
 48
0.0
 49
0.0
140
0.0
141
0.0
142
1.0
143
1.0
 70
   688
 72
     0
 73
     0
 74
     5
  7

 75
    16
147
1.0
148
0.0
149
0.0
100
AcDbLayout
  1
Layout1
 70
     1
 71
     1
 10
0.0
 20
0.0
 11
12.0
 21
9.0
 12
0.0
 22
0.0
 32
0.0
 14
1.000000000000E+20
 24
1.000000000000E+20
 34
1.000000000000E+20
 15
-1.000000000000E+20
 25
-1.000000000000E+20
 35
-1.000000000000E+20
146
0.0
 13
0.0
 23
0.0
 33
0.0
 16
1.0
 26
0.0
 36
0.0
 17
0.0
 27
1.0
 37
0.0
 76
     0
330
1B
  0
LAYOUT
  5
1E
102
{ACAD_REACTORS
330
1A
102
}
330
1A
100
AcDbPlotSettings
  1

  2
none_device
  4

  6

 40
0.0
 41
0.0
 42
0.0
 43
0.0
 44
0.0
 45
0.0
 46
0.0
 47
0.0
 48
0.0
 49
0.0
140
0.0
141
0.0
142
1.0
143
1.0
 70
  1712
 72
     0
 73
     0
 74
     0
  7

 75
     0
147
1.0
148
0.0
149
0.0
100
AcDbLayout
  1
Model
 70
     1
 71
     0
 10
0.0
 20
0.0
 11
12.0
 21
9.0
 12
0.0
 22
0.0
 32
0.0
 14
0.26835
 24
0.024
 34
0.0
 15
299.75265
 25
913.036980524523
 35
0.0
146
0.0
 13
0.0
 23
0.0
 33
0.0
 16
1.0
 26
0.0
 36
0.0
 17
0.0
 27
1.0
 37
0.0
 76
     0
330
1D
331
9EA
  0
MLINESTYLE
  5
18
102
{ACAD_REACTORS
330
17
102
}
330
17
100
AcDbMlineStyle
  2
Standard
 70
     0
  3

 62
   256
 51
90.0
 52
90.0
 71
     2
 49
0.5
 62
   256
  6
BYLAYER
 49
-0.5
 62
   256
  6
BYLAYER
  0
ACDBPLACEHOLDER
  5
F
102
{ACAD_REACTORS
330
E
102
}
330
E
  0
SCALE
  5
9F0
102
{ACAD_REACTORS
330
9EF
102
}
330
9EF
100
AcDbScale
 70
     0
300
1:1
140
1.0
141
1.0
290
     1
  0
SCALE
  5
9F1
102
{ACAD_REACTORS
330
9EF
102
}
330
9EF
100
AcDbScale
 70
     0
300
1:2
140
1.0
141
2.0
290
     0
  0
SCALE
  5
9F2
102
{ACAD_REACTORS
330
9EF
102
}
330
9EF
100
AcDbScale
 70
     0
300
1:4
140
1.0
141
4.0
290
     0
  0
SCALE
  5
9F3
102
{ACAD_REACTORS
330
9EF
102
}
330
9EF
100
AcDbScale
 70
     0
300
1:5
140
1.0
141
5.0
290
     0
  0
SCALE
  5
9F4
102
{ACAD_REACTORS
330
9EF
102
}
330
9EF
100
AcDbScale
 70
     0
300
1:8
140
1.0
141
8.0
290
     0
  0
SCALE
  5
9F5
102
{ACAD_REACTORS
330
9EF
102
}
330
9EF
100
AcDbScale
 70
     0
300
1:10
140
1.0
141
10.0
290
     0
  0
SCALE
  5
9F6
102
{ACAD_REACTORS
330
9EF
102
}
330
9EF
100
AcDbScale
 70
     0
300
1:16
140
1.0
141
16.0
290
     0
  0
SCALE
  5
9F7
102
{ACAD_REACTORS
330
9EF
102
}
330
9EF
100
AcDbScale
 70
     0
300
1:20
140
1.0
141
20.0
290
     0
  0
SCALE
  5
9F8
102
{ACAD_REACTORS
330
9EF
102
}
330
9EF
100
AcDbScale
 70
     0
300
1:30
140
1.0
141
30.0
290
     0
  0
SCALE
  5
9F9
102
{ACAD_REACTORS
330
9EF
102
}
330
9EF
100
AcDbScale
 70
     0
300
1:40
140
1.0
141
40.0
290
     0
  0
SCALE
  5
9FA
102
{ACAD_REACTORS
330
9EF
102
}
330
9EF
100
AcDbScale
 70
     0
300
1:50
140
1.0
141
50.0
290
     0
  0
SCALE
  5
9FB
102
{ACAD_REACTORS
330
9EF
102
}
330
9EF
100
AcDbScale
 70
     0
300
1:100
140
1.0
141
100.0
290
     0
  0
SCALE
  5
9FC
102
{ACAD_REACTORS
330
9EF
102
}
330
9EF
100
AcDbScale
 70
     0
300
2:1
140
2.0
141
1.0
290
     0
  0
SCALE
  5
9FD
102
{ACAD_REACTORS
330
9EF
102
}
330
9EF
100
AcDbScale
 70
     0
300
4:1
140
4.0
141
1.0
290
     0
  0
SCALE
  5
9FE
102
{ACAD_REACTORS
330
9EF
102
}
330
9EF
100
AcDbScale
 70
     0
300
8:1
140
8.0
141
1.0
290
     0
  0
SCALE
  5
9FF
102
{ACAD_REACTORS
330
9EF
102
}
330
9EF
100
AcDbScale
 70
     0
300
10:1
140
10.0
141
1.0
290
     0
  0
SCALE
  5
A00
102
{ACAD_REACTORS
330
9EF
102
}
330
9EF
100
AcDbScale
 70
     0
300
100:1
140
100.0
141
1.0
290
     0
  0
SCALE
  5
A01
102
{ACAD_REACTORS
330
9EF
102
}
330
9EF
100
AcDbScale
 70
     0
300
1/128" = 1'-0"
140
0.0078125
141
12.0
290
     0
  0
SCALE
  5
A02
102
{ACAD_REACTORS
330
9EF
102
}
330
9EF
100
AcDbScale
 70
     0
300
1/64" = 1'-0"
140
0.015625
141
12.0
290
     0
  0
SCALE
  5
A03
102
{ACAD_REACTORS
330
9EF
102
}
330
9EF
100
AcDbScale
 70
     0
300
1/32" = 1'-0"
140
0.03125
141
12.0
290
     0
  0
SCALE
  5
A04
102
{ACAD_REACTORS
330
9EF
102
}
330
9EF
100
AcDbScale
 70
     0
300
1/16" = 1'-0"
140
0.0625
141
12.0
290
     0
  0
SCALE
  5
A05
102
{ACAD_REACTORS
330
9EF
102
}
330
9EF
100
AcDbScale
 70
     0
300
3/32" = 1'-0"
140
0.09375
141
12.0
290
     0
  0
SCALE
  5
A06
102
{ACAD_REACTORS
330
9EF
102
}
330
9EF
100
AcDbScale
 70
     0
300
1/8" = 1'-0"
140
0.125
141
12.0
290
     0
  0
SCALE
  5
A07
102
{ACAD_REACTORS
330
9EF
102
}
330
9EF
100
AcDbScale
 70
     0
300
3/16" = 1'-0"
140
0.1875
141
12.0
290
     0
  0
SCALE
  5
A08
102
{ACAD_REACTORS
330
9EF
102
}
330
9EF
100
AcDbScale
 70
     0
300
1/4" = 1'-0"
140
0.25
141
12.0
290
     0
  0
SCALE
  5
A09
102
{ACAD_REACTORS
330
9EF
102
}
330
9EF
100
AcDbScale
 70
     0
300
3/8" = 1'-0"
140
0.375
141
12.0
290
     0
  0
SCALE
  5
A0A
102
{ACAD_REACTORS
330
9EF
102
}
330
9EF
100
AcDbScale
 70
     0
300
1/2" = 1'-0"
140
0.5
141
12.0
290
     0
  0
SCALE
  5
A0B
102
{ACAD_REACTORS
330
9EF
102
}
330
9EF
100
AcDbScale
 70
     0
300
3/4" = 1'-0"
140
0.75
141
12.0
290
     0
  0
SCALE
  5
A0C
102
{ACAD_REACTORS
330
9EF
102
}
330
9EF
100
AcDbScale
 70
     0
300
1" = 1'-0"
140
1.0
141
12.0
290
     0
  0
SCALE
  5
A0D
102
{ACAD_REACTORS
330
9EF
102
}
330
9EF
100
AcDbScale
 70
     0
300
1-1/2" = 1'-0"
140
1.5
141
12.0
290
     0
  0
SCALE
  5
A0E
102
{ACAD_REACTORS
330
9EF
102
}
330
9EF
100
AcDbScale
 70
     0
300
3" = 1'-0"
140
3.0
141
12.0
290
     0
  0
SCALE
  5
A0F
102
{ACAD_REACTORS
330
9EF
102
}
330
9EF
100
AcDbScale
 70
     0
300
6" = 1'-0"
140
6.0
141
12.0
290
     0
  0
SCALE
  5
A10
102
{ACAD_REACTORS
330
9EF
102
}
330
9EF
100
AcDbScale
 70
     0
300
1'-0" = 1'-0"
140
12.0
141
12.0
290
     0
  0
DICTIONARYVAR
  5
FEC
102
{ACAD_REACTORS
330
FE6
102
}
330
FE6
100
DictionaryVariables
280
     0
  1
1:1
  0
ENDSEC
  0
SECTION
  2
THUMBNAILIMAGE
 90
    16364
310
28000000B40000005500000001000800000000000000000000000000000000000000000000000000FFFFFF000000FF0000FFFF0000FF0000FFFF0000FF000000FF00FF000000000080808000C0C0C0000000FF007F7FFF000000A5005252A50000007F003F3F7F0000004C0026264C000000260013132600003FFF007F9FFF
310
000029A5005267A500001F7F003F4F7F0000134C00262F4C000009260013172600007FFF007FBFFF000052A500527CA500003F7F003F5F7F0000264C0026394C0000132600131C260000BFFF007FDFFF00007CA5005291A500005F7F003F6F7F0000394C0026424C00001C26001321260000FFFF007FFFFF0000A5A50052A5
310
A500007F7F003F7F7F00004C4C00264C4C00002626001326260000FFBF007FFFDF0000A57C0052A59100007F5F003F7F6F00004C3900264C420000261C001326210000FF7F007FFFBF0000A5520052A57C00007F3F003F7F5F00004C2600264C39000026130013261C0000FF3F007FFF9F0000A5290052A56700007F1F003F
310
7F4F00004C1300264C2F00002609001326170000FF00007FFF7F0000A5000052A55200007F00003F7F3F00004C0000264C260000260000132613003FFF00009FFF7F0029A5000067A552001F7F00004F7F3F00134C00002F4C260009260000172613007FFF0000BFFF7F0052A500007CA552003F7F00005F7F3F00264C0000
310
394C2600132600001C261300BFFF0000DFFF7F007CA5000091A552005F7F00006F7F3F00394C0000424C26001C26000021261300FFFF0000FFFF7F00A5A50000A5A552007F7F00007F7F3F004C4C00004C4C26002626000026261300FFBF0000FFDF7F00A57C0000A59152007F5F00007F6F3F004C3900004C422600261C00
310
0026211300FF7F0000FFBF7F00A5520000A57C52007F3F00007F5F3F004C2600004C39260026130000261C1300FF3F0000FF9F7F00A5290000A56752007F1F00007F4F3F004C1300004C2F26002609000026171300FF000000FF7F7F00A5000000A55252007F0000007F3F3F004C0000004C2626002600000026131300FF00
310
3F00FF7F9F00A5002900A55267007F001F007F3F4F004C0013004C262F002600090026131700FF007F00FF7FBF00A5005200A5527C007F003F007F3F5F004C0026004C2639002600130026131C00FF00BF00FF7FDF00A5007C00A55291007F005F007F3F6F004C0039004C26420026001C0026132100FF00FF00FF7FFF00A5
310
00A500A552A5007F007F007F3F7F004C004C004C264C002600260026132600BF00FF00DF7FFF007C00A5009152A5005F007F006F3F7F0039004C0042264C001C002600211326007F00FF00BF7FFF005200A5007C52A5003F007F005F3F7F0026004C0039264C00130026001C1326003F00FF009F7FFF002900A5006752A500
310
1F007F004F3F7F0013004C002F264C000900260017132600000000002D2D2D005B5B5B0089898900B7B7B700B3B3B30000000000000000000000000000000000000000000000000000000000000000000000000000000000000000000000000000000000000000000000000000000000000000000707070707070707070707
310
07070707070707070000000000000000000000000000000000000000000000000000000000000000000000000000000000000000000000000000000000000000000000000000000000000000000000000000000000000000000000000000000000000000000000000000000000000000000000000000000000000000000000
310
00000000000000000000000000000000000000000000000000000000000000000000000000000000000007000000000000000000000000000000000007000000000000000000000000000000000000000000000000000000000000000000000000000000000000000000000000000000000000000000000000000000000000
310
00000000000000000000000000000000000000000000000000000000000000000000000000000000000000000000000000000000000000000000000000000000000000000000000000000000000000000000000000000000000000000000000700000000000000000000000000000000000700000000000000000000000000
310
00000000000000000000000000000000000000000000000000000000000000000000000000000000000000000000000000000000000000000000000000000000000000000000000000000000000000000000000000000000000000000000000000000000000000000000000000000000000000000000000000000000000000
310
00000000000000000000000000000000000000000007000000000000000000000000000000000007000000000000000000000000000000000000000000000000000000000000000000000000000000000000000000000000000000000000000000000000000000000000000000000000000000000000000000000000000000
310
00000000000000000000000000000000000000000000000000000000000000000000000000000000000000000000000000000000000000000000000000000000000000000000000000000707070707070707070707070707070707070700000000000000000000000000000000000000000000000000000000000000000000
310
00000000000000000000000000000000000000000000000000000000000000000000000000000000000000000000000000000000000000000000000000000000000000000000000000000000000000000000000000000000000000000000000000000000000000000000000000000000000000000000000000000000000000
310
07000000000000000000000000000000000007000000000000000000000000000000000000000000000000000000000000000000000000000000000000000000000000000000000000000000000000000000000000000000000000000000000000000000000000000000000000000000000000000000000000000000000000
310
00000000000000000000000000000000000000000000000000000000000000000000000000000000000000000000000000000000000007000000000000000000000000000000000700000000000000000000000000000000000000000000000000000000000000000000000000000000000000000000000000000000000000
310
00000000000000000000000000000000000000000000000000000000000000000000000000000000000000000000000000000000000000000000000000000000000000000000000000000000000000000000000000000000000000000000000000000000000000000000000700000000000000000000000000000007000000
310
00000000000000000000000000000000000000000000000000000000000000000000000000000000000000000000000000000000000000000000000000000000000000000000000000000000000000000000000000000000000000000000000000000000000000000000000000000000000000000000000000000000000000
310
00000000000000000000000000000000000000000000000000000000000000000007000000000000000000000000000000070000000000000000000000000000000000000000000000000000000000000000000000000000000000000000000000000000000000000000000000000000000000000000000000000000000000
310
00000000000000000000000000000000000000000000000000000000000000000000000000000000000000000000000000000000000000000000000000000000000000000000000000000000000000000000000000000700000000000000000000000000000007000000000000000000000000000000000000000000000000
310
00000000000000000000000000000000000000000000000000000000000000000000000000000000000000000000000000000000000000000000000000000000000000000000000000000000000000000000000000000000000000000000000000000000000000000000000000000000000000000000000000000000000000
310
00000000000000000000000000070000000000000000000000000000070000000000000000000000000000000000000000000000000000000000000000000000000000000000000000000000000000000000000000000000000000000000000000000000000000000000000000000000000000000000000000000000000000
310
00000000000000000000000000000000000000000000000000000000000000000000000000000000000000000000000000000000000000000000000000000000000007000000000000000000000000000007000000000000000000000000000000000000000000000000000000000000000000000000000000000000000000
310
00000000000000000000000000000000000000000000000000000000000000000000000000000000000000000000000000000000000000000000000000000000000000000000000000000000000000000000000000000000000000000000000000000000000000000000000000000000000000000000000700000000000000
310
00000000000007000000000000000000000000000000000000000000000000000000000000000000000000000000000000000000000000000000000000000000000000000000000000000000000000000000000000000000000000000000000000000000000000000000000000000000000000000000000000000000000000
310
00000000000000000000000000000000000000000000000000000000000000000000000000000000000000000007000000000000000000000000000700000000000000000000000000000000000000000000000000000000000000000000000000000000000000000000000000000000000000000000000000000000000000
310
00000000000000000000000000000000000000000000000000000000000000000000000000000000000000000000000000000000000000000000000000000000000000000000000000000000000000000000000000000000000000000000000000000007000000000000000000000000070000000000000000000000000000
310
00000000000000000000000000000000000000000000000000000000000000000000000000000000000000000000000000000000000000000000000000000000000000000000000000000000000000000000000000000000000000000000000000000000000000000000000000000000000000000000000000000000000000
310
00000000000000000000000000000000000000000000000000070000000000000000000000000700000000000000000000000000000000000000000000000000000000000000000000000000000000000000000000000000000000000000000000000000000000000000000000000000000000000000000000000000000000
310
00000000000000000000000000000000000000000000000000000000000000000000000000000000000000000000000000000000000000000000000000000000000000000000000000000000000007000000000000000000000007000000000000000000000000000000000000000000000000000000000000000000000000
310
00000000000000000000000000000000000000000000000000000000000000000000000000000000000000000000000000000000000000000000000000000000000000000000000000000000000000000000000000000000000000000000000000000000000000000000000000000000000000000000000000000000000000
310
00000000070000000000000000000000070000000000000000000000000000000000000000000000000000000000000000000000000000000000000000000000000000000000000000000000000000000000000000000000000000000000000000000000000000000000000000000000000000000000000000000000000000
310
00000000000000000000000000000000000000000000000000000000000000000000000000000000000000000000000000000000000000000000070000000000000000000007000000000000000000000000000000000000000000000000000000000000000000000000000000000000000000000000000000000000000000
310
00000000000000000000000000000000000000000000000000000000000000000000000000000000000000000000000000000000000000000000000000000000000000000000000000000000000000000000000000000000000000000000000000000000000000000000000000000007000000000000000000000700000000
310
00000000000000000000000000000000000000000000000000000000000000000000000000000000000000000000000000000000000000000000000000000000000000000000000000000000000000000000000000000000000000000000000000000000000000000000000000000000000000000000000000000000000000
310
00000000000000000000000000000000000000000000000000000000000000000000000000070000000000000000000007000000000000000000000000000000000000000000000000000000000000000000000000000000000000000000000000000000000000000000000000000000000000000000000000000000000000
310
00000000000000000000000000000000000000000000000000000000000000000000000000000000000000000000000000000000000000000000000000000000000000000000000000000000000000000000000000000000000007000000000000000000070000000000000000000000000000000000000000000000000000
310
00000000000000000000000000000000000000000000000000000000000000000000000000000000000000000000000000000000000000000000000000000000000000000000000000000000000000000000000000000000000000000000000000000000000000000000000000000000000000000000000000000000000000
310
00000000000000000000000000000000000700000000000000000700000000000000000000000000000000000000000000000000000000000000000000000000000000000000000000000000000000000000000000000000000000000000000000000000000000000000000000000000000000000000000000000000000000
310
00000000000000000000000000000000000000000000000000000000000000000000000000000000000000000000000000000000000000000000000000000000000000000000070707070707070707070000000000000000000000000000000000000000000000000000000000000000000000000000000000000000000000
310
00000000000000000000000000000000000000000000000000000000000000000000000000000000000000000000000000000000000000000000000000000000000000000000000000000000000000000000000000000000000000000000000000000000000000000000000000000000000000000000000000000007000000
310
00000000000700000000000000000000000000000000000000000000000000000000000000000000000000000000000000000000000000000000000000000000000000000000000000000000000000000000000000000000000000000000000000000000000000000000000000000000000000000000000000000000000000
310
00000000000000000000000000000000000000000000000000000000000000000000000000000000000000000000000000070000000000000000070000000000000000000000000000000000000000000000000000000000000000000000000000000000000000000000000000000000000000000000000000000000000000
310
00000000000000000000000000000000000000000000000000000000000000000000000000000000000000000000000000000000000000000000000000000000000000000000000000000000000000000000000000000000000000000000000000000000000007000000000000000007000000000000000000000000000000
310
00000000000000000000000000000000000000000000000000000000000000000000000000000000000000000000000000000000000000000000000000000000000000000000000000000000000000000000000000000000000000000000000000000000000000000000000000000000000000000000000000000000000000
310
00000000000000000000000000000000000000000000000000000000070000000000000000070000000000000000000000000000000000000000000000000000000000000000000000000000000000000000000000000000000000000000000000000000000000000000000000000000000000000000000000000000000000
310
00000000000000000000000000000000000000000000000000000000000000000000000000000000000000000000000000000000000000000000000000000000000000000000000000000000000000000007000000000000000007000000000000000000000000000000000000000000000000000000000000000000000000
310
00000000000000000000000000000000000000000000000000000000000000000000000000000000000000000000000000000000000000000000000000000000000000000000000000000000000000000000000000000000000000000000000000000000000000000000000000000000000000000000000000000000000000
310
00000000000000070000000000000000070000000000000000000000000000000000000000000000000000000000000000000000000000000000000000000000000000000000000000000000000000000000000000000000000000000000000000000000000000000000000000000000000000000000000000000000000000
310
00000000000000000000000000000000000000000000000000000000000000000000000000000000000000000000000000000000000000000000000007000000000000000007000000000000000000000000000000000000000000000000000000000000000000000000000000000000000000000000000000000000000000
310
00000000000000000000000000000000000000000000000000000000000000000000000000000000000000000000000000000000000000000000000000000000000000000000000000000000000000000000000000000000000000000000000000000000000000000000000000000000000700000000000000000700000000
310
00000000000000000000000000000000000000000000000000000000000000000000000000000000000000000000000000000000000000000000000000000000000000000000000000000000000000000000000000000000000000000000000000000000000000000000000000000000000000000000000000000000000000
310
00000000000000000000000000000000000000000000000000000000000000000000000000000007000000000000000007000000000000000000000000000000000000000000000000000000000000000000000000000000000000000000000000000000000000000000000000000000000000000000000000000000000000
310
00000000000000000000000000000000000000000000000000000000000000000000000000000000000000000000000000000000000000000000000000000000000000000000000000000000000000000000000000000000000000000700000000000000000700000000000000000000000000000000000000000000000000
310
00000000000000000000000000000000000000000000000000000000000000000000000000000000000000000000000000000000000000000000000000000000000000000000000000000000000000000000000000000000000000000000000000000000000000000000000000000000000000000000000000000000000000
310
00000000000000000000000000000000000007000000000000000007000000000000000000000000000000000000000000000000000000000000000000000000000000000000000000000000000000000000000000000000000000000000000000000000000000000000000000000000000000000000000000000000000000
310
00000000000000000000000000000000000000000000000000000000000000000000000000000000000000000000000000000000000000000000000000000000000000000000000700000000000000000700000000000000000000000000000000000000000000000000000000000000000000000000000000000000000000
310
00000000000000000000000000000000000000000000000000000000000000000000000000000000000000000000000000000000000000000000000000000000000000000000000000000000000000000000000000000000000000000000000000000000000000000000000000000000000000000000000000000000070000
310
00000000000007000000000000000000000000000000000000000000000000000000000000000000000000000000000000000000000000000000000000000000000000000000000000000000000000000000000000000000000000000000000000000000000000000000000000000000000000000000000000000000000000
310
00000000000000000000000000000000000000000000000000000000000000000000000000000000000000000000000000000700000000000000000700000000000000000000000000000000000000000000000000000000000000000000000000000000000000000000000000000000000000000000000000000000000000
310
00000000000000000000000000000000000000000000000000000000000000000000000000000000000000000000000000000000000000000000000000000000000000000000000000000000000000000000000000000000000000000000000000000000000000070000000000000000070000000000000000000000000000
310
00000000000000000000000000000000000000000000000000000000000000000000000000000000000000000000000000000000000000000000000000000000000000000000000000000000000000000000000000000000000000000000000000000000000000000000000000000000000000000000000000000000000000
310
00000000000000000000000000000000000000000000000000000000000700000000000000000700000000000000000000000000000000000000000000000000000000000000000000000000000000000000000000000000000000000000000000000000000000000000000000000000000000000000000000000000000000
310
00000000000000000000000000000000000000000000000000000000000000000000000000000000000000000000000000000000000000000000000000000000000000000000000000000000000000000000070000000000000000070000000000000000000000000000000000000000000000000000000000000000000000
310
00000000000000000000000000000000000000000000000000000000000000000000000000000000000000000000000000000000000000000000000000000000000000000000000000000000000000000000000000000000000000000000000000000000000000000000000000000000000000000000000000000000000000
310
00000000000000000700000000000000000700000000000000000000000000000000000000000000000000000000000000000000000000000000000000000000000000000000000000000000000000000000000000000000000000000000000000000000000000000000000000000000000000000000000000000000000000
310
00000000000000000000000000000000000000000000000000000000000000000000000000000000000000000000000000000000000000000000000000070000000000000000070000000000000000000000000000000000000000000000000000000000000000000000000000000000000000000000000000000000000000
310
00000000000000000000000000000000000000000000000000000000000000000000000000000000000000000000000000000000000000000000000000000000000000000000000000000000000000000000000000000000000000000000000000000000000000000000000000000000000007000000000000000007000000
310
00000000000000000000000000000000000000000000000000000000000000000000000000000000000000000000000000000000000000000000000000000000000000000000000000000000000000000000000000000000000000000000000000000000000000000000000000000000000000000000000000000000000000
310
00000000000000000000000000000000000000000000000000000000000000000000000000000000070000000000000000070000000000000000000000000000000000000000000000000000000000000000000000000000000000000000000000000000000000000000000000000000000000000000000000000000000000
310
00000000000000000000000000000000000000000000000000000000000000000000000000000000000000000000000000000000000000000000000000000000000000000000000000000000000000000000000000000000000000000007000000000000000007000000000000000000000000000000000000000000000000
310
00000000000000000000000000000000000000000000000000000000000000000000000000000000000000000000000000000000000000000000000000000000000000000000000000000000000000000000000000000000000000000000000000000000000000000000000000000000000000000000000000000000000000
310
00000000000000000000000000000000000000070000000000000000070000000000000000000000000000000000000000000000000000000000000000000000000000000000000000000000000000000000000000000000000000000000000000000000000000000000000000000000000000000000000000000000000000
310
00000000000000000000000000000000000000000000000000000000000000000000000000000000000000000000000000000000000000000000000000000000000000000000000007000000000000000007000000000000000000000000000000000000000000000000000000000000000000000000000000000000000000
310
00000000000000000000000000000000000000000000000000000000000000000000000000000000000000000000000000000000000000000000000000000000000000000000000000000000000000000000000000000000000000000000000000000000000000000000000000000000000000000000000000000000000700
310
00000000000000070000000000000000000000000000000000000000000000000000000000000000000000000000000000000000000000000000000000000000000000000000000000000000000000000000000000000000000000000000000000000000000000000000000000000000000000000000000000000000000000
310
00000000000000000000000000000000000000000000000000000000000000000000000000000000000000000000000000000007000000000000000007000000000000000000000000000000000000000000000000000000000000000000000000000000000000000000000000000000000000000000000000000000000000
310
00000000000000000000000000000000000000000000000000000000000000000000000000000000000000000000000000000000000000000000000000000000000000000000000000000000000000000000000000000000000000000000000000000000000000000707070707070707070000000000000000000000000000
310
00000000000000000000000000000000000000000000000000000000000000000000000000000000000000000000000000000000000000000000000000000000000000000000000000000000000000000000000000000000000000000000000000000000000000000000000000000000000000000000000000000000000000
310
00000000000000000000000000000000000000000000000000000000000000000007000000000700000000000000000000000000000000000000000000000000000000000000000000000000000000000000000000000000000000000000000000000000000000000000000000000000000000000000000000000000000000
310
00000000000000000000000000000000000000000000000000000000000000000000000000000000000000000000000000000000000000000000000000000000000000000000000000000000000000000000000000000700000000070000000000000000000000000000000000000000000000000000000000000000000000
310
00000000000000000000000000000000000000000000000000000000000000000000000000000000000000000000000000000000000000000000000000000000000000000000000000000000000000000000000000000000000000000000000000000000000000000000000000000000000000000000000000000000000000
310
00000000000000000000000007070707070707000000000000000000000000000000000000000000000000000000000000000000000000000000000000000000000000000000000000000000000000000000000000000000000000000000000000000000000000000000000000000000000000000000000000000000000000
310
00000000000000000000000000000000000000000000000000000000000000000000000000000000000000000000000000000000000000000000000000000000000707070707070700000000000000000000000000000000000000000000000000000000000000000000000000000000000000000000000000000000000000
310
00000000000000000000000000000000000000000000000000000000000000000000000000000000000000000000000000000000000000000000000000000000000000000000000000000000000000000000000000000000000000000000000000000000000000000000000000000000000000000007070707070707070000
310
00000000000000000000000000000000000000000000000000000000000000000000000000000000000000000000000000000000000000000000000000000000000000000000000000000000000000000000000000000000000000000000000000000000000000000000000000000000000000000000000000000000000000
310
00000000000000000000000000000000000000000000000000000000000000000000000000000000000000070707070707070700000000000000000000000000000000000000000000000000000000000000000000000000000000000000000000000000000000000000000000000000000000000000000000000000000000
310
00000000000000000000000000000000000000000000000000000000000000000000000000000000000000000000000000000000000000000000000000000000000000000000000000000000000000000000000000000000000000000000000007070000000007000000000000000000000000000000000000000000000000
310
00000000000000000000000000000000000000000000000000000000000000000000000000000000000000000000000000000000000000000000000000000000000000000000000000000000000000000000000000000000000000000000000000000000000000000000000000000000000000000000000000000000000000
310
00000000000000000000000000000000000000000000070700000000070000000000000000000000000000000000000000000000000000000000000000000000000000000000000000000000000000000000000000000000000000000000000000000000000000000000000000000000000000000000000000000000000000
310
00000000000000000000000000000000000000000000000000000000000000000000000000000000000000000000000000000000000000000000000000000000000000000000000000000700070000000007000000000000000000000000000000000000000000000000000000000000000000000000000000000000000000
310
00000000000000000000000000000000000000000000000000000000000000000000000000000000000000000000000000000000000000000000000000000000000000000000000000000000000000000000000000000000000000000000000000000000000000000000000000000000000000000000000000000000000007
310
07070700000000070000000000000000000000000000000000000000000000000000000000000000000000000000000000000000000000000000000000000000000000000000000000000000000000000000000000000000000000000000000000000000000000000000000000000000000000000000000000000000000000
310
00000000000000000000000000000000000000000000000000000000000000000000000000000000000000000000000000000000070007070000000007000000000000000000000000000000000000000000000000000000000000000000000000000000000000000000000000000000000000000000000000000000000000
310
00000000000000000000000000000000000000000000000000000000000000000000000000000000000000000000000000000000000000000000000000000000000000000000000000000000000000000000000000000000000000000000000000000000000000000700070007000000000707000000000000000000000000
310
00000000000000000000000000000000000000000000000000000000000000000000000000000000000000000000000000000000000000000000000000000000000000000000000000000000000000000000000000000000000000000000000000000000000000000000000000000000000000000000000000000000000000
310
00000000000000000000000000000000000000000707000000000000000700000700070000000707070000000000000000000000000000000000000000000000000000000000000000000000000000000000000000000000000000000000000000000000000000000000000000000000000000000000000000000000000000
310
00000000000000000000000000000000000000000000000000000000000000000000000000000000000000000000000000000000000000000000000000000000000000000000000007000007000000000007000007000007000000070000000000000000000000000000000000000000000000000000000000000000000000
310
00000000000000000000000000000000000000000000000000000000000000000000000000000000000000000000000000000000000000000000000000000000000000000000000000000000000000000000000000000000000000000000000000000000000000000000000000000000000000000000000000000000070000
310
00000700000007000007000000070000000700000000000000000000000000000000000000000000000000000000000000000000000000000000000000000000000000000000000000000000000000000000000000000000000000000000000000000000000000000000000000000000000000000000000000000000000000
310
00000000000000000000000000000000000000000000000000000000000000000000000000000000000000000000000000000007000000000707070700070000000007000000070000000000000000000000000000000000000000000000000000000000000000000000000000000000000000000000000000000000000000
310
00000000000000000000000000000000000000000000000000000000000000000000000000000000000000000000000000000000000000000000000000000000000000000000000000000000000000000000000000000000000000000000000000000000000000000007000000000007070007000000000700000007000000
310
00000000000000000000000000000000000000000000000000000000000000000000000000000000000000000000000000000000000000000000000000000000000000000000000000000000000000000000000000000000000000000000000000000000000000000000000000000000000000000000000000000000000000
310
00000000000000000000000000000000000000000000000000000000000000000707000000000707000000000000000000070000000000000000000000000000000000000000000000000000000000000000000000000000000000000000000000000000000000000000000000000000000000000000000000000000000000
310
00000000000000000000000000000000000000000000000000000000000000000000000000000000000000000000000000000000000000000000000000000000000000000000000000000000000000000000000000070707000000000707000000000700000007000000000000000000000000000000000000000000000000
310
00000000000000000000000000000000000000000000000000000000000000000000000000000000000000000000000000000000000000000000000000000000000000000000000000000000000000000000000000000000000000000000000000000000000000000000000000000000000000000000000000000000000000
310
00000000000000000007070700000700000000000700000007000000070000000000000000000000000000000000000000000000000000000000000000000000000000000000000000000000000000000000000000000000000000000000000000000000000000000000000000000000000000000000000000000000000000
310
00000000000000000000000000000000000000000000000000000000000000000000000000000000000000000000000000000000000000000000000007070700000707070700000000000707000700000007000000000000000000000000000000000000000000000000000000000000000000000000000000000000000000
310
00000000000000000000000000000000000000000000000000000000000000000000000000000000000000000000000000000000000000000000000000000000000000000000000000000000000000000000000000000000000000000000000000000000000000000000000000000000000700000707070000000707000000
310
00000707000000070000000000000000000000000000000000000000000000000000000000000000000000000000000000000000000000000000000000000000000000000000000000000000000000000000000000000000000000000000000000000000000000000000000000000000000000000000000000000000000000
310
00000000000000000000000000000000000000000000000000000000000000000000000000000000070707000000000000000700000000000000000007000000000000000000000000000000000000000000000000000000000000000000000000000000000000000000000000000000000000000000000000000000000000
310
00000000000000000000000000000000000000000000000000000000000000000000000000000000000000000000000000000000000000000000000000000000000000000000000000000000000000000000000000000000000000000000000000000000000000000700000000000000000700000000000000000000000000
310
00000000000000000000000000000000000000000000000000000000000000000000000000000000000000000000000000000000000000000000000000000000000000000000000000000000000000000000000000000000000000000000000000000000000000000000000000000000000000000000000000000000000000
310
00000000000000000000000000000000000000000000000000000000000000070000000000000007000000000000000000000000000000000000000000000000000000000000000000000000000000000000000000000000000000000000000000000000000000000000000000000000000000000000000000000000000000
310
00000000000000000000000000000000000000000000000000000000000000000000000000000000000000000000000000000000000000000000000000000000000000000000000000000000000000000000000000070000000000000700000000000000000000000000000000000000000000000000000000000000000000
310
00000000000000000000000000000000000000000000000000000000000000000000000000000000000000000000000000000000000000000000000000000000000000000000000000000000000000000000000000000000000000000000000000000000000000000000000000000000000000000000000000000000000000
310
00000000000000000000000007000000000007000000000000000000000000000000000000000000000000000000000000000000000000000000000000000000000000000000000000000000000000000000000000000000000000000000000000000000000000000000000000000000000000000000000000000000000000
310
00000000000000000000000000000000000000000000000000000000000000000000000000000000000000000000000000000000000000000000000000000000000007000007070700000000000000000000000000000000000000000000000000000000000000000000000000000000000000000000000000000000000000
310
00000000000000000000000000000000000000000000000000000000000000000000000000000000000000000000000000000000000000000000000000000000000000000000000000000000000000000000000000000000000000000000000000000000000000000000000000000000000000000000000700070700070000
310
00000000000000000000000000000000000000000000000000000000000000000000000000000000000000000000000000000000000000000000000000000000000000000000000000000000000000000000000000000000000000000000000000000000000000000000000000000000000000000000000000000000000000
310
00000000000000000000000000000000000000000000000000000000000000000000000000000000000000000000070000000700000000000000000000000000000000000000000000000000000000000000000000000000000000000000000000000000000000000000000000000000000000000000000000000000000000
310
00000000000000000000000000000000000000000000000000000000000000000000000000000000000000000000000000000000000000000000000000000000000000000000000000000000000000000000000000000000000000000000000000000007000007070000000000000000000000000000000000000000000000
310
00000000000000000000000000000000000000000000000000000000000000000000000000000000000000000000000000000000000000000000000000000000000000000000000000000000000000000000000000000000000000000000000000000000000000000000000000000000000000000000000000000000000000
310
00000000000000000000000000000000000000000000000000000707070707000000000000000000000000000000000000000000000000000000000000000000000000000007070000000000000000000000000000000000000000000000000000000000000000000000000000000000000000000000000000000000000000
310
00000000000000000000000000000000000000000000000000000000000000000000000000000000000000000000000000000000000000000000000000000000000000000000000000000000000000070707070000000000000000000000000000000000000000000000000000000000000000000000000000000000000000
310
00000000000000000000000000000000000000000000000000000000000000000000000000000000000000000000000000000000000000000000000000000000000000000000000000000000000000000000000000000000000000000000000000000000000000000000000000000000000000000000000000000000000000
310
000000000000000000000000000000000000000000000000000000000000000000000000000000000000000000000000000000000000000000000000000000000000000000000000000000000000000000000000000000000000000000000000000000000000000000000000
  0
ENDSEC
  0
EOF
