  0
SECTION
  2
HEADER
  9
$ACADVER
  1
AC1015
  9
$ACADMAINTVER
 70
     6
  9
$DWGCODEPAGE
  3
ANSI_1252
  9
$INSBASE
 10
0.0
 20
0.0
 30
0.0
  9
$EXTMIN
 10
31.75
 20
0.01925
 30
0.0
  9
$EXTMAX
 10
201.75
 20
206.01105
 30
0.0
  9
$LIMMIN
 10
0.0
 20
0.0
  9
$LIMMAX
 10
12.0
 20
9.0
  9
$ORTHOMODE
 70
     0
  9
$REGENMODE
 70
     1
  9
$FILLMODE
 70
     1
  9
$QTEXTMODE
 70
     0
  9
$MIRRTEXT
 70
     1
  9
$LTSCALE
 40
1.0
  9
$ATTMODE
 70
     1
  9
$TEXTSIZE
 40
0.2
  9
$TRACEWID
 40
0.05
  9
$TEXTSTYLE
  7
Standard
  9
$CLAYER
  8
0
  9
$CELTYPE
  6
ByBlock
  9
$CECOLOR
 62
   256
  9
$CELTSCALE
 40
1.0
  9
$DISPSILH
 70
     0
  9
$DIMSCALE
 40
1.0
  9
$DIMASZ
 40
0.18
  9
$DIMEXO
 40
0.0625
  9
$DIMDLI
 40
0.38
  9
$DIMRND
 40
0.0
  9
$DIMDLE
 40
0.0
  9
$DIMEXE
 40
0.18
  9
$DIMTP
 40
0.0
  9
$DIMTM
 40
0.0
  9
$DIMTXT
 40
0.18
  9
$DIMCEN
 40
0.09
  9
$DIMTSZ
 40
0.0
  9
$DIMTOL
 70
     0
  9
$DIMLIM
 70
     0
  9
$DIMTIH
 70
     1
  9
$DIMTOH
 70
     1
  9
$DIMSE1
 70
     0
  9
$DIMSE2
 70
     0
  9
$DIMTAD
 70
     0
  9
$DIMZIN
 70
     0
  9
$DIMBLK
  1

  9
$DIMASO
 70
     1
  9
$DIMSHO
 70
     1
  9
$DIMPOST
  1

  9
$DIMAPOST
  1

  9
$DIMALT
 70
     0
  9
$DIMALTD
 70
     2
  9
$DIMALTF
 40
25.4
  9
$DIMLFAC
 40
1.0
  9
$DIMTOFL
 70
     0
  9
$DIMTVP
 40
0.0
  9
$DIMTIX
 70
     0
  9
$DIMSOXD
 70
     0
  9
$DIMSAH
 70
     0
  9
$DIMBLK1
  1

  9
$DIMBLK2
  1

  9
$DIMSTYLE
  2
Standard
  9
$DIMCLRD
 70
     0
  9
$DIMCLRE
 70
     0
  9
$DIMCLRT
 70
     0
  9
$DIMTFAC
 40
1.0
  9
$DIMGAP
 40
0.09
  9
$DIMJUST
 70
     0
  9
$DIMSD1
 70
     0
  9
$DIMSD2
 70
     0
  9
$DIMTOLJ
 70
     1
  9
$DIMTZIN
 70
     0
  9
$DIMALTZ
 70
     0
  9
$DIMALTTZ
 70
     0
  9
$DIMUPT
 70
     0
  9
$DIMDEC
 70
     4
  9
$DIMTDEC
 70
     4
  9
$DIMALTU
 70
     2
  9
$DIMALTTD
 70
     2
  9
$DIMTXSTY
  7
Standard
  9
$DIMAUNIT
 70
     0
  9
$DIMADEC
 70
     0
  9
$DIMALTRND
 40
0.0
  9
$DIMAZIN
 70
     0
  9
$DIMDSEP
 70
    46
  9
$DIMATFIT
 70
     3
  9
$DIMFRAC
 70
     0
  9
$DIMLDRBLK
  1

  9
$DIMLUNIT
 70
     2
  9
$DIMLWD
 70
    -2
  9
$DIMLWE
 70
    -2
  9
$DIMTMOVE
 70
     2
  9
$LUNITS
 70
     2
  9
$LUPREC
 70
     4
  9
$SKETCHINC
 40
0.1
  9
$FILLETRAD
 40
0.5
  9
$AUNITS
 70
     0
  9
$AUPREC
 70
     0
  9
$MENU
  1
.
  9
$ELEVATION
 40
0.0
  9
$PELEVATION
 40
0.0
  9
$THICKNESS
 40
0.0
  9
$LIMCHECK
 70
     0
  9
$CHAMFERA
 40
0.5
  9
$CHAMFERB
 40
0.5
  9
$CHAMFERC
 40
1.0
  9
$CHAMFERD
 40
0.0
  9
$SKPOLY
 70
     0
  9
$TDCREATE
 40
2456184.65035272
  9
$TDUCREATE
 40
2456184.567019387
  9
$TDUPDATE
 40
2456184.705213472
  9
$TDUUPDATE
 40
2456184.621880139
  9
$TDINDWG
 40
0.006044213
  9
$TDUSRTIMER
 40
0.006044213
  9
$USRTIMER
 70
     1
  9
$ANGBASE
 50
0.0
  9
$ANGDIR
 70
     0
  9
$PDMODE
 70
     0
  9
$PDSIZE
 40
0.0
  9
$PLINEWID
 40
0.0
  9
$SPLFRAME
 70
     0
  9
$SPLINETYPE
 70
     6
  9
$SPLINESEGS
 70
     8
  9
$HANDSEED
  5
E8F
  9
$SURFTAB1
 70
     6
  9
$SURFTAB2
 70
     6
  9
$SURFTYPE
 70
     6
  9
$SURFU
 70
     6
  9
$SURFV
 70
     6
  9
$UCSBASE
  2

  9
$UCSNAME
  2

  9
$UCSORG
 10
0.0
 20
0.0
 30
0.0
  9
$UCSXDIR
 10
1.0
 20
0.0
 30
0.0
  9
$UCSYDIR
 10
0.0
 20
1.0
 30
0.0
  9
$UCSORTHOREF
  2

  9
$UCSORTHOVIEW
 70
     0
  9
$UCSORGTOP
 10
0.0
 20
0.0
 30
0.0
  9
$UCSORGBOTTOM
 10
0.0
 20
0.0
 30
0.0
  9
$UCSORGLEFT
 10
0.0
 20
0.0
 30
0.0
  9
$UCSORGRIGHT
 10
0.0
 20
0.0
 30
0.0
  9
$UCSORGFRONT
 10
0.0
 20
0.0
 30
0.0
  9
$UCSORGBACK
 10
0.0
 20
0.0
 30
0.0
  9
$PUCSBASE
  2

  9
$PUCSNAME
  2

  9
$PUCSORG
 10
0.0
 20
0.0
 30
0.0
  9
$PUCSXDIR
 10
1.0
 20
0.0
 30
0.0
  9
$PUCSYDIR
 10
0.0
 20
1.0
 30
0.0
  9
$PUCSORTHOREF
  2

  9
$PUCSORTHOVIEW
 70
     0
  9
$PUCSORGTOP
 10
0.0
 20
0.0
 30
0.0
  9
$PUCSORGBOTTOM
 10
0.0
 20
0.0
 30
0.0
  9
$PUCSORGLEFT
 10
0.0
 20
0.0
 30
0.0
  9
$PUCSORGRIGHT
 10
0.0
 20
0.0
 30
0.0
  9
$PUCSORGFRONT
 10
0.0
 20
0.0
 30
0.0
  9
$PUCSORGBACK
 10
0.0
 20
0.0
 30
0.0
  9
$USERI1
 70
     0
  9
$USERI2
 70
     0
  9
$USERI3
 70
     0
  9
$USERI4
 70
     0
  9
$USERI5
 70
     0
  9
$USERR1
 40
0.0
  9
$USERR2
 40
0.0
  9
$USERR3
 40
0.0
  9
$USERR4
 40
0.0
  9
$USERR5
 40
0.0
  9
$WORLDVIEW
 70
     1
  9
$SHADEDGE
 70
     3
  9
$SHADEDIF
 70
    70
  9
$TILEMODE
 70
     1
  9
$MAXACTVP
 70
    64
  9
$PINSBASE
 10
0.0
 20
0.0
 30
0.0
  9
$PLIMCHECK
 70
     0
  9
$PEXTMIN
 10
1.000000000000E+20
 20
1.000000000000E+20
 30
1.000000000000E+20
  9
$PEXTMAX
 10
-1.000000000000E+20
 20
-1.000000000000E+20
 30
-1.000000000000E+20
  9
$PLIMMIN
 10
0.0
 20
0.0
  9
$PLIMMAX
 10
12.0
 20
9.0
  9
$UNITMODE
 70
     0
  9
$VISRETAIN
 70
     1
  9
$PLINEGEN
 70
     0
  9
$PSLTSCALE
 70
     1
  9
$TREEDEPTH
 70
  3020
  9
$CMLSTYLE
  2
Standard
  9
$CMLJUST
 70
     0
  9
$CMLSCALE
 40
1.0
  9
$PROXYGRAPHICS
 70
     1
  9
$MEASUREMENT
 70
     0
  9
$CELWEIGHT
370
    -1
  9
$ENDCAPS
280
     0
  9
$JOINSTYLE
280
     0
  9
$LWDISPLAY
290
     0
  9
$INSUNITS
 70
     0
  9
$HYPERLINKBASE
  1

  9
$STYLESHEET
  1

  9
$XEDIT
290
     1
  9
$CEPSNTYPE
380
     0
  9
$PSTYLEMODE
290
     1
  9
$FINGERPRINTGUID
  2
{11D41FDC-C2CD-4CFD-AD17-4DB064271FD9}
  9
$VERSIONGUID
  2
{FAEB1C32-E019-11D5-929B-00C0DF256EC4}
  9
$EXTNAMES
290
     1
  9
$PSVPSCALE
 40
0.0
  9
$OLESTARTUP
290
     0
  0
ENDSEC
  0
SECTION
  2
CLASSES
  0
CLASS
  1
ACDBDICTIONARYWDFLT
  2
AcDbDictionaryWithDefault
  3
ObjectDBX Classes
 90
        0
280
     0
281
     0
  0
CLASS
  1
SCALE
  2
AcDbScale
  3
ObjectDBX Classes
 90
     1153
280
     0
281
     0
  0
CLASS
  1
DICTIONARYVAR
  2
AcDbDictionaryVar
  3
ObjectDBX Classes
 90
        0
280
     0
281
     0
  0
CLASS
  1
ACDBPLACEHOLDER
  2
AcDbPlaceHolder
  3
ObjectDBX Classes
 90
        0
280
     0
281
     0
  0
CLASS
  1
LAYOUT
  2
AcDbLayout
  3
ObjectDBX Classes
 90
        0
280
     0
281
     0
  0
ENDSEC
  0
SECTION
  2
TABLES
  0
TABLE
  2
VPORT
  5
8
330
0
100
AcDbSymbolTable
 70
     1
  0
VPORT
  5
6B1
330
8
100
AcDbSymbolTableRecord
100
AcDbViewportTableRecord
  2
*Active
 70
     0
 10
0.0
 20
0.0
 11
1.0
 21
1.0
 12
100.875
 22
103.005525
 13
0.0
 23
0.0
 14
0.5
 24
0.5
 15
0.5
 25
0.5
 16
0.0
 26
0.0
 36
1.0
 17
0.0
 27
0.0
 37
0.0
 40
210.131271
 41
1.863448275862
 42
50.0
 43
0.0
 44
0.0
 50
0.0
 51
0.0
 71
    16
 72
   100
 73
     1
 74
     3
 75
     0
 76
     0
 77
     0
 78
     0
281
     0
 65
     1
110
0.0
120
0.0
130
0.0
111
1.0
121
0.0
131
0.0
112
0.0
122
1.0
132
0.0
 79
     0
146
0.0
  0
ENDTAB
  0
TABLE
  2
LTYPE
  5
5
330
0
100
AcDbSymbolTable
 70
     1
  0
LTYPE
  5
14
330
5
100
AcDbSymbolTableRecord
100
AcDbLinetypeTableRecord
  2
ByBlock
 70
     0
  3

 72
    65
 73
     0
 40
0.0
  0
LTYPE
  5
15
330
5
100
AcDbSymbolTableRecord
100
AcDbLinetypeTableRecord
  2
ByLayer
 70
     0
  3

 72
    65
 73
     0
 40
0.0
  0
LTYPE
  5
16
330
5
100
AcDbSymbolTableRecord
100
AcDbLinetypeTableRecord
  2
Continuous
 70
     0
  3
Solid line
 72
    65
 73
     0
 40
0.0
  0
ENDTAB
  0
TABLE
  2
LAYER
  5
2
330
0
100
AcDbSymbolTable
 70
     1
  0
LAYER
  5
10
330
2
100
AcDbSymbolTableRecord
100
AcDbLayerTableRecord
  2
0
 70
     0
 62
     7
  6
Continuous
370
    -3
390
F
  0
ENDTAB
  0
TABLE
  2
STYLE
  5
3
330
0
100
AcDbSymbolTable
 70
     1
  0
STYLE
  5
11
330
3
100
AcDbSymbolTableRecord
100
AcDbTextStyleTableRecord
  2
Standard
 70
     0
 40
0.0
 41
1.0
 50
0.0
 71
     0
 42
0.2
  3
txt
  4

  0
ENDTAB
  0
TABLE
  2
VIEW
  5
6
330
0
100
AcDbSymbolTable
 70
     0
  0
ENDTAB
  0
TABLE
  2
UCS
  5
7
330
0
100
AcDbSymbolTable
 70
     0
  0
ENDTAB
  0
TABLE
  2
APPID
  5
9
330
0
100
AcDbSymbolTable
 70
     1
  0
APPID
  5
12
330
9
100
AcDbSymbolTableRecord
100
AcDbRegAppTableRecord
  2
ACAD
 70
     0
  0
ENDTAB
  0
TABLE
  2
DIMSTYLE
  5
A
330
0
100
AcDbSymbolTable
 70
     1
100
AcDbDimStyleTable
  0
DIMSTYLE
105
20
330
A
100
AcDbSymbolTableRecord
100
AcDbDimStyleTableRecord
  2
Standard
 70
     0
340
11
  0
ENDTAB
  0
TABLE
  2
BLOCK_RECORD
  5
1
330
0
100
AcDbSymbolTable
 70
     2
  0
BLOCK_RECORD
  5
1D
330
1
100
AcDbSymbolTableRecord
100
AcDbBlockTableRecord
  2
*Model_Space
340
1E
  0
BLOCK_RECORD
  5
1B
330
1
100
AcDbSymbolTableRecord
100
AcDbBlockTableRecord
  2
*Paper_Space
340
1C
  0
ENDTAB
  0
ENDSEC
  0
SECTION
  2
BLOCKS
  0
BLOCK
  5
6B4
330
1D
100
AcDbEntity
  8
0
100
AcDbBlockBegin
  2
*Model_Space
 70
     0
 10
0.0
 20
0.0
 30
0.0
  3
*Model_Space
  1
*Model_Space
  0
ENDBLK
  5
6B5
330
1D
100
AcDbEntity
  8
0
100
AcDbBlockEnd
  0
BLOCK
  5
6B2
330
1B
100
AcDbEntity
 67
     1
  8
0
100
AcDbBlockBegin
  2
*Paper_Space
 70
     0
 10
0.0
 20
0.0
 30
0.0
  3
*Paper_Space
  1
*Paper_Space
  0
ENDBLK
  5
6B3
330
1B
100
AcDbEntity
 67
     1
  8
0
100
AcDbBlockEnd
  0
ENDSEC
  0
SECTION
  2
ENTITIES
  0
LINE
  5
21
330
1D
100
AcDbEntity
  8
0
100
AcDbLine
 10
99.4422
 20
10.09905
 30
0.0
 11
99.4508
 21
9.90595
 31
0.0
  0
LINE
  5
22
330
1D
100
AcDbEntity
  8
0
100
AcDbLine
 10
99.4422
 20
10.09885
 30
0.0
 11
99.4507
 21
9.90615
 31
0.0
  0
LINE
  5
23
330
1D
100
AcDbEntity
  8
0
100
AcDbLine
 10
99.4507
 20
9.90615
 30
0.0
 11
99.4626
 21
9.73205
 31
0.0
  0
LINE
  5
24
330
1D
100
AcDbEntity
  8
0
100
AcDbLine
 10
99.4416
 20
10.53435
 30
0.0
 11
99.4422
 21
10.09885
 31
0.0
  0
LINE
  5
25
330
1D
100
AcDbEntity
  8
0
100
AcDbLine
 10
99.4416
 20
10.53435
 30
0.0
 11
99.5408
 21
11.55465
 31
0.0
  0
LINE
  5
26
330
1D
100
AcDbEntity
  8
0
100
AcDbLine
 10
99.4416
 20
10.53445
 30
0.0
 11
99.4422
 21
10.09905
 31
0.0
  0
LINE
  5
27
330
1D
100
AcDbEntity
  8
0
100
AcDbLine
 10
99.4416
 20
10.53445
 30
0.0
 11
99.5408
 21
11.55435
 31
0.0
  0
LINE
  5
2A
330
1D
100
AcDbEntity
  8
0
100
AcDbLine
 10
99.1322
 20
11.32295
 30
0.0
 11
99.3056
 21
10.40445
 31
0.0
  0
LINE
  5
30
330
1D
100
AcDbEntity
  8
0
100
AcDbLine
 10
109.9082
 20
0.56705
 30
0.0
 11
110.767
 21
0.41975
 31
0.0
  0
LINE
  5
31
330
1D
100
AcDbEntity
  8
0
100
AcDbLine
 10
109.0937
 20
0.73285
 30
0.0
 11
109.9082
 21
0.56705
 31
0.0
  0
LINE
  5
34
330
1D
100
AcDbEntity
  8
0
100
AcDbLine
 10
107.5213
 20
1.13615
 30
0.0
 11
108.281
 21
0.92645
 31
0.0
  0
LINE
  5
35
330
1D
100
AcDbEntity
  8
0
100
AcDbLine
 10
106.6938
 20
1.40065
 30
0.0
 11
107.5213
 21
1.13615
 31
0.0
  0
LINE
  5
36
330
1D
100
AcDbEntity
  8
0
100
AcDbLine
 10
106.1557
 20
1.68555
 30
0.0
 11
106.8659
 21
1.41965
 31
0.0
  0
LINE
  5
37
330
1D
100
AcDbEntity
  8
0
100
AcDbLine
 10
105.9362
 20
1.68085
 30
0.0
 11
106.6938
 21
1.40065
 31
0.0
  0
LINE
  5
38
330
1D
100
AcDbEntity
  8
0
100
AcDbLine
 10
105.5045
 20
1.96345
 30
0.0
 11
106.1557
 21
1.68555
 31
0.0
  0
LINE
  5
39
330
1D
100
AcDbEntity
  8
0
100
AcDbLine
 10
104.5403
 20
2.31545
 30
0.0
 11
105.2038
 21
1.99235
 31
0.0
  0
LINE
  5
3A
330
1D
100
AcDbEntity
  8
0
100
AcDbLine
 10
102.1078
 20
4.28855
 30
0.0
 11
102.8352
 21
3.60565
 31
0.0
  0
LINE
  5
3C
330
1D
100
AcDbEntity
  8
0
100
AcDbLine
 10
101.3065
 20
4.75395
 30
0.0
 11
101.7608
 21
4.26935
 31
0.0
  0
LINE
  5
3D
330
1D
100
AcDbEntity
  8
0
100
AcDbLine
 10
101.7608
 20
4.26935
 30
0.0
 11
102.2982
 21
3.78185
 31
0.0
  0
LINE
  5
3E
330
1D
100
AcDbEntity
  8
0
100
AcDbLine
 10
103.5833
 20
3.03765
 30
0.0
 11
103.9695
 21
2.78395
 31
0.0
  0
LINE
  5
3F
330
1D
100
AcDbEntity
  8
0
100
AcDbLine
 10
103.9695
 20
2.78395
 30
0.0
 11
104.9089
 21
2.25125
 31
0.0
  0
LINE
  5
40
330
1D
100
AcDbEntity
  8
0
100
AcDbLine
 10
103.5835
 20
3.03775
 30
0.0
 11
103.9696
 21
2.78385
 31
0.0
  0
LINE
  5
41
330
1D
100
AcDbEntity
  8
0
100
AcDbLine
 10
103.4289
 20
2.96835
 30
0.0
 11
104.5403
 21
2.31545
 31
0.0
  0
LINE
  5
42
330
1D
100
AcDbEntity
  8
0
100
AcDbLine
 10
102.8352
 20
3.60585
 30
0.0
 11
103.5833
 21
3.03765
 31
0.0
  0
LINE
  5
43
330
1D
100
AcDbEntity
  8
0
100
AcDbLine
 10
102.8352
 20
3.60565
 30
0.0
 11
103.5835
 21
3.03775
 31
0.0
  0
LINE
  5
45
330
1D
100
AcDbEntity
  8
0
100
AcDbLine
 10
103.1566
 20
3.15945
 30
0.0
 11
103.4289
 21
2.96835
 31
0.0
  0
LINE
  5
47
330
1D
100
AcDbEntity
  8
0
100
AcDbLine
 10
102.2982
 20
3.78185
 30
0.0
 11
103.1566
 21
3.15945
 31
0.0
  0
LINE
  5
49
330
1D
100
AcDbEntity
  8
0
100
AcDbLine
 10
104.9089
 20
2.25125
 30
0.0
 11
105.5045
 21
1.96345
 31
0.0
  0
LINE
  5
4A
330
1D
100
AcDbEntity
  8
0
100
AcDbLine
 10
105.2038
 20
1.99235
 30
0.0
 11
105.9362
 21
1.68085
 31
0.0
  0
LINE
  5
4C
330
1D
100
AcDbEntity
  8
0
100
AcDbLine
 10
105.5046
 20
1.96365
 30
0.0
 11
106.1558
 21
1.68545
 31
0.0
  0
LINE
  5
4D
330
1D
100
AcDbEntity
  8
0
100
AcDbLine
 10
106.1558
 20
1.68545
 30
0.0
 11
106.8657
 21
1.41965
 31
0.0
  0
LINE
  5
4F
330
1D
100
AcDbEntity
  8
0
100
AcDbLine
 10
108.281
 20
0.92645
 30
0.0
 11
109.0937
 21
0.73285
 31
0.0
  0
LINE
  5
52
330
1D
100
AcDbEntity
  8
0
100
AcDbLine
 10
113.6547
 20
0.09825
 30
0.0
 11
115.1864
 21
0.01925
 31
0.0
  0
LINE
  5
53
330
1D
100
AcDbEntity
  8
0
100
AcDbLine
 10
113.6547
 20
0.09825
 30
0.0
 11
115.1864
 21
0.01925
 31
0.0
  0
LINE
  5
5E
330
1D
100
AcDbEntity
  8
0
100
AcDbLine
 10
110.767
 20
0.41975
 30
0.0
 11
112.1727
 21
0.23245
 31
0.0
  0
LINE
  5
5F
330
1D
100
AcDbEntity
  8
0
100
AcDbLine
 10
112.1727
 20
0.23245
 30
0.0
 11
113.6547
 21
0.09825
 31
0.0
  0
LINE
  5
60
330
1D
100
AcDbEntity
  8
0
100
AcDbLine
 10
112.1727
 20
0.23245
 30
0.0
 11
113.6547
 21
0.09825
 31
0.0
  0
LINE
  5
80
330
1D
100
AcDbEntity
  8
0
100
AcDbLine
 10
99.765
 20
7.84915
 30
0.0
 11
99.9347
 21
7.17495
 31
0.0
  0
LINE
  5
82
330
1D
100
AcDbEntity
  8
0
100
AcDbLine
 10
99.7027
 20
8.16385
 30
0.0
 11
99.765
 21
7.84915
 31
0.0
  0
LINE
  5
8C
330
1D
100
AcDbEntity
  8
0
100
AcDbLine
 10
99.5408
 20
11.55465
 30
0.0
 11
99.6883
 21
12.25875
 31
0.0
  0
LINE
  5
8D
330
1D
100
AcDbEntity
  8
0
100
AcDbLine
 10
99.5408
 20
11.55435
 30
0.0
 11
99.6883
 21
12.25845
 31
0.0
  0
LINE
  5
99
330
1D
100
AcDbEntity
  8
0
100
AcDbLine
 10
99.9347
 20
7.17495
 30
0.0
 11
100.145
 21
6.57285
 31
0.0
  0
LINE
  5
9E
330
1D
100
AcDbEntity
  8
0
100
AcDbLine
 10
100.145
 20
6.57285
 30
0.0
 11
100.4434
 21
5.97355
 31
0.0
  0
LINE
  5
9F
330
1D
100
AcDbEntity
  8
0
100
AcDbLine
 10
100.9228
 20
5.24315
 30
0.0
 11
101.3065
 21
4.75395
 31
0.0
  0
LINE
  5
A0
330
1D
100
AcDbEntity
  8
0
100
AcDbLine
 10
100.4417
 20
7.90395
 30
0.0
 11
100.5958
 21
7.01575
 31
0.0
  0
LINE
  5
A1
330
1D
100
AcDbEntity
  8
0
100
AcDbLine
 10
100.4418
 20
7.90405
 30
0.0
 11
100.5957
 21
7.01555
 31
0.0
  0
LINE
  5
A2
330
1D
100
AcDbEntity
  8
0
100
AcDbLine
 10
100.5958
 20
7.01575
 30
0.0
 11
100.8463
 21
6.20175
 31
0.0
  0
LINE
  5
A3
330
1D
100
AcDbEntity
  8
0
100
AcDbLine
 10
100.5957
 20
7.01555
 30
0.0
 11
100.8463
 21
6.20185
 31
0.0
  0
LINE
  5
A4
330
1D
100
AcDbEntity
  8
0
100
AcDbLine
 10
100.8463
 20
6.20185
 30
0.0
 11
101.1757
 21
5.52625
 31
0.0
  0
LINE
  5
A5
330
1D
100
AcDbEntity
  8
0
100
AcDbLine
 10
100.8463
 20
6.20175
 30
0.0
 11
101.1755
 21
5.52615
 31
0.0
  0
LINE
  5
A6
330
1D
100
AcDbEntity
  8
0
100
AcDbLine
 10
100.4434
 20
5.97355
 30
0.0
 11
100.7507
 21
5.50405
 31
0.0
  0
LINE
  5
A7
330
1D
100
AcDbEntity
  8
0
100
AcDbLine
 10
100.7507
 20
5.50405
 30
0.0
 11
100.9228
 21
5.24315
 31
0.0
  0
LINE
  5
A8
330
1D
100
AcDbEntity
  8
0
100
AcDbLine
 10
101.4761
 20
5.05565
 30
0.0
 11
102.1079
 21
4.28875
 31
0.0
  0
LINE
  5
A9
330
1D
100
AcDbEntity
  8
0
100
AcDbLine
 10
101.1757
 20
5.52625
 30
0.0
 11
101.4761
 21
5.05555
 31
0.0
  0
LINE
  5
AA
330
1D
100
AcDbEntity
  8
0
100
AcDbLine
 10
101.4761
 20
5.05555
 30
0.0
 11
102.1078
 21
4.28855
 31
0.0
  0
LINE
  5
AB
330
1D
100
AcDbEntity
  8
0
100
AcDbLine
 10
101.1755
 20
5.52615
 30
0.0
 11
101.4761
 21
5.05565
 31
0.0
  0
LINE
  5
AC
330
1D
100
AcDbEntity
  8
0
100
AcDbLine
 10
100.4893
 20
9.65765
 30
0.0
 11
100.7575
 21
11.03795
 31
0.0
  0
LINE
  5
AD
330
1D
100
AcDbEntity
  8
0
100
AcDbLine
 10
100.7575
 20
11.03795
 30
0.0
 11
101.2421
 21
12.47685
 31
0.0
  0
LINE
  5
AF
330
1D
100
AcDbEntity
  8
0
100
AcDbLine
 10
100.7577
 20
11.03805
 30
0.0
 11
101.2419
 21
12.47685
 31
0.0
  0
LINE
  5
B0
330
1D
100
AcDbEntity
  8
0
100
AcDbLine
 10
100.4164
 20
8.50445
 30
0.0
 11
100.4891
 21
9.65765
 31
0.0
  0
LINE
  5
B1
330
1D
100
AcDbEntity
  8
0
100
AcDbLine
 10
100.4164
 20
8.50445
 30
0.0
 11
100.4418
 21
7.90405
 31
0.0
  0
LINE
  5
B2
330
1D
100
AcDbEntity
  8
0
100
AcDbLine
 10
100.4164
 20
8.50425
 30
0.0
 11
100.4417
 21
7.90395
 31
0.0
  0
LINE
  5
B5
330
1D
100
AcDbEntity
  8
0
100
AcDbLine
 10
99.4508
 20
9.90595
 30
0.0
 11
99.4626
 21
9.73195
 31
0.0
  0
LINE
  5
B6
330
1D
100
AcDbEntity
  8
0
100
AcDbLine
 10
91.8894
 20
58.85515
 30
0.0
 11
92.1094
 21
56.76125
 31
0.0
  0
LINE
  5
B8
330
1D
100
AcDbEntity
  8
0
100
AcDbLine
 10
91.75
 20
60.85475
 30
0.0
 11
91.8894
 21
58.85515
 31
0.0
  0
LINE
  5
B9
330
1D
100
AcDbEntity
  8
0
100
AcDbLine
 10
92.4327
 20
54.48575
 30
0.0
 11
92.8148
 21
52.20315
 31
0.0
  0
LINE
  5
BA
330
1D
100
AcDbEntity
  8
0
100
AcDbLine
 10
92.1094
 20
56.76125
 30
0.0
 11
92.4327
 21
54.48575
 31
0.0
  0
LINE
  5
BD
330
1D
100
AcDbEntity
  8
0
100
AcDbLine
 10
31.75
 20
78.01105
 30
0.0
 11
31.75
 21
98.01105
 31
0.0
  0
LINE
  5
BE
330
1D
100
AcDbEntity
  8
0
100
AcDbLine
 10
32.05
 20
77.31105
 30
0.0
 11
32.75
 21
77.01105
 31
0.0
  0
LINE
  5
C0
330
1D
100
AcDbEntity
  8
0
100
AcDbLine
 10
31.75
 20
78.01105
 30
0.0
 11
32.05
 21
77.31105
 31
0.0
  0
LINE
  5
C1
330
1D
100
AcDbEntity
  8
0
100
AcDbLine
 10
46.8921
 20
98.01105
 30
0.0
 11
48.4332
 21
98.01105
 31
0.0
  0
LINE
  5
C2
330
1D
100
AcDbEntity
  8
0
100
AcDbLine
 10
46.25
 20
98.01105
 30
0.0
 11
46.8921
 21
98.01105
 31
0.0
  0
LINE
  5
C4
330
1D
100
AcDbEntity
  8
0
100
AcDbLine
 10
48.4332
 20
98.01105
 30
0.0
 11
51.0016
 21
98.01105
 31
0.0
  0
LINE
  5
C5
330
1D
100
AcDbEntity
  8
0
100
AcDbLine
 10
48.4332
 20
98.01105
 30
0.0
 11
51.0016
 21
98.01105
 31
0.0
  0
LINE
  5
C6
330
1D
100
AcDbEntity
  8
0
100
AcDbLine
 10
54.4047
 20
98.01105
 30
0.0
 11
58.9637
 21
98.01105
 31
0.0
  0
LINE
  5
C7
330
1D
100
AcDbEntity
  8
0
100
AcDbLine
 10
51.0016
 20
98.01105
 30
0.0
 11
54.4047
 21
98.01105
 31
0.0
  0
LINE
  5
C8
330
1D
100
AcDbEntity
  8
0
100
AcDbLine
 10
58.9637
 20
98.01105
 30
0.0
 11
63.25
 21
98.01105
 31
0.0
  0
LINE
  5
C9
330
1D
100
AcDbEntity
  8
0
100
AcDbLine
 10
60.5468
 20
98.01105
 30
0.0
 11
63.25
 21
98.01105
 31
0.0
  0
LINE
  5
CA
330
1D
100
AcDbEntity
  8
0
100
AcDbLine
 10
56.1374
 20
98.01105
 30
0.0
 11
60.5468
 21
98.01105
 31
0.0
  0
LINE
  5
CB
330
1D
100
AcDbEntity
  8
0
100
AcDbLine
 10
52.8458
 20
98.01105
 30
0.0
 11
56.1374
 21
98.01105
 31
0.0
  0
LINE
  5
CC
330
1D
100
AcDbEntity
  8
0
100
AcDbLine
 10
50.3616
 20
98.01105
 30
0.0
 11
52.8458
 21
98.01105
 31
0.0
  0
LINE
  5
CD
330
1D
100
AcDbEntity
  8
0
100
AcDbLine
 10
50.3616
 20
98.01105
 30
0.0
 11
52.8458
 21
98.01105
 31
0.0
  0
LINE
  5
CE
330
1D
100
AcDbEntity
  8
0
100
AcDbLine
 10
48.871
 20
98.01105
 30
0.0
 11
50.3616
 21
98.01105
 31
0.0
  0
LINE
  5
CF
330
1D
100
AcDbEntity
  8
0
100
AcDbLine
 10
48.25
 20
98.01105
 30
0.0
 11
48.871
 21
98.01105
 31
0.0
  0
LINE
  5
150
330
1D
100
AcDbEntity
  8
0
100
AcDbLine
 10
52.8458
 20
98.01105
 30
0.0
 11
56.1374
 21
98.01105
 31
0.0
  0
LINE
  5
151
330
1D
100
AcDbEntity
  8
0
100
AcDbLine
 10
60.5468
 20
98.01105
 30
0.0
 11
63.25
 21
98.01105
 31
0.0
  0
LINE
  5
152
330
1D
100
AcDbEntity
  8
0
100
AcDbLine
 10
56.1374
 20
98.01105
 30
0.0
 11
60.5468
 21
98.01105
 31
0.0
  0
LINE
  5
153
330
1D
100
AcDbEntity
  8
0
100
AcDbLine
 10
58.9637
 20
98.01105
 30
0.0
 11
63.25
 21
98.01105
 31
0.0
  0
LINE
  5
154
330
1D
100
AcDbEntity
  8
0
100
AcDbLine
 10
54.4047
 20
98.01105
 30
0.0
 11
58.9637
 21
98.01105
 31
0.0
  0
LINE
  5
1A0
330
1D
100
AcDbEntity
  8
0
100
AcDbLine
 10
51.0016
 20
98.01105
 30
0.0
 11
54.4047
 21
98.01105
 31
0.0
  0
LINE
  5
1A3
330
1D
100
AcDbEntity
  8
0
100
AcDbLine
 10
31.75
 20
98.01105
 30
0.0
 11
31.75
 21
78.01105
 31
0.0
  0
LINE
  5
1A4
330
1D
100
AcDbEntity
  8
0
100
AcDbLine
 10
31.75
 20
98.01105
 30
0.0
 11
32.05
 21
98.01105
 31
0.0
  0
LINE
  5
1A7
330
1D
100
AcDbEntity
  8
0
100
AcDbLine
 10
32.75
 20
77.01105
 30
0.0
 11
92.5353
 21
77.01105
 31
0.0
  0
LINE
  5
1A8
330
1D
100
AcDbEntity
  8
0
100
AcDbLine
 10
32.75
 20
77.01105
 30
0.0
 11
92.5353
 21
77.01105
 31
0.0
  0
LINE
  5
1AA
330
1D
100
AcDbEntity
  8
0
100
AcDbLine
 10
91.75
 20
60.85475
 30
0.0
 11
91.7903
 21
61.00725
 31
0.0
  0
LINE
  5
1AB
330
1D
100
AcDbEntity
  8
0
100
AcDbLine
 10
91.9003
 20
61.11975
 30
0.0
 11
92.058
 21
61.16105
 31
0.0
  0
LINE
  5
1AC
330
1D
100
AcDbEntity
  8
0
100
AcDbLine
 10
92.1169
 20
61.16105
 30
0.0
 11
92.4912
 21
61.16105
 31
0.0
  0
LINE
  5
1AD
330
1D
100
AcDbEntity
  8
0
100
AcDbLine
 10
92.1167
 20
61.16105
 30
0.0
 11
92.4912
 21
61.16105
 31
0.0
  0
LINE
  5
1AE
330
1D
100
AcDbEntity
  8
0
100
AcDbLine
 10
92.058
 20
61.16105
 30
0.0
 11
92.1169
 21
61.16105
 31
0.0
  0
LINE
  5
1AF
330
1D
100
AcDbEntity
  8
0
100
AcDbLine
 10
92.058
 20
61.16105
 30
0.0
 11
92.1167
 21
61.16105
 31
0.0
  0
LINE
  5
1B0
330
1D
100
AcDbEntity
  8
0
100
AcDbLine
 10
92.5353
 20
77.01105
 30
0.0
 11
92.6266
 21
77.01105
 31
0.0
  0
LINE
  5
1B1
330
1D
100
AcDbEntity
  8
0
100
AcDbLine
 10
92.5353
 20
77.01105
 30
0.0
 11
92.5353
 21
63.43375
 31
0.0
  0
LINE
  5
1B2
330
1D
100
AcDbEntity
  8
0
100
AcDbLine
 10
92.4912
 20
61.16105
 30
0.0
 11
92.9545
 21
61.16105
 31
0.0
  0
LINE
  5
1B3
330
1D
100
AcDbEntity
  8
0
100
AcDbLine
 10
91.7903
 20
61.00725
 30
0.0
 11
91.9003
 21
61.11975
 31
0.0
  0
LINE
  5
1B5
330
1D
100
AcDbEntity
  8
0
100
AcDbLine
 10
32.75
 20
98.01105
 30
0.0
 11
200.75
 21
98.01105
 31
0.0
  0
LINE
  5
1B8
330
1D
100
AcDbEntity
  8
0
100
AcDbLine
 10
92.6266
 20
77.01105
 30
0.0
 11
92.9088
 21
77.01105
 31
0.0
  0
LINE
  5
1B9
330
1D
100
AcDbEntity
  8
0
100
AcDbLine
 10
92.5353
 20
63.43375
 30
0.0
 11
92.5353
 21
77.01105
 31
0.0
  0
LINE
  5
1BB
330
1D
100
AcDbEntity
  8
0
100
AcDbLine
 10
92.5353
 20
63.43375
 30
0.0
 11
92.6742
 21
62.92535
 31
0.0
  0
LINE
  5
262
330
1D
100
AcDbEntity
  8
0
100
AcDbLine
 10
32.05
 20
98.01105
 30
0.0
 11
32.75
 21
98.01105
 31
0.0
  0
LINE
  5
264
330
1D
100
AcDbEntity
  8
0
100
AcDbLine
 10
95.8508
 20
29.62935
 30
0.0
 11
96.1803
 21
27.44225
 31
0.0
  0
LINE
  5
265
330
1D
100
AcDbEntity
  8
0
100
AcDbLine
 10
96.6648
 20
24.40655
 30
0.0
 11
96.9221
 21
22.88015
 31
0.0
  0
LINE
  5
266
330
1D
100
AcDbEntity
  8
0
100
AcDbLine
 10
96.4167
 20
25.93355
 30
0.0
 11
96.6648
 21
24.40655
 31
0.0
  0
LINE
  5
267
330
1D
100
AcDbEntity
  8
0
100
AcDbLine
 10
96.1803
 20
27.44225
 30
0.0
 11
96.4167
 21
25.93355
 31
0.0
  0
LINE
  5
26A
330
1D
100
AcDbEntity
  8
0
100
AcDbLine
 10
95.4928
 20
32.10785
 30
0.0
 11
95.8508
 21
29.62935
 31
0.0
  0
LINE
  5
270
330
1D
100
AcDbEntity
  8
0
100
AcDbLine
 10
96.9221
 20
22.88015
 30
0.0
 11
97.1867
 21
21.37095
 31
0.0
  0
LINE
  5
272
330
1D
100
AcDbEntity
  8
0
100
AcDbLine
 10
97.1867
 20
21.37095
 30
0.0
 11
97.4576
 21
19.88965
 31
0.0
  0
LINE
  5
273
330
1D
100
AcDbEntity
  8
0
100
AcDbLine
 10
97.4576
 20
19.88965
 30
0.0
 11
98.0092
 21
17.04125
 31
0.0
  0
LINE
  5
292
330
1D
100
AcDbEntity
  8
0
100
AcDbLine
 10
92.8204
 20
52.08215
 30
0.0
 11
93.1677
 21
49.84945
 31
0.0
  0
LINE
  5
293
330
1D
100
AcDbEntity
  8
0
100
AcDbLine
 10
92.8148
 20
52.20315
 30
0.0
 11
92.8204
 21
52.08215
 31
0.0
  0
LINE
  5
294
330
1D
100
AcDbEntity
  8
0
100
AcDbLine
 10
93.1651
 20
49.78705
 30
0.0
 11
93.4512
 21
47.64455
 31
0.0
  0
LINE
  5
295
330
1D
100
AcDbEntity
  8
0
100
AcDbLine
 10
93.1651
 20
49.78705
 30
0.0
 11
93.1677
 21
49.84945
 31
0.0
  0
LINE
  5
2B0
330
1D
100
AcDbEntity
  8
0
100
AcDbLine
 10
99.6883
 20
12.25875
 30
0.0
 11
99.8998
 21
12.97885
 31
0.0
  0
LINE
  5
2B3
330
1D
100
AcDbEntity
  8
0
100
AcDbLine
 10
99.6883
 20
12.25845
 30
0.0
 11
99.8998
 21
12.97865
 31
0.0
  0
LINE
  5
2B6
330
1D
100
AcDbEntity
  8
0
100
AcDbLine
 10
99.8998
 20
12.97885
 30
0.0
 11
100.3394
 21
14.10435
 31
0.0
  0
LINE
  5
2B7
330
1D
100
AcDbEntity
  8
0
100
AcDbLine
 10
99.8998
 20
12.97865
 30
0.0
 11
100.3394
 21
14.10415
 31
0.0
  0
LINE
  5
2B8
330
1D
100
AcDbEntity
  8
0
100
AcDbLine
 10
101.2421
 20
12.47685
 30
0.0
 11
101.9665
 21
14.05035
 31
0.0
  0
LINE
  5
2B9
330
1D
100
AcDbEntity
  8
0
100
AcDbLine
 10
101.9665
 20
14.05035
 30
0.0
 11
102.1528
 21
14.40795
 31
0.0
  0
LINE
  5
2BA
330
1D
100
AcDbEntity
  8
0
100
AcDbLine
 10
101.2419
 20
12.47685
 30
0.0
 11
101.9663
 21
14.05055
 31
0.0
  0
LINE
  5
2BB
330
1D
100
AcDbEntity
  8
0
100
AcDbLine
 10
98.4214
 20
14.99105
 30
0.0
 11
99.1322
 21
11.32295
 31
0.0
  0
LINE
  5
2BC
330
1D
100
AcDbEntity
  8
0
100
AcDbLine
 10
100.3394
 20
14.10435
 30
0.0
 11
100.8131
 21
15.08865
 31
0.0
  0
LINE
  5
2BF
330
1D
100
AcDbEntity
  8
0
100
AcDbLine
 10
100.8131
 20
15.08865
 30
0.0
 11
101.3774
 21
16.11565
 31
0.0
  0
LINE
  5
2C0
330
1D
100
AcDbEntity
  8
0
100
AcDbLine
 10
100.3394
 20
14.10415
 30
0.0
 11
100.8132
 21
15.08885
 31
0.0
  0
LINE
  5
2C2
330
1D
100
AcDbEntity
  8
0
100
AcDbLine
 10
101.3774
 20
16.11555
 30
0.0
 11
102.2581
 21
17.53405
 31
0.0
  0
LINE
  5
2C3
330
1D
100
AcDbEntity
  8
0
100
AcDbLine
 10
100.8132
 20
15.08885
 30
0.0
 11
101.3774
 21
16.11555
 31
0.0
  0
LINE
  5
2C4
330
1D
100
AcDbEntity
  8
0
100
AcDbLine
 10
98.4214
 20
14.99115
 30
0.0
 11
99.1323
 21
11.32265
 31
0.0
  0
LINE
  5
2C5
330
1D
100
AcDbEntity
  8
0
100
AcDbLine
 10
98.0092
 20
17.04125
 30
0.0
 11
98.4214
 21
14.99115
 31
0.0
  0
LINE
  5
2C6
330
1D
100
AcDbEntity
  8
0
100
AcDbLine
 10
101.3774
 20
16.11565
 30
0.0
 11
102.2581
 21
17.53435
 31
0.0
  0
LINE
  5
2C7
330
1D
100
AcDbEntity
  8
0
100
AcDbLine
 10
102.1528
 20
14.40795
 30
0.0
 11
103.3499
 21
16.46405
 31
0.0
  0
LINE
  5
2C8
330
1D
100
AcDbEntity
  8
0
100
AcDbLine
 10
103.3499
 20
16.46405
 30
0.0
 11
104.247
 21
17.77235
 31
0.0
  0
LINE
  5
2CB
330
1D
100
AcDbEntity
  8
0
100
AcDbLine
 10
103.3498
 20
16.46425
 30
0.0
 11
104.2471
 21
17.77215
 31
0.0
  0
LINE
  5
2CD
330
1D
100
AcDbEntity
  8
0
100
AcDbLine
 10
102.2581
 20
17.53435
 30
0.0
 11
103.2637
 21
18.94635
 31
0.0
  0
LINE
  5
2CE
330
1D
100
AcDbEntity
  8
0
100
AcDbLine
 10
102.2581
 20
17.53405
 30
0.0
 11
103.2637
 21
18.94645
 31
0.0
  0
LINE
  5
2D1
330
1D
100
AcDbEntity
  8
0
100
AcDbLine
 10
104.247
 20
17.77235
 30
0.0
 11
105.243
 21
19.04035
 31
0.0
  0
LINE
  5
2D4
330
1D
100
AcDbEntity
  8
0
100
AcDbLine
 10
103.2637
 20
18.94635
 30
0.0
 11
104.1458
 21
20.03965
 31
0.0
  0
LINE
  5
2DB
330
1D
100
AcDbEntity
  8
0
100
AcDbLine
 10
104.2471
 20
17.77215
 30
0.0
 11
105.243
 21
19.04035
 31
0.0
  0
LINE
  5
2DC
330
1D
100
AcDbEntity
  8
0
100
AcDbLine
 10
106.0137
 20
19.91295
 30
0.0
 11
106.6347
 21
20.55495
 31
0.0
  0
LINE
  5
2DD
330
1D
100
AcDbEntity
  8
0
100
AcDbLine
 10
105.243
 20
19.04035
 30
0.0
 11
106.0138
 21
19.91305
 31
0.0
  0
LINE
  5
2DE
330
1D
100
AcDbEntity
  8
0
100
AcDbLine
 10
105.243
 20
19.04035
 30
0.0
 11
106.0137
 21
19.91295
 31
0.0
  0
LINE
  5
2DF
330
1D
100
AcDbEntity
  8
0
100
AcDbLine
 10
104.1458
 20
20.03965
 30
0.0
 11
105.6699
 21
21.67095
 31
0.0
  0
LINE
  5
2E7
330
1D
100
AcDbEntity
  8
0
100
AcDbLine
 10
106.0138
 20
19.91305
 30
0.0
 11
106.6345
 21
20.55505
 31
0.0
  0
LINE
  5
2E8
330
1D
100
AcDbEntity
  8
0
100
AcDbLine
 10
106.6347
 20
20.55495
 30
0.0
 11
106.8253
 21
20.74255
 31
0.0
  0
LINE
  5
2E9
330
1D
100
AcDbEntity
  8
0
100
AcDbLine
 10
107.8094
 20
21.64565
 30
0.0
 11
108.5138
 21
22.22475
 31
0.0
  0
LINE
  5
2EA
330
1D
100
AcDbEntity
  8
0
100
AcDbLine
 10
106.8253
 20
20.74255
 30
0.0
 11
107.8093
 21
21.64575
 31
0.0
  0
LINE
  5
2EB
330
1D
100
AcDbEntity
  8
0
100
AcDbLine
 10
106.8253
 20
20.74255
 30
0.0
 11
107.8094
 21
21.64565
 31
0.0
  0
LINE
  5
2EC
330
1D
100
AcDbEntity
  8
0
100
AcDbLine
 10
106.6345
 20
20.55505
 30
0.0
 11
106.8253
 21
20.74255
 31
0.0
  0
LINE
  5
2ED
330
1D
100
AcDbEntity
  8
0
100
AcDbLine
 10
106.6113
 20
22.53375
 30
0.0
 11
107.3497
 21
23.14085
 31
0.0
  0
LINE
  5
2EE
330
1D
100
AcDbEntity
  8
0
100
AcDbLine
 10
107.3497
 20
23.14075
 30
0.0
 11
108.0533
 21
23.66475
 31
0.0
  0
LINE
  5
2EF
330
1D
100
AcDbEntity
  8
0
100
AcDbLine
 10
106.6113
 20
22.53385
 30
0.0
 11
107.3497
 21
23.14075
 31
0.0
  0
LINE
  5
2F0
330
1D
100
AcDbEntity
  8
0
100
AcDbLine
 10
105.6699
 20
21.67095
 30
0.0
 11
106.6113
 21
22.53385
 31
0.0
  0
LINE
  5
2F1
330
1D
100
AcDbEntity
  8
0
100
AcDbLine
 10
105.6699
 20
21.67095
 30
0.0
 11
106.6113
 21
22.53375
 31
0.0
  0
LINE
  5
2F4
330
1D
100
AcDbEntity
  8
0
100
AcDbLine
 10
108.5138
 20
22.22475
 30
0.0
 11
109.4718
 21
22.92365
 31
0.0
  0
LINE
  5
2F7
330
1D
100
AcDbEntity
  8
0
100
AcDbLine
 10
108.0532
 20
23.66485
 30
0.0
 11
108.8696
 21
24.21065
 31
0.0
  0
LINE
  5
2F8
330
1D
100
AcDbEntity
  8
0
100
AcDbLine
 10
108.0533
 20
23.66475
 30
0.0
 11
108.8697
 21
24.21055
 31
0.0
  0
LINE
  5
2F9
330
1D
100
AcDbEntity
  8
0
100
AcDbLine
 10
107.3497
 20
23.14085
 30
0.0
 11
108.0532
 21
23.66485
 31
0.0
  0
LINE
  5
2FA
330
1D
100
AcDbEntity
  8
0
100
AcDbLine
 10
107.8093
 20
21.64575
 30
0.0
 11
108.5138
 21
22.22495
 31
0.0
  0
LINE
  5
2FB
330
1D
100
AcDbEntity
  8
0
100
AcDbLine
 10
108.8696
 20
24.21065
 30
0.0
 11
109.7822
 21
24.74485
 31
0.0
  0
LINE
  5
2FC
330
1D
100
AcDbEntity
  8
0
100
AcDbLine
 10
108.5138
 20
22.22495
 30
0.0
 11
109.4718
 21
22.92365
 31
0.0
  0
LINE
  5
2FF
330
1D
100
AcDbEntity
  8
0
100
AcDbLine
 10
109.7822
 20
24.74485
 30
0.0
 11
110.6943
 21
25.20295
 31
0.0
  0
LINE
  5
301
330
1D
100
AcDbEntity
  8
0
100
AcDbLine
 10
110.2347
 20
23.41285
 30
0.0
 11
110.9674
 21
23.82775
 31
0.0
  0
LINE
  5
302
330
1D
100
AcDbEntity
  8
0
100
AcDbLine
 10
110.9674
 20
23.82775
 30
0.0
 11
111.8089
 21
24.23995
 31
0.0
  0
LINE
  5
307
330
1D
100
AcDbEntity
  8
0
100
AcDbLine
 10
110.2346
 20
23.41285
 30
0.0
 11
110.9675
 21
23.82755
 31
0.0
  0
LINE
  5
308
330
1D
100
AcDbEntity
  8
0
100
AcDbLine
 10
109.7823
 20
24.74485
 30
0.0
 11
110.6944
 21
25.20285
 31
0.0
  0
LINE
  5
309
330
1D
100
AcDbEntity
  8
0
100
AcDbLine
 10
109.4718
 20
22.92365
 30
0.0
 11
110.2346
 21
23.41285
 31
0.0
  0
LINE
  5
30A
330
1D
100
AcDbEntity
  8
0
100
AcDbLine
 10
109.4718
 20
22.92365
 30
0.0
 11
110.2347
 21
23.41285
 31
0.0
  0
LINE
  5
30B
330
1D
100
AcDbEntity
  8
0
100
AcDbLine
 10
111.8089
 20
24.23995
 30
0.0
 11
112.6617
 21
24.58655
 31
0.0
  0
LINE
  5
30F
330
1D
100
AcDbEntity
  8
0
100
AcDbLine
 10
111.8089
 20
24.24005
 30
0.0
 11
112.6619
 21
24.58655
 31
0.0
  0
LINE
  5
310
330
1D
100
AcDbEntity
  8
0
100
AcDbLine
 10
112.6617
 20
24.58655
 30
0.0
 11
113.2927
 21
24.79965
 31
0.0
  0
LINE
  5
322
330
1D
100
AcDbEntity
  8
0
100
AcDbLine
 10
112.6619
 20
24.58655
 30
0.0
 11
113.2926
 21
24.79945
 31
0.0
  0
LINE
  5
323
330
1D
100
AcDbEntity
  8
0
100
AcDbLine
 10
110.9675
 20
23.82755
 30
0.0
 11
111.8089
 21
24.24005
 31
0.0
  0
LINE
  5
325
330
1D
100
AcDbEntity
  8
0
100
AcDbLine
 10
108.8697
 20
24.21055
 30
0.0
 11
109.7823
 21
24.74485
 31
0.0
  0
LINE
  5
326
330
1D
100
AcDbEntity
  8
0
100
AcDbLine
 10
111.3392
 20
25.48285
 30
0.0
 11
111.8682
 21
25.68625
 31
0.0
  0
LINE
  5
327
330
1D
100
AcDbEntity
  8
0
100
AcDbLine
 10
110.6943
 20
25.20295
 30
0.0
 11
111.3392
 21
25.48285
 31
0.0
  0
LINE
  5
328
330
1D
100
AcDbEntity
  8
0
100
AcDbLine
 10
110.6944
 20
25.20285
 30
0.0
 11
111.3393
 21
25.48275
 31
0.0
  0
LINE
  5
32A
330
1D
100
AcDbEntity
  8
0
100
AcDbLine
 10
111.8682
 20
25.68625
 30
0.0
 11
112.6114
 21
25.93275
 31
0.0
  0
LINE
  5
32F
330
1D
100
AcDbEntity
  8
0
100
AcDbLine
 10
111.3393
 20
25.48275
 30
0.0
 11
111.8681
 21
25.68635
 31
0.0
  0
LINE
  5
330
330
1D
100
AcDbEntity
  8
0
100
AcDbLine
 10
111.8681
 20
25.68635
 30
0.0
 11
112.6113
 21
25.93295
 31
0.0
  0
LINE
  5
332
330
1D
100
AcDbEntity
  8
0
100
AcDbLine
 10
113.2927
 20
24.79965
 30
0.0
 11
113.616
 21
24.89465
 31
0.0
  0
LINE
  5
335
330
1D
100
AcDbEntity
  8
0
100
AcDbLine
 10
113.2926
 20
24.79945
 30
0.0
 11
113.6159
 21
24.89475
 31
0.0
  0
LINE
  5
336
330
1D
100
AcDbEntity
  8
0
100
AcDbLine
 10
113.616
 20
24.89465
 30
0.0
 11
114.4524
 21
25.09385
 31
0.0
  0
LINE
  5
33B
330
1D
100
AcDbEntity
  8
0
100
AcDbLine
 10
115.0012
 20
25.18895
 30
0.0
 11
115.8811
 21
25.28075
 31
0.0
  0
LINE
  5
33C
330
1D
100
AcDbEntity
  8
0
100
AcDbLine
 10
115.8811
 20
25.28075
 30
0.0
 11
116.4879
 21
25.30125
 31
0.0
  0
LINE
  5
33F
330
1D
100
AcDbEntity
  8
0
100
AcDbLine
 10
115.8813
 20
25.28055
 30
0.0
 11
116.4876
 21
25.30145
 31
0.0
  0
LINE
  5
34D
330
1D
100
AcDbEntity
  8
0
100
AcDbLine
 10
114.4524
 20
25.09385
 30
0.0
 11
115.0015
 21
25.18915
 31
0.0
  0
LINE
  5
34F
330
1D
100
AcDbEntity
  8
0
100
AcDbLine
 10
113.6159
 20
24.89475
 30
0.0
 11
114.4524
 21
25.09385
 31
0.0
  0
LINE
  5
350
330
1D
100
AcDbEntity
  8
0
100
AcDbLine
 10
112.6113
 20
25.93295
 30
0.0
 11
113.2887
 21
26.11855
 31
0.0
  0
LINE
  5
353
330
1D
100
AcDbEntity
  8
0
100
AcDbLine
 10
113.2887
 20
26.11875
 30
0.0
 11
113.6854
 21
26.21075
 31
0.0
  0
LINE
  5
354
330
1D
100
AcDbEntity
  8
0
100
AcDbLine
 10
114.1017
 20
26.29395
 30
0.0
 11
114.5415
 21
26.36685
 31
0.0
  0
LINE
  5
356
330
1D
100
AcDbEntity
  8
0
100
AcDbLine
 10
113.2887
 20
26.11855
 30
0.0
 11
113.6854
 21
26.21075
 31
0.0
  0
LINE
  5
357
330
1D
100
AcDbEntity
  8
0
100
AcDbLine
 10
114.5416
 20
26.36685
 30
0.0
 11
114.9461
 21
26.42085
 31
0.0
  0
LINE
  5
35A
330
1D
100
AcDbEntity
  8
0
100
AcDbLine
 10
114.9461
 20
26.42085
 30
0.0
 11
115.3604
 21
26.46315
 31
0.0
  0
LINE
  5
35F
330
1D
100
AcDbEntity
  8
0
100
AcDbLine
 10
112.6114
 20
25.93275
 30
0.0
 11
113.2887
 21
26.11875
 31
0.0
  0
LINE
  5
360
330
1D
100
AcDbEntity
  8
0
100
AcDbLine
 10
115.3605
 20
26.46325
 30
0.0
 11
115.7881
 21
26.49335
 31
0.0
  0
LINE
  5
387
330
1D
100
AcDbEntity
  8
0
100
AcDbLine
 10
115.7881
 20
26.49335
 30
0.0
 11
116.1538
 21
26.50805
 31
0.0
  0
LINE
  5
388
330
1D
100
AcDbEntity
  8
0
100
AcDbLine
 10
116.1538
 20
26.50805
 30
0.0
 11
116.8462
 21
26.50805
 31
0.0
  0
LINE
  5
3BD
330
1D
100
AcDbEntity
  8
0
100
AcDbLine
 10
92.674
 20
62.92535
 30
0.0
 11
93.822150127686
 21
61.16105
 31
0.0
  0
LINE
  5
3C4
330
1D
100
AcDbEntity
  8
0
100
AcDbLine
 10
92.9545
 20
61.16105
 30
0.0
 11
93.5826
 21
61.16105
 31
0.0
  0
LINE
  5
3C5
330
1D
100
AcDbEntity
  8
0
100
AcDbLine
 10
92.9545
 20
61.16105
 30
0.0
 11
93.5822
 21
61.16105
 31
0.0
  0
LINE
  5
3D1
330
1D
100
AcDbEntity
  8
0
100
AcDbLine
 10
92.9088
 20
77.01105
 30
0.0
 11
93.0919
 21
77.01105
 31
0.0
  0
LINE
  5
3D2
330
1D
100
AcDbEntity
  8
0
100
AcDbLine
 10
93.6584
 20
77.01105
 30
0.0
 11
93.9305
 21
77.01105
 31
0.0
  0
LINE
  5
3D7
330
1D
100
AcDbEntity
  8
0
100
AcDbLine
 10
93.9305
 20
77.01105
 30
0.0
 11
94.7722
 21
77.01105
 31
0.0
  0
LINE
  5
3D8
330
1D
100
AcDbEntity
  8
0
100
AcDbLine
 10
93.0919
 20
77.01105
 30
0.0
 11
93.6584
 21
77.01105
 31
0.0
  0
LINE
  5
433
330
1D
100
AcDbEntity
  8
0
100
AcDbLine
 10
94.7722
 20
77.01105
 30
0.0
 11
95.1288
 21
77.01105
 31
0.0
  0
LINE
  5
434
330
1D
100
AcDbEntity
  8
0
100
AcDbLine
 10
98.0156
 20
77.01105
 30
0.0
 11
98.5234
 21
77.01105
 31
0.0
  0
LINE
  5
435
330
1D
100
AcDbEntity
  8
0
100
AcDbLine
 10
96.232
 20
77.01105
 30
0.0
 11
96.6677
 21
77.01105
 31
0.0
  0
LINE
  5
436
330
1D
100
AcDbEntity
  8
0
100
AcDbLine
 10
102.4356
 20
77.01105
 30
0.0
 11
103.0627
 21
77.01105
 31
0.0
  0
LINE
  5
437
330
1D
100
AcDbEntity
  8
0
100
AcDbLine
 10
100.0944
 20
77.01105
 30
0.0
 11
100.6663
 21
77.01105
 31
0.0
  0
LINE
  5
438
330
1D
100
AcDbEntity
  8
0
100
AcDbLine
 10
107.7545
 20
77.01105
 30
0.0
 11
108.4615
 21
77.01105
 31
0.0
  0
LINE
  5
439
330
1D
100
AcDbEntity
  8
0
100
AcDbLine
 10
105.0027
 20
77.01105
 30
0.0
 11
105.6749
 21
77.01105
 31
0.0
  0
LINE
  5
43A
330
1D
100
AcDbEntity
  8
0
100
AcDbLine
 10
113.6382
 20
77.01105
 30
0.0
 11
114.3806
 21
77.01105
 31
0.0
  0
LINE
  5
43B
330
1D
100
AcDbEntity
  8
0
100
AcDbLine
 10
110.6485
 20
77.01105
 30
0.0
 11
111.3789
 21
77.01105
 31
0.0
  0
LINE
  5
43C
330
1D
100
AcDbEntity
  8
0
100
AcDbLine
 10
114.3806
 20
77.01105
 30
0.0
 11
116.6772
 21
77.01105
 31
0.0
  0
LINE
  5
43D
330
1D
100
AcDbEntity
  8
0
100
AcDbLine
 10
111.3789
 20
77.01105
 30
0.0
 11
113.6382
 21
77.01105
 31
0.0
  0
LINE
  5
43E
330
1D
100
AcDbEntity
  8
0
100
AcDbLine
 10
108.4615
 20
77.01105
 30
0.0
 11
110.6485
 21
77.01105
 31
0.0
  0
LINE
  5
43F
330
1D
100
AcDbEntity
  8
0
100
AcDbLine
 10
105.6749
 20
77.01105
 30
0.0
 11
107.7545
 21
77.01105
 31
0.0
  0
LINE
  5
440
330
1D
100
AcDbEntity
  8
0
100
AcDbLine
 10
103.0627
 20
77.01105
 30
0.0
 11
105.0027
 21
77.01105
 31
0.0
  0
LINE
  5
441
330
1D
100
AcDbEntity
  8
0
100
AcDbLine
 10
100.6663
 20
77.01105
 30
0.0
 11
102.4356
 21
77.01105
 31
0.0
  0
LINE
  5
442
330
1D
100
AcDbEntity
  8
0
100
AcDbLine
 10
98.5234
 20
77.01105
 30
0.0
 11
100.0944
 21
77.01105
 31
0.0
  0
LINE
  5
465
330
1D
100
AcDbEntity
  8
0
100
AcDbLine
 10
96.6677
 20
77.01105
 30
0.0
 11
98.0156
 21
77.01105
 31
0.0
  0
LINE
  5
466
330
1D
100
AcDbEntity
  8
0
100
AcDbLine
 10
95.1288
 20
77.01105
 30
0.0
 11
96.232
 21
77.01105
 31
0.0
  0
LINE
  5
473
330
1D
100
AcDbEntity
  8
0
100
AcDbLine
 10
116.6772
 20
77.01105
 30
0.0
 11
117.4198
 21
77.01105
 31
0.0
  0
LINE
  5
474
330
1D
100
AcDbEntity
  8
0
100
AcDbLine
 10
122.7096
 20
77.01105
 30
0.0
 11
123.4178
 21
77.01105
 31
0.0
  0
LINE
  5
475
330
1D
100
AcDbEntity
  8
0
100
AcDbLine
 10
119.7172
 20
77.01105
 30
0.0
 11
120.4482
 21
77.01105
 31
0.0
  0
LINE
  5
476
330
1D
100
AcDbEntity
  8
0
100
AcDbLine
 10
123.4178
 20
77.01105
 30
0.0
 11
125.6086
 21
77.01105
 31
0.0
  0
LINE
  5
495
330
1D
100
AcDbEntity
  8
0
100
AcDbLine
 10
120.4482
 20
77.01105
 30
0.0
 11
122.7096
 21
77.01105
 31
0.0
  0
LINE
  5
496
330
1D
100
AcDbEntity
  8
0
100
AcDbLine
 10
117.4198
 20
77.01105
 30
0.0
 11
119.7172
 21
77.01105
 31
0.0
  0
LINE
  5
498
330
1D
100
AcDbEntity
  8
0
100
AcDbLine
 10
125.6086
 20
77.01105
 30
0.0
 11
126.2826
 21
77.01105
 31
0.0
  0
LINE
  5
4F7
330
1D
100
AcDbEntity
  8
0
100
AcDbLine
 10
128.3676
 20
77.01105
 30
0.0
 11
130.6689
 21
77.01105
 31
0.0
  0
LINE
  5
53F
330
1D
100
AcDbEntity
  8
0
100
AcDbLine
 10
130.9429
 20
77.01105
 30
0.0
 11
131.193
 21
77.01105
 31
0.0
  0
LINE
  5
540
330
1D
100
AcDbEntity
  8
0
100
AcDbLine
 10
130.6689
 20
77.01105
 30
0.0
 11
130.9429
 21
77.01105
 31
0.0
  0
LINE
  5
541
330
1D
100
AcDbEntity
  8
0
100
AcDbLine
 10
131.193
 20
77.01105
 30
0.0
 11
133.295
 21
77.01105
 31
0.0
  0
LINE
  5
5D1
330
1D
100
AcDbEntity
  8
0
100
AcDbLine
 10
133.295
 20
77.01105
 30
0.0
 11
133.517
 21
77.01105
 31
0.0
  0
LINE
  5
5D2
330
1D
100
AcDbEntity
  8
0
100
AcDbLine
 10
135.385
 20
77.01105
 30
0.0
 11
135.576
 21
77.01105
 31
0.0
  0
LINE
  5
5D4
330
1D
100
AcDbEntity
  8
0
100
AcDbLine
 10
137.182
 20
77.01105
 30
0.0
 11
137.339
 21
77.01105
 31
0.0
  0
LINE
  5
5D6
330
1D
100
AcDbEntity
  8
0
100
AcDbLine
 10
133.517
 20
77.01105
 30
0.0
 11
135.385
 21
77.01105
 31
0.0
  0
LINE
  5
5D7
330
1D
100
AcDbEntity
  8
0
100
AcDbLine
 10
135.576
 20
77.01105
 30
0.0
 11
137.182
 21
77.01105
 31
0.0
  0
LINE
  5
5D8
330
1D
100
AcDbEntity
  8
0
100
AcDbLine
 10
137.339
 20
77.01105
 30
0.0
 11
138.656
 21
77.01105
 31
0.0
  0
LINE
  5
5E1
330
1D
100
AcDbEntity
  8
0
100
AcDbLine
 10
138.656
 20
77.01105
 30
0.0
 11
138.776
 21
77.01105
 31
0.0
  0
LINE
  5
5E3
330
1D
100
AcDbEntity
  8
0
100
AcDbLine
 10
139.785
 20
77.01105
 30
0.0
 11
139.866
 21
77.01105
 31
0.0
  0
LINE
  5
5E5
330
1D
100
AcDbEntity
  8
0
100
AcDbLine
 10
138.776
 20
77.01105
 30
0.0
 11
139.785
 21
77.01105
 31
0.0
  0
LINE
  5
5E6
330
1D
100
AcDbEntity
  8
0
100
AcDbLine
 10
139.866
 20
77.01105
 30
0.0
 11
140.549
 21
77.01105
 31
0.0
  0
LINE
  5
602
330
1D
100
AcDbEntity
  8
0
100
AcDbLine
 10
140.591
 20
77.01105
 30
0.0
 11
140.939
 21
77.01105
 31
0.0
  0
LINE
  5
603
330
1D
100
AcDbEntity
  8
0
100
AcDbLine
 10
140.948
 20
77.01105
 30
0.0
 11
200.75
 21
77.01105
 31
0.0
  0
LINE
  5
60A
330
1D
100
AcDbEntity
  8
0
100
AcDbLine
 10
200.75
 20
77.01105
 30
0.0
 11
201.45
 21
77.31105
 31
0.0
  0
LINE
  5
6A9
330
1D
100
AcDbEntity
  8
0
100
AcDbLine
 10
201.75
 20
78.01105
 30
0.0
 11
201.75
 21
98.01105
 31
0.0
  0
LINE
  5
6AA
330
1D
100
AcDbEntity
  8
0
100
AcDbLine
 10
201.75
 20
98.01105
 30
0.0
 11
201.75
 21
78.01105
 31
0.0
  0
LINE
  5
6AC
330
1D
100
AcDbEntity
  8
0
100
AcDbLine
 10
201.45
 20
98.01105
 30
0.0
 11
201.75
 21
98.01105
 31
0.0
  0
LINE
  5
6AE
330
1D
100
AcDbEntity
  8
0
100
AcDbLine
 10
200.75
 20
98.01105
 30
0.0
 11
201.45
 21
98.01105
 31
0.0
  0
LINE
  5
6AF
330
1D
100
AcDbEntity
  8
0
100
AcDbLine
 10
126.2826
 20
77.01105
 30
0.0
 11
128.3675
 21
77.01105
 31
0.0
  0
LINE
  5
6D8
330
1D
100
AcDbEntity
  8
0
100
AcDbLine
 10
201.45
 20
77.31105
 30
0.0
 11
201.75
 21
78.01105
 31
0.0
  0
LINE
  5
6DA
330
1D
100
AcDbEntity
  8
0
100
AcDbLine
 10
99.7027
 20
8.16385
 30
0.0
 11
99.3056
 21
10.40475
 31
0.0
  0
LINE
  5
6DB
330
1D
100
AcDbEntity
  8
0
100
AcDbLine
 10
113.6854
 20
26.21075
 30
0.0
 11
114.1017
 21
26.29395
 31
0.0
  0
LINE
  5
6DC
330
1D
100
AcDbEntity
  8
0
100
AcDbLine
 10
95.4928
 20
32.10785
 30
0.0
 11
93.4512
 21
47.64455
 31
0.0
  0
LINE
  5
6DD
330
1D
100
AcDbEntity
  8
0
100
AcDbLine
 10
141.1106
 20
58.85515
 30
0.0
 11
140.8906
 21
56.76125
 31
0.0
  0
LINE
  5
6DE
330
1D
100
AcDbEntity
  8
0
100
AcDbLine
 10
141.25
 20
60.85475
 30
0.0
 11
141.1106
 21
58.85515
 31
0.0
  0
LINE
  5
6DF
330
1D
100
AcDbEntity
  8
0
100
AcDbLine
 10
130.1648
 20
3.60585
 30
0.0
 11
129.4167
 21
3.03765
 31
0.0
  0
LINE
  5
6E0
330
1D
100
AcDbEntity
  8
0
100
AcDbLine
 10
130.1648
 20
3.60565
 30
0.0
 11
129.4165
 21
3.03775
 31
0.0
  0
LINE
  5
6E1
330
1D
100
AcDbEntity
  8
0
100
AcDbLine
 10
129.8434
 20
3.15945
 30
0.0
 11
129.5711
 21
2.96835
 31
0.0
  0
LINE
  5
6E2
330
1D
100
AcDbEntity
  8
0
100
AcDbLine
 10
130.8472
 20
14.40795
 30
0.0
 11
129.6501
 21
16.46405
 31
0.0
  0
LINE
  5
6E3
330
1D
100
AcDbEntity
  8
0
100
AcDbLine
 10
130.7419
 20
17.53435
 30
0.0
 11
129.7363
 21
18.94635
 31
0.0
  0
LINE
  5
6E4
330
1D
100
AcDbEntity
  8
0
100
AcDbLine
 10
130.7419
 20
17.53405
 30
0.0
 11
129.7363
 21
18.94645
 31
0.0
  0
LINE
  5
6E5
330
1D
100
AcDbEntity
  8
0
100
AcDbLine
 10
140.1796
 20
52.08215
 30
0.0
 11
139.8323
 21
49.84945
 31
0.0
  0
LINE
  5
6E6
330
1D
100
AcDbEntity
  8
0
100
AcDbLine
 10
136.5833
 20
25.93355
 30
0.0
 11
136.3352
 21
24.40655
 31
0.0
  0
LINE
  5
6E7
330
1D
100
AcDbEntity
  8
0
100
AcDbLine
 10
133.3117
 20
12.25875
 30
0.0
 11
133.1002
 21
12.97885
 31
0.0
  0
LINE
  5
6E8
330
1D
100
AcDbEntity
  8
0
100
AcDbLine
 10
133.3117
 20
12.25845
 30
0.0
 11
133.1002
 21
12.97865
 31
0.0
  0
LINE
  5
6E9
330
1D
100
AcDbEntity
  8
0
100
AcDbLine
 10
131.7579
 20
12.47685
 30
0.0
 11
131.0335
 21
14.05035
 31
0.0
  0
LINE
  5
6EA
330
1D
100
AcDbEntity
  8
0
100
AcDbLine
 10
131.7581
 20
12.47685
 30
0.0
 11
131.0337
 21
14.05055
 31
0.0
  0
LINE
  5
6EB
330
1D
100
AcDbEntity
  8
0
100
AcDbLine
 10
134.5786
 20
14.99105
 30
0.0
 11
133.8678
 21
11.32295
 31
0.0
  0
LINE
  5
6EC
330
1D
100
AcDbEntity
  8
0
100
AcDbLine
 10
134.5786
 20
14.99115
 30
0.0
 11
133.8677
 21
11.32265
 31
0.0
  0
LINE
  5
6ED
330
1D
100
AcDbEntity
  8
0
100
AcDbLine
 10
132.855
 20
6.57285
 30
0.0
 11
132.5566
 21
5.97355
 31
0.0
  0
LINE
  5
6EE
330
1D
100
AcDbEntity
  8
0
100
AcDbLine
 10
132.4042
 20
7.01575
 30
0.0
 11
132.1537
 21
6.20175
 31
0.0
  0
LINE
  5
6EF
330
1D
100
AcDbEntity
  8
0
100
AcDbLine
 10
132.4043
 20
7.01555
 30
0.0
 11
132.1537
 21
6.20185
 31
0.0
  0
LINE
  5
6F0
330
1D
100
AcDbEntity
  8
0
100
AcDbLine
 10
130.8922
 20
4.28855
 30
0.0
 11
130.1648
 21
3.60565
 31
0.0
  0
LINE
  5
6F1
330
1D
100
AcDbEntity
  8
0
100
AcDbLine
 10
131.6935
 20
4.75395
 30
0.0
 11
131.2392
 21
4.26935
 31
0.0
  0
LINE
  5
6F2
330
1D
100
AcDbEntity
  8
0
100
AcDbLine
 10
131.2392
 20
4.26935
 30
0.0
 11
130.7018
 21
3.78185
 31
0.0
  0
LINE
  5
6F3
330
1D
100
AcDbEntity
  8
0
100
AcDbLine
 10
130.7018
 20
3.78185
 30
0.0
 11
129.8434
 21
3.15945
 31
0.0
  0
LINE
  5
6F4
330
1D
100
AcDbEntity
  8
0
100
AcDbLine
 10
132.0772
 20
5.24315
 30
0.0
 11
131.6935
 21
4.75395
 31
0.0
  0
LINE
  5
6F5
330
1D
100
AcDbEntity
  8
0
100
AcDbLine
 10
132.1537
 20
6.20185
 30
0.0
 11
131.8243
 21
5.52625
 31
0.0
  0
LINE
  5
6F6
330
1D
100
AcDbEntity
  8
0
100
AcDbLine
 10
132.1537
 20
6.20175
 30
0.0
 11
131.8245
 21
5.52615
 31
0.0
  0
LINE
  5
6F7
330
1D
100
AcDbEntity
  8
0
100
AcDbLine
 10
132.5566
 20
5.97355
 30
0.0
 11
132.2493
 21
5.50405
 31
0.0
  0
LINE
  5
6F8
330
1D
100
AcDbEntity
  8
0
100
AcDbLine
 10
132.2493
 20
5.50405
 30
0.0
 11
132.0772
 21
5.24315
 31
0.0
  0
LINE
  5
6F9
330
1D
100
AcDbEntity
  8
0
100
AcDbLine
 10
131.5239
 20
5.05565
 30
0.0
 11
130.8921
 21
4.28875
 31
0.0
  0
LINE
  5
6FA
330
1D
100
AcDbEntity
  8
0
100
AcDbLine
 10
131.8243
 20
5.52625
 30
0.0
 11
131.5239
 21
5.05555
 31
0.0
  0
LINE
  5
6FB
330
1D
100
AcDbEntity
  8
0
100
AcDbLine
 10
131.5239
 20
5.05555
 30
0.0
 11
130.8922
 21
4.28855
 31
0.0
  0
LINE
  5
6FC
330
1D
100
AcDbEntity
  8
0
100
AcDbLine
 10
131.8245
 20
5.52615
 30
0.0
 11
131.5239
 21
5.05565
 31
0.0
  0
LINE
  5
6FD
330
1D
100
AcDbEntity
  8
0
100
AcDbLine
 10
133.0653
 20
7.17495
 30
0.0
 11
132.855
 21
6.57285
 31
0.0
  0
LINE
  5
6FE
330
1D
100
AcDbEntity
  8
0
100
AcDbLine
 10
133.2973
 20
8.16385
 30
0.0
 11
133.6944
 21
10.40475
 31
0.0
  0
LINE
  5
6FF
330
1D
100
AcDbEntity
  8
0
100
AcDbLine
 10
133.235
 20
7.84915
 30
0.0
 11
133.0653
 21
7.17495
 31
0.0
  0
LINE
  5
700
330
1D
100
AcDbEntity
  8
0
100
AcDbLine
 10
133.2973
 20
8.16385
 30
0.0
 11
133.235
 21
7.84915
 31
0.0
  0
LINE
  5
701
330
1D
100
AcDbEntity
  8
0
100
AcDbLine
 10
133.5584
 20
10.53435
 30
0.0
 11
133.4592
 21
11.55465
 31
0.0
  0
LINE
  5
702
330
1D
100
AcDbEntity
  8
0
100
AcDbLine
 10
133.5584
 20
10.53445
 30
0.0
 11
133.4592
 21
11.55435
 31
0.0
  0
LINE
  5
703
330
1D
100
AcDbEntity
  8
0
100
AcDbLine
 10
133.8678
 20
11.32295
 30
0.0
 11
133.6944
 21
10.40445
 31
0.0
  0
LINE
  5
704
330
1D
100
AcDbEntity
  8
0
100
AcDbLine
 10
133.5578
 20
10.09905
 30
0.0
 11
133.5492
 21
9.90595
 31
0.0
  0
LINE
  5
705
330
1D
100
AcDbEntity
  8
0
100
AcDbLine
 10
133.5578
 20
10.09885
 30
0.0
 11
133.5493
 21
9.90615
 31
0.0
  0
LINE
  5
706
330
1D
100
AcDbEntity
  8
0
100
AcDbLine
 10
133.5493
 20
9.90615
 30
0.0
 11
133.5374
 21
9.73205
 31
0.0
  0
LINE
  5
707
330
1D
100
AcDbEntity
  8
0
100
AcDbLine
 10
133.5584
 20
10.53435
 30
0.0
 11
133.5578
 21
10.09885
 31
0.0
  0
LINE
  5
708
330
1D
100
AcDbEntity
  8
0
100
AcDbLine
 10
133.5584
 20
10.53445
 30
0.0
 11
133.5578
 21
10.09905
 31
0.0
  0
LINE
  5
709
330
1D
100
AcDbEntity
  8
0
100
AcDbLine
 10
133.5492
 20
9.90595
 30
0.0
 11
133.5374
 21
9.73195
 31
0.0
  0
LINE
  5
70A
330
1D
100
AcDbEntity
  8
0
100
AcDbLine
 10
133.4592
 20
11.55465
 30
0.0
 11
133.3117
 21
12.25875
 31
0.0
  0
LINE
  5
70B
330
1D
100
AcDbEntity
  8
0
100
AcDbLine
 10
133.4592
 20
11.55435
 30
0.0
 11
133.3117
 21
12.25845
 31
0.0
  0
LINE
  5
70C
330
1D
100
AcDbEntity
  8
0
100
AcDbLine
 10
132.5583
 20
7.90395
 30
0.0
 11
132.4042
 21
7.01575
 31
0.0
  0
LINE
  5
70D
330
1D
100
AcDbEntity
  8
0
100
AcDbLine
 10
132.5582
 20
7.90405
 30
0.0
 11
132.4043
 21
7.01555
 31
0.0
  0
LINE
  5
70E
330
1D
100
AcDbEntity
  8
0
100
AcDbLine
 10
132.5107
 20
9.65765
 30
0.0
 11
132.2425
 21
11.03795
 31
0.0
  0
LINE
  5
70F
330
1D
100
AcDbEntity
  8
0
100
AcDbLine
 10
132.2425
 20
11.03795
 30
0.0
 11
131.7579
 21
12.47685
 31
0.0
  0
LINE
  5
710
330
1D
100
AcDbEntity
  8
0
100
AcDbLine
 10
132.2423
 20
11.03805
 30
0.0
 11
131.7581
 21
12.47685
 31
0.0
  0
LINE
  5
711
330
1D
100
AcDbEntity
  8
0
100
AcDbLine
 10
132.5836
 20
8.50445
 30
0.0
 11
132.5109
 21
9.65765
 31
0.0
  0
LINE
  5
712
330
1D
100
AcDbEntity
  8
0
100
AcDbLine
 10
132.5836
 20
8.50445
 30
0.0
 11
132.5582
 21
7.90405
 31
0.0
  0
LINE
  5
713
330
1D
100
AcDbEntity
  8
0
100
AcDbLine
 10
132.5836
 20
8.50425
 30
0.0
 11
132.5583
 21
7.90395
 31
0.0
  0
LINE
  5
714
330
1D
100
AcDbEntity
  8
0
100
AcDbLine
 10
136.3352
 20
24.40655
 30
0.0
 11
136.0779
 21
22.88015
 31
0.0
  0
LINE
  5
715
330
1D
100
AcDbEntity
  8
0
100
AcDbLine
 10
135.5424
 20
19.88965
 30
0.0
 11
134.9908
 21
17.04125
 31
0.0
  0
LINE
  5
716
330
1D
100
AcDbEntity
  8
0
100
AcDbLine
 10
133.1002
 20
12.97885
 30
0.0
 11
132.6606
 21
14.10435
 31
0.0
  0
LINE
  5
717
330
1D
100
AcDbEntity
  8
0
100
AcDbLine
 10
133.1002
 20
12.97865
 30
0.0
 11
132.6606
 21
14.10415
 31
0.0
  0
LINE
  5
718
330
1D
100
AcDbEntity
  8
0
100
AcDbLine
 10
131.0335
 20
14.05035
 30
0.0
 11
130.8472
 21
14.40795
 31
0.0
  0
LINE
  5
719
330
1D
100
AcDbEntity
  8
0
100
AcDbLine
 10
132.6606
 20
14.10435
 30
0.0
 11
132.1869
 21
15.08865
 31
0.0
  0
LINE
  5
71A
330
1D
100
AcDbEntity
  8
0
100
AcDbLine
 10
132.1869
 20
15.08865
 30
0.0
 11
131.6226
 21
16.11565
 31
0.0
  0
LINE
  5
71B
330
1D
100
AcDbEntity
  8
0
100
AcDbLine
 10
132.6606
 20
14.10415
 30
0.0
 11
132.1868
 21
15.08885
 31
0.0
  0
LINE
  5
71C
330
1D
100
AcDbEntity
  8
0
100
AcDbLine
 10
131.6226
 20
16.11555
 30
0.0
 11
130.7419
 21
17.53405
 31
0.0
  0
LINE
  5
71D
330
1D
100
AcDbEntity
  8
0
100
AcDbLine
 10
132.1868
 20
15.08885
 30
0.0
 11
131.6226
 21
16.11555
 31
0.0
  0
LINE
  5
71E
330
1D
100
AcDbEntity
  8
0
100
AcDbLine
 10
134.9908
 20
17.04125
 30
0.0
 11
134.5786
 21
14.99115
 31
0.0
  0
LINE
  5
71F
330
1D
100
AcDbEntity
  8
0
100
AcDbLine
 10
131.6226
 20
16.11565
 30
0.0
 11
130.7419
 21
17.53435
 31
0.0
  0
LINE
  5
720
330
1D
100
AcDbEntity
  8
0
100
AcDbLine
 10
136.0779
 20
22.88015
 30
0.0
 11
135.8133
 21
21.37095
 31
0.0
  0
LINE
  5
721
330
1D
100
AcDbEntity
  8
0
100
AcDbLine
 10
135.8133
 20
21.37095
 30
0.0
 11
135.5424
 21
19.88965
 31
0.0
  0
LINE
  5
722
330
1D
100
AcDbEntity
  8
0
100
AcDbLine
 10
137.5072
 20
32.10785
 30
0.0
 11
139.5488
 21
47.64455
 31
0.0
  0
LINE
  5
723
330
1D
100
AcDbEntity
  8
0
100
AcDbLine
 10
137.1492
 20
29.62935
 30
0.0
 11
136.8197
 21
27.44225
 31
0.0
  0
LINE
  5
724
330
1D
100
AcDbEntity
  8
0
100
AcDbLine
 10
136.8197
 20
27.44225
 30
0.0
 11
136.5833
 21
25.93355
 31
0.0
  0
LINE
  5
725
330
1D
100
AcDbEntity
  8
0
100
AcDbLine
 10
137.5072
 20
32.10785
 30
0.0
 11
137.1492
 21
29.62935
 31
0.0
  0
LINE
  5
726
330
1D
100
AcDbEntity
  8
0
100
AcDbLine
 10
139.8349
 20
49.78705
 30
0.0
 11
139.5488
 21
47.64455
 31
0.0
  0
LINE
  5
727
330
1D
100
AcDbEntity
  8
0
100
AcDbLine
 10
139.8349
 20
49.78705
 30
0.0
 11
139.8323
 21
49.84945
 31
0.0
  0
LINE
  5
728
330
1D
100
AcDbEntity
  8
0
100
AcDbLine
 10
140.4647
 20
77.01105
 30
0.0
 11
140.4647
 21
63.43375
 31
0.0
  0
LINE
  5
729
330
1D
100
AcDbEntity
  8
0
100
AcDbLine
 10
140.4647
 20
63.43375
 30
0.0
 11
140.4647
 21
77.01105
 31
0.0
  0
LINE
  5
72A
330
1D
100
AcDbEntity
  8
0
100
AcDbLine
 10
140.5673
 20
54.48575
 30
0.0
 11
140.1852
 21
52.20315
 31
0.0
  0
LINE
  5
72B
330
1D
100
AcDbEntity
  8
0
100
AcDbLine
 10
140.8906
 20
56.76125
 30
0.0
 11
140.5673
 21
54.48575
 31
0.0
  0
LINE
  5
72C
330
1D
100
AcDbEntity
  8
0
100
AcDbLine
 10
140.1852
 20
52.20315
 30
0.0
 11
140.1796
 21
52.08215
 31
0.0
  0
LINE
  5
72D
330
1D
100
AcDbEntity
  8
0
100
AcDbLine
 10
140.326
 20
62.92535
 30
0.0
 11
139.177849872314
 21
61.16105
 31
0.0
  0
LINE
  5
72E
330
1D
100
AcDbEntity
  8
0
100
AcDbLine
 10
141.0997
 20
61.11975
 30
0.0
 11
140.942
 21
61.16105
 31
0.0
  0
LINE
  5
72F
330
1D
100
AcDbEntity
  8
0
100
AcDbLine
 10
141.25
 20
60.85475
 30
0.0
 11
141.2097
 21
61.00725
 31
0.0
  0
LINE
  5
730
330
1D
100
AcDbEntity
  8
0
100
AcDbLine
 10
141.2097
 20
61.00725
 30
0.0
 11
141.0997
 21
61.11975
 31
0.0
  0
LINE
  5
731
330
1D
100
AcDbEntity
  8
0
100
AcDbLine
 10
140.8831
 20
61.16105
 30
0.0
 11
140.5088
 21
61.16105
 31
0.0
  0
LINE
  5
732
330
1D
100
AcDbEntity
  8
0
100
AcDbLine
 10
140.8833
 20
61.16105
 30
0.0
 11
140.5088
 21
61.16105
 31
0.0
  0
LINE
  5
733
330
1D
100
AcDbEntity
  8
0
100
AcDbLine
 10
140.942
 20
61.16105
 30
0.0
 11
140.8831
 21
61.16105
 31
0.0
  0
LINE
  5
734
330
1D
100
AcDbEntity
  8
0
100
AcDbLine
 10
140.942
 20
61.16105
 30
0.0
 11
140.8833
 21
61.16105
 31
0.0
  0
LINE
  5
735
330
1D
100
AcDbEntity
  8
0
100
AcDbLine
 10
140.5088
 20
61.16105
 30
0.0
 11
140.0455
 21
61.16105
 31
0.0
  0
LINE
  5
736
330
1D
100
AcDbEntity
  8
0
100
AcDbLine
 10
140.4647
 20
63.43375
 30
0.0
 11
140.3258
 21
62.92535
 31
0.0
  0
LINE
  5
737
330
1D
100
AcDbEntity
  8
0
100
AcDbLine
 10
140.0455
 20
61.16105
 30
0.0
 11
129.215972165043
 21
61.16105
 31
0.0
  0
LINE
  5
738
330
1D
100
AcDbEntity
  8
0
100
AcDbLine
 10
140.0455
 20
61.16105
 30
0.0
 11
129.216372165043
 21
61.16105
 31
0.0
  0
LINE
  5
739
330
1D
100
AcDbEntity
  8
0
100
AcDbLine
 10
121.1318
 20
25.68625
 30
0.0
 11
120.3886
 21
25.93275
 31
0.0
  0
LINE
  5
73A
330
1D
100
AcDbEntity
  8
0
100
AcDbLine
 10
121.1319
 20
25.68635
 30
0.0
 11
120.3887
 21
25.93295
 31
0.0
  0
LINE
  5
73B
330
1D
100
AcDbEntity
  8
0
100
AcDbLine
 10
117.1189
 20
25.28075
 30
0.0
 11
116.5121
 21
25.30125
 31
0.0
  0
LINE
  5
73C
330
1D
100
AcDbEntity
  8
0
100
AcDbLine
 10
117.1187
 20
25.28055
 30
0.0
 11
116.5124
 21
25.30145
 31
0.0
  0
LINE
  5
73D
330
1D
100
AcDbEntity
  8
0
100
AcDbLine
 10
123.9063
 20
0.73285
 30
0.0
 11
123.0918
 21
0.56705
 31
0.0
  0
LINE
  5
73E
330
1D
100
AcDbEntity
  8
0
100
AcDbLine
 10
126.8443
 20
1.68555
 30
0.0
 11
126.1341
 21
1.41965
 31
0.0
  0
LINE
  5
73F
330
1D
100
AcDbEntity
  8
0
100
AcDbLine
 10
127.0638
 20
1.68085
 30
0.0
 11
126.3062
 21
1.40065
 31
0.0
  0
LINE
  5
740
330
1D
100
AcDbEntity
  8
0
100
AcDbLine
 10
126.8442
 20
1.68545
 30
0.0
 11
126.1343
 21
1.41965
 31
0.0
  0
LINE
  5
741
330
1D
100
AcDbEntity
  8
0
100
AcDbLine
 10
127.4955
 20
1.96345
 30
0.0
 11
126.8443
 21
1.68555
 31
0.0
  0
LINE
  5
742
330
1D
100
AcDbEntity
  8
0
100
AcDbLine
 10
128.4597
 20
2.31545
 30
0.0
 11
127.7962
 21
1.99235
 31
0.0
  0
LINE
  5
743
330
1D
100
AcDbEntity
  8
0
100
AcDbLine
 10
129.4167
 20
3.03765
 30
0.0
 11
129.0305
 21
2.78395
 31
0.0
  0
LINE
  5
744
330
1D
100
AcDbEntity
  8
0
100
AcDbLine
 10
129.0305
 20
2.78395
 30
0.0
 11
128.0911
 21
2.25125
 31
0.0
  0
LINE
  5
745
330
1D
100
AcDbEntity
  8
0
100
AcDbLine
 10
129.4165
 20
3.03775
 30
0.0
 11
129.0304
 21
2.78385
 31
0.0
  0
LINE
  5
746
330
1D
100
AcDbEntity
  8
0
100
AcDbLine
 10
129.5711
 20
2.96835
 30
0.0
 11
128.4597
 21
2.31545
 31
0.0
  0
LINE
  5
747
330
1D
100
AcDbEntity
  8
0
100
AcDbLine
 10
128.0911
 20
2.25125
 30
0.0
 11
127.4955
 21
1.96345
 31
0.0
  0
LINE
  5
748
330
1D
100
AcDbEntity
  8
0
100
AcDbLine
 10
127.7962
 20
1.99235
 30
0.0
 11
127.0638
 21
1.68085
 31
0.0
  0
LINE
  5
749
330
1D
100
AcDbEntity
  8
0
100
AcDbLine
 10
127.4954
 20
1.96365
 30
0.0
 11
126.8442
 21
1.68545
 31
0.0
  0
LINE
  5
74A
330
1D
100
AcDbEntity
  8
0
100
AcDbLine
 10
125.4787
 20
1.13615
 30
0.0
 11
124.719
 21
0.92645
 31
0.0
  0
LINE
  5
74B
330
1D
100
AcDbEntity
  8
0
100
AcDbLine
 10
126.3062
 20
1.40065
 30
0.0
 11
125.4787
 21
1.13615
 31
0.0
  0
LINE
  5
74C
330
1D
100
AcDbEntity
  8
0
100
AcDbLine
 10
124.719
 20
0.92645
 30
0.0
 11
123.9063
 21
0.73285
 31
0.0
  0
LINE
  5
74D
330
1D
100
AcDbEntity
  8
0
100
AcDbLine
 10
123.0918
 20
0.56705
 30
0.0
 11
122.233
 21
0.41975
 31
0.0
  0
LINE
  5
74E
330
1D
100
AcDbEntity
  8
0
100
AcDbLine
 10
119.3453
 20
0.09825
 30
0.0
 11
117.8136
 21
0.01925
 31
0.0
  0
LINE
  5
74F
330
1D
100
AcDbEntity
  8
0
100
AcDbLine
 10
119.3453
 20
0.09825
 30
0.0
 11
117.8136
 21
0.01925
 31
0.0
  0
LINE
  5
750
330
1D
100
AcDbEntity
  8
0
100
AcDbLine
 10
122.233
 20
0.41975
 30
0.0
 11
120.8273
 21
0.23245
 31
0.0
  0
LINE
  5
751
330
1D
100
AcDbEntity
  8
0
100
AcDbLine
 10
120.8273
 20
0.23245
 30
0.0
 11
119.3453
 21
0.09825
 31
0.0
  0
LINE
  5
752
330
1D
100
AcDbEntity
  8
0
100
AcDbLine
 10
120.8273
 20
0.23245
 30
0.0
 11
119.3453
 21
0.09825
 31
0.0
  0
LINE
  5
753
330
1D
100
AcDbEntity
  8
0
100
AcDbLine
 10
124.1304
 20
24.21065
 30
0.0
 11
123.2178
 21
24.74485
 31
0.0
  0
LINE
  5
754
330
1D
100
AcDbEntity
  8
0
100
AcDbLine
 10
123.5282
 20
22.92365
 30
0.0
 11
122.7654
 21
23.41285
 31
0.0
  0
LINE
  5
755
330
1D
100
AcDbEntity
  8
0
100
AcDbLine
 10
123.5282
 20
22.92365
 30
0.0
 11
122.7653
 21
23.41285
 31
0.0
  0
LINE
  5
756
330
1D
100
AcDbEntity
  8
0
100
AcDbLine
 10
124.1303
 20
24.21055
 30
0.0
 11
123.2177
 21
24.74485
 31
0.0
  0
LINE
  5
757
330
1D
100
AcDbEntity
  8
0
100
AcDbLine
 10
129.7363
 20
18.94635
 30
0.0
 11
128.8542
 21
20.03965
 31
0.0
  0
LINE
  5
758
330
1D
100
AcDbEntity
  8
0
100
AcDbLine
 10
127.757
 20
19.04035
 30
0.0
 11
126.9862
 21
19.91305
 31
0.0
  0
LINE
  5
759
330
1D
100
AcDbEntity
  8
0
100
AcDbLine
 10
127.757
 20
19.04035
 30
0.0
 11
126.9863
 21
19.91295
 31
0.0
  0
LINE
  5
75A
330
1D
100
AcDbEntity
  8
0
100
AcDbLine
 10
129.6501
 20
16.46405
 30
0.0
 11
128.753
 21
17.77235
 31
0.0
  0
LINE
  5
75B
330
1D
100
AcDbEntity
  8
0
100
AcDbLine
 10
129.6502
 20
16.46425
 30
0.0
 11
128.7529
 21
17.77215
 31
0.0
  0
LINE
  5
75C
330
1D
100
AcDbEntity
  8
0
100
AcDbLine
 10
128.753
 20
17.77235
 30
0.0
 11
127.757
 21
19.04035
 31
0.0
  0
LINE
  5
75D
330
1D
100
AcDbEntity
  8
0
100
AcDbLine
 10
128.7529
 20
17.77215
 30
0.0
 11
127.757
 21
19.04035
 31
0.0
  0
LINE
  5
75E
330
1D
100
AcDbEntity
  8
0
100
AcDbLine
 10
126.9863
 20
19.91295
 30
0.0
 11
126.3653
 21
20.55495
 31
0.0
  0
LINE
  5
75F
330
1D
100
AcDbEntity
  8
0
100
AcDbLine
 10
126.9862
 20
19.91305
 30
0.0
 11
126.3655
 21
20.55505
 31
0.0
  0
LINE
  5
760
330
1D
100
AcDbEntity
  8
0
100
AcDbLine
 10
127.3301
 20
21.67095
 30
0.0
 11
126.3887
 21
22.53385
 31
0.0
  0
LINE
  5
761
330
1D
100
AcDbEntity
  8
0
100
AcDbLine
 10
127.3301
 20
21.67095
 30
0.0
 11
126.3887
 21
22.53375
 31
0.0
  0
LINE
  5
762
330
1D
100
AcDbEntity
  8
0
100
AcDbLine
 10
128.8542
 20
20.03965
 30
0.0
 11
127.3301
 21
21.67095
 31
0.0
  0
LINE
  5
763
330
1D
100
AcDbEntity
  8
0
100
AcDbLine
 10
126.3653
 20
20.55495
 30
0.0
 11
126.1747
 21
20.74255
 31
0.0
  0
LINE
  5
764
330
1D
100
AcDbEntity
  8
0
100
AcDbLine
 10
125.1906
 20
21.64565
 30
0.0
 11
124.4862
 21
22.22475
 31
0.0
  0
LINE
  5
765
330
1D
100
AcDbEntity
  8
0
100
AcDbLine
 10
126.1747
 20
20.74255
 30
0.0
 11
125.1907
 21
21.64575
 31
0.0
  0
LINE
  5
766
330
1D
100
AcDbEntity
  8
0
100
AcDbLine
 10
126.1747
 20
20.74255
 30
0.0
 11
125.1906
 21
21.64565
 31
0.0
  0
LINE
  5
767
330
1D
100
AcDbEntity
  8
0
100
AcDbLine
 10
126.3655
 20
20.55505
 30
0.0
 11
126.1747
 21
20.74255
 31
0.0
  0
LINE
  5
768
330
1D
100
AcDbEntity
  8
0
100
AcDbLine
 10
126.3887
 20
22.53375
 30
0.0
 11
125.6503
 21
23.14085
 31
0.0
  0
LINE
  5
769
330
1D
100
AcDbEntity
  8
0
100
AcDbLine
 10
125.6503
 20
23.14075
 30
0.0
 11
124.9467
 21
23.66475
 31
0.0
  0
LINE
  5
76A
330
1D
100
AcDbEntity
  8
0
100
AcDbLine
 10
126.3887
 20
22.53385
 30
0.0
 11
125.6503
 21
23.14075
 31
0.0
  0
LINE
  5
76B
330
1D
100
AcDbEntity
  8
0
100
AcDbLine
 10
124.4862
 20
22.22475
 30
0.0
 11
123.5282
 21
22.92365
 31
0.0
  0
LINE
  5
76C
330
1D
100
AcDbEntity
  8
0
100
AcDbLine
 10
124.9468
 20
23.66485
 30
0.0
 11
124.1304
 21
24.21065
 31
0.0
  0
LINE
  5
76D
330
1D
100
AcDbEntity
  8
0
100
AcDbLine
 10
124.9467
 20
23.66475
 30
0.0
 11
124.1303
 21
24.21055
 31
0.0
  0
LINE
  5
76E
330
1D
100
AcDbEntity
  8
0
100
AcDbLine
 10
125.6503
 20
23.14085
 30
0.0
 11
124.9468
 21
23.66485
 31
0.0
  0
LINE
  5
76F
330
1D
100
AcDbEntity
  8
0
100
AcDbLine
 10
125.1907
 20
21.64575
 30
0.0
 11
124.4862
 21
22.22495
 31
0.0
  0
LINE
  5
770
330
1D
100
AcDbEntity
  8
0
100
AcDbLine
 10
124.4862
 20
22.22495
 30
0.0
 11
123.5282
 21
22.92365
 31
0.0
  0
LINE
  5
771
330
1D
100
AcDbEntity
  8
0
100
AcDbLine
 10
120.3383
 20
24.58655
 30
0.0
 11
119.7073
 21
24.79965
 31
0.0
  0
LINE
  5
772
330
1D
100
AcDbEntity
  8
0
100
AcDbLine
 10
120.3381
 20
24.58655
 30
0.0
 11
119.7074
 21
24.79945
 31
0.0
  0
LINE
  5
773
330
1D
100
AcDbEntity
  8
0
100
AcDbLine
 10
123.2178
 20
24.74485
 30
0.0
 11
122.3057
 21
25.20295
 31
0.0
  0
LINE
  5
774
330
1D
100
AcDbEntity
  8
0
100
AcDbLine
 10
122.7653
 20
23.41285
 30
0.0
 11
122.0326
 21
23.82775
 31
0.0
  0
LINE
  5
775
330
1D
100
AcDbEntity
  8
0
100
AcDbLine
 10
122.0326
 20
23.82775
 30
0.0
 11
121.1911
 21
24.23995
 31
0.0
  0
LINE
  5
776
330
1D
100
AcDbEntity
  8
0
100
AcDbLine
 10
122.7654
 20
23.41285
 30
0.0
 11
122.0325
 21
23.82755
 31
0.0
  0
LINE
  5
777
330
1D
100
AcDbEntity
  8
0
100
AcDbLine
 10
123.2177
 20
24.74485
 30
0.0
 11
122.3056
 21
25.20285
 31
0.0
  0
LINE
  5
778
330
1D
100
AcDbEntity
  8
0
100
AcDbLine
 10
121.1911
 20
24.23995
 30
0.0
 11
120.3383
 21
24.58655
 31
0.0
  0
LINE
  5
779
330
1D
100
AcDbEntity
  8
0
100
AcDbLine
 10
121.1911
 20
24.24005
 30
0.0
 11
120.3381
 21
24.58655
 31
0.0
  0
LINE
  5
77A
330
1D
100
AcDbEntity
  8
0
100
AcDbLine
 10
122.0325
 20
23.82755
 30
0.0
 11
121.1911
 21
24.24005
 31
0.0
  0
LINE
  5
77B
330
1D
100
AcDbEntity
  8
0
100
AcDbLine
 10
121.6608
 20
25.48285
 30
0.0
 11
121.1318
 21
25.68625
 31
0.0
  0
LINE
  5
77C
330
1D
100
AcDbEntity
  8
0
100
AcDbLine
 10
122.3057
 20
25.20295
 30
0.0
 11
121.6608
 21
25.48285
 31
0.0
  0
LINE
  5
77D
330
1D
100
AcDbEntity
  8
0
100
AcDbLine
 10
122.3056
 20
25.20285
 30
0.0
 11
121.6607
 21
25.48275
 31
0.0
  0
LINE
  5
77E
330
1D
100
AcDbEntity
  8
0
100
AcDbLine
 10
121.6607
 20
25.48275
 30
0.0
 11
121.1319
 21
25.68635
 31
0.0
  0
LINE
  5
77F
330
1D
100
AcDbEntity
  8
0
100
AcDbLine
 10
119.7073
 20
24.79965
 30
0.0
 11
119.384
 21
24.89465
 31
0.0
  0
LINE
  5
780
330
1D
100
AcDbEntity
  8
0
100
AcDbLine
 10
119.7074
 20
24.79945
 30
0.0
 11
119.3841
 21
24.89475
 31
0.0
  0
LINE
  5
781
330
1D
100
AcDbEntity
  8
0
100
AcDbLine
 10
119.384
 20
24.89465
 30
0.0
 11
118.5476
 21
25.09385
 31
0.0
  0
LINE
  5
782
330
1D
100
AcDbEntity
  8
0
100
AcDbLine
 10
117.9988
 20
25.18895
 30
0.0
 11
117.1189
 21
25.28075
 31
0.0
  0
LINE
  5
784
330
1D
100
AcDbEntity
  8
0
100
AcDbLine
 10
118.5476
 20
25.09385
 30
0.0
 11
117.9985
 21
25.18915
 31
0.0
  0
LINE
  5
786
330
1D
100
AcDbEntity
  8
0
100
AcDbLine
 10
119.3841
 20
24.89475
 30
0.0
 11
118.5476
 21
25.09385
 31
0.0
  0
LINE
  5
78B
330
1D
100
AcDbEntity
  8
0
100
AcDbLine
 10
117.2119
 20
26.49335
 30
0.0
 11
116.8462
 21
26.50805
 31
0.0
  0
LINE
  5
78C
330
1D
100
AcDbEntity
  8
0
100
AcDbLine
 10
120.3887
 20
25.93295
 30
0.0
 11
119.7113
 21
26.11855
 31
0.0
  0
LINE
  5
78D
330
1D
100
AcDbEntity
  8
0
100
AcDbLine
 10
119.7113
 20
26.11875
 30
0.0
 11
119.3146
 21
26.21075
 31
0.0
  0
LINE
  5
78E
330
1D
100
AcDbEntity
  8
0
100
AcDbLine
 10
118.8983
 20
26.29395
 30
0.0
 11
118.4585
 21
26.36685
 31
0.0
  0
LINE
  5
78F
330
1D
100
AcDbEntity
  8
0
100
AcDbLine
 10
119.7113
 20
26.11855
 30
0.0
 11
119.3146
 21
26.21075
 31
0.0
  0
LINE
  5
790
330
1D
100
AcDbEntity
  8
0
100
AcDbLine
 10
118.4584
 20
26.36685
 30
0.0
 11
118.0539
 21
26.42085
 31
0.0
  0
LINE
  5
791
330
1D
100
AcDbEntity
  8
0
100
AcDbLine
 10
118.0539
 20
26.42085
 30
0.0
 11
117.6396
 21
26.46315
 31
0.0
  0
LINE
  5
792
330
1D
100
AcDbEntity
  8
0
100
AcDbLine
 10
120.3886
 20
25.93275
 30
0.0
 11
119.7113
 21
26.11875
 31
0.0
  0
LINE
  5
793
330
1D
100
AcDbEntity
  8
0
100
AcDbLine
 10
117.6395
 20
26.46325
 30
0.0
 11
117.2119
 21
26.49335
 31
0.0
  0
LINE
  5
794
330
1D
100
AcDbEntity
  8
0
100
AcDbLine
 10
119.3146
 20
26.21075
 30
0.0
 11
118.8983
 21
26.29395
 31
0.0
  0
LINE
  5
79A
330
1D
100
AcDbEntity
  8
0
100
AcDbLine
 10
115.1864
 20
0.01925
 30
0.0
 11
117.8136
 21
0.01925
 31
0.0
  0
LINE
  5
8CA
330
1D
100
AcDbEntity
  8
0
100
AcDbLine
 10
116.648
 20
42.21105
 30
0.0
 11
117.4412
 21
42.21105
 31
0.0
  0
LINE
  5
8CB
330
1D
100
AcDbEntity
  8
0
100
AcDbLine
 10
116.648
 20
42.21105
 30
0.0
 11
117.4434
 21
42.21105
 31
0.0
  0
LINE
  5
8CC
330
1D
100
AcDbEntity
  8
0
100
AcDbLine
 10
116.6479
 20
42.21105
 30
0.0
 11
117.4412
 21
42.21105
 31
0.0
  0
LINE
  5
8CD
330
1D
100
AcDbEntity
  8
0
100
AcDbLine
 10
116.6479
 20
42.21105
 30
0.0
 11
117.4434
 21
42.21105
 31
0.0
  0
LINE
  5
8CE
330
1D
100
AcDbEntity
  8
0
100
AcDbLine
 10
116.6477
 20
74.71105
 30
0.0
 11
118.0506
 21
74.71105
 31
0.0
  0
LINE
  5
8CF
330
1D
100
AcDbEntity
  8
0
100
AcDbLine
 10
116.6479
 20
74.71105
 30
0.0
 11
118.0506
 21
74.71105
 31
0.0
  0
LINE
  5
8D0
330
1D
100
AcDbEntity
  8
0
100
AcDbLine
 10
116.6863
 20
75.51105
 30
0.0
 11
118.4905
 21
75.51105
 31
0.0
  0
LINE
  5
8D1
330
1D
100
AcDbEntity
  8
0
100
AcDbLine
 10
116.6861
 20
75.51105
 30
0.0
 11
118.4905
 21
75.51105
 31
0.0
  0
LINE
  5
8D4
330
1D
100
AcDbEntity
  8
0
100
AcDbLine
 10
107.0619
 20
42.63505
 30
0.0
 11
101.9541
 21
74.36335
 31
0.0
  0
LINE
  5
8D5
330
1D
100
AcDbEntity
  8
0
100
AcDbLine
 10
111.3386
 20
42.21105
 30
0.0
 11
112.0027
 21
42.21105
 31
0.0
  0
LINE
  5
8D6
330
1D
100
AcDbEntity
  8
0
100
AcDbLine
 10
111.1707
 20
42.21105
 30
0.0
 11
111.6273
 21
42.21105
 31
0.0
  0
LINE
  5
8D7
330
1D
100
AcDbEntity
  8
0
100
AcDbLine
 10
111.1707
 20
42.21105
 30
0.0
 11
111.6271
 21
42.21105
 31
0.0
  0
LINE
  5
8D8
330
1D
100
AcDbEntity
  8
0
100
AcDbLine
 10
108.5636
 20
42.21105
 30
0.0
 11
108.9734
 21
42.21105
 31
0.0
  0
LINE
  5
8D9
330
1D
100
AcDbEntity
  8
0
100
AcDbLine
 10
108.5636
 20
42.21105
 30
0.0
 11
108.9736
 21
42.21105
 31
0.0
  0
LINE
  5
8DA
330
1D
100
AcDbEntity
  8
0
100
AcDbLine
 10
108.6058
 20
42.21105
 30
0.0
 11
109.1917
 21
42.21105
 31
0.0
  0
LINE
  5
8DB
330
1D
100
AcDbEntity
  8
0
100
AcDbLine
 10
107.0619
 20
42.63505
 30
0.0
 11
107.1664
 21
42.41655
 31
0.0
  0
LINE
  5
8DC
330
1D
100
AcDbEntity
  8
0
100
AcDbLine
 10
107.1664
 20
42.41655
 30
0.0
 11
107.3436
 21
42.26535
 31
0.0
  0
LINE
  5
8DD
330
1D
100
AcDbEntity
  8
0
100
AcDbLine
 10
107.3436
 20
42.26535
 30
0.0
 11
107.5702
 21
42.21105
 31
0.0
  0
LINE
  5
8DE
330
1D
100
AcDbEntity
  8
0
100
AcDbLine
 10
107.5733
 20
42.21105
 30
0.0
 11
107.6923
 21
42.21105
 31
0.0
  0
LINE
  5
8DF
330
1D
100
AcDbEntity
  8
0
100
AcDbLine
 10
107.5848
 20
42.21105
 30
0.0
 11
107.6602
 21
42.21105
 31
0.0
  0
LINE
  5
8E0
330
1D
100
AcDbEntity
  8
0
100
AcDbLine
 10
107.5732
 20
42.21105
 30
0.0
 11
107.6923
 21
42.21105
 31
0.0
  0
LINE
  5
8E1
330
1D
100
AcDbEntity
  8
0
100
AcDbLine
 10
107.7843
 20
42.21105
 30
0.0
 11
107.9477
 21
42.21105
 31
0.0
  0
LINE
  5
8E2
330
1D
100
AcDbEntity
  8
0
100
AcDbLine
 10
108.1583
 20
42.21105
 30
0.0
 11
108.6058
 21
42.21105
 31
0.0
  0
LINE
  5
8E3
330
1D
100
AcDbEntity
  8
0
100
AcDbLine
 10
107.7845
 20
42.21105
 30
0.0
 11
107.9477
 21
42.21105
 31
0.0
  0
LINE
  5
8E4
330
1D
100
AcDbEntity
  8
0
100
AcDbLine
 10
107.6602
 20
42.21105
 30
0.0
 11
107.7845
 21
42.21105
 31
0.0
  0
LINE
  5
8E5
330
1D
100
AcDbEntity
  8
0
100
AcDbLine
 10
107.6602
 20
42.21105
 30
0.0
 11
107.7843
 21
42.21105
 31
0.0
  0
LINE
  5
8E6
330
1D
100
AcDbEntity
  8
0
100
AcDbLine
 10
107.9477
 20
42.21105
 30
0.0
 11
108.1583
 21
42.21105
 31
0.0
  0
LINE
  5
8E7
330
1D
100
AcDbEntity
  8
0
100
AcDbLine
 10
108.9736
 20
42.21105
 30
0.0
 11
109.4322
 21
42.21105
 31
0.0
  0
LINE
  5
8E8
330
1D
100
AcDbEntity
  8
0
100
AcDbLine
 10
110.234
 20
42.21105
 30
0.0
 11
110.5291
 21
42.21105
 31
0.0
  0
LINE
  5
8E9
330
1D
100
AcDbEntity
  8
0
100
AcDbLine
 10
110.234
 20
42.21105
 30
0.0
 11
110.5289
 21
42.21105
 31
0.0
  0
LINE
  5
8EA
330
1D
100
AcDbEntity
  8
0
100
AcDbLine
 10
109.9226
 20
42.21105
 30
0.0
 11
110.3103
 21
42.21105
 31
0.0
  0
LINE
  5
8EB
330
1D
100
AcDbEntity
  8
0
100
AcDbLine
 10
109.9226
 20
42.21105
 30
0.0
 11
110.3105
 21
42.21105
 31
0.0
  0
LINE
  5
8EC
330
1D
100
AcDbEntity
  8
0
100
AcDbLine
 10
110.3103
 20
42.21105
 30
0.0
 11
110.73
 21
42.21105
 31
0.0
  0
LINE
  5
8ED
330
1D
100
AcDbEntity
  8
0
100
AcDbLine
 10
109.5388
 20
42.21105
 30
0.0
 11
109.9226
 21
42.21105
 31
0.0
  0
LINE
  5
8EE
330
1D
100
AcDbEntity
  8
0
100
AcDbLine
 10
109.1917
 20
42.21105
 30
0.0
 11
109.5388
 21
42.21105
 31
0.0
  0
LINE
  5
8EF
330
1D
100
AcDbEntity
  8
0
100
AcDbLine
 10
108.9734
 20
42.21105
 30
0.0
 11
109.4322
 21
42.21105
 31
0.0
  0
LINE
  5
8F0
330
1D
100
AcDbEntity
  8
0
100
AcDbLine
 10
110.5289
 20
42.21105
 30
0.0
 11
111.1707
 21
42.21105
 31
0.0
  0
LINE
  5
8F1
330
1D
100
AcDbEntity
  8
0
100
AcDbLine
 10
110.73
 20
42.21105
 30
0.0
 11
111.3386
 21
42.21105
 31
0.0
  0
LINE
  5
8F2
330
1D
100
AcDbEntity
  8
0
100
AcDbLine
 10
110.5291
 20
42.21105
 30
0.0
 11
111.1707
 21
42.21105
 31
0.0
  0
LINE
  5
8F3
330
1D
100
AcDbEntity
  8
0
100
AcDbLine
 10
110.7299
 20
42.21105
 30
0.0
 11
111.3386
 21
42.21105
 31
0.0
  0
LINE
  5
8F4
330
1D
100
AcDbEntity
  8
0
100
AcDbLine
 10
110.3105
 20
42.21105
 30
0.0
 11
110.7299
 21
42.21105
 31
0.0
  0
LINE
  5
8F5
330
1D
100
AcDbEntity
  8
0
100
AcDbLine
 10
111.6271
 20
42.21105
 30
0.0
 11
112.1179
 21
42.21105
 31
0.0
  0
LINE
  5
8F6
330
1D
100
AcDbEntity
  8
0
100
AcDbLine
 10
112.0027
 20
42.21105
 30
0.0
 11
112.7211
 21
42.21105
 31
0.0
  0
LINE
  5
8F7
330
1D
100
AcDbEntity
  8
0
100
AcDbLine
 10
112.638
 20
42.21105
 30
0.0
 11
113.1987
 21
42.21105
 31
0.0
  0
LINE
  5
8F8
330
1D
100
AcDbEntity
  8
0
100
AcDbLine
 10
111.6273
 20
42.21105
 30
0.0
 11
112.1179
 21
42.21105
 31
0.0
  0
LINE
  5
8F9
330
1D
100
AcDbEntity
  8
0
100
AcDbLine
 10
113.1987
 20
42.21105
 30
0.0
 11
114.0556
 21
42.21105
 31
0.0
  0
LINE
  5
8FA
330
1D
100
AcDbEntity
  8
0
100
AcDbLine
 10
114.6311
 20
42.21105
 30
0.0
 11
115.1965
 21
42.21105
 31
0.0
  0
LINE
  5
8FB
330
1D
100
AcDbEntity
  8
0
100
AcDbLine
 10
114.6311
 20
42.21105
 30
0.0
 11
115.1964
 21
42.21105
 31
0.0
  0
LINE
  5
8FC
330
1D
100
AcDbEntity
  8
0
100
AcDbLine
 10
113.7124
 20
42.21105
 30
0.0
 11
114.7809
 21
42.21105
 31
0.0
  0
LINE
  5
8FD
330
1D
100
AcDbEntity
  8
0
100
AcDbLine
 10
115.1964
 20
42.21105
 30
0.0
 11
115.8607
 21
42.21105
 31
0.0
  0
LINE
  5
8FE
330
1D
100
AcDbEntity
  8
0
100
AcDbLine
 10
115.8607
 20
42.21105
 30
0.0
 11
116.648
 21
42.21105
 31
0.0
  0
LINE
  5
8FF
330
1D
100
AcDbEntity
  8
0
100
AcDbLine
 10
115.8609
 20
42.21105
 30
0.0
 11
116.648
 21
42.21105
 31
0.0
  0
LINE
  5
900
330
1D
100
AcDbEntity
  8
0
100
AcDbLine
 10
115.1965
 20
42.21105
 30
0.0
 11
115.8609
 21
42.21105
 31
0.0
  0
LINE
  5
901
330
1D
100
AcDbEntity
  8
0
100
AcDbLine
 10
114.7809
 20
42.21105
 30
0.0
 11
115.9179
 21
42.21105
 31
0.0
  0
LINE
  5
902
330
1D
100
AcDbEntity
  8
0
100
AcDbLine
 10
115.9179
 20
42.21105
 30
0.0
 11
116.6479
 21
42.21105
 31
0.0
  0
LINE
  5
903
330
1D
100
AcDbEntity
  8
0
100
AcDbLine
 10
115.9179
 20
42.21105
 30
0.0
 11
116.648
 21
42.21105
 31
0.0
  0
LINE
  5
904
330
1D
100
AcDbEntity
  8
0
100
AcDbLine
 10
112.7211
 20
42.21105
 30
0.0
 11
113.7124
 21
42.21105
 31
0.0
  0
LINE
  5
905
330
1D
100
AcDbEntity
  8
0
100
AcDbLine
 10
105.5773
 20
75.51105
 30
0.0
 11
106.8186
 21
75.51105
 31
0.0
  0
LINE
  5
906
330
1D
100
AcDbEntity
  8
0
100
AcDbLine
 10
105.5771
 20
75.51105
 30
0.0
 11
106.8186
 21
75.51105
 31
0.0
  0
LINE
  5
907
330
1D
100
AcDbEntity
  8
0
100
AcDbLine
 10
105.7706
 20
75.51105
 30
0.0
 11
106.4771
 21
75.51105
 31
0.0
  0
LINE
  5
908
330
1D
100
AcDbEntity
  8
0
100
AcDbLine
 10
105.7706
 20
75.51105
 30
0.0
 11
106.4768
 21
75.51105
 31
0.0
  0
LINE
  5
909
330
1D
100
AcDbEntity
  8
0
100
AcDbLine
 10
105.975
 20
74.71105
 30
0.0
 11
106.9676
 21
74.71105
 31
0.0
  0
LINE
  5
90A
330
1D
100
AcDbEntity
  8
0
100
AcDbLine
 10
105.9749
 20
74.71105
 30
0.0
 11
106.9678
 21
74.71105
 31
0.0
  0
LINE
  5
90D
330
1D
100
AcDbEntity
  8
0
100
AcDbLine
 10
101.75
 20
76.01105
 30
0.0
 11
101.75
 21
77.01105
 31
0.0
  0
LINE
  5
90E
330
1D
100
AcDbEntity
  8
0
100
AcDbLine
 10
101.75
 20
77.01105
 30
0.0
 11
101.75
 21
76.01105
 31
0.0
  0
LINE
  5
911
330
1D
100
AcDbEntity
  8
0
100
AcDbLine
 10
103.0126
 20
74.71105
 30
0.0
 11
103.5833
 21
74.71105
 31
0.0
  0
LINE
  5
912
330
1D
100
AcDbEntity
  8
0
100
AcDbLine
 10
102.9412
 20
75.51105
 30
0.0
 11
103.6023
 21
75.51105
 31
0.0
  0
LINE
  5
913
330
1D
100
AcDbEntity
  8
0
100
AcDbLine
 10
102.9647
 20
75.51105
 30
0.0
 11
103.635
 21
75.51105
 31
0.0
  0
LINE
  5
914
330
1D
100
AcDbEntity
  8
0
100
AcDbLine
 10
102.9644
 20
75.51105
 30
0.0
 11
103.6347
 21
75.51105
 31
0.0
  0
LINE
  5
915
330
1D
100
AcDbEntity
  8
0
100
AcDbLine
 10
102.9408
 20
75.51105
 30
0.0
 11
103.6023
 21
75.51105
 31
0.0
  0
LINE
  5
916
330
1D
100
AcDbEntity
  8
0
100
AcDbLine
 10
101.9541
 20
74.36335
 30
0.0
 11
101.9759
 21
74.53255
 31
0.0
  0
LINE
  5
917
330
1D
100
AcDbEntity
  8
0
100
AcDbLine
 10
101.9759
 20
74.53255
 30
0.0
 11
102.0866
 21
74.66245
 31
0.0
  0
LINE
  5
918
330
1D
100
AcDbEntity
  8
0
100
AcDbLine
 10
102.0866
 20
74.66245
 30
0.0
 11
102.2503
 21
74.71105
 31
0.0
  0
LINE
  5
919
330
1D
100
AcDbEntity
  8
0
100
AcDbLine
 10
102.2503
 20
74.71105
 30
0.0
 11
102.3425
 21
74.71105
 31
0.0
  0
LINE
  5
91A
330
1D
100
AcDbEntity
  8
0
100
AcDbLine
 10
102.2503
 20
74.71105
 30
0.0
 11
102.3427
 21
74.71105
 31
0.0
  0
LINE
  5
91B
330
1D
100
AcDbEntity
  8
0
100
AcDbLine
 10
102.3427
 20
74.71105
 30
0.0
 11
102.5974
 21
74.71105
 31
0.0
  0
LINE
  5
91C
330
1D
100
AcDbEntity
  8
0
100
AcDbLine
 10
102.3425
 20
74.71105
 30
0.0
 11
102.5974
 21
74.71105
 31
0.0
  0
LINE
  5
91D
330
1D
100
AcDbEntity
  8
0
100
AcDbLine
 10
101.8172
 20
75.76105
 30
0.0
 11
102.0001
 21
75.57805
 31
0.0
  0
LINE
  5
91E
330
1D
100
AcDbEntity
  8
0
100
AcDbLine
 10
101.7502
 20
76.01105
 30
0.0
 11
101.8172
 21
75.76105
 31
0.0
  0
LINE
  5
91F
330
1D
100
AcDbEntity
  8
0
100
AcDbLine
 10
102.279
 20
75.51105
 30
0.0
 11
102.5104
 21
75.51105
 31
0.0
  0
LINE
  5
920
330
1D
100
AcDbEntity
  8
0
100
AcDbLine
 10
102.2742
 20
75.51105
 30
0.0
 11
102.4962
 21
75.51105
 31
0.0
  0
LINE
  5
921
330
1D
100
AcDbEntity
  8
0
100
AcDbLine
 10
102.4962
 20
75.51105
 30
0.0
 11
102.9412
 21
75.51105
 31
0.0
  0
LINE
  5
922
330
1D
100
AcDbEntity
  8
0
100
AcDbLine
 10
102.5104
 20
75.51105
 30
0.0
 11
102.9647
 21
75.51105
 31
0.0
  0
LINE
  5
923
330
1D
100
AcDbEntity
  8
0
100
AcDbLine
 10
102.51
 20
75.51105
 30
0.0
 11
102.9644
 21
75.51105
 31
0.0
  0
LINE
  5
924
330
1D
100
AcDbEntity
  8
0
100
AcDbLine
 10
102.2788
 20
75.51105
 30
0.0
 11
102.51
 21
75.51105
 31
0.0
  0
LINE
  5
925
330
1D
100
AcDbEntity
  8
0
100
AcDbLine
 10
102.274
 20
75.51105
 30
0.0
 11
102.496
 21
75.51105
 31
0.0
  0
LINE
  5
926
330
1D
100
AcDbEntity
  8
0
100
AcDbLine
 10
102.0001
 20
75.57805
 30
0.0
 11
102.279
 21
75.51105
 31
0.0
  0
LINE
  5
927
330
1D
100
AcDbEntity
  8
0
100
AcDbLine
 10
102.496
 20
75.51105
 30
0.0
 11
102.9408
 21
75.51105
 31
0.0
  0
LINE
  5
928
330
1D
100
AcDbEntity
  8
0
100
AcDbLine
 10
102.5974
 20
74.71105
 30
0.0
 11
103.0126
 21
74.71105
 31
0.0
  0
LINE
  5
929
330
1D
100
AcDbEntity
  8
0
100
AcDbLine
 10
104.3031
 20
74.71105
 30
0.0
 11
105.0841
 21
74.71105
 31
0.0
  0
LINE
  5
92A
330
1D
100
AcDbEntity
  8
0
100
AcDbLine
 10
104.3031
 20
74.71105
 30
0.0
 11
105.0839
 21
74.71105
 31
0.0
  0
LINE
  5
92B
330
1D
100
AcDbEntity
  8
0
100
AcDbLine
 10
104.4695
 20
75.51105
 30
0.0
 11
104.9007
 21
75.51105
 31
0.0
  0
LINE
  5
92C
330
1D
100
AcDbEntity
  8
0
100
AcDbLine
 10
104.5105
 20
75.51105
 30
0.0
 11
105.5773
 21
75.51105
 31
0.0
  0
LINE
  5
92D
330
1D
100
AcDbEntity
  8
0
100
AcDbLine
 10
104.5103
 20
75.51105
 30
0.0
 11
105.5771
 21
75.51105
 31
0.0
  0
LINE
  5
92E
330
1D
100
AcDbEntity
  8
0
100
AcDbLine
 10
104.4691
 20
75.51105
 30
0.0
 11
104.9007
 21
75.51105
 31
0.0
  0
LINE
  5
92F
330
1D
100
AcDbEntity
  8
0
100
AcDbLine
 10
103.5833
 20
74.71105
 30
0.0
 11
104.3031
 21
74.71105
 31
0.0
  0
LINE
  5
930
330
1D
100
AcDbEntity
  8
0
100
AcDbLine
 10
103.635
 20
75.51105
 30
0.0
 11
104.5105
 21
75.51105
 31
0.0
  0
LINE
  5
931
330
1D
100
AcDbEntity
  8
0
100
AcDbLine
 10
103.6347
 20
75.51105
 30
0.0
 11
104.5103
 21
75.51105
 31
0.0
  0
LINE
  5
932
330
1D
100
AcDbEntity
  8
0
100
AcDbLine
 10
103.6023
 20
75.51105
 30
0.0
 11
104.4691
 21
75.51105
 31
0.0
  0
LINE
  5
933
330
1D
100
AcDbEntity
  8
0
100
AcDbLine
 10
103.6023
 20
75.51105
 30
0.0
 11
104.4695
 21
75.51105
 31
0.0
  0
LINE
  5
934
330
1D
100
AcDbEntity
  8
0
100
AcDbLine
 10
105.0839
 20
74.71105
 30
0.0
 11
105.975
 21
74.71105
 31
0.0
  0
LINE
  5
935
330
1D
100
AcDbEntity
  8
0
100
AcDbLine
 10
105.0841
 20
74.71105
 30
0.0
 11
105.9749
 21
74.71105
 31
0.0
  0
LINE
  5
936
330
1D
100
AcDbEntity
  8
0
100
AcDbLine
 10
105.4264
 20
74.71105
 30
0.0
 11
105.4264
 21
75.01105
 31
0.0
  0
LINE
  5
937
330
1D
100
AcDbEntity
  8
0
100
AcDbLine
 10
104.9753
 20
75.51105
 30
0.0
 11
105.267
 21
75.51105
 31
0.0
  0
LINE
  5
938
330
1D
100
AcDbEntity
  8
0
100
AcDbLine
 10
105.267
 20
75.51105
 30
0.0
 11
105.7706
 21
75.51105
 31
0.0
  0
LINE
  5
939
330
1D
100
AcDbEntity
  8
0
100
AcDbLine
 10
105.3336
 20
75.26105
 30
0.0
 11
105.4264
 21
75.01105
 31
0.0
  0
LINE
  5
93A
330
1D
100
AcDbEntity
  8
0
100
AcDbLine
 10
105.1506
 20
75.44405
 30
0.0
 11
105.3336
 21
75.26105
 31
0.0
  0
LINE
  5
93B
330
1D
100
AcDbEntity
  8
0
100
AcDbLine
 10
105.2667
 20
75.51105
 30
0.0
 11
105.7706
 21
75.51105
 31
0.0
  0
LINE
  5
93C
330
1D
100
AcDbEntity
  8
0
100
AcDbLine
 10
104.975
 20
75.51105
 30
0.0
 11
105.2667
 21
75.51105
 31
0.0
  0
LINE
  5
93D
330
1D
100
AcDbEntity
  8
0
100
AcDbLine
 10
104.9007
 20
75.51105
 30
0.0
 11
105.1506
 21
75.44405
 31
0.0
  0
LINE
  5
93E
330
1D
100
AcDbEntity
  8
0
100
AcDbLine
 10
104.9007
 20
75.51105
 30
0.0
 11
104.975
 21
75.51105
 31
0.0
  0
LINE
  5
93F
330
1D
100
AcDbEntity
  8
0
100
AcDbLine
 10
104.9007
 20
75.51105
 30
0.0
 11
104.9753
 21
75.51105
 31
0.0
  0
LINE
  5
940
330
1D
100
AcDbEntity
  8
0
100
AcDbLine
 10
105.4264
 20
75.01105
 30
0.0
 11
105.4264
 21
74.71105
 31
0.0
  0
LINE
  5
945
330
1D
100
AcDbEntity
  8
0
100
AcDbLine
 10
110.5758
 20
74.71105
 30
0.0
 11
112.0012
 21
74.71105
 31
0.0
  0
LINE
  5
946
330
1D
100
AcDbEntity
  8
0
100
AcDbLine
 10
110.5756
 20
74.71105
 30
0.0
 11
112.0012
 21
74.71105
 31
0.0
  0
LINE
  5
947
330
1D
100
AcDbEntity
  8
0
100
AcDbLine
 10
111.0148
 20
75.51105
 30
0.0
 11
112.4712
 21
75.51105
 31
0.0
  0
LINE
  5
948
330
1D
100
AcDbEntity
  8
0
100
AcDbLine
 10
111.3826
 20
75.51105
 30
0.0
 11
113.1039
 21
75.51105
 31
0.0
  0
LINE
  5
949
330
1D
100
AcDbEntity
  8
0
100
AcDbLine
 10
111.3824
 20
75.51105
 30
0.0
 11
113.1037
 21
75.51105
 31
0.0
  0
LINE
  5
94A
330
1D
100
AcDbEntity
  8
0
100
AcDbLine
 10
111.0147
 20
75.51105
 30
0.0
 11
112.4712
 21
75.51105
 31
0.0
  0
LINE
  5
94B
330
1D
100
AcDbEntity
  8
0
100
AcDbLine
 10
106.9676
 20
74.71105
 30
0.0
 11
108.0524
 21
74.71105
 31
0.0
  0
LINE
  5
94C
330
1D
100
AcDbEntity
  8
0
100
AcDbLine
 10
106.9678
 20
74.71105
 30
0.0
 11
108.0524
 21
74.71105
 31
0.0
  0
LINE
  5
94D
330
1D
100
AcDbEntity
  8
0
100
AcDbLine
 10
108.0524
 20
74.71105
 30
0.0
 11
109.2193
 21
74.71105
 31
0.0
  0
LINE
  5
94E
330
1D
100
AcDbEntity
  8
0
100
AcDbLine
 10
109.2193
 20
74.71105
 30
0.0
 11
110.5756
 21
74.71105
 31
0.0
  0
LINE
  5
94F
330
1D
100
AcDbEntity
  8
0
100
AcDbLine
 10
109.2193
 20
74.71105
 30
0.0
 11
110.5758
 21
74.71105
 31
0.0
  0
LINE
  5
950
330
1D
100
AcDbEntity
  8
0
100
AcDbLine
 10
106.4768
 20
75.51105
 30
0.0
 11
107.373
 21
75.51105
 31
0.0
  0
LINE
  5
951
330
1D
100
AcDbEntity
  8
0
100
AcDbLine
 10
106.8186
 20
75.51105
 30
0.0
 11
108.2148
 21
75.51105
 31
0.0
  0
LINE
  5
952
330
1D
100
AcDbEntity
  8
0
100
AcDbLine
 10
106.8186
 20
75.51105
 30
0.0
 11
108.2152
 21
75.51105
 31
0.0
  0
LINE
  5
953
330
1D
100
AcDbEntity
  8
0
100
AcDbLine
 10
108.2152
 20
75.51105
 30
0.0
 11
109.7445
 21
75.51105
 31
0.0
  0
LINE
  5
954
330
1D
100
AcDbEntity
  8
0
100
AcDbLine
 10
108.4416
 20
75.51105
 30
0.0
 11
109.6631
 21
75.51105
 31
0.0
  0
LINE
  5
955
330
1D
100
AcDbEntity
  8
0
100
AcDbLine
 10
108.4416
 20
75.51105
 30
0.0
 11
109.6628
 21
75.51105
 31
0.0
  0
LINE
  5
956
330
1D
100
AcDbEntity
  8
0
100
AcDbLine
 10
106.4771
 20
75.51105
 30
0.0
 11
107.373
 21
75.51105
 31
0.0
  0
LINE
  5
957
330
1D
100
AcDbEntity
  8
0
100
AcDbLine
 10
108.2148
 20
75.51105
 30
0.0
 11
109.744
 21
75.51105
 31
0.0
  0
LINE
  5
958
330
1D
100
AcDbEntity
  8
0
100
AcDbLine
 10
109.6628
 20
75.51105
 30
0.0
 11
111.0148
 21
75.51105
 31
0.0
  0
LINE
  5
959
330
1D
100
AcDbEntity
  8
0
100
AcDbLine
 10
109.6631
 20
75.51105
 30
0.0
 11
111.0146
 21
75.51105
 31
0.0
  0
LINE
  5
95A
330
1D
100
AcDbEntity
  8
0
100
AcDbLine
 10
109.7443
 20
75.51105
 30
0.0
 11
111.3826
 21
75.51105
 31
0.0
  0
LINE
  5
95B
330
1D
100
AcDbEntity
  8
0
100
AcDbLine
 10
109.744
 20
75.51105
 30
0.0
 11
111.3824
 21
75.51105
 31
0.0
  0
LINE
  5
95C
330
1D
100
AcDbEntity
  8
0
100
AcDbLine
 10
112.0012
 20
74.71105
 30
0.0
 11
113.48
 21
74.71105
 31
0.0
  0
LINE
  5
95D
330
1D
100
AcDbEntity
  8
0
100
AcDbLine
 10
112.0012
 20
74.71105
 30
0.0
 11
113.4802
 21
74.71105
 31
0.0
  0
LINE
  5
95E
330
1D
100
AcDbEntity
  8
0
100
AcDbLine
 10
114.9947
 20
74.71105
 30
0.0
 11
116.5286
 21
74.71105
 31
0.0
  0
LINE
  5
95F
330
1D
100
AcDbEntity
  8
0
100
AcDbLine
 10
113.4802
 20
74.71105
 30
0.0
 11
114.9947
 21
74.71105
 31
0.0
  0
LINE
  5
960
330
1D
100
AcDbEntity
  8
0
100
AcDbLine
 10
114.995
 20
74.71105
 30
0.0
 11
116.5284
 21
74.71105
 31
0.0
  0
LINE
  5
961
330
1D
100
AcDbEntity
  8
0
100
AcDbLine
 10
113.48
 20
74.71105
 30
0.0
 11
114.995
 21
74.71105
 31
0.0
  0
LINE
  5
962
330
1D
100
AcDbEntity
  8
0
100
AcDbLine
 10
116.5286
 20
74.71105
 30
0.0
 11
116.6477
 21
74.71105
 31
0.0
  0
LINE
  5
963
330
1D
100
AcDbEntity
  8
0
100
AcDbLine
 10
116.5284
 20
74.71105
 30
0.0
 11
116.6479
 21
74.71105
 31
0.0
  0
LINE
  5
964
330
1D
100
AcDbEntity
  8
0
100
AcDbLine
 10
113.1037
 20
75.51105
 30
0.0
 11
114.8811
 21
75.51105
 31
0.0
  0
LINE
  5
965
330
1D
100
AcDbEntity
  8
0
100
AcDbLine
 10
114.8811
 20
75.51105
 30
0.0
 11
116.6861
 21
75.51105
 31
0.0
  0
LINE
  5
966
330
1D
100
AcDbEntity
  8
0
100
AcDbLine
 10
114.8811
 20
75.51105
 30
0.0
 11
116.6863
 21
75.51105
 31
0.0
  0
LINE
  5
967
330
1D
100
AcDbEntity
  8
0
100
AcDbLine
 10
113.1039
 20
75.51105
 30
0.0
 11
114.8811
 21
75.51105
 31
0.0
  0
LINE
  5
96C
330
1D
100
AcDbEntity
  8
0
100
AcDbLine
 10
126.2339
 20
42.63525
 30
0.0
 11
131.341750115313
 21
74.362959239129
 31
0.0
  0
LINE
  5
96D
330
1D
100
AcDbEntity
  8
0
100
AcDbLine
 10
121.4692
 20
42.21105
 30
0.0
 11
122.2419
 21
42.21105
 31
0.0
  0
LINE
  5
96E
330
1D
100
AcDbEntity
  8
0
100
AcDbLine
 10
121.4692
 20
42.21105
 30
0.0
 11
122.2417
 21
42.21105
 31
0.0
  0
LINE
  5
96F
330
1D
100
AcDbEntity
  8
0
100
AcDbLine
 10
117.4412
 20
42.21105
 30
0.0
 11
118.1271
 21
42.21105
 31
0.0
  0
LINE
  5
970
330
1D
100
AcDbEntity
  8
0
100
AcDbLine
 10
117.4412
 20
42.21105
 30
0.0
 11
118.1269
 21
42.21105
 31
0.0
  0
LINE
  5
971
330
1D
100
AcDbEntity
  8
0
100
AcDbLine
 10
118.1271
 20
42.21105
 30
0.0
 11
119.005
 21
42.21105
 31
0.0
  0
LINE
  5
972
330
1D
100
AcDbEntity
  8
0
100
AcDbLine
 10
118.747
 20
42.21105
 30
0.0
 11
119.3261
 21
42.21105
 31
0.0
  0
LINE
  5
973
330
1D
100
AcDbEntity
  8
0
100
AcDbLine
 10
118.2382
 20
42.21105
 30
0.0
 11
118.747
 21
42.21105
 31
0.0
  0
LINE
  5
974
330
1D
100
AcDbEntity
  8
0
100
AcDbLine
 10
118.2382
 20
42.21105
 30
0.0
 11
118.7472
 21
42.21105
 31
0.0
  0
LINE
  5
975
330
1D
100
AcDbEntity
  8
0
100
AcDbLine
 10
119.005
 20
42.21105
 30
0.0
 11
119.8368
 21
42.21105
 31
0.0
  0
LINE
  5
976
330
1D
100
AcDbEntity
  8
0
100
AcDbLine
 10
118.1269
 20
42.21105
 30
0.0
 11
119.005
 21
42.21105
 31
0.0
  0
LINE
  5
977
330
1D
100
AcDbEntity
  8
0
100
AcDbLine
 10
118.7472
 20
42.21105
 30
0.0
 11
119.3261
 21
42.21105
 31
0.0
  0
LINE
  5
978
330
1D
100
AcDbEntity
  8
0
100
AcDbLine
 10
120.6184
 20
42.21105
 30
0.0
 11
121.4692
 21
42.21105
 31
0.0
  0
LINE
  5
979
330
1D
100
AcDbEntity
  8
0
100
AcDbLine
 10
119.8368
 20
42.21105
 30
0.0
 11
120.6184
 21
42.21105
 31
0.0
  0
LINE
  5
97A
330
1D
100
AcDbEntity
  8
0
100
AcDbLine
 10
124.4788
 20
42.21105
 30
0.0
 11
124.7995
 21
42.21105
 31
0.0
  0
LINE
  5
97B
330
1D
100
AcDbEntity
  8
0
100
AcDbLine
 10
124.4788
 20
42.21105
 30
0.0
 11
124.7996
 21
42.21105
 31
0.0
  0
LINE
  5
97C
330
1D
100
AcDbEntity
  8
0
100
AcDbLine
 10
124.5549
 20
42.21105
 30
0.0
 11
124.9355
 21
42.21105
 31
0.0
  0
LINE
  5
97D
330
1D
100
AcDbEntity
  8
0
100
AcDbLine
 10
124.5549
 20
42.21105
 30
0.0
 11
124.9357
 21
42.21105
 31
0.0
  0
LINE
  5
97E
330
1D
100
AcDbEntity
  8
0
100
AcDbLine
 10
123.0443
 20
42.21105
 30
0.0
 11
123.719
 21
42.21105
 31
0.0
  0
LINE
  5
97F
330
1D
100
AcDbEntity
  8
0
100
AcDbLine
 10
122.2751
 20
42.21105
 30
0.0
 11
123.0442
 21
42.21105
 31
0.0
  0
LINE
  5
980
330
1D
100
AcDbEntity
  8
0
100
AcDbLine
 10
122.2751
 20
42.21105
 30
0.0
 11
123.0443
 21
42.21105
 31
0.0
  0
LINE
  5
981
330
1D
100
AcDbEntity
  8
0
100
AcDbLine
 10
122.9339
 20
42.21105
 30
0.0
 11
123.5449
 21
42.21105
 31
0.0
  0
LINE
  5
982
330
1D
100
AcDbEntity
  8
0
100
AcDbLine
 10
123.5449
 20
42.21105
 30
0.0
 11
124.0923
 21
42.21105
 31
0.0
  0
LINE
  5
983
330
1D
100
AcDbEntity
  8
0
100
AcDbLine
 10
123.0442
 20
42.21105
 30
0.0
 11
123.7188
 21
42.21105
 31
0.0
  0
LINE
  5
984
330
1D
100
AcDbEntity
  8
0
100
AcDbLine
 10
123.719
 20
42.21105
 30
0.0
 11
124.116
 21
42.21105
 31
0.0
  0
LINE
  5
985
330
1D
100
AcDbEntity
  8
0
100
AcDbLine
 10
123.7188
 20
42.21105
 30
0.0
 11
124.116
 21
42.21105
 31
0.0
  0
LINE
  5
986
330
1D
100
AcDbEntity
  8
0
100
AcDbLine
 10
122.2419
 20
42.21105
 30
0.0
 11
122.9339
 21
42.21105
 31
0.0
  0
LINE
  5
987
330
1D
100
AcDbEntity
  8
0
100
AcDbLine
 10
124.0923
 20
42.21105
 30
0.0
 11
124.5549
 21
42.21105
 31
0.0
  0
LINE
  5
988
330
1D
100
AcDbEntity
  8
0
100
AcDbLine
 10
122.2417
 20
42.21105
 30
0.0
 11
122.9339
 21
42.21105
 31
0.0
  0
LINE
  5
989
330
1D
100
AcDbEntity
  8
0
100
AcDbLine
 10
124.7995
 20
42.21105
 30
0.0
 11
125.08
 21
42.21105
 31
0.0
  0
LINE
  5
98A
330
1D
100
AcDbEntity
  8
0
100
AcDbLine
 10
124.9355
 20
42.21105
 30
0.0
 11
125.344
 21
42.21105
 31
0.0
  0
LINE
  5
98B
330
1D
100
AcDbEntity
  8
0
100
AcDbLine
 10
124.7996
 20
42.21105
 30
0.0
 11
125.08
 21
42.21105
 31
0.0
  0
LINE
  5
98C
330
1D
100
AcDbEntity
  8
0
100
AcDbLine
 10
124.9357
 20
42.21105
 30
0.0
 11
125.344
 21
42.21105
 31
0.0
  0
LINE
  5
98D
330
1D
100
AcDbEntity
  8
0
100
AcDbLine
 10
125.3911
 20
42.21105
 30
0.0
 11
125.6075
 21
42.21105
 31
0.0
  0
LINE
  5
98E
330
1D
100
AcDbEntity
  8
0
100
AcDbLine
 10
125.3911
 20
42.21105
 30
0.0
 11
125.6074
 21
42.21105
 31
0.0
  0
LINE
  5
98F
330
1D
100
AcDbEntity
  8
0
100
AcDbLine
 10
125.6074
 20
42.21105
 30
0.0
 11
125.7225
 21
42.21105
 31
0.0
  0
LINE
  5
990
330
1D
100
AcDbEntity
  8
0
100
AcDbLine
 10
125.6075
 20
42.21105
 30
0.0
 11
125.7225
 21
42.21105
 31
0.0
  0
LINE
  5
991
330
1D
100
AcDbEntity
  8
0
100
AcDbLine
 10
125.6039
 20
42.21105
 30
0.0
 11
125.7266
 21
42.21105
 31
0.0
  0
LINE
  5
992
330
1D
100
AcDbEntity
  8
0
100
AcDbLine
 10
125.344
 20
42.21105
 30
0.0
 11
125.6039
 21
42.21105
 31
0.0
  0
LINE
  5
993
330
1D
100
AcDbEntity
  8
0
100
AcDbLine
 10
125.08
 20
42.21105
 30
0.0
 11
125.3911
 21
42.21105
 31
0.0
  0
LINE
  5
994
330
1D
100
AcDbEntity
  8
0
100
AcDbLine
 10
126.1334
 20
42.42045
 30
0.0
 11
126.2339
 21
42.63525
 31
0.0
  0
LINE
  5
995
330
1D
100
AcDbEntity
  8
0
100
AcDbLine
 10
125.9553
 20
42.26645
 30
0.0
 11
126.1334
 21
42.42045
 31
0.0
  0
LINE
  5
996
330
1D
100
AcDbEntity
  8
0
100
AcDbLine
 10
125.7266
 20
42.21105
 30
0.0
 11
125.9553
 21
42.26645
 31
0.0
  0
LINE
  5
997
330
1D
100
AcDbEntity
  8
0
100
AcDbLine
 10
126.7822
 20
74.71105
 30
0.0
 11
127.7308
 21
74.71105
 31
0.0
  0
LINE
  5
998
330
1D
100
AcDbEntity
  8
0
100
AcDbLine
 10
126.7821
 20
74.71105
 30
0.0
 11
127.7306
 21
74.71105
 31
0.0
  0
LINE
  5
999
330
1D
100
AcDbEntity
  8
0
100
AcDbLine
 10
126.5334
 20
75.51105
 30
0.0
 11
127.7678
 21
75.51105
 31
0.0
  0
LINE
  5
99A
330
1D
100
AcDbEntity
  8
0
100
AcDbLine
 10
126.5332
 20
75.51105
 30
0.0
 11
127.7675
 21
75.51105
 31
0.0
  0
LINE
  5
99D
330
1D
100
AcDbEntity
  8
0
100
AcDbLine
 10
120.803
 20
74.71105
 30
0.0
 11
122.1264
 21
74.71105
 31
0.0
  0
LINE
  5
99E
330
1D
100
AcDbEntity
  8
0
100
AcDbLine
 10
121.9845
 20
75.51105
 30
0.0
 11
123.6185
 21
75.51105
 31
0.0
  0
LINE
  5
99F
330
1D
100
AcDbEntity
  8
0
100
AcDbLine
 10
121.9843
 20
75.51105
 30
0.0
 11
123.6185
 21
75.51105
 31
0.0
  0
LINE
  5
9A0
330
1D
100
AcDbEntity
  8
0
100
AcDbLine
 10
121.8235
 20
75.51105
 30
0.0
 11
123.2119
 21
75.51105
 31
0.0
  0
LINE
  5
9A1
330
1D
100
AcDbEntity
  8
0
100
AcDbLine
 10
118.0506
 20
74.71105
 30
0.0
 11
119.44
 21
74.71105
 31
0.0
  0
LINE
  5
9A2
330
1D
100
AcDbEntity
  8
0
100
AcDbLine
 10
119.44
 20
74.71105
 30
0.0
 11
120.803
 21
74.71105
 31
0.0
  0
LINE
  5
9A3
330
1D
100
AcDbEntity
  8
0
100
AcDbLine
 10
118.4905
 20
75.51105
 30
0.0
 11
120.2662
 21
75.51105
 31
0.0
  0
LINE
  5
9A4
330
1D
100
AcDbEntity
  8
0
100
AcDbLine
 10
118.4905
 20
75.51105
 30
0.0
 11
120.266
 21
75.51105
 31
0.0
  0
LINE
  5
9A5
330
1D
100
AcDbEntity
  8
0
100
AcDbLine
 10
118.7858
 20
75.51105
 30
0.0
 11
120.3391
 21
75.51105
 31
0.0
  0
LINE
  5
9A6
330
1D
100
AcDbEntity
  8
0
100
AcDbLine
 10
120.266
 20
75.51105
 30
0.0
 11
121.9843
 21
75.51105
 31
0.0
  0
LINE
  5
9A7
330
1D
100
AcDbEntity
  8
0
100
AcDbLine
 10
120.2662
 20
75.51105
 30
0.0
 11
121.9845
 21
75.51105
 31
0.0
  0
LINE
  5
9A8
330
1D
100
AcDbEntity
  8
0
100
AcDbLine
 10
118.7855
 20
75.51105
 30
0.0
 11
120.3391
 21
75.51105
 31
0.0
  0
LINE
  5
9A9
330
1D
100
AcDbEntity
  8
0
100
AcDbLine
 10
117.1924
 20
75.51105
 30
0.0
 11
118.7855
 21
75.51105
 31
0.0
  0
LINE
  5
9AA
330
1D
100
AcDbEntity
  8
0
100
AcDbLine
 10
117.1924
 20
75.51105
 30
0.0
 11
118.7858
 21
75.51105
 31
0.0
  0
LINE
  5
9AB
330
1D
100
AcDbEntity
  8
0
100
AcDbLine
 10
122.1264
 20
74.71105
 30
0.0
 11
123.3974
 21
74.71105
 31
0.0
  0
LINE
  5
9AC
330
1D
100
AcDbEntity
  8
0
100
AcDbLine
 10
122.1264
 20
74.71105
 30
0.0
 11
123.3976
 21
74.71105
 31
0.0
  0
LINE
  5
9AD
330
1D
100
AcDbEntity
  8
0
100
AcDbLine
 10
123.3976
 20
74.71105
 30
0.0
 11
124.605
 21
74.71105
 31
0.0
  0
LINE
  5
9AE
330
1D
100
AcDbEntity
  8
0
100
AcDbLine
 10
125.7369
 20
74.71105
 30
0.0
 11
126.7821
 21
74.71105
 31
0.0
  0
LINE
  5
9AF
330
1D
100
AcDbEntity
  8
0
100
AcDbLine
 10
125.7369
 20
74.71105
 30
0.0
 11
126.7822
 21
74.71105
 31
0.0
  0
LINE
  5
9B0
330
1D
100
AcDbEntity
  8
0
100
AcDbLine
 10
124.605
 20
74.71105
 30
0.0
 11
125.7369
 21
74.71105
 31
0.0
  0
LINE
  5
9B1
330
1D
100
AcDbEntity
  8
0
100
AcDbLine
 10
123.3974
 20
74.71105
 30
0.0
 11
124.605
 21
74.71105
 31
0.0
  0
LINE
  5
9B2
330
1D
100
AcDbEntity
  8
0
100
AcDbLine
 10
124.4779
 20
75.51105
 30
0.0
 11
125.5977
 21
75.51105
 31
0.0
  0
LINE
  5
9B3
330
1D
100
AcDbEntity
  8
0
100
AcDbLine
 10
125.1428
 20
75.51105
 30
0.0
 11
126.5332
 21
75.51105
 31
0.0
  0
LINE
  5
9B4
330
1D
100
AcDbEntity
  8
0
100
AcDbLine
 10
125.1428
 20
75.51105
 30
0.0
 11
126.5334
 21
75.51105
 31
0.0
  0
LINE
  5
9B5
330
1D
100
AcDbEntity
  8
0
100
AcDbLine
 10
124.4777
 20
75.51105
 30
0.0
 11
125.5977
 21
75.51105
 31
0.0
  0
LINE
  5
9B6
330
1D
100
AcDbEntity
  8
0
100
AcDbLine
 10
123.2119
 20
75.51105
 30
0.0
 11
124.4777
 21
75.51105
 31
0.0
  0
LINE
  5
9B7
330
1D
100
AcDbEntity
  8
0
100
AcDbLine
 10
123.2119
 20
75.51105
 30
0.0
 11
124.4779
 21
75.51105
 31
0.0
  0
LINE
  5
9BA
330
1D
100
AcDbEntity
  8
0
100
AcDbLine
 10
131.5459
 20
77.01105
 30
0.0
 11
131.5459
 21
76.01105
 31
0.0
  0
LINE
  5
9BB
330
1D
100
AcDbEntity
  8
0
100
AcDbLine
 10
131.5459
 20
76.01105
 30
0.0
 11
131.5459
 21
77.01105
 31
0.0
  0
LINE
  5
9BD
330
1D
100
AcDbEntity
  8
0
100
AcDbLine
 10
129.9229
 20
74.71105
 30
0.0
 11
130.4071
 21
74.71105
 31
0.0
  0
LINE
  5
9BE
330
1D
100
AcDbEntity
  8
0
100
AcDbLine
 10
129.9231
 20
74.71105
 30
0.0
 11
130.4072
 21
74.71105
 31
0.0
  0
LINE
  5
9BF
330
1D
100
AcDbEntity
  8
0
100
AcDbLine
 10
129.6936
 20
75.51105
 30
0.0
 11
130.3549
 21
75.51105
 31
0.0
  0
LINE
  5
9C0
330
1D
100
AcDbEntity
  8
0
100
AcDbLine
 10
129.6936
 20
75.51105
 30
0.0
 11
130.3551
 21
75.51105
 31
0.0
  0
LINE
  5
9C1
330
1D
100
AcDbEntity
  8
0
100
AcDbLine
 10
129.6611
 20
75.51105
 30
0.0
 11
130.3314
 21
75.51105
 31
0.0
  0
LINE
  5
9C2
330
1D
100
AcDbEntity
  8
0
100
AcDbLine
 10
128.5736
 20
74.71105
 30
0.0
 11
129.3099
 21
74.71105
 31
0.0
  0
LINE
  5
9C3
330
1D
100
AcDbEntity
  8
0
100
AcDbLine
 10
128.5738
 20
74.71105
 30
0.0
 11
129.3099
 21
74.71105
 31
0.0
  0
LINE
  5
9C4
330
1D
100
AcDbEntity
  8
0
100
AcDbLine
 10
127.7678
 20
75.51105
 30
0.0
 11
128.8268
 21
75.51105
 31
0.0
  0
LINE
  5
9C5
330
1D
100
AcDbEntity
  8
0
100
AcDbLine
 10
127.7675
 20
75.51105
 30
0.0
 11
128.8266
 21
75.51105
 31
0.0
  0
LINE
  5
9C6
330
1D
100
AcDbEntity
  8
0
100
AcDbLine
 10
128.3951
 20
75.51105
 30
0.0
 11
128.7855
 21
75.51105
 31
0.0
  0
LINE
  5
9C7
330
1D
100
AcDbEntity
  8
0
100
AcDbLine
 10
127.7308
 20
74.71105
 30
0.0
 11
128.5736
 21
74.71105
 31
0.0
  0
LINE
  5
9C8
330
1D
100
AcDbEntity
  8
0
100
AcDbLine
 10
127.7306
 20
74.71105
 30
0.0
 11
128.5738
 21
74.71105
 31
0.0
  0
LINE
  5
9C9
330
1D
100
AcDbEntity
  8
0
100
AcDbLine
 10
127.8694
 20
74.71105
 30
0.0
 11
127.8694
 21
75.01105
 31
0.0
  0
LINE
  5
9CA
330
1D
100
AcDbEntity
  8
0
100
AcDbLine
 10
127.8695
 20
75.01105
 30
0.0
 11
127.9623
 21
75.26105
 31
0.0
  0
LINE
  5
9CB
330
1D
100
AcDbEntity
  8
0
100
AcDbLine
 10
127.8694
 20
75.01105
 30
0.0
 11
127.8694
 21
74.71105
 31
0.0
  0
LINE
  5
9CC
330
1D
100
AcDbEntity
  8
0
100
AcDbLine
 10
127.9623
 20
75.26105
 30
0.0
 11
128.1453
 21
75.44405
 31
0.0
  0
LINE
  5
9CD
330
1D
100
AcDbEntity
  8
0
100
AcDbLine
 10
128.2508
 20
75.51105
 30
0.0
 11
128.3951
 21
75.51105
 31
0.0
  0
LINE
  5
9CE
330
1D
100
AcDbEntity
  8
0
100
AcDbLine
 10
128.1453
 20
75.44405
 30
0.0
 11
128.3951
 21
75.51105
 31
0.0
  0
LINE
  5
9CF
330
1D
100
AcDbEntity
  8
0
100
AcDbLine
 10
128.2506
 20
75.51105
 30
0.0
 11
128.3951
 21
75.51105
 31
0.0
  0
LINE
  5
9D0
330
1D
100
AcDbEntity
  8
0
100
AcDbLine
 10
127.8898
 20
75.51105
 30
0.0
 11
128.2506
 21
75.51105
 31
0.0
  0
LINE
  5
9D1
330
1D
100
AcDbEntity
  8
0
100
AcDbLine
 10
127.8898
 20
75.51105
 30
0.0
 11
128.2508
 21
75.51105
 31
0.0
  0
LINE
  5
9D2
330
1D
100
AcDbEntity
  8
0
100
AcDbLine
 10
129.3099
 20
74.71105
 30
0.0
 11
129.9231
 21
74.71105
 31
0.0
  0
LINE
  5
9D3
330
1D
100
AcDbEntity
  8
0
100
AcDbLine
 10
129.3099
 20
74.71105
 30
0.0
 11
129.9229
 21
74.71105
 31
0.0
  0
LINE
  5
9D4
330
1D
100
AcDbEntity
  8
0
100
AcDbLine
 10
128.8268
 20
75.51105
 30
0.0
 11
129.6936
 21
75.51105
 31
0.0
  0
LINE
  5
9D5
330
1D
100
AcDbEntity
  8
0
100
AcDbLine
 10
128.7855
 20
75.51105
 30
0.0
 11
129.6611
 21
75.51105
 31
0.0
  0
LINE
  5
9D6
330
1D
100
AcDbEntity
  8
0
100
AcDbLine
 10
128.8266
 20
75.51105
 30
0.0
 11
129.6936
 21
75.51105
 31
0.0
  0
LINE
  5
9D7
330
1D
100
AcDbEntity
  8
0
100
AcDbLine
 10
130.4071
 20
74.71105
 30
0.0
 11
130.7577
 21
74.71105
 31
0.0
  0
LINE
  5
9D8
330
1D
100
AcDbEntity
  8
0
100
AcDbLine
 10
131.32
 20
74.53255
 30
0.0
 11
131.3417
 21
74.36335
 31
0.0
  0
LINE
  5
9D9
330
1D
100
AcDbEntity
  8
0
100
AcDbLine
 10
131.2092
 20
74.66245
 30
0.0
 11
131.32
 21
74.53255
 31
0.0
  0
LINE
  5
9DA
330
1D
100
AcDbEntity
  8
0
100
AcDbLine
 10
131.0456
 20
74.71105
 30
0.0
 11
131.2092
 21
74.66245
 31
0.0
  0
LINE
  5
9DB
330
1D
100
AcDbEntity
  8
0
100
AcDbLine
 10
130.9709
 20
74.71105
 30
0.0
 11
131.0456
 21
74.71105
 31
0.0
  0
LINE
  5
9DC
330
1D
100
AcDbEntity
  8
0
100
AcDbLine
 10
130.7577
 20
74.71105
 30
0.0
 11
130.9709
 21
74.71105
 31
0.0
  0
LINE
  5
9DD
330
1D
100
AcDbEntity
  8
0
100
AcDbLine
 10
130.4072
 20
74.71105
 30
0.0
 11
130.7577
 21
74.71105
 31
0.0
  0
LINE
  5
9DE
330
1D
100
AcDbEntity
  8
0
100
AcDbLine
 10
130.3551
 20
75.51105
 30
0.0
 11
130.7999
 21
75.51105
 31
0.0
  0
LINE
  5
9DF
330
1D
100
AcDbEntity
  8
0
100
AcDbLine
 10
130.7859
 20
75.51105
 30
0.0
 11
131.017
 21
75.51105
 31
0.0
  0
LINE
  5
9E0
330
1D
100
AcDbEntity
  8
0
100
AcDbLine
 10
130.7857
 20
75.51105
 30
0.0
 11
131.017
 21
75.51105
 31
0.0
  0
LINE
  5
9E1
330
1D
100
AcDbEntity
  8
0
100
AcDbLine
 10
130.3549
 20
75.51105
 30
0.0
 11
130.7999
 21
75.51105
 31
0.0
  0
LINE
  5
9E2
330
1D
100
AcDbEntity
  8
0
100
AcDbLine
 10
130.3314
 20
75.51105
 30
0.0
 11
130.7857
 21
75.51105
 31
0.0
  0
LINE
  5
9E3
330
1D
100
AcDbEntity
  8
0
100
AcDbLine
 10
130.3314
 20
75.51105
 30
0.0
 11
130.7859
 21
75.51105
 31
0.0
  0
LINE
  5
9E4
330
1D
100
AcDbEntity
  8
0
100
AcDbLine
 10
131.296
 20
75.57805
 30
0.0
 11
131.4789
 21
75.76105
 31
0.0
  0
LINE
  5
9E5
330
1D
100
AcDbEntity
  8
0
100
AcDbLine
 10
131.4789
 20
75.76105
 30
0.0
 11
131.5459
 21
76.01105
 31
0.0
  0
LINE
  5
9E6
330
1D
100
AcDbEntity
  8
0
100
AcDbLine
 10
131.017
 20
75.51105
 30
0.0
 11
131.296
 21
75.57805
 31
0.0
  0
LINE
  5
9EE
330
1D
100
AcDbEntity
  8
0
100
AcDbLine
 10
93.5826
 20
61.16105
 30
0.0
 11
104.07948043135
 21
61.16105
 31
0.0
  0
LINE
  5
C3B
330
1D
100
AcDbEntity
  8
0
100
AcDbLine
 10
91.75
 20
133.01105
 30
0.0
 11
142.75
 21
133.01105
 31
0.0
  0
LINE
  5
C3C
330
1D
100
AcDbEntity
  8
0
100
AcDbLine
 10
92.55
 20
133.01105
 30
0.0
 11
141.95
 21
133.01105
 31
0.0
  0
LINE
  5
C3D
330
1D
100
AcDbEntity
  8
0
100
AcDbLine
 10
91.75
 20
133.01105
 30
0.0
 11
142.75
 21
133.01105
 31
0.0
  0
LINE
  5
C3E
330
1D
100
AcDbEntity
  8
0
100
AcDbLine
 10
91.75
 20
137.01105
 30
0.0
 11
142.75
 21
137.01105
 31
0.0
  0
LINE
  5
C3F
330
1D
100
AcDbEntity
  8
0
100
AcDbLine
 10
117.25
 20
133.01105
 30
0.0
 11
125.566
 21
133.01105
 31
0.0
  0
LINE
  5
C40
330
1D
100
AcDbEntity
  8
0
100
AcDbLine
 10
122.37
 20
164.73105
 30
0.0
 11
127.17
 21
166.65105
 31
0.0
  0
LINE
  5
C41
330
1D
100
AcDbEntity
  8
0
100
AcDbLine
 10
122.3939
 20
164.73105
 30
0.0
 11
127.1787
 21
166.65105
 31
0.0
  0
LINE
  5
C42
330
1D
100
AcDbEntity
  8
0
100
AcDbLine
 10
121.602
 20
167.62305
 30
0.0
 11
125.682
 21
169.25505
 31
0.0
  0
LINE
  5
C43
330
1D
100
AcDbEntity
  8
0
100
AcDbLine
 10
122.37
 20
203.29105
 30
0.0
 11
127.17
 21
201.37105
 31
0.0
  0
LINE
  5
C44
330
1D
100
AcDbEntity
  8
0
100
AcDbLine
 10
121.602
 20
200.39905
 30
0.0
 11
125.682
 21
198.76705
 31
0.0
  0
LINE
  5
C45
330
1D
100
AcDbEntity
  8
0
100
AcDbLine
 10
120.9803
 20
198.05805
 30
0.0
 11
124.4774
 21
196.65905
 31
0.0
  0
LINE
  5
C46
330
1D
100
AcDbEntity
  8
0
100
AcDbLine
 10
120.9803
 20
169.96415
 30
0.0
 11
124.4774
 21
171.36305
 31
0.0
  0
LINE
  5
C47
330
1D
100
AcDbEntity
  8
0
100
AcDbLine
 10
122.3939
 20
203.29105
 30
0.0
 11
127.1787
 21
201.37105
 31
0.0
  0
LINE
  5
C48
330
1D
100
AcDbEntity
  8
0
100
AcDbLine
 10
117.25
 20
206.01105
 30
0.0
 11
125.2121
 21
206.01105
 31
0.0
  0
LINE
  5
C49
330
1D
100
AcDbEntity
  8
0
100
AcDbLine
 10
56.25
 20
98.01105
 30
0.0
 11
56.25
 21
133.01105
 31
0.0
  0
LINE
  5
C4A
330
1D
100
AcDbEntity
  8
0
100
AcDbLine
 10
56.25
 20
133.01105
 30
0.0
 11
56.25
 21
98.01105
 31
0.0
  0
LINE
  5
C4B
330
1D
100
AcDbEntity
  8
0
100
AcDbLine
 10
43.75
 20
133.01105
 30
0.0
 11
92.55
 21
133.01105
 31
0.0
  0
LINE
  5
C4C
330
1D
100
AcDbEntity
  8
0
100
AcDbLine
 10
41.75
 20
133.01105
 30
0.0
 11
91.75
 21
133.01105
 31
0.0
  0
LINE
  5
C4D
330
1D
100
AcDbEntity
  8
0
100
AcDbLine
 10
41.75
 20
137.01105
 30
0.0
 11
91.75
 21
137.01105
 31
0.0
  0
LINE
  5
C4E
330
1D
100
AcDbEntity
  8
0
100
AcDbLine
 10
72.898
 20
133.01105
 30
0.0
 11
78.946
 21
133.01105
 31
0.0
  0
LINE
  5
C4F
330
1D
100
AcDbEntity
  8
0
100
AcDbLine
 10
69.4707
 20
199.01105
 30
0.0
 11
80.573287962963
 21
199.01105
 31
0.0
  0
LINE
  5
C50
330
1D
100
AcDbEntity
  8
0
100
AcDbLine
 10
70.3035
 20
199.01105
 30
0.0
 11
85.7567
 21
199.01105
 31
0.0
  0
LINE
  5
C51
330
1D
100
AcDbEntity
  8
0
100
AcDbLine
 10
70.7327
 20
206.01105
 30
0.0
 11
86.6605
 21
206.01105
 31
0.0
  0
LINE
  5
C52
330
1D
100
AcDbEntity
  8
0
100
AcDbLine
 10
56.25
 20
164.01105
 30
0.0
 11
56.25
 21
137.01105
 31
0.0
  0
LINE
  5
C53
330
1D
100
AcDbEntity
  8
0
100
AcDbLine
 10
56.25
 20
137.01105
 30
0.0
 11
56.25
 21
164.01105
 31
0.0
  0
LINE
  5
C54
330
1D
100
AcDbEntity
  8
0
100
AcDbLine
 10
44.6874
 20
133.01105
 30
0.0
 11
56.25
 21
133.01105
 31
0.0
  0
LINE
  5
C55
330
1D
100
AcDbEntity
  8
0
100
AcDbLine
 10
44.6874
 20
133.01105
 30
0.0
 11
68.4118
 21
133.01105
 31
0.0
  0
LINE
  5
C56
330
1D
100
AcDbEntity
  8
0
100
AcDbLine
 10
54.1923
 20
133.01105
 30
0.0
 11
54.8323
 21
133.01105
 31
0.0
  0
LINE
  5
C57
330
1D
100
AcDbEntity
  8
0
100
AcDbLine
 10
48.43492
 20
133.01105
 30
0.0
 11
56.25
 21
133.01105
 31
0.0
  0
LINE
  5
C58
330
1D
100
AcDbEntity
  8
0
100
AcDbLine
 10
48.43492
 20
133.01105
 30
0.0
 11
59.605
 21
133.01105
 31
0.0
  0
LINE
  5
C59
330
1D
100
AcDbEntity
  8
0
100
AcDbLine
 10
48.09241
 20
133.01105
 30
0.0
 11
56.25
 21
133.01105
 31
0.0
  0
LINE
  5
C5A
330
1D
100
AcDbEntity
  8
0
100
AcDbLine
 10
48.09241
 20
133.01105
 30
0.0
 11
56.25
 21
133.01105
 31
0.0
  0
LINE
  5
C5B
330
1D
100
AcDbEntity
  8
0
100
AcDbLine
 10
48.09241
 20
133.01105
 30
0.0
 11
58.7962
 21
133.01105
 31
0.0
  0
LINE
  5
C5C
330
1D
100
AcDbEntity
  8
0
100
AcDbLine
 10
45.94551
 20
133.01105
 30
0.0
 11
56.25
 21
133.01105
 31
0.0
  0
LINE
  5
C5D
330
1D
100
AcDbEntity
  8
0
100
AcDbLine
 10
45.94551
 20
133.01105
 30
0.0
 11
56.25
 21
133.01105
 31
0.0
  0
LINE
  5
C5E
330
1D
100
AcDbEntity
  8
0
100
AcDbLine
 10
45.94551
 20
133.01105
 30
0.0
 11
67.0638
 21
133.01105
 31
0.0
  0
LINE
  5
C5F
330
1D
100
AcDbEntity
  8
0
100
AcDbLine
 10
44.6874
 20
133.01105
 30
0.0
 11
56.25
 21
133.01105
 31
0.0
  0
LINE
  5
C60
330
1D
100
AcDbEntity
  8
0
100
AcDbLine
 10
44.6874
 20
133.01105
 30
0.0
 11
68.4118
 21
133.01105
 31
0.0
  0
LINE
  5
C61
330
1D
100
AcDbEntity
  8
0
100
AcDbLine
 10
43.75
 20
133.01105
 30
0.0
 11
56.25
 21
133.01105
 31
0.0
  0
LINE
  5
C62
330
1D
100
AcDbEntity
  8
0
100
AcDbLine
 10
41.75
 20
133.01105
 30
0.0
 11
56.25
 21
133.01105
 31
0.0
  0
LINE
  5
C63
330
1D
100
AcDbEntity
  8
0
100
AcDbLine
 10
41.75
 20
133.01105
 30
0.0
 11
56.25
 21
133.01105
 31
0.0
  0
LINE
  5
C64
330
1D
100
AcDbEntity
  8
0
100
AcDbLine
 10
54.25
 20
133.01105
 30
0.0
 11
55.006
 21
133.01105
 31
0.0
  0
LINE
  5
C65
330
1D
100
AcDbEntity
  8
0
100
AcDbLine
 10
42.918
 20
133.01105
 30
0.0
 11
43.766
 21
133.01105
 31
0.0
  0
LINE
  5
C66
330
1D
100
AcDbEntity
  8
0
100
AcDbLine
 10
42.75
 20
133.01105
 30
0.0
 11
47.75
 21
133.01105
 31
0.0
  0
LINE
  5
C67
330
1D
100
AcDbEntity
  8
0
100
AcDbLine
 10
42.75
 20
133.01105
 30
0.0
 11
47.75
 21
133.01105
 31
0.0
  0
LINE
  5
C68
330
1D
100
AcDbEntity
  8
0
100
AcDbLine
 10
41.75
 20
133.01105
 30
0.0
 11
43.75
 21
133.01105
 31
0.0
  0
LINE
  5
C69
330
1D
100
AcDbEntity
  8
0
100
AcDbLine
 10
41.894
 20
133.01105
 30
0.0
 11
42.278
 21
133.01105
 31
0.0
  0
LINE
  5
C6A
330
1D
100
AcDbEntity
  8
0
100
AcDbLine
 10
42.278
 20
133.01105
 30
0.0
 11
42.918
 21
133.01105
 31
0.0
  0
LINE
  5
C6B
330
1D
100
AcDbEntity
  8
0
100
AcDbLine
 10
41.75
 20
133.01105
 30
0.0
 11
41.75
 21
137.01105
 31
0.0
  0
LINE
  5
C6C
330
1D
100
AcDbEntity
  8
0
100
AcDbLine
 10
41.75
 20
133.01105
 30
0.0
 11
41.894
 21
133.01105
 31
0.0
  0
LINE
  5
C6D
330
1D
100
AcDbEntity
  8
0
100
AcDbLine
 10
41.75
 20
137.01105
 30
0.0
 11
41.75
 21
133.01105
 31
0.0
  0
LINE
  5
C6E
330
1D
100
AcDbEntity
  8
0
100
AcDbLine
 10
43.766
 20
133.01105
 30
0.0
 11
44.726
 21
133.01105
 31
0.0
  0
LINE
  5
C6F
330
1D
100
AcDbEntity
  8
0
100
AcDbLine
 10
45.75
 20
133.01105
 30
0.0
 11
46.774
 21
133.01105
 31
0.0
  0
LINE
  5
C70
330
1D
100
AcDbEntity
  8
0
100
AcDbLine
 10
44.726
 20
133.01105
 30
0.0
 11
45.75
 21
133.01105
 31
0.0
  0
LINE
  5
C71
330
1D
100
AcDbEntity
  8
0
100
AcDbLine
 10
46.774
 20
133.01105
 30
0.0
 11
47.734
 21
133.01105
 31
0.0
  0
LINE
  5
C72
330
1D
100
AcDbEntity
  8
0
100
AcDbLine
 10
47.36032
 20
133.01105
 30
0.0
 11
47.50432
 21
133.01105
 31
0.0
  0
LINE
  5
C73
330
1D
100
AcDbEntity
  8
0
100
AcDbLine
 10
47.734
 20
133.01105
 30
0.0
 11
48.582
 21
133.01105
 31
0.0
  0
LINE
  5
C74
330
1D
100
AcDbEntity
  8
0
100
AcDbLine
 10
47.50432
 20
133.01105
 30
0.0
 11
47.88832
 21
133.01105
 31
0.0
  0
LINE
  5
C75
330
1D
100
AcDbEntity
  8
0
100
AcDbLine
 10
47.88832
 20
133.01105
 30
0.0
 11
48.52832
 21
133.01105
 31
0.0
  0
LINE
  5
C76
330
1D
100
AcDbEntity
  8
0
100
AcDbLine
 10
49.222
 20
133.01105
 30
0.0
 11
49.606
 21
133.01105
 31
0.0
  0
LINE
  5
C77
330
1D
100
AcDbEntity
  8
0
100
AcDbLine
 10
48.582
 20
133.01105
 30
0.0
 11
49.222
 21
133.01105
 31
0.0
  0
LINE
  5
C78
330
1D
100
AcDbEntity
  8
0
100
AcDbLine
 10
48.52832
 20
133.01105
 30
0.0
 11
49.37632
 21
133.01105
 31
0.0
  0
LINE
  5
C79
330
1D
100
AcDbEntity
  8
0
100
AcDbLine
 10
49.606
 20
133.01105
 30
0.0
 11
49.75
 21
133.01105
 31
0.0
  0
LINE
  5
C7A
330
1D
100
AcDbEntity
  8
0
100
AcDbLine
 10
53.3443
 20
133.01105
 30
0.0
 11
54.1923
 21
133.01105
 31
0.0
  0
LINE
  5
C7B
330
1D
100
AcDbEntity
  8
0
100
AcDbLine
 10
52.3843
 20
133.01105
 30
0.0
 11
53.3443
 21
133.01105
 31
0.0
  0
LINE
  5
C7C
330
1D
100
AcDbEntity
  8
0
100
AcDbLine
 10
51.36032
 20
133.01105
 30
0.0
 11
52.3843
 21
133.01105
 31
0.0
  0
LINE
  5
C7D
330
1D
100
AcDbEntity
  8
0
100
AcDbLine
 10
49.37632
 20
133.01105
 30
0.0
 11
50.33632
 21
133.01105
 31
0.0
  0
LINE
  5
C7E
330
1D
100
AcDbEntity
  8
0
100
AcDbLine
 10
50.33632
 20
133.01105
 30
0.0
 11
51.36032
 21
133.01105
 31
0.0
  0
LINE
  5
C7F
330
1D
100
AcDbEntity
  8
0
100
AcDbLine
 10
48.09241
 20
133.01105
 30
0.0
 11
48.43492
 21
133.01105
 31
0.0
  0
LINE
  5
C80
330
1D
100
AcDbEntity
  8
0
100
AcDbLine
 10
44.6874
 20
133.01105
 30
0.0
 11
45.94551
 21
133.01105
 31
0.0
  0
LINE
  5
C81
330
1D
100
AcDbEntity
  8
0
100
AcDbLine
 10
62.566
 20
133.01105
 30
0.0
 11
67.354
 21
133.01105
 31
0.0
  0
LINE
  5
C82
330
1D
100
AcDbEntity
  8
0
100
AcDbLine
 10
55.2163
 20
133.01105
 30
0.0
 11
55.3603
 21
133.01105
 31
0.0
  0
LINE
  5
C83
330
1D
100
AcDbEntity
  8
0
100
AcDbLine
 10
54.8323
 20
133.01105
 30
0.0
 11
55.2163
 21
133.01105
 31
0.0
  0
LINE
  5
C84
330
1D
100
AcDbEntity
  8
0
100
AcDbLine
 10
55.006
 20
133.01105
 30
0.0
 11
56.25
 21
133.01105
 31
0.0
  0
LINE
  5
C85
330
1D
100
AcDbEntity
  8
0
100
AcDbLine
 10
55.006
 20
133.01105
 30
0.0
 11
56.518
 21
133.01105
 31
0.0
  0
LINE
  5
C86
330
1D
100
AcDbEntity
  8
0
100
AcDbLine
 10
58.7962
 20
133.01105
 30
0.0
 11
59.605
 21
133.01105
 31
0.0
  0
LINE
  5
C87
330
1D
100
AcDbEntity
  8
0
100
AcDbLine
 10
59.29
 20
133.01105
 30
0.0
 11
62.566
 21
133.01105
 31
0.0
  0
LINE
  5
C88
330
1D
100
AcDbEntity
  8
0
100
AcDbLine
 10
56.518
 20
133.01105
 30
0.0
 11
59.29
 21
133.01105
 31
0.0
  0
LINE
  5
C89
330
1D
100
AcDbEntity
  8
0
100
AcDbLine
 10
67.0638
 20
133.01105
 30
0.0
 11
68.4118
 21
133.01105
 31
0.0
  0
LINE
  5
C8A
330
1D
100
AcDbEntity
  8
0
100
AcDbLine
 10
67.0287
 20
133.01105
 30
0.0
 11
67.6687
 21
133.01105
 31
0.0
  0
LINE
  5
C8B
330
1D
100
AcDbEntity
  8
0
100
AcDbLine
 10
66.6447
 20
133.01105
 30
0.0
 11
67.0287
 21
133.01105
 31
0.0
  0
LINE
  5
C8C
330
1D
100
AcDbEntity
  8
0
100
AcDbLine
 10
66.5007
 20
133.01105
 30
0.0
 11
66.6447
 21
133.01105
 31
0.0
  0
LINE
  5
C8D
330
1D
100
AcDbEntity
  8
0
100
AcDbLine
 10
70.5007
 20
133.01105
 30
0.0
 11
71.5247
 21
133.01105
 31
0.0
  0
LINE
  5
C8E
330
1D
100
AcDbEntity
  8
0
100
AcDbLine
 10
71.5247
 20
133.01105
 30
0.0
 11
72.4847
 21
133.01105
 31
0.0
  0
LINE
  5
C8F
330
1D
100
AcDbEntity
  8
0
100
AcDbLine
 10
72.4847
 20
133.01105
 30
0.0
 11
73.3327
 21
133.01105
 31
0.0
  0
LINE
  5
C90
330
1D
100
AcDbEntity
  8
0
100
AcDbLine
 10
69.4767
 20
133.01105
 30
0.0
 11
70.5007
 21
133.01105
 31
0.0
  0
LINE
  5
C91
330
1D
100
AcDbEntity
  8
0
100
AcDbLine
 10
68.5167
 20
133.01105
 30
0.0
 11
69.4767
 21
133.01105
 31
0.0
  0
LINE
  5
C92
330
1D
100
AcDbEntity
  8
0
100
AcDbLine
 10
67.6687
 20
133.01105
 30
0.0
 11
68.5167
 21
133.01105
 31
0.0
  0
LINE
  5
C93
330
1D
100
AcDbEntity
  8
0
100
AcDbLine
 10
67.354
 20
133.01105
 30
0.0
 11
72.898
 21
133.01105
 31
0.0
  0
LINE
  5
C94
330
1D
100
AcDbEntity
  8
0
100
AcDbLine
 10
73.3327
 20
133.01105
 30
0.0
 11
73.9727
 21
133.01105
 31
0.0
  0
LINE
  5
C95
330
1D
100
AcDbEntity
  8
0
100
AcDbLine
 10
73.9727
 20
133.01105
 30
0.0
 11
74.3567
 21
133.01105
 31
0.0
  0
LINE
  5
C96
330
1D
100
AcDbEntity
  8
0
100
AcDbLine
 10
74.3567
 20
133.01105
 30
0.0
 11
74.5007
 21
133.01105
 31
0.0
  0
LINE
  5
C97
330
1D
100
AcDbEntity
  8
0
100
AcDbLine
 10
54.25
 20
164.01105
 30
0.0
 11
56.25
 21
164.01105
 31
0.0
  0
LINE
  5
C98
330
1D
100
AcDbEntity
  8
0
100
AcDbLine
 10
54.25
 20
204.01105
 30
0.0
 11
56.25
 21
204.01105
 31
0.0
  0
LINE
  5
C99
330
1D
100
AcDbEntity
  8
0
100
AcDbLine
 10
54.25
 20
178.89105
 30
0.0
 11
54.25
 21
184.01105
 31
0.0
  0
LINE
  5
C9A
330
1D
100
AcDbEntity
  8
0
100
AcDbLine
 10
54.25
 20
178.89105
 30
0.0
 11
54.25
 21
184.01105
 31
0.0
  0
LINE
  5
C9B
330
1D
100
AcDbEntity
  8
0
100
AcDbLine
 10
54.25
 20
179.65905
 30
0.0
 11
54.25
 21
184.01105
 31
0.0
  0
LINE
  5
C9C
330
1D
100
AcDbEntity
  8
0
100
AcDbLine
 10
54.25
 20
179.65905
 30
0.0
 11
54.25
 21
184.01105
 31
0.0
  0
LINE
  5
C9D
330
1D
100
AcDbEntity
  8
0
100
AcDbLine
 10
54.25
 20
184.01105
 30
0.0
 11
54.25
 21
179.65905
 31
0.0
  0
LINE
  5
C9E
330
1D
100
AcDbEntity
  8
0
100
AcDbLine
 10
54.25
 20
184.01105
 30
0.0
 11
54.25
 21
178.89105
 31
0.0
  0
LINE
  5
C9F
330
1D
100
AcDbEntity
  8
0
100
AcDbLine
 10
54.25
 20
184.01105
 30
0.0
 11
54.25
 21
179.65905
 31
0.0
  0
LINE
  5
CA0
330
1D
100
AcDbEntity
  8
0
100
AcDbLine
 10
54.25
 20
184.01105
 30
0.0
 11
54.25
 21
178.89105
 31
0.0
  0
LINE
  5
CA1
330
1D
100
AcDbEntity
  8
0
100
AcDbLine
 10
54.25
 20
169.85105
 30
0.0
 11
54.25
 21
174.09105
 31
0.0
  0
LINE
  5
CA2
330
1D
100
AcDbEntity
  8
0
100
AcDbLine
 10
54.25
 20
169.85105
 30
0.0
 11
54.25
 21
174.09105
 31
0.0
  0
LINE
  5
CA3
330
1D
100
AcDbEntity
  8
0
100
AcDbLine
 10
54.25
 20
169.25505
 30
0.0
 11
54.25
 21
171.97505
 31
0.0
  0
LINE
  5
CA4
330
1D
100
AcDbEntity
  8
0
100
AcDbLine
 10
54.25
 20
174.09105
 30
0.0
 11
54.25
 21
169.85105
 31
0.0
  0
LINE
  5
CA5
330
1D
100
AcDbEntity
  8
0
100
AcDbLine
 10
54.25
 20
174.09105
 30
0.0
 11
54.25
 21
169.85105
 31
0.0
  0
LINE
  5
CA6
330
1D
100
AcDbEntity
  8
0
100
AcDbLine
 10
54.25
 20
171.97505
 30
0.0
 11
54.25
 21
169.25505
 31
0.0
  0
LINE
  5
CA7
330
1D
100
AcDbEntity
  8
0
100
AcDbLine
 10
54.25
 20
164.73105
 30
0.0
 11
54.25
 21
166.65105
 31
0.0
  0
LINE
  5
CA8
330
1D
100
AcDbEntity
  8
0
100
AcDbLine
 10
54.25
 20
164.73105
 30
0.0
 11
54.25
 21
164.01105
 31
0.0
  0
LINE
  5
CA9
330
1D
100
AcDbEntity
  8
0
100
AcDbLine
 10
54.25
 20
164.73105
 30
0.0
 11
54.25
 21
166.65105
 31
0.0
  0
LINE
  5
CAA
330
1D
100
AcDbEntity
  8
0
100
AcDbLine
 10
54.25
 20
164.01105
 30
0.0
 11
54.25
 21
164.73105
 31
0.0
  0
LINE
  5
CAB
330
1D
100
AcDbEntity
  8
0
100
AcDbLine
 10
54.25
 20
166.65105
 30
0.0
 11
54.25
 21
169.85105
 31
0.0
  0
LINE
  5
CAC
330
1D
100
AcDbEntity
  8
0
100
AcDbLine
 10
54.25
 20
166.65105
 30
0.0
 11
54.25
 21
164.73105
 31
0.0
  0
LINE
  5
CAD
330
1D
100
AcDbEntity
  8
0
100
AcDbLine
 10
54.25
 20
167.01105
 30
0.0
 11
54.25
 21
167.62305
 31
0.0
  0
LINE
  5
CAE
330
1D
100
AcDbEntity
  8
0
100
AcDbLine
 10
54.25
 20
166.65105
 30
0.0
 11
54.25
 21
169.85105
 31
0.0
  0
LINE
  5
CAF
330
1D
100
AcDbEntity
  8
0
100
AcDbLine
 10
54.25
 20
166.65105
 30
0.0
 11
54.25
 21
164.73105
 31
0.0
  0
LINE
  5
CB0
330
1D
100
AcDbEntity
  8
0
100
AcDbLine
 10
54.25
 20
169.85105
 30
0.0
 11
54.25
 21
166.65105
 31
0.0
  0
LINE
  5
CB1
330
1D
100
AcDbEntity
  8
0
100
AcDbLine
 10
54.25
 20
169.85105
 30
0.0
 11
54.25
 21
166.65105
 31
0.0
  0
LINE
  5
CB2
330
1D
100
AcDbEntity
  8
0
100
AcDbLine
 10
54.25
 20
169.25505
 30
0.0
 11
54.25
 21
167.62305
 31
0.0
  0
LINE
  5
CB3
330
1D
100
AcDbEntity
  8
0
100
AcDbLine
 10
54.25
 20
167.62305
 30
0.0
 11
54.25
 21
167.01105
 31
0.0
  0
LINE
  5
CB4
330
1D
100
AcDbEntity
  8
0
100
AcDbLine
 10
54.25
 20
167.62305
 30
0.0
 11
54.25
 21
169.25505
 31
0.0
  0
LINE
  5
CB5
330
1D
100
AcDbEntity
  8
0
100
AcDbLine
 10
54.25
 20
174.09105
 30
0.0
 11
54.25
 21
178.89105
 31
0.0
  0
LINE
  5
CB6
330
1D
100
AcDbEntity
  8
0
100
AcDbLine
 10
54.25
 20
174.09105
 30
0.0
 11
54.25
 21
178.89105
 31
0.0
  0
LINE
  5
CB7
330
1D
100
AcDbEntity
  8
0
100
AcDbLine
 10
54.25
 20
178.89105
 30
0.0
 11
54.25
 21
174.09105
 31
0.0
  0
LINE
  5
CB8
330
1D
100
AcDbEntity
  8
0
100
AcDbLine
 10
54.25
 20
178.89105
 30
0.0
 11
54.25
 21
174.09105
 31
0.0
  0
LINE
  5
CB9
330
1D
100
AcDbEntity
  8
0
100
AcDbLine
 10
54.25
 20
175.57905
 30
0.0
 11
54.25
 21
171.97505
 31
0.0
  0
LINE
  5
CBA
330
1D
100
AcDbEntity
  8
0
100
AcDbLine
 10
54.25
 20
175.57905
 30
0.0
 11
54.25
 21
179.65905
 31
0.0
  0
LINE
  5
CBB
330
1D
100
AcDbEntity
  8
0
100
AcDbLine
 10
54.25
 20
175.57905
 30
0.0
 11
54.25
 21
179.65905
 31
0.0
  0
LINE
  5
CBC
330
1D
100
AcDbEntity
  8
0
100
AcDbLine
 10
54.25
 20
171.97505
 30
0.0
 11
54.25
 21
175.57905
 31
0.0
  0
LINE
  5
CBD
330
1D
100
AcDbEntity
  8
0
100
AcDbLine
 10
54.25
 20
179.65905
 30
0.0
 11
54.25
 21
175.57905
 31
0.0
  0
LINE
  5
CBE
330
1D
100
AcDbEntity
  8
0
100
AcDbLine
 10
54.25
 20
179.65905
 30
0.0
 11
54.25
 21
175.57905
 31
0.0
  0
LINE
  5
CBF
330
1D
100
AcDbEntity
  8
0
100
AcDbLine
 10
54.25
 20
192.44305
 30
0.0
 11
54.25
 21
196.04705
 31
0.0
  0
LINE
  5
CC0
330
1D
100
AcDbEntity
  8
0
100
AcDbLine
 10
54.25
 20
193.93105
 30
0.0
 11
54.25
 21
198.17105
 31
0.0
  0
LINE
  5
CC1
330
1D
100
AcDbEntity
  8
0
100
AcDbLine
 10
54.25
 20
196.04705
 30
0.0
 11
54.25
 21
192.44305
 31
0.0
  0
LINE
  5
CC2
330
1D
100
AcDbEntity
  8
0
100
AcDbLine
 10
54.25
 20
198.17105
 30
0.0
 11
54.25
 21
193.93105
 31
0.0
  0
LINE
  5
CC3
330
1D
100
AcDbEntity
  8
0
100
AcDbLine
 10
54.25
 20
184.01105
 30
0.0
 11
54.25
 21
188.36305
 31
0.0
  0
LINE
  5
CC4
330
1D
100
AcDbEntity
  8
0
100
AcDbLine
 10
54.25
 20
184.01105
 30
0.0
 11
54.25
 21
189.13105
 31
0.0
  0
LINE
  5
CC5
330
1D
100
AcDbEntity
  8
0
100
AcDbLine
 10
54.25
 20
184.01105
 30
0.0
 11
54.25
 21
188.36305
 31
0.0
  0
LINE
  5
CC6
330
1D
100
AcDbEntity
  8
0
100
AcDbLine
 10
54.25
 20
184.01105
 30
0.0
 11
54.25
 21
189.13105
 31
0.0
  0
LINE
  5
CC7
330
1D
100
AcDbEntity
  8
0
100
AcDbLine
 10
54.25
 20
188.36305
 30
0.0
 11
54.25
 21
192.44305
 31
0.0
  0
LINE
  5
CC8
330
1D
100
AcDbEntity
  8
0
100
AcDbLine
 10
54.25
 20
188.36305
 30
0.0
 11
54.25
 21
184.01105
 31
0.0
  0
LINE
  5
CC9
330
1D
100
AcDbEntity
  8
0
100
AcDbLine
 10
54.25
 20
188.36305
 30
0.0
 11
54.25
 21
184.01105
 31
0.0
  0
LINE
  5
CCA
330
1D
100
AcDbEntity
  8
0
100
AcDbLine
 10
54.25
 20
192.44305
 30
0.0
 11
54.25
 21
188.36305
 31
0.0
  0
LINE
  5
CCB
330
1D
100
AcDbEntity
  8
0
100
AcDbLine
 10
54.25
 20
189.13105
 30
0.0
 11
54.25
 21
184.01105
 31
0.0
  0
LINE
  5
CCC
330
1D
100
AcDbEntity
  8
0
100
AcDbLine
 10
54.25
 20
189.13105
 30
0.0
 11
54.25
 21
193.93105
 31
0.0
  0
LINE
  5
CCD
330
1D
100
AcDbEntity
  8
0
100
AcDbLine
 10
54.25
 20
189.13105
 30
0.0
 11
54.25
 21
184.01105
 31
0.0
  0
LINE
  5
CCE
330
1D
100
AcDbEntity
  8
0
100
AcDbLine
 10
54.25
 20
193.93105
 30
0.0
 11
54.25
 21
189.13105
 31
0.0
  0
LINE
  5
CCF
330
1D
100
AcDbEntity
  8
0
100
AcDbLine
 10
54.25
 20
196.04705
 30
0.0
 11
54.25
 21
198.76705
 31
0.0
  0
LINE
  5
CD0
330
1D
100
AcDbEntity
  8
0
100
AcDbLine
 10
54.25
 20
201.01105
 30
0.0
 11
54.25
 21
200.39905
 31
0.0
  0
LINE
  5
CD1
330
1D
100
AcDbEntity
  8
0
100
AcDbLine
 10
54.25
 20
198.76705
 30
0.0
 11
54.25
 21
200.39905
 31
0.0
  0
LINE
  5
CD2
330
1D
100
AcDbEntity
  8
0
100
AcDbLine
 10
54.25
 20
198.76705
 30
0.0
 11
54.25
 21
196.04705
 31
0.0
  0
LINE
  5
CD3
330
1D
100
AcDbEntity
  8
0
100
AcDbLine
 10
54.25
 20
200.39905
 30
0.0
 11
54.25
 21
201.01105
 31
0.0
  0
LINE
  5
CD4
330
1D
100
AcDbEntity
  8
0
100
AcDbLine
 10
54.25
 20
200.39905
 30
0.0
 11
54.25
 21
198.76705
 31
0.0
  0
LINE
  5
CD5
330
1D
100
AcDbEntity
  8
0
100
AcDbLine
 10
54.25
 20
198.17105
 30
0.0
 11
54.25
 21
201.37105
 31
0.0
  0
LINE
  5
CD6
330
1D
100
AcDbEntity
  8
0
100
AcDbLine
 10
54.25
 20
201.37105
 30
0.0
 11
54.25
 21
198.17105
 31
0.0
  0
LINE
  5
CD7
330
1D
100
AcDbEntity
  8
0
100
AcDbLine
 10
54.25
 20
201.37105
 30
0.0
 11
54.25
 21
203.29105
 31
0.0
  0
LINE
  5
CD8
330
1D
100
AcDbEntity
  8
0
100
AcDbLine
 10
54.25
 20
203.29105
 30
0.0
 11
54.25
 21
201.37105
 31
0.0
  0
LINE
  5
CD9
330
1D
100
AcDbEntity
  8
0
100
AcDbLine
 10
54.25
 20
203.29105
 30
0.0
 11
54.25
 21
204.01105
 31
0.0
  0
LINE
  5
CDA
330
1D
100
AcDbEntity
  8
0
100
AcDbLine
 10
54.25
 20
204.01105
 30
0.0
 11
54.25
 21
203.29105
 31
0.0
  0
LINE
  5
CDB
330
1D
100
AcDbEntity
  8
0
100
AcDbLine
 10
56.25
 20
184.01105
 30
0.0
 11
56.25
 21
178.89105
 31
0.0
  0
LINE
  5
CDC
330
1D
100
AcDbEntity
  8
0
100
AcDbLine
 10
59.6463
 20
178.89105
 30
0.0
 11
59.9
 21
184.01105
 31
0.0
  0
LINE
  5
CDD
330
1D
100
AcDbEntity
  8
0
100
AcDbLine
 10
56.25
 20
178.89105
 30
0.0
 11
56.25
 21
174.09105
 31
0.0
  0
LINE
  5
CDE
330
1D
100
AcDbEntity
  8
0
100
AcDbLine
 10
56.25
 20
174.09105
 30
0.0
 11
56.25
 21
169.85105
 31
0.0
  0
LINE
  5
CDF
330
1D
100
AcDbEntity
  8
0
100
AcDbLine
 10
56.25
 20
169.85105
 30
0.0
 11
56.25
 21
166.65105
 31
0.0
  0
LINE
  5
CE0
330
1D
100
AcDbEntity
  8
0
100
AcDbLine
 10
56.25
 20
166.65105
 30
0.0
 11
56.25
 21
164.73105
 31
0.0
  0
LINE
  5
CE1
330
1D
100
AcDbEntity
  8
0
100
AcDbLine
 10
56.25
 20
164.73105
 30
0.0
 11
56.25
 21
164.01105
 31
0.0
  0
LINE
  5
CE2
330
1D
100
AcDbEntity
  8
0
100
AcDbLine
 10
56.25
 20
164.01105
 30
0.0
 11
56.6572
 21
164.73105
 31
0.0
  0
LINE
  5
CE3
330
1D
100
AcDbEntity
  8
0
100
AcDbLine
 10
57.3376
 20
166.65105
 30
0.0
 11
58.1396
 21
169.85105
 31
0.0
  0
LINE
  5
CE4
330
1D
100
AcDbEntity
  8
0
100
AcDbLine
 10
56.6572
 20
164.73105
 30
0.0
 11
57.3376
 21
166.65105
 31
0.0
  0
LINE
  5
CE5
330
1D
100
AcDbEntity
  8
0
100
AcDbLine
 10
58.9901
 20
174.09105
 30
0.0
 11
59.6463
 21
178.89105
 31
0.0
  0
LINE
  5
CE6
330
1D
100
AcDbEntity
  8
0
100
AcDbLine
 10
58.1396
 20
169.85105
 30
0.0
 11
58.9901
 21
174.09105
 31
0.0
  0
LINE
  5
CE7
330
1D
100
AcDbEntity
  8
0
100
AcDbLine
 10
64.3548
 20
199.01105
 30
0.0
 11
68.4124
 21
199.01105
 31
0.0
  0
LINE
  5
CE8
330
1D
100
AcDbEntity
  8
0
100
AcDbLine
 10
64.6567
 20
199.01105
 30
0.0
 11
66.4487
 21
199.01105
 31
0.0
  0
LINE
  5
CE9
330
1D
100
AcDbEntity
  8
0
100
AcDbLine
 10
65.8514
 20
199.01105
 30
0.0
 11
66.9714
 21
199.01105
 31
0.0
  0
LINE
  5
CEA
330
1D
100
AcDbEntity
  8
0
100
AcDbLine
 10
64.6567
 20
206.01105
 30
0.0
 11
66.4487
 21
206.01105
 31
0.0
  0
LINE
  5
CEB
330
1D
100
AcDbEntity
  8
0
100
AcDbLine
 10
56.25
 20
198.17105
 30
0.0
 11
56.25
 21
193.93105
 31
0.0
  0
LINE
  5
CEC
330
1D
100
AcDbEntity
  8
0
100
AcDbLine
 10
58.1396
 20
198.17105
 30
0.0
 11
58.9901
 21
193.93105
 31
0.0
  0
LINE
  5
CED
330
1D
100
AcDbEntity
  8
0
100
AcDbLine
 10
56.25
 20
189.13105
 30
0.0
 11
56.25
 21
184.01105
 31
0.0
  0
LINE
  5
CEE
330
1D
100
AcDbEntity
  8
0
100
AcDbLine
 10
56.25
 20
193.93105
 30
0.0
 11
56.25
 21
189.13105
 31
0.0
  0
LINE
  5
CEF
330
1D
100
AcDbEntity
  8
0
100
AcDbLine
 10
59.6463
 20
189.13105
 30
0.0
 11
59.9
 21
184.01105
 31
0.0
  0
LINE
  5
CF0
330
1D
100
AcDbEntity
  8
0
100
AcDbLine
 10
58.9901
 20
193.93105
 30
0.0
 11
59.6463
 21
189.13105
 31
0.0
  0
LINE
  5
CF1
330
1D
100
AcDbEntity
  8
0
100
AcDbLine
 10
59.7007
 20
199.01105
 30
0.0
 11
61.1847
 21
199.01105
 31
0.0
  0
LINE
  5
CF2
330
1D
100
AcDbEntity
  8
0
100
AcDbLine
 10
60.158
 20
199.01105
 30
0.0
 11
60.606
 21
199.01105
 31
0.0
  0
LINE
  5
CF3
330
1D
100
AcDbEntity
  8
0
100
AcDbLine
 10
59.7007
 20
206.01105
 30
0.0
 11
61.1847
 21
206.01105
 31
0.0
  0
LINE
  5
CF4
330
1D
100
AcDbEntity
  8
0
100
AcDbLine
 10
56.25
 20
201.37105
 30
0.0
 11
56.25
 21
198.17105
 31
0.0
  0
LINE
  5
CF5
330
1D
100
AcDbEntity
  8
0
100
AcDbLine
 10
56.25
 20
203.29105
 30
0.0
 11
56.25
 21
201.37105
 31
0.0
  0
LINE
  5
CF6
330
1D
100
AcDbEntity
  8
0
100
AcDbLine
 10
56.25
 20
206.01105
 30
0.0
 11
56.25
 21
204.01105
 31
0.0
  0
LINE
  5
CF7
330
1D
100
AcDbEntity
  8
0
100
AcDbLine
 10
56.25
 20
206.01105
 30
0.0
 11
56.8921
 21
206.01105
 31
0.0
  0
LINE
  5
CF8
330
1D
100
AcDbEntity
  8
0
100
AcDbLine
 10
56.25
 20
204.01105
 30
0.0
 11
56.25
 21
206.01105
 31
0.0
  0
LINE
  5
CF9
330
1D
100
AcDbEntity
  8
0
100
AcDbLine
 10
56.25
 20
204.01105
 30
0.0
 11
56.6572
 21
203.29105
 31
0.0
  0
LINE
  5
CFA
330
1D
100
AcDbEntity
  8
0
100
AcDbLine
 10
56.25
 20
204.01105
 30
0.0
 11
56.25
 21
203.29105
 31
0.0
  0
LINE
  5
CFB
330
1D
100
AcDbEntity
  8
0
100
AcDbLine
 10
57.9087
 20
199.01105
 30
0.0
 11
58.5807
 21
199.01105
 31
0.0
  0
LINE
  5
CFC
330
1D
100
AcDbEntity
  8
0
100
AcDbLine
 10
57.6567
 20
199.01105
 30
0.0
 11
57.9087
 21
199.01105
 31
0.0
  0
LINE
  5
CFD
330
1D
100
AcDbEntity
  8
0
100
AcDbLine
 10
57.6567
 20
199.01105
 30
0.0
 11
57.6567
 21
206.01105
 31
0.0
  0
LINE
  5
CFE
330
1D
100
AcDbEntity
  8
0
100
AcDbLine
 10
58.5807
 20
199.01105
 30
0.0
 11
59.7007
 21
199.01105
 31
0.0
  0
LINE
  5
CFF
330
1D
100
AcDbEntity
  8
0
100
AcDbLine
 10
59.99
 20
199.01105
 30
0.0
 11
60.158
 21
199.01105
 31
0.0
  0
LINE
  5
D00
330
1D
100
AcDbEntity
  8
0
100
AcDbLine
 10
57.929075
 20
199.01105
 30
0.0
 11
58.1396
 21
198.17105
 31
0.0
  0
LINE
  5
D01
330
1D
100
AcDbEntity
  8
0
100
AcDbLine
 10
58.5807
 20
206.01105
 30
0.0
 11
59.7007
 21
206.01105
 31
0.0
  0
LINE
  5
D02
330
1D
100
AcDbEntity
  8
0
100
AcDbLine
 10
57.9087
 20
206.01105
 30
0.0
 11
58.5807
 21
206.01105
 31
0.0
  0
LINE
  5
D03
330
1D
100
AcDbEntity
  8
0
100
AcDbLine
 10
57.6567
 20
206.01105
 30
0.0
 11
57.6567
 21
199.01105
 31
0.0
  0
LINE
  5
D04
330
1D
100
AcDbEntity
  8
0
100
AcDbLine
 10
57.6567
 20
206.01105
 30
0.0
 11
57.9087
 21
206.01105
 31
0.0
  0
LINE
  5
D05
330
1D
100
AcDbEntity
  8
0
100
AcDbLine
 10
56.8921
 20
206.01105
 30
0.0
 11
57.6567
 21
206.01105
 31
0.0
  0
LINE
  5
D06
330
1D
100
AcDbEntity
  8
0
100
AcDbLine
 10
57.3376
 20
201.37105
 30
0.0
 11
57.6567
 21
200.097833042394
 31
0.0
  0
LINE
  5
D07
330
1D
100
AcDbEntity
  8
0
100
AcDbLine
 10
56.6572
 20
203.29105
 30
0.0
 11
57.3376
 21
201.37105
 31
0.0
  0
LINE
  5
D08
330
1D
100
AcDbEntity
  8
0
100
AcDbLine
 10
61.4727
 20
199.01105
 30
0.0
 11
65.9734
 21
199.01105
 31
0.0
  0
LINE
  5
D09
330
1D
100
AcDbEntity
  8
0
100
AcDbLine
 10
61.4727
 20
199.01105
 30
0.0
 11
64.3548
 21
199.01105
 31
0.0
  0
LINE
  5
D0A
330
1D
100
AcDbEntity
  8
0
100
AcDbLine
 10
61.1847
 20
199.01105
 30
0.0
 11
62.8647
 21
199.01105
 31
0.0
  0
LINE
  5
D0B
330
1D
100
AcDbEntity
  8
0
100
AcDbLine
 10
64.6567
 20
199.01105
 30
0.0
 11
65.8514
 21
199.01105
 31
0.0
  0
LINE
  5
D0C
330
1D
100
AcDbEntity
  8
0
100
AcDbLine
 10
62.8647
 20
199.01105
 30
0.0
 11
64.6567
 21
199.01105
 31
0.0
  0
LINE
  5
D0D
330
1D
100
AcDbEntity
  8
0
100
AcDbLine
 10
63.462
 20
199.01105
 30
0.0
 11
64.6567
 21
199.01105
 31
0.0
  0
LINE
  5
D0E
330
1D
100
AcDbEntity
  8
0
100
AcDbLine
 10
62.342
 20
199.01105
 30
0.0
 11
63.462
 21
199.01105
 31
0.0
  0
LINE
  5
D0F
330
1D
100
AcDbEntity
  8
0
100
AcDbLine
 10
61.3527
 20
199.01105
 30
0.0
 11
62.342
 21
199.01105
 31
0.0
  0
LINE
  5
D10
330
1D
100
AcDbEntity
  8
0
100
AcDbLine
 10
60.606
 20
199.01105
 30
0.0
 11
61.3527
 21
199.01105
 31
0.0
  0
LINE
  5
D11
330
1D
100
AcDbEntity
  8
0
100
AcDbLine
 10
62.8647
 20
206.01105
 30
0.0
 11
64.6567
 21
206.01105
 31
0.0
  0
LINE
  5
D12
330
1D
100
AcDbEntity
  8
0
100
AcDbLine
 10
61.1847
 20
206.01105
 30
0.0
 11
62.8647
 21
206.01105
 31
0.0
  0
LINE
  5
D13
330
1D
100
AcDbEntity
  8
0
100
AcDbLine
 10
66.4487
 20
199.01105
 30
0.0
 11
68.1287
 21
199.01105
 31
0.0
  0
LINE
  5
D14
330
1D
100
AcDbEntity
  8
0
100
AcDbLine
 10
66.9714
 20
199.01105
 30
0.0
 11
67.9607
 21
199.01105
 31
0.0
  0
LINE
  5
D15
330
1D
100
AcDbEntity
  8
0
100
AcDbLine
 10
68.1287
 20
199.01105
 30
0.0
 11
69.6127
 21
199.01105
 31
0.0
  0
LINE
  5
D16
330
1D
100
AcDbEntity
  8
0
100
AcDbLine
 10
67.9607
 20
199.01105
 30
0.0
 11
68.7074
 21
199.01105
 31
0.0
  0
LINE
  5
D17
330
1D
100
AcDbEntity
  8
0
100
AcDbLine
 10
68.7074
 20
199.01105
 30
0.0
 11
69.1554
 21
199.01105
 31
0.0
  0
LINE
  5
D18
330
1D
100
AcDbEntity
  8
0
100
AcDbLine
 10
69.1554
 20
199.01105
 30
0.0
 11
69.3234
 21
199.01105
 31
0.0
  0
LINE
  5
D19
330
1D
100
AcDbEntity
  8
0
100
AcDbLine
 10
67.5264
 20
199.01105
 30
0.0
 11
69.6477
 21
199.01105
 31
0.0
  0
LINE
  5
D1A
330
1D
100
AcDbEntity
  8
0
100
AcDbLine
 10
67.5264
 20
199.01105
 30
0.0
 11
73.827598148148
 21
199.01105
 31
0.0
  0
LINE
  5
D1B
330
1D
100
AcDbEntity
  8
0
100
AcDbLine
 10
69.6127
 20
199.01105
 30
0.0
 11
70.7327
 21
199.01105
 31
0.0
  0
LINE
  5
D1C
330
1D
100
AcDbEntity
  8
0
100
AcDbLine
 10
70.7327
 20
199.01105
 30
0.0
 11
71.4047
 21
199.01105
 31
0.0
  0
LINE
  5
D1D
330
1D
100
AcDbEntity
  8
0
100
AcDbLine
 10
71.4047
 20
199.01105
 30
0.0
 11
71.6567
 21
199.01105
 31
0.0
  0
LINE
  5
D1E
330
1D
100
AcDbEntity
  8
0
100
AcDbLine
 10
69.6477
 20
199.01105
 30
0.0
 11
76.3567
 21
199.01105
 31
0.0
  0
LINE
  5
D1F
330
1D
100
AcDbEntity
  8
0
100
AcDbLine
 10
69.4707
 20
199.01105
 30
0.0
 11
70.3035
 21
199.01105
 31
0.0
  0
LINE
  5
D20
330
1D
100
AcDbEntity
  8
0
100
AcDbLine
 10
66.4487
 20
206.01105
 30
0.0
 11
68.1287
 21
206.01105
 31
0.0
  0
LINE
  5
D21
330
1D
100
AcDbEntity
  8
0
100
AcDbLine
 10
68.1287
 20
206.01105
 30
0.0
 11
69.6127
 21
206.01105
 31
0.0
  0
LINE
  5
D22
330
1D
100
AcDbEntity
  8
0
100
AcDbLine
 10
69.6127
 20
206.01105
 30
0.0
 11
70.7327
 21
206.01105
 31
0.0
  0
LINE
  5
D23
330
1D
100
AcDbEntity
  8
0
100
AcDbLine
 10
93.31
 20
133.01105
 30
0.0
 11
101.122
 21
133.01105
 31
0.0
  0
LINE
  5
D24
330
1D
100
AcDbEntity
  8
0
100
AcDbLine
 10
82.0891
 20
133.01105
 30
0.0
 11
91.0804
 21
133.01105
 31
0.0
  0
LINE
  5
D25
330
1D
100
AcDbEntity
  8
0
100
AcDbLine
 10
79.3917
 20
133.01105
 30
0.0
 11
89.8216
 21
133.01105
 31
0.0
  0
LINE
  5
D26
330
1D
100
AcDbEntity
  8
0
100
AcDbLine
 10
86.002
 20
133.01105
 30
0.0
 11
93.31
 21
133.01105
 31
0.0
  0
LINE
  5
D27
330
1D
100
AcDbEntity
  8
0
100
AcDbLine
 10
79.3917
 20
133.01105
 30
0.0
 11
82.0891
 21
133.01105
 31
0.0
  0
LINE
  5
D28
330
1D
100
AcDbEntity
  8
0
100
AcDbLine
 10
78.946
 20
133.01105
 30
0.0
 11
86.002
 21
133.01105
 31
0.0
  0
LINE
  5
D29
330
1D
100
AcDbEntity
  8
0
100
AcDbLine
 10
89.544
 20
133.01105
 30
0.0
 11
89.928
 21
133.01105
 31
0.0
  0
LINE
  5
D2A
330
1D
100
AcDbEntity
  8
0
100
AcDbLine
 10
89.4
 20
133.01105
 30
0.0
 11
89.544
 21
133.01105
 31
0.0
  0
LINE
  5
D2B
330
1D
100
AcDbEntity
  8
0
100
AcDbLine
 10
92.376
 20
133.01105
 30
0.0
 11
93.4
 21
133.01105
 31
0.0
  0
LINE
  5
D2C
330
1D
100
AcDbEntity
  8
0
100
AcDbLine
 10
91.416
 20
133.01105
 30
0.0
 11
92.376
 21
133.01105
 31
0.0
  0
LINE
  5
D2D
330
1D
100
AcDbEntity
  8
0
100
AcDbLine
 10
90.568
 20
133.01105
 30
0.0
 11
91.416
 21
133.01105
 31
0.0
  0
LINE
  5
D2E
330
1D
100
AcDbEntity
  8
0
100
AcDbLine
 10
89.928
 20
133.01105
 30
0.0
 11
90.568
 21
133.01105
 31
0.0
  0
LINE
  5
D2F
330
1D
100
AcDbEntity
  8
0
100
AcDbLine
 10
89.8216
 20
133.01105
 30
0.0
 11
91.0804
 21
133.01105
 31
0.0
  0
LINE
  5
D30
330
1D
100
AcDbEntity
  8
0
100
AcDbLine
 10
93.8039
 20
133.01105
 30
0.0
 11
95.7743
 21
133.01105
 31
0.0
  0
LINE
  5
D31
330
1D
100
AcDbEntity
  8
0
100
AcDbLine
 10
93.8039
 20
133.01105
 30
0.0
 11
95.666
 21
133.01105
 31
0.0
  0
LINE
  5
D32
330
1D
100
AcDbEntity
  8
0
100
AcDbLine
 10
93.4
 20
133.01105
 30
0.0
 11
94.424
 21
133.01105
 31
0.0
  0
LINE
  5
D33
330
1D
100
AcDbEntity
  8
0
100
AcDbLine
 10
94.424
 20
133.01105
 30
0.0
 11
95.384
 21
133.01105
 31
0.0
  0
LINE
  5
D34
330
1D
100
AcDbEntity
  8
0
100
AcDbLine
 10
95.7743
 20
133.01105
 30
0.0
 11
97.734
 21
133.01105
 31
0.0
  0
LINE
  5
D35
330
1D
100
AcDbEntity
  8
0
100
AcDbLine
 10
95.666
 20
133.01105
 30
0.0
 11
97.734
 21
133.01105
 31
0.0
  0
LINE
  5
D36
330
1D
100
AcDbEntity
  8
0
100
AcDbLine
 10
95.384
 20
133.01105
 30
0.0
 11
96.232
 21
133.01105
 31
0.0
  0
LINE
  5
D37
330
1D
100
AcDbEntity
  8
0
100
AcDbLine
 10
96.232
 20
133.01105
 30
0.0
 11
96.872
 21
133.01105
 31
0.0
  0
LINE
  5
D38
330
1D
100
AcDbEntity
  8
0
100
AcDbLine
 10
96.872
 20
133.01105
 30
0.0
 11
97.256
 21
133.01105
 31
0.0
  0
LINE
  5
D39
330
1D
100
AcDbEntity
  8
0
100
AcDbLine
 10
97.256
 20
133.01105
 30
0.0
 11
97.4
 21
133.01105
 31
0.0
  0
LINE
  5
D3A
330
1D
100
AcDbEntity
  8
0
100
AcDbLine
 10
91.75
 20
133.01105
 30
0.0
 11
91.75
 21
137.01105
 31
0.0
  0
LINE
  5
D3B
330
1D
100
AcDbEntity
  8
0
100
AcDbLine
 10
91.75
 20
133.01105
 30
0.0
 11
92.55
 21
133.01105
 31
0.0
  0
LINE
  5
D3C
330
1D
100
AcDbEntity
  8
0
100
AcDbLine
 10
91.75
 20
137.01105
 30
0.0
 11
91.75
 21
133.01105
 31
0.0
  0
LINE
  5
D3D
330
1D
100
AcDbEntity
  8
0
100
AcDbLine
 10
101.122
 20
133.01105
 30
0.0
 11
108.934
 21
133.01105
 31
0.0
  0
LINE
  5
D3E
330
1D
100
AcDbEntity
  8
0
100
AcDbLine
 10
108.934
 20
133.01105
 30
0.0
 11
117.25
 21
133.01105
 31
0.0
  0
LINE
  5
D3F
330
1D
100
AcDbEntity
  8
0
100
AcDbLine
 10
116.3214
 20
133.01105
 30
0.0
 11
117.3454
 21
133.01105
 31
0.0
  0
LINE
  5
D40
330
1D
100
AcDbEntity
  8
0
100
AcDbLine
 10
115.3614
 20
133.01105
 30
0.0
 11
116.3214
 21
133.01105
 31
0.0
  0
LINE
  5
D41
330
1D
100
AcDbEntity
  8
0
100
AcDbLine
 10
114.5134
 20
133.01105
 30
0.0
 11
115.3614
 21
133.01105
 31
0.0
  0
LINE
  5
D42
330
1D
100
AcDbEntity
  8
0
100
AcDbLine
 10
113.8734
 20
133.01105
 30
0.0
 11
114.5134
 21
133.01105
 31
0.0
  0
LINE
  5
D43
330
1D
100
AcDbEntity
  8
0
100
AcDbLine
 10
113.4894
 20
133.01105
 30
0.0
 11
113.8734
 21
133.01105
 31
0.0
  0
LINE
  5
D44
330
1D
100
AcDbEntity
  8
0
100
AcDbLine
 10
113.3454
 20
133.01105
 30
0.0
 11
113.4894
 21
133.01105
 31
0.0
  0
LINE
  5
D45
330
1D
100
AcDbEntity
  8
0
100
AcDbLine
 10
116.25
 20
133.01105
 30
0.0
 11
118.25
 21
133.01105
 31
0.0
  0
LINE
  5
D46
330
1D
100
AcDbEntity
  8
0
100
AcDbLine
 10
117.3454
 20
133.01105
 30
0.0
 11
118.3694
 21
133.01105
 31
0.0
  0
LINE
  5
D47
330
1D
100
AcDbEntity
  8
0
100
AcDbLine
 10
118.3694
 20
133.01105
 30
0.0
 11
119.3294
 21
133.01105
 31
0.0
  0
LINE
  5
D48
330
1D
100
AcDbEntity
  8
0
100
AcDbLine
 10
119.3294
 20
133.01105
 30
0.0
 11
120.1774
 21
133.01105
 31
0.0
  0
LINE
  5
D49
330
1D
100
AcDbEntity
  8
0
100
AcDbLine
 10
120.1774
 20
133.01105
 30
0.0
 11
120.8174
 21
133.01105
 31
0.0
  0
LINE
  5
D4A
330
1D
100
AcDbEntity
  8
0
100
AcDbLine
 10
120.8174
 20
133.01105
 30
0.0
 11
121.2014
 21
133.01105
 31
0.0
  0
LINE
  5
D4B
330
1D
100
AcDbEntity
  8
0
100
AcDbLine
 10
121.2014
 20
133.01105
 30
0.0
 11
121.3454
 21
133.01105
 31
0.0
  0
LINE
  5
D4C
330
1D
100
AcDbEntity
  8
0
100
AcDbLine
 10
99.89
 20
174.09105
 30
0.0
 11
103.09
 21
169.85105
 31
0.0
  0
LINE
  5
D4D
330
1D
100
AcDbEntity
  8
0
100
AcDbLine
 10
100.25
 20
184.01105
 30
0.0
 11
100.862
 21
188.36305
 31
0.0
  0
LINE
  5
D4E
330
1D
100
AcDbEntity
  8
0
100
AcDbLine
 10
100.25
 20
184.01105
 30
0.0
 11
100.862
 21
179.65905
 31
0.0
  0
LINE
  5
D4F
330
1D
100
AcDbEntity
  8
0
100
AcDbLine
 10
99.8889
 20
193.93105
 30
0.0
 11
103.0707
 21
198.17105
 31
0.0
  0
LINE
  5
D50
330
1D
100
AcDbEntity
  8
0
100
AcDbLine
 10
99.89
 20
193.93105
 30
0.0
 11
103.09
 21
198.17105
 31
0.0
  0
LINE
  5
D51
330
1D
100
AcDbEntity
  8
0
100
AcDbLine
 10
99.8889
 20
174.09105
 30
0.0
 11
103.0707
 21
169.85105
 31
0.0
  0
LINE
  5
D52
330
1D
100
AcDbEntity
  8
0
100
AcDbLine
 10
93.9416
 20
206.01105
 30
0.0
 11
101.5184
 21
206.01105
 31
0.0
  0
LINE
  5
D53
330
1D
100
AcDbEntity
  8
0
100
AcDbLine
 10
97.9458
 20
189.13105
 30
0.0
 11
99.8889
 21
193.93105
 31
0.0
  0
LINE
  5
D54
330
1D
100
AcDbEntity
  8
0
100
AcDbLine
 10
97.25
 20
184.01105
 30
0.0
 11
97.9458
 21
178.89105
 31
0.0
  0
LINE
  5
D55
330
1D
100
AcDbEntity
  8
0
100
AcDbLine
 10
97.25
 20
184.01105
 30
0.0
 11
97.97
 21
178.89105
 31
0.0
  0
LINE
  5
D56
330
1D
100
AcDbEntity
  8
0
100
AcDbLine
 10
97.25
 20
184.01105
 30
0.0
 11
97.97
 21
189.13105
 31
0.0
  0
LINE
  5
D57
330
1D
100
AcDbEntity
  8
0
100
AcDbLine
 10
97.25
 20
184.01105
 30
0.0
 11
97.9458
 21
189.13105
 31
0.0
  0
LINE
  5
D58
330
1D
100
AcDbEntity
  8
0
100
AcDbLine
 10
97.97
 20
189.13105
 30
0.0
 11
99.89
 21
193.93105
 31
0.0
  0
LINE
  5
D59
330
1D
100
AcDbEntity
  8
0
100
AcDbLine
 10
97.97
 20
178.89105
 30
0.0
 11
99.89
 21
174.09105
 31
0.0
  0
LINE
  5
D5A
330
1D
100
AcDbEntity
  8
0
100
AcDbLine
 10
97.9458
 20
178.89105
 30
0.0
 11
99.8889
 21
174.09105
 31
0.0
  0
LINE
  5
D5B
330
1D
100
AcDbEntity
  8
0
100
AcDbLine
 10
86.6605
 20
206.01105
 30
0.0
 11
86.8784
 21
206.01105
 31
0.0
  0
LINE
  5
D5C
330
1D
100
AcDbEntity
  8
0
100
AcDbLine
 10
86.8784
 20
206.01105
 30
0.0
 11
93.9416
 21
206.01105
 31
0.0
  0
LINE
  5
D5D
330
1D
100
AcDbEntity
  8
0
100
AcDbLine
 10
102.6786
 20
184.01105
 30
0.0
 11
103.2031
 21
180.28075
 31
0.0
  0
LINE
  5
D5E
330
1D
100
AcDbEntity
  8
0
100
AcDbLine
 10
117.25
 20
164.01105
 30
0.0
 11
122.3939
 21
164.73105
 31
0.0
  0
LINE
  5
D5F
330
1D
100
AcDbEntity
  8
0
100
AcDbLine
 10
117.25
 20
164.01105
 30
0.0
 11
122.37
 21
164.73105
 31
0.0
  0
LINE
  5
D60
330
1D
100
AcDbEntity
  8
0
100
AcDbLine
 10
112.13
 20
164.73105
 30
0.0
 11
117.25
 21
164.01105
 31
0.0
  0
LINE
  5
D61
330
1D
100
AcDbEntity
  8
0
100
AcDbLine
 10
117.25
 20
167.01105
 30
0.0
 11
121.602
 21
167.62305
 31
0.0
  0
LINE
  5
D62
330
1D
100
AcDbEntity
  8
0
100
AcDbLine
 10
112.898
 20
167.62305
 30
0.0
 11
117.25
 21
167.01105
 31
0.0
  0
LINE
  5
D63
330
1D
100
AcDbEntity
  8
0
100
AcDbLine
 10
117.25
 20
169.43965
 30
0.0
 11
120.9803
 21
169.96415
 31
0.0
  0
LINE
  5
D64
330
1D
100
AcDbEntity
  8
0
100
AcDbLine
 10
108.818
 20
169.25505
 30
0.0
 11
112.898
 21
167.62305
 31
0.0
  0
LINE
  5
D65
330
1D
100
AcDbEntity
  8
0
100
AcDbLine
 10
107.33
 20
166.65105
 30
0.0
 11
112.13
 21
164.73105
 31
0.0
  0
LINE
  5
D66
330
1D
100
AcDbEntity
  8
0
100
AcDbLine
 10
107.3213
 20
166.65105
 30
0.0
 11
112.1061
 21
164.73105
 31
0.0
  0
LINE
  5
D67
330
1D
100
AcDbEntity
  8
0
100
AcDbLine
 10
112.1061
 20
164.73105
 30
0.0
 11
117.25
 21
164.01105
 31
0.0
  0
LINE
  5
D68
330
1D
100
AcDbEntity
  8
0
100
AcDbLine
 10
102.494
 20
175.57905
 30
0.0
 11
105.214
 21
171.97505
 31
0.0
  0
LINE
  5
D69
330
1D
100
AcDbEntity
  8
0
100
AcDbLine
 10
100.862
 20
179.65905
 30
0.0
 11
102.494
 21
175.57905
 31
0.0
  0
LINE
  5
D6A
330
1D
100
AcDbEntity
  8
0
100
AcDbLine
 10
105.214
 20
171.97505
 30
0.0
 11
108.818
 21
169.25505
 31
0.0
  0
LINE
  5
D6B
330
1D
100
AcDbEntity
  8
0
100
AcDbLine
 10
103.09
 20
169.85105
 30
0.0
 11
107.33
 21
166.65105
 31
0.0
  0
LINE
  5
D6C
330
1D
100
AcDbEntity
  8
0
100
AcDbLine
 10
104.602
 20
176.78365
 30
0.0
 11
106.9334
 21
173.69445
 31
0.0
  0
LINE
  5
D6D
330
1D
100
AcDbEntity
  8
0
100
AcDbLine
 10
106.9334
 20
173.69445
 30
0.0
 11
110.0226
 21
171.36305
 31
0.0
  0
LINE
  5
D6E
330
1D
100
AcDbEntity
  8
0
100
AcDbLine
 10
110.0226
 20
171.36305
 30
0.0
 11
113.5197
 21
169.96415
 31
0.0
  0
LINE
  5
D6F
330
1D
100
AcDbEntity
  8
0
100
AcDbLine
 10
103.2031
 20
180.28075
 30
0.0
 11
104.602
 21
176.78365
 31
0.0
  0
LINE
  5
D70
330
1D
100
AcDbEntity
  8
0
100
AcDbLine
 10
103.0707
 20
169.85105
 30
0.0
 11
107.3213
 21
166.65105
 31
0.0
  0
LINE
  5
D71
330
1D
100
AcDbEntity
  8
0
100
AcDbLine
 10
113.5197
 20
169.96415
 30
0.0
 11
117.25
 21
169.43965
 31
0.0
  0
LINE
  5
D72
330
1D
100
AcDbEntity
  8
0
100
AcDbLine
 10
110.0226
 20
196.65905
 30
0.0
 11
113.5197
 21
198.05805
 31
0.0
  0
LINE
  5
D73
330
1D
100
AcDbEntity
  8
0
100
AcDbLine
 10
108.818
 20
198.76705
 30
0.0
 11
112.898
 21
200.39905
 31
0.0
  0
LINE
  5
D74
330
1D
100
AcDbEntity
  8
0
100
AcDbLine
 10
107.33
 20
201.37105
 30
0.0
 11
112.13
 21
203.29105
 31
0.0
  0
LINE
  5
D75
330
1D
100
AcDbEntity
  8
0
100
AcDbLine
 10
109.2879
 20
206.01105
 30
0.0
 11
117.25
 21
206.01105
 31
0.0
  0
LINE
  5
D76
330
1D
100
AcDbEntity
  8
0
100
AcDbLine
 10
107.3213
 20
201.37105
 30
0.0
 11
112.1061
 21
203.29105
 31
0.0
  0
LINE
  5
D77
330
1D
100
AcDbEntity
  8
0
100
AcDbLine
 10
100.862
 20
188.36305
 30
0.0
 11
102.494
 21
192.44305
 31
0.0
  0
LINE
  5
D78
330
1D
100
AcDbEntity
  8
0
100
AcDbLine
 10
102.494
 20
192.44305
 30
0.0
 11
105.214
 21
196.04705
 31
0.0
  0
LINE
  5
D79
330
1D
100
AcDbEntity
  8
0
100
AcDbLine
 10
102.6786
 20
184.01105
 30
0.0
 11
103.2031
 21
187.74135
 31
0.0
  0
LINE
  5
D7A
330
1D
100
AcDbEntity
  8
0
100
AcDbLine
 10
103.0707
 20
198.17105
 30
0.0
 11
107.3213
 21
201.37105
 31
0.0
  0
LINE
  5
D7B
330
1D
100
AcDbEntity
  8
0
100
AcDbLine
 10
103.2031
 20
187.74135
 30
0.0
 11
104.602
 21
191.23845
 31
0.0
  0
LINE
  5
D7C
330
1D
100
AcDbEntity
  8
0
100
AcDbLine
 10
104.602
 20
191.23845
 30
0.0
 11
106.9334
 21
194.32765
 31
0.0
  0
LINE
  5
D7D
330
1D
100
AcDbEntity
  8
0
100
AcDbLine
 10
105.214
 20
196.04705
 30
0.0
 11
108.818
 21
198.76705
 31
0.0
  0
LINE
  5
D7E
330
1D
100
AcDbEntity
  8
0
100
AcDbLine
 10
106.9334
 20
194.32765
 30
0.0
 11
110.0226
 21
196.65905
 31
0.0
  0
LINE
  5
D7F
330
1D
100
AcDbEntity
  8
0
100
AcDbLine
 10
101.5184
 20
206.01105
 30
0.0
 11
109.2879
 21
206.01105
 31
0.0
  0
LINE
  5
D80
330
1D
100
AcDbEntity
  8
0
100
AcDbLine
 10
103.09
 20
198.17105
 30
0.0
 11
107.33
 21
201.37105
 31
0.0
  0
LINE
  5
D81
330
1D
100
AcDbEntity
  8
0
100
AcDbLine
 10
117.25
 20
201.01105
 30
0.0
 11
121.602
 21
200.39905
 31
0.0
  0
LINE
  5
D82
330
1D
100
AcDbEntity
  8
0
100
AcDbLine
 10
112.898
 20
200.39905
 30
0.0
 11
117.25
 21
201.01105
 31
0.0
  0
LINE
  5
D83
330
1D
100
AcDbEntity
  8
0
100
AcDbLine
 10
112.13
 20
203.29105
 30
0.0
 11
117.25
 21
204.01105
 31
0.0
  0
LINE
  5
D84
330
1D
100
AcDbEntity
  8
0
100
AcDbLine
 10
117.25
 20
198.58205
 30
0.0
 11
120.9803
 21
198.05805
 31
0.0
  0
LINE
  5
D85
330
1D
100
AcDbEntity
  8
0
100
AcDbLine
 10
113.5197
 20
198.05805
 30
0.0
 11
117.25
 21
198.58205
 31
0.0
  0
LINE
  5
D86
330
1D
100
AcDbEntity
  8
0
100
AcDbLine
 10
117.25
 20
204.01105
 30
0.0
 11
122.3939
 21
203.29105
 31
0.0
  0
LINE
  5
D87
330
1D
100
AcDbEntity
  8
0
100
AcDbLine
 10
117.25
 20
204.01105
 30
0.0
 11
122.37
 21
203.29105
 31
0.0
  0
LINE
  5
D88
330
1D
100
AcDbEntity
  8
0
100
AcDbLine
 10
112.1061
 20
203.29105
 30
0.0
 11
117.25
 21
204.01105
 31
0.0
  0
LINE
  5
D89
330
1D
100
AcDbEntity
  8
0
100
AcDbLine
 10
178.25
 20
98.01105
 30
0.0
 11
178.25
 21
133.01105
 31
0.0
  0
LINE
  5
D8A
330
1D
100
AcDbEntity
  8
0
100
AcDbLine
 10
178.25
 20
133.01105
 30
0.0
 11
178.25
 21
98.01105
 31
0.0
  0
LINE
  5
D8B
330
1D
100
AcDbEntity
  8
0
100
AcDbLine
 10
141.95
 20
133.01105
 30
0.0
 11
190.75
 21
133.01105
 31
0.0
  0
LINE
  5
D8C
330
1D
100
AcDbEntity
  8
0
100
AcDbLine
 10
142.75
 20
133.01105
 30
0.0
 11
192.75
 21
133.01105
 31
0.0
  0
LINE
  5
D8D
330
1D
100
AcDbEntity
  8
0
100
AcDbLine
 10
142.75
 20
137.01105
 30
0.0
 11
192.75
 21
137.01105
 31
0.0
  0
LINE
  5
D8E
330
1D
100
AcDbEntity
  8
0
100
AcDbLine
 10
166.088
 20
133.01105
 30
0.0
 11
189.813
 21
133.01105
 31
0.0
  0
LINE
  5
D8F
330
1D
100
AcDbEntity
  8
0
100
AcDbLine
 10
167.436
 20
133.01105
 30
0.0
 11
188.554
 21
133.01105
 31
0.0
  0
LINE
  5
D90
330
1D
100
AcDbEntity
  8
0
100
AcDbLine
 10
167.146
 20
133.01105
 30
0.0
 11
171.934
 21
133.01105
 31
0.0
  0
LINE
  5
D91
330
1D
100
AcDbEntity
  8
0
100
AcDbLine
 10
166.088
 20
199.01105
 30
0.0
 11
170.145
 21
199.01105
 31
0.0
  0
LINE
  5
D92
330
1D
100
AcDbEntity
  8
0
100
AcDbLine
 10
168.527
 20
199.01105
 30
0.0
 11
173.027
 21
199.01105
 31
0.0
  0
LINE
  5
D93
330
1D
100
AcDbEntity
  8
0
100
AcDbLine
 10
168.649
 20
199.01105
 30
0.0
 11
169.843
 21
199.01105
 31
0.0
  0
LINE
  5
D94
330
1D
100
AcDbEntity
  8
0
100
AcDbLine
 10
168.051
 20
199.01105
 30
0.0
 11
169.843
 21
199.01105
 31
0.0
  0
LINE
  5
D95
330
1D
100
AcDbEntity
  8
0
100
AcDbLine
 10
168.051
 20
206.01105
 30
0.0
 11
169.843
 21
206.01105
 31
0.0
  0
LINE
  5
D96
330
1D
100
AcDbEntity
  8
0
100
AcDbLine
 10
143.42
 20
133.01105
 30
0.0
 11
152.411
 21
133.01105
 31
0.0
  0
LINE
  5
D97
330
1D
100
AcDbEntity
  8
0
100
AcDbLine
 10
144.678
 20
133.01105
 30
0.0
 11
155.108
 21
133.01105
 31
0.0
  0
LINE
  5
D98
330
1D
100
AcDbEntity
  8
0
100
AcDbLine
 10
141.19
 20
133.01105
 30
0.0
 11
148.498
 21
133.01105
 31
0.0
  0
LINE
  5
D99
330
1D
100
AcDbEntity
  8
0
100
AcDbLine
 10
133.378
 20
133.01105
 30
0.0
 11
141.19
 21
133.01105
 31
0.0
  0
LINE
  5
D9A
330
1D
100
AcDbEntity
  8
0
100
AcDbLine
 10
125.566
 20
133.01105
 30
0.0
 11
133.378
 21
133.01105
 31
0.0
  0
LINE
  5
D9B
330
1D
100
AcDbEntity
  8
0
100
AcDbLine
 10
136.766
 20
133.01105
 30
0.0
 11
138.834
 21
133.01105
 31
0.0
  0
LINE
  5
D9C
330
1D
100
AcDbEntity
  8
0
100
AcDbLine
 10
136.766
 20
133.01105
 30
0.0
 11
138.7257
 21
133.01105
 31
0.0
  0
LINE
  5
D9D
330
1D
100
AcDbEntity
  8
0
100
AcDbLine
 10
138.268
 20
133.01105
 30
0.0
 11
139.116
 21
133.01105
 31
0.0
  0
LINE
  5
D9E
330
1D
100
AcDbEntity
  8
0
100
AcDbLine
 10
137.628
 20
133.01105
 30
0.0
 11
138.268
 21
133.01105
 31
0.0
  0
LINE
  5
D9F
330
1D
100
AcDbEntity
  8
0
100
AcDbLine
 10
137.244
 20
133.01105
 30
0.0
 11
137.628
 21
133.01105
 31
0.0
  0
LINE
  5
DA0
330
1D
100
AcDbEntity
  8
0
100
AcDbLine
 10
137.1
 20
133.01105
 30
0.0
 11
137.244
 21
133.01105
 31
0.0
  0
LINE
  5
DA1
330
1D
100
AcDbEntity
  8
0
100
AcDbLine
 10
138.834
 20
133.01105
 30
0.0
 11
140.6961
 21
133.01105
 31
0.0
  0
LINE
  5
DA2
330
1D
100
AcDbEntity
  8
0
100
AcDbLine
 10
138.7257
 20
133.01105
 30
0.0
 11
140.6961
 21
133.01105
 31
0.0
  0
LINE
  5
DA3
330
1D
100
AcDbEntity
  8
0
100
AcDbLine
 10
140.076
 20
133.01105
 30
0.0
 11
141.1
 21
133.01105
 31
0.0
  0
LINE
  5
DA4
330
1D
100
AcDbEntity
  8
0
100
AcDbLine
 10
139.116
 20
133.01105
 30
0.0
 11
140.076
 21
133.01105
 31
0.0
  0
LINE
  5
DA5
330
1D
100
AcDbEntity
  8
0
100
AcDbLine
 10
141.1
 20
133.01105
 30
0.0
 11
142.124
 21
133.01105
 31
0.0
  0
LINE
  5
DA6
330
1D
100
AcDbEntity
  8
0
100
AcDbLine
 10
142.124
 20
133.01105
 30
0.0
 11
143.084
 21
133.01105
 31
0.0
  0
LINE
  5
DA7
330
1D
100
AcDbEntity
  8
0
100
AcDbLine
 10
141.95
 20
133.01105
 30
0.0
 11
142.75
 21
133.01105
 31
0.0
  0
LINE
  5
DA8
330
1D
100
AcDbEntity
  8
0
100
AcDbLine
 10
143.42
 20
133.01105
 30
0.0
 11
144.678
 21
133.01105
 31
0.0
  0
LINE
  5
DA9
330
1D
100
AcDbEntity
  8
0
100
AcDbLine
 10
143.084
 20
133.01105
 30
0.0
 11
143.932
 21
133.01105
 31
0.0
  0
LINE
  5
DAA
330
1D
100
AcDbEntity
  8
0
100
AcDbLine
 10
143.932
 20
133.01105
 30
0.0
 11
144.572
 21
133.01105
 31
0.0
  0
LINE
  5
DAB
330
1D
100
AcDbEntity
  8
0
100
AcDbLine
 10
144.572
 20
133.01105
 30
0.0
 11
144.956
 21
133.01105
 31
0.0
  0
LINE
  5
DAC
330
1D
100
AcDbEntity
  8
0
100
AcDbLine
 10
144.956
 20
133.01105
 30
0.0
 11
145.1
 21
133.01105
 31
0.0
  0
LINE
  5
DAD
330
1D
100
AcDbEntity
  8
0
100
AcDbLine
 10
142.75
 20
133.01105
 30
0.0
 11
142.75
 21
137.01105
 31
0.0
  0
LINE
  5
DAE
330
1D
100
AcDbEntity
  8
0
100
AcDbLine
 10
142.75
 20
137.01105
 30
0.0
 11
142.75
 21
133.01105
 31
0.0
  0
LINE
  5
DAF
330
1D
100
AcDbEntity
  8
0
100
AcDbLine
 10
148.498
 20
133.01105
 30
0.0
 11
155.554
 21
133.01105
 31
0.0
  0
LINE
  5
DB0
330
1D
100
AcDbEntity
  8
0
100
AcDbLine
 10
152.411
 20
133.01105
 30
0.0
 11
155.108
 21
133.01105
 31
0.0
  0
LINE
  5
DB1
330
1D
100
AcDbEntity
  8
0
100
AcDbLine
 10
155.554
 20
133.01105
 30
0.0
 11
161.602
 21
133.01105
 31
0.0
  0
LINE
  5
DB2
330
1D
100
AcDbEntity
  8
0
100
AcDbLine
 10
162.975
 20
133.01105
 30
0.0
 11
163.999
 21
133.01105
 31
0.0
  0
LINE
  5
DB3
330
1D
100
AcDbEntity
  8
0
100
AcDbLine
 10
162.015
 20
133.01105
 30
0.0
 11
162.975
 21
133.01105
 31
0.0
  0
LINE
  5
DB4
330
1D
100
AcDbEntity
  8
0
100
AcDbLine
 10
161.167
 20
133.01105
 30
0.0
 11
162.015
 21
133.01105
 31
0.0
  0
LINE
  5
DB5
330
1D
100
AcDbEntity
  8
0
100
AcDbLine
 10
160.527
 20
133.01105
 30
0.0
 11
161.167
 21
133.01105
 31
0.0
  0
LINE
  5
DB6
330
1D
100
AcDbEntity
  8
0
100
AcDbLine
 10
160.143
 20
133.01105
 30
0.0
 11
160.527
 21
133.01105
 31
0.0
  0
LINE
  5
DB7
330
1D
100
AcDbEntity
  8
0
100
AcDbLine
 10
159.999
 20
133.01105
 30
0.0
 11
160.143
 21
133.01105
 31
0.0
  0
LINE
  5
DB8
330
1D
100
AcDbEntity
  8
0
100
AcDbLine
 10
163.999
 20
133.01105
 30
0.0
 11
165.023
 21
133.01105
 31
0.0
  0
LINE
  5
DB9
330
1D
100
AcDbEntity
  8
0
100
AcDbLine
 10
166.088
 20
133.01105
 30
0.0
 11
167.436
 21
133.01105
 31
0.0
  0
LINE
  5
DBA
330
1D
100
AcDbEntity
  8
0
100
AcDbLine
 10
165.023
 20
133.01105
 30
0.0
 11
165.983
 21
133.01105
 31
0.0
  0
LINE
  5
DBB
330
1D
100
AcDbEntity
  8
0
100
AcDbLine
 10
165.983
 20
133.01105
 30
0.0
 11
166.831
 21
133.01105
 31
0.0
  0
LINE
  5
DBC
330
1D
100
AcDbEntity
  8
0
100
AcDbLine
 10
166.831
 20
133.01105
 30
0.0
 11
167.471
 21
133.01105
 31
0.0
  0
LINE
  5
DBD
330
1D
100
AcDbEntity
  8
0
100
AcDbLine
 10
161.602
 20
133.01105
 30
0.0
 11
167.146
 21
133.01105
 31
0.0
  0
LINE
  5
DBE
330
1D
100
AcDbEntity
  8
0
100
AcDbLine
 10
167.471
 20
133.01105
 30
0.0
 11
167.855
 21
133.01105
 31
0.0
  0
LINE
  5
DBF
330
1D
100
AcDbEntity
  8
0
100
AcDbLine
 10
167.855
 20
133.01105
 30
0.0
 11
167.999
 21
133.01105
 31
0.0
  0
LINE
  5
DC0
330
1D
100
AcDbEntity
  8
0
100
AcDbLine
 10
140.5584
 20
206.01105
 30
0.0
 11
147.622
 21
206.01105
 31
0.0
  0
LINE
  5
DC1
330
1D
100
AcDbEntity
  8
0
100
AcDbLine
 10
131.2969
 20
180.28075
 30
0.0
 11
131.8214
 21
184.01105
 31
0.0
  0
LINE
  5
DC2
330
1D
100
AcDbEntity
  8
0
100
AcDbLine
 10
131.2969
 20
180.28075
 30
0.0
 11
131.8214
 21
184.01105
 31
0.0
  0
LINE
  5
DC3
330
1D
100
AcDbEntity
  8
0
100
AcDbLine
 10
133.638
 20
179.65905
 30
0.0
 11
134.25
 21
184.01105
 31
0.0
  0
LINE
  5
DC4
330
1D
100
AcDbEntity
  8
0
100
AcDbLine
 10
136.53
 20
178.89105
 30
0.0
 11
137.25
 21
184.01105
 31
0.0
  0
LINE
  5
DC5
330
1D
100
AcDbEntity
  8
0
100
AcDbLine
 10
136.5542
 20
178.89105
 30
0.0
 11
137.25
 21
184.01105
 31
0.0
  0
LINE
  5
DC6
330
1D
100
AcDbEntity
  8
0
100
AcDbLine
 10
127.17
 20
166.65105
 30
0.0
 11
131.41
 21
169.85105
 31
0.0
  0
LINE
  5
DC7
330
1D
100
AcDbEntity
  8
0
100
AcDbLine
 10
127.1787
 20
166.65105
 30
0.0
 11
131.4293
 21
169.85105
 31
0.0
  0
LINE
  5
DC8
330
1D
100
AcDbEntity
  8
0
100
AcDbLine
 10
125.682
 20
169.25505
 30
0.0
 11
129.286
 21
171.97505
 31
0.0
  0
LINE
  5
DC9
330
1D
100
AcDbEntity
  8
0
100
AcDbLine
 10
124.4774
 20
171.36305
 30
0.0
 11
127.5666
 21
173.69445
 31
0.0
  0
LINE
  5
DCA
330
1D
100
AcDbEntity
  8
0
100
AcDbLine
 10
127.5666
 20
173.69445
 30
0.0
 11
129.898
 21
176.78365
 31
0.0
  0
LINE
  5
DCB
330
1D
100
AcDbEntity
  8
0
100
AcDbLine
 10
129.286
 20
171.97505
 30
0.0
 11
132.006
 21
175.57905
 31
0.0
  0
LINE
  5
DCC
330
1D
100
AcDbEntity
  8
0
100
AcDbLine
 10
129.898
 20
176.78365
 30
0.0
 11
131.2969
 21
180.28075
 31
0.0
  0
LINE
  5
DCD
330
1D
100
AcDbEntity
  8
0
100
AcDbLine
 10
129.898
 20
176.78365
 30
0.0
 11
131.2969
 21
180.28075
 31
0.0
  0
LINE
  5
DCE
330
1D
100
AcDbEntity
  8
0
100
AcDbLine
 10
131.41
 20
169.85105
 30
0.0
 11
134.61
 21
174.09105
 31
0.0
  0
LINE
  5
DCF
330
1D
100
AcDbEntity
  8
0
100
AcDbLine
 10
131.410000000044
 20
169.851050000058
 30
0.0
 11
134.61
 21
174.09105
 31
0.0
  0
LINE
  5
DD0
330
1D
100
AcDbEntity
  8
0
100
AcDbLine
 10
134.61
 20
174.09105
 30
0.0
 11
136.53
 21
178.89105
 31
0.0
  0
LINE
  5
DD1
330
1D
100
AcDbEntity
  8
0
100
AcDbLine
 10
134.610000000001
 20
174.091050000002
 30
0.0
 11
136.53
 21
178.89105
 31
0.0
  0
LINE
  5
DD2
330
1D
100
AcDbEntity
  8
0
100
AcDbLine
 10
132.006
 20
175.57905
 30
0.0
 11
133.638
 21
179.65905
 31
0.0
  0
LINE
  5
DD3
330
1D
100
AcDbEntity
  8
0
100
AcDbLine
 10
134.6111
 20
174.09105
 30
0.0
 11
136.5542
 21
178.89105
 31
0.0
  0
LINE
  5
DD4
330
1D
100
AcDbEntity
  8
0
100
AcDbLine
 10
131.4293
 20
169.85105
 30
0.0
 11
134.6111
 21
174.09105
 31
0.0
  0
LINE
  5
DD5
330
1D
100
AcDbEntity
  8
0
100
AcDbLine
 10
125.682
 20
198.76705
 30
0.0
 11
129.286
 21
196.04705
 31
0.0
  0
LINE
  5
DD6
330
1D
100
AcDbEntity
  8
0
100
AcDbLine
 10
124.4774
 20
196.65905
 30
0.0
 11
127.5666
 21
194.32765
 31
0.0
  0
LINE
  5
DD7
330
1D
100
AcDbEntity
  8
0
100
AcDbLine
 10
129.286
 20
196.04705
 30
0.0
 11
132.006
 21
192.44305
 31
0.0
  0
LINE
  5
DD8
330
1D
100
AcDbEntity
  8
0
100
AcDbLine
 10
129.898
 20
191.23845
 30
0.0
 11
131.2969
 21
187.74135
 31
0.0
  0
LINE
  5
DD9
330
1D
100
AcDbEntity
  8
0
100
AcDbLine
 10
127.5666
 20
194.32765
 30
0.0
 11
129.898
 21
191.23845
 31
0.0
  0
LINE
  5
DDA
330
1D
100
AcDbEntity
  8
0
100
AcDbLine
 10
127.17
 20
201.37105
 30
0.0
 11
131.41
 21
198.17105
 31
0.0
  0
LINE
  5
DDB
330
1D
100
AcDbEntity
  8
0
100
AcDbLine
 10
127.1787
 20
201.37105
 30
0.0
 11
131.4293
 21
198.17105
 31
0.0
  0
LINE
  5
DDC
330
1D
100
AcDbEntity
  8
0
100
AcDbLine
 10
125.2121
 20
206.01105
 30
0.0
 11
132.9816
 21
206.01105
 31
0.0
  0
LINE
  5
DDD
330
1D
100
AcDbEntity
  8
0
100
AcDbLine
 10
131.2969
 20
187.74135
 30
0.0
 11
131.8214
 21
184.01105
 31
0.0
  0
LINE
  5
DDE
330
1D
100
AcDbEntity
  8
0
100
AcDbLine
 10
131.2969
 20
187.74135
 30
0.0
 11
131.8214
 21
184.01105
 31
0.0
  0
LINE
  5
DDF
330
1D
100
AcDbEntity
  8
0
100
AcDbLine
 10
131.41
 20
198.17105
 30
0.0
 11
134.61
 21
193.93105
 31
0.0
  0
LINE
  5
DE0
330
1D
100
AcDbEntity
  8
0
100
AcDbLine
 10
131.4293
 20
198.17105
 30
0.0
 11
134.6111
 21
193.93105
 31
0.0
  0
LINE
  5
DE1
330
1D
100
AcDbEntity
  8
0
100
AcDbLine
 10
133.638
 20
188.36305
 30
0.0
 11
134.25
 21
184.01105
 31
0.0
  0
LINE
  5
DE2
330
1D
100
AcDbEntity
  8
0
100
AcDbLine
 10
132.006
 20
192.44305
 30
0.0
 11
133.638
 21
188.36305
 31
0.0
  0
LINE
  5
DE3
330
1D
100
AcDbEntity
  8
0
100
AcDbLine
 10
134.61
 20
193.93105
 30
0.0
 11
136.53
 21
189.13105
 31
0.0
  0
LINE
  5
DE4
330
1D
100
AcDbEntity
  8
0
100
AcDbLine
 10
132.9816
 20
206.01105
 30
0.0
 11
140.5584
 21
206.01105
 31
0.0
  0
LINE
  5
DE5
330
1D
100
AcDbEntity
  8
0
100
AcDbLine
 10
134.6111
 20
193.93105
 30
0.0
 11
136.5542
 21
189.13105
 31
0.0
  0
LINE
  5
DE6
330
1D
100
AcDbEntity
  8
0
100
AcDbLine
 10
136.53
 20
189.13105
 30
0.0
 11
137.25
 21
184.01105
 31
0.0
  0
LINE
  5
DE7
330
1D
100
AcDbEntity
  8
0
100
AcDbLine
 10
136.5542
 20
189.13105
 30
0.0
 11
137.25
 21
184.01105
 31
0.0
  0
LINE
  5
DE8
330
1D
100
AcDbEntity
  8
0
100
AcDbLine
 10
151.816
 20
199.01105
 30
0.0
 11
165.029
 21
199.01105
 31
0.0
  0
LINE
  5
DE9
330
1D
100
AcDbEntity
  8
0
100
AcDbLine
 10
148.743
 20
199.01105
 30
0.0
 11
164.196
 21
199.01105
 31
0.0
  0
LINE
  5
DEA
330
1D
100
AcDbEntity
  8
0
100
AcDbLine
 10
147.84
 20
206.01105
 30
0.0
 11
163.767
 21
206.01105
 31
0.0
  0
LINE
  5
DEB
330
1D
100
AcDbEntity
  8
0
100
AcDbLine
 10
147.622
 20
206.01105
 30
0.0
 11
147.84
 21
206.01105
 31
0.0
  0
LINE
  5
DEC
330
1D
100
AcDbEntity
  8
0
100
AcDbLine
 10
160.403
 20
199.01105
 30
0.0
 11
166.974
 21
199.01105
 31
0.0
  0
LINE
  5
DED
330
1D
100
AcDbEntity
  8
0
100
AcDbLine
 10
159.947990740741
 20
199.01105
 30
0.0
 11
164.852
 21
199.01105
 31
0.0
  0
LINE
  5
DEE
330
1D
100
AcDbEntity
  8
0
100
AcDbLine
 10
164.196
 20
199.01105
 30
0.0
 11
165.029
 21
199.01105
 31
0.0
  0
LINE
  5
DEF
330
1D
100
AcDbEntity
  8
0
100
AcDbLine
 10
164.852
 20
199.01105
 30
0.0
 11
166.974
 21
199.01105
 31
0.0
  0
LINE
  5
DF0
330
1D
100
AcDbEntity
  8
0
100
AcDbLine
 10
164.887
 20
199.01105
 30
0.0
 11
166.371
 21
199.01105
 31
0.0
  0
LINE
  5
DF1
330
1D
100
AcDbEntity
  8
0
100
AcDbLine
 10
163.767
 20
199.01105
 30
0.0
 11
164.887
 21
199.01105
 31
0.0
  0
LINE
  5
DF2
330
1D
100
AcDbEntity
  8
0
100
AcDbLine
 10
163.095
 20
199.01105
 30
0.0
 11
163.767
 21
199.01105
 31
0.0
  0
LINE
  5
DF3
330
1D
100
AcDbEntity
  8
0
100
AcDbLine
 10
167.529
 20
199.01105
 30
0.0
 11
168.649
 21
199.01105
 31
0.0
  0
LINE
  5
DF4
330
1D
100
AcDbEntity
  8
0
100
AcDbLine
 10
166.371
 20
199.01105
 30
0.0
 11
168.051
 21
199.01105
 31
0.0
  0
LINE
  5
DF5
330
1D
100
AcDbEntity
  8
0
100
AcDbLine
 10
166.539
 20
199.01105
 30
0.0
 11
167.529
 21
199.01105
 31
0.0
  0
LINE
  5
DF6
330
1D
100
AcDbEntity
  8
0
100
AcDbLine
 10
165.793
 20
199.01105
 30
0.0
 11
166.539
 21
199.01105
 31
0.0
  0
LINE
  5
DF7
330
1D
100
AcDbEntity
  8
0
100
AcDbLine
 10
165.345
 20
199.01105
 30
0.0
 11
165.793
 21
199.01105
 31
0.0
  0
LINE
  5
DF8
330
1D
100
AcDbEntity
  8
0
100
AcDbLine
 10
165.177
 20
199.01105
 30
0.0
 11
165.345
 21
199.01105
 31
0.0
  0
LINE
  5
DF9
330
1D
100
AcDbEntity
  8
0
100
AcDbLine
 10
162.843
 20
199.01105
 30
0.0
 11
163.095
 21
199.01105
 31
0.0
  0
LINE
  5
DFA
330
1D
100
AcDbEntity
  8
0
100
AcDbLine
 10
166.371
 20
206.01105
 30
0.0
 11
168.051
 21
206.01105
 31
0.0
  0
LINE
  5
DFB
330
1D
100
AcDbEntity
  8
0
100
AcDbLine
 10
164.887
 20
206.01105
 30
0.0
 11
166.371
 21
206.01105
 31
0.0
  0
LINE
  5
DFC
330
1D
100
AcDbEntity
  8
0
100
AcDbLine
 10
163.767
 20
206.01105
 30
0.0
 11
164.887
 21
206.01105
 31
0.0
  0
LINE
  5
DFD
330
1D
100
AcDbEntity
  8
0
100
AcDbLine
 10
178.25
 20
164.01105
 30
0.0
 11
178.25
 21
137.01105
 31
0.0
  0
LINE
  5
DFE
330
1D
100
AcDbEntity
  8
0
100
AcDbLine
 10
178.25
 20
137.01105
 30
0.0
 11
178.25
 21
164.01105
 31
0.0
  0
LINE
  5
DFF
330
1D
100
AcDbEntity
  8
0
100
AcDbLine
 10
191.582
 20
133.01105
 30
0.0
 11
192.222
 21
133.01105
 31
0.0
  0
LINE
  5
E00
330
1D
100
AcDbEntity
  8
0
100
AcDbLine
 10
190.75
 20
133.01105
 30
0.0
 11
192.75
 21
133.01105
 31
0.0
  0
LINE
  5
E01
330
1D
100
AcDbEntity
  8
0
100
AcDbLine
 10
178.25
 20
133.01105
 30
0.0
 11
192.75
 21
133.01105
 31
0.0
  0
LINE
  5
E02
330
1D
100
AcDbEntity
  8
0
100
AcDbLine
 10
174.895
 20
133.01105
 30
0.0
 11
186.065
 21
133.01105
 31
0.0
  0
LINE
  5
E03
330
1D
100
AcDbEntity
  8
0
100
AcDbLine
 10
175.704
 20
133.01105
 30
0.0
 11
186.408
 21
133.01105
 31
0.0
  0
LINE
  5
E04
330
1D
100
AcDbEntity
  8
0
100
AcDbLine
 10
180.308
 20
133.01105
 30
0.0
 11
181.156
 21
133.01105
 31
0.0
  0
LINE
  5
E05
330
1D
100
AcDbEntity
  8
0
100
AcDbLine
 10
178.25
 20
133.01105
 30
0.0
 11
190.75
 21
133.01105
 31
0.0
  0
LINE
  5
E06
330
1D
100
AcDbEntity
  8
0
100
AcDbLine
 10
178.25
 20
133.01105
 30
0.0
 11
186.065
 21
133.01105
 31
0.0
  0
LINE
  5
E07
330
1D
100
AcDbEntity
  8
0
100
AcDbLine
 10
178.25
 20
133.01105
 30
0.0
 11
186.408
 21
133.01105
 31
0.0
  0
LINE
  5
E08
330
1D
100
AcDbEntity
  8
0
100
AcDbLine
 10
178.25
 20
133.01105
 30
0.0
 11
189.813
 21
133.01105
 31
0.0
  0
LINE
  5
E09
330
1D
100
AcDbEntity
  8
0
100
AcDbLine
 10
178.25
 20
133.01105
 30
0.0
 11
188.554
 21
133.01105
 31
0.0
  0
LINE
  5
E0A
330
1D
100
AcDbEntity
  8
0
100
AcDbLine
 10
174.895
 20
133.01105
 30
0.0
 11
175.704
 21
133.01105
 31
0.0
  0
LINE
  5
E0B
330
1D
100
AcDbEntity
  8
0
100
AcDbLine
 10
171.934
 20
133.01105
 30
0.0
 11
175.21
 21
133.01105
 31
0.0
  0
LINE
  5
E0C
330
1D
100
AcDbEntity
  8
0
100
AcDbLine
 10
175.21
 20
133.01105
 30
0.0
 11
177.982
 21
133.01105
 31
0.0
  0
LINE
  5
E0D
330
1D
100
AcDbEntity
  8
0
100
AcDbLine
 10
177.982
 20
133.01105
 30
0.0
 11
179.494
 21
133.01105
 31
0.0
  0
LINE
  5
E0E
330
1D
100
AcDbEntity
  8
0
100
AcDbLine
 10
179.14
 20
133.01105
 30
0.0
 11
179.284
 21
133.01105
 31
0.0
  0
LINE
  5
E0F
330
1D
100
AcDbEntity
  8
0
100
AcDbLine
 10
179.284
 20
133.01105
 30
0.0
 11
179.668
 21
133.01105
 31
0.0
  0
LINE
  5
E10
330
1D
100
AcDbEntity
  8
0
100
AcDbLine
 10
179.668
 20
133.01105
 30
0.0
 11
180.308
 21
133.01105
 31
0.0
  0
LINE
  5
E11
330
1D
100
AcDbEntity
  8
0
100
AcDbLine
 10
179.494
 20
133.01105
 30
0.0
 11
180.25
 21
133.01105
 31
0.0
  0
LINE
  5
E12
330
1D
100
AcDbEntity
  8
0
100
AcDbLine
 10
178.25
 20
133.01105
 30
0.0
 11
179.494
 21
133.01105
 31
0.0
  0
LINE
  5
E13
330
1D
100
AcDbEntity
  8
0
100
AcDbLine
 10
181.156
 20
133.01105
 30
0.0
 11
182.116
 21
133.01105
 31
0.0
  0
LINE
  5
E14
330
1D
100
AcDbEntity
  8
0
100
AcDbLine
 10
182.116
 20
133.01105
 30
0.0
 11
183.14
 21
133.01105
 31
0.0
  0
LINE
  5
E15
330
1D
100
AcDbEntity
  8
0
100
AcDbLine
 10
184.164
 20
133.01105
 30
0.0
 11
185.124
 21
133.01105
 31
0.0
  0
LINE
  5
E16
330
1D
100
AcDbEntity
  8
0
100
AcDbLine
 10
183.14
 20
133.01105
 30
0.0
 11
184.164
 21
133.01105
 31
0.0
  0
LINE
  5
E17
330
1D
100
AcDbEntity
  8
0
100
AcDbLine
 10
185.124
 20
133.01105
 30
0.0
 11
185.972
 21
133.01105
 31
0.0
  0
LINE
  5
E18
330
1D
100
AcDbEntity
  8
0
100
AcDbLine
 10
184.75
 20
133.01105
 30
0.0
 11
184.894
 21
133.01105
 31
0.0
  0
LINE
  5
E19
330
1D
100
AcDbEntity
  8
0
100
AcDbLine
 10
184.894
 20
133.01105
 30
0.0
 11
185.278
 21
133.01105
 31
0.0
  0
LINE
  5
E1A
330
1D
100
AcDbEntity
  8
0
100
AcDbLine
 10
186.75
 20
133.01105
 30
0.0
 11
191.75
 21
133.01105
 31
0.0
  0
LINE
  5
E1B
330
1D
100
AcDbEntity
  8
0
100
AcDbLine
 10
186.612
 20
133.01105
 30
0.0
 11
186.996
 21
133.01105
 31
0.0
  0
LINE
  5
E1C
330
1D
100
AcDbEntity
  8
0
100
AcDbLine
 10
185.972
 20
133.01105
 30
0.0
 11
186.612
 21
133.01105
 31
0.0
  0
LINE
  5
E1D
330
1D
100
AcDbEntity
  8
0
100
AcDbLine
 10
186.065
 20
133.01105
 30
0.0
 11
186.408
 21
133.01105
 31
0.0
  0
LINE
  5
E1E
330
1D
100
AcDbEntity
  8
0
100
AcDbLine
 10
185.278
 20
133.01105
 30
0.0
 11
185.918
 21
133.01105
 31
0.0
  0
LINE
  5
E1F
330
1D
100
AcDbEntity
  8
0
100
AcDbLine
 10
185.918
 20
133.01105
 30
0.0
 11
186.766
 21
133.01105
 31
0.0
  0
LINE
  5
E20
330
1D
100
AcDbEntity
  8
0
100
AcDbLine
 10
186.996
 20
133.01105
 30
0.0
 11
187.14
 21
133.01105
 31
0.0
  0
LINE
  5
E21
330
1D
100
AcDbEntity
  8
0
100
AcDbLine
 10
188.554
 20
133.01105
 30
0.0
 11
189.813
 21
133.01105
 31
0.0
  0
LINE
  5
E22
330
1D
100
AcDbEntity
  8
0
100
AcDbLine
 10
186.766
 20
133.01105
 30
0.0
 11
187.726
 21
133.01105
 31
0.0
  0
LINE
  5
E23
330
1D
100
AcDbEntity
  8
0
100
AcDbLine
 10
187.726
 20
133.01105
 30
0.0
 11
188.75
 21
133.01105
 31
0.0
  0
LINE
  5
E24
330
1D
100
AcDbEntity
  8
0
100
AcDbLine
 10
190.734
 20
133.01105
 30
0.0
 11
191.582
 21
133.01105
 31
0.0
  0
LINE
  5
E25
330
1D
100
AcDbEntity
  8
0
100
AcDbLine
 10
189.774
 20
133.01105
 30
0.0
 11
190.734
 21
133.01105
 31
0.0
  0
LINE
  5
E26
330
1D
100
AcDbEntity
  8
0
100
AcDbLine
 10
188.75
 20
133.01105
 30
0.0
 11
189.774
 21
133.01105
 31
0.0
  0
LINE
  5
E27
330
1D
100
AcDbEntity
  8
0
100
AcDbLine
 10
192.606
 20
133.01105
 30
0.0
 11
192.75
 21
133.01105
 31
0.0
  0
LINE
  5
E28
330
1D
100
AcDbEntity
  8
0
100
AcDbLine
 10
192.222
 20
133.01105
 30
0.0
 11
192.606
 21
133.01105
 31
0.0
  0
LINE
  5
E29
330
1D
100
AcDbEntity
  8
0
100
AcDbLine
 10
192.75
 20
133.01105
 30
0.0
 11
192.75
 21
137.01105
 31
0.0
  0
LINE
  5
E2A
330
1D
100
AcDbEntity
  8
0
100
AcDbLine
 10
192.75
 20
137.01105
 30
0.0
 11
192.75
 21
133.01105
 31
0.0
  0
LINE
  5
E2B
330
1D
100
AcDbEntity
  8
0
100
AcDbLine
 10
174.6
 20
184.01105
 30
0.0
 11
174.854
 21
178.89105
 31
0.0
  0
LINE
  5
E2C
330
1D
100
AcDbEntity
  8
0
100
AcDbLine
 10
178.25
 20
184.01105
 30
0.0
 11
178.25
 21
178.89105
 31
0.0
  0
LINE
  5
E2D
330
1D
100
AcDbEntity
  8
0
100
AcDbLine
 10
178.25
 20
178.89105
 30
0.0
 11
178.25
 21
184.01105
 31
0.0
  0
LINE
  5
E2E
330
1D
100
AcDbEntity
  8
0
100
AcDbLine
 10
180.25
 20
184.01105
 30
0.0
 11
180.25
 21
178.89105
 31
0.0
  0
LINE
  5
E2F
330
1D
100
AcDbEntity
  8
0
100
AcDbLine
 10
180.25
 20
178.89105
 30
0.0
 11
180.25
 21
184.01105
 31
0.0
  0
LINE
  5
E30
330
1D
100
AcDbEntity
  8
0
100
AcDbLine
 10
175.51
 20
174.09105
 30
0.0
 11
176.36
 21
169.85105
 31
0.0
  0
LINE
  5
E31
330
1D
100
AcDbEntity
  8
0
100
AcDbLine
 10
178.25
 20
174.09105
 30
0.0
 11
178.25
 21
169.85105
 31
0.0
  0
LINE
  5
E32
330
1D
100
AcDbEntity
  8
0
100
AcDbLine
 10
178.25
 20
169.85105
 30
0.0
 11
178.25
 21
174.09105
 31
0.0
  0
LINE
  5
E33
330
1D
100
AcDbEntity
  8
0
100
AcDbLine
 10
180.25
 20
174.09105
 30
0.0
 11
180.25
 21
169.85105
 31
0.0
  0
LINE
  5
E34
330
1D
100
AcDbEntity
  8
0
100
AcDbLine
 10
180.25
 20
169.85105
 30
0.0
 11
180.25
 21
174.09105
 31
0.0
  0
LINE
  5
E35
330
1D
100
AcDbEntity
  8
0
100
AcDbLine
 10
176.36
 20
169.85105
 30
0.0
 11
177.162
 21
166.65105
 31
0.0
  0
LINE
  5
E36
330
1D
100
AcDbEntity
  8
0
100
AcDbLine
 10
177.162
 20
166.65105
 30
0.0
 11
177.843
 21
164.73105
 31
0.0
  0
LINE
  5
E37
330
1D
100
AcDbEntity
  8
0
100
AcDbLine
 10
178.25
 20
169.85105
 30
0.0
 11
178.25
 21
166.65105
 31
0.0
  0
LINE
  5
E38
330
1D
100
AcDbEntity
  8
0
100
AcDbLine
 10
178.25
 20
166.65105
 30
0.0
 11
178.25
 21
169.85105
 31
0.0
  0
LINE
  5
E39
330
1D
100
AcDbEntity
  8
0
100
AcDbLine
 10
178.25
 20
166.65105
 30
0.0
 11
178.25
 21
164.73105
 31
0.0
  0
LINE
  5
E3A
330
1D
100
AcDbEntity
  8
0
100
AcDbLine
 10
178.25
 20
164.73105
 30
0.0
 11
178.25
 21
166.65105
 31
0.0
  0
LINE
  5
E3B
330
1D
100
AcDbEntity
  8
0
100
AcDbLine
 10
178.25
 20
164.73105
 30
0.0
 11
178.25
 21
164.01105
 31
0.0
  0
LINE
  5
E3C
330
1D
100
AcDbEntity
  8
0
100
AcDbLine
 10
180.25
 20
169.85105
 30
0.0
 11
180.25
 21
166.65105
 31
0.0
  0
LINE
  5
E3D
330
1D
100
AcDbEntity
  8
0
100
AcDbLine
 10
180.25
 20
166.65105
 30
0.0
 11
180.25
 21
169.85105
 31
0.0
  0
LINE
  5
E3E
330
1D
100
AcDbEntity
  8
0
100
AcDbLine
 10
180.25
 20
166.65105
 30
0.0
 11
180.25
 21
164.73105
 31
0.0
  0
LINE
  5
E3F
330
1D
100
AcDbEntity
  8
0
100
AcDbLine
 10
180.25
 20
164.73105
 30
0.0
 11
180.25
 21
166.65105
 31
0.0
  0
LINE
  5
E40
330
1D
100
AcDbEntity
  8
0
100
AcDbLine
 10
180.25
 20
164.73105
 30
0.0
 11
180.25
 21
164.01105
 31
0.0
  0
LINE
  5
E41
330
1D
100
AcDbEntity
  8
0
100
AcDbLine
 10
180.25
 20
164.01105
 30
0.0
 11
180.25
 21
164.73105
 31
0.0
  0
LINE
  5
E42
330
1D
100
AcDbEntity
  8
0
100
AcDbLine
 10
178.25
 20
164.01105
 30
0.0
 11
178.25
 21
164.73105
 31
0.0
  0
LINE
  5
E43
330
1D
100
AcDbEntity
  8
0
100
AcDbLine
 10
178.25
 20
164.01105
 30
0.0
 11
180.25
 21
164.01105
 31
0.0
  0
LINE
  5
E44
330
1D
100
AcDbEntity
  8
0
100
AcDbLine
 10
177.843
 20
164.73105
 30
0.0
 11
178.25
 21
164.01105
 31
0.0
  0
LINE
  5
E45
330
1D
100
AcDbEntity
  8
0
100
AcDbLine
 10
174.854
 20
178.89105
 30
0.0
 11
175.51
 21
174.09105
 31
0.0
  0
LINE
  5
E46
330
1D
100
AcDbEntity
  8
0
100
AcDbLine
 10
178.25
 20
178.89105
 30
0.0
 11
178.25
 21
174.09105
 31
0.0
  0
LINE
  5
E47
330
1D
100
AcDbEntity
  8
0
100
AcDbLine
 10
178.25
 20
174.09105
 30
0.0
 11
178.25
 21
178.89105
 31
0.0
  0
LINE
  5
E48
330
1D
100
AcDbEntity
  8
0
100
AcDbLine
 10
180.25
 20
178.89105
 30
0.0
 11
180.25
 21
174.09105
 31
0.0
  0
LINE
  5
E49
330
1D
100
AcDbEntity
  8
0
100
AcDbLine
 10
180.25
 20
174.09105
 30
0.0
 11
180.25
 21
178.89105
 31
0.0
  0
LINE
  5
E4A
330
1D
100
AcDbEntity
  8
0
100
AcDbLine
 10
175.51
 20
193.93105
 30
0.0
 11
176.36
 21
198.17105
 31
0.0
  0
LINE
  5
E4B
330
1D
100
AcDbEntity
  8
0
100
AcDbLine
 10
178.25
 20
193.93105
 30
0.0
 11
178.25
 21
198.17105
 31
0.0
  0
LINE
  5
E4C
330
1D
100
AcDbEntity
  8
0
100
AcDbLine
 10
178.25
 20
198.17105
 30
0.0
 11
178.25
 21
193.93105
 31
0.0
  0
LINE
  5
E4D
330
1D
100
AcDbEntity
  8
0
100
AcDbLine
 10
180.25
 20
193.93105
 30
0.0
 11
180.25
 21
198.17105
 31
0.0
  0
LINE
  5
E4E
330
1D
100
AcDbEntity
  8
0
100
AcDbLine
 10
180.25
 20
198.17105
 30
0.0
 11
180.25
 21
193.93105
 31
0.0
  0
LINE
  5
E4F
330
1D
100
AcDbEntity
  8
0
100
AcDbLine
 10
174.854
 20
189.13105
 30
0.0
 11
175.51
 21
193.93105
 31
0.0
  0
LINE
  5
E50
330
1D
100
AcDbEntity
  8
0
100
AcDbLine
 10
174.6
 20
184.01105
 30
0.0
 11
174.854
 21
189.13105
 31
0.0
  0
LINE
  5
E51
330
1D
100
AcDbEntity
  8
0
100
AcDbLine
 10
178.25
 20
184.01105
 30
0.0
 11
178.25
 21
189.13105
 31
0.0
  0
LINE
  5
E52
330
1D
100
AcDbEntity
  8
0
100
AcDbLine
 10
178.25
 20
189.13105
 30
0.0
 11
178.25
 21
193.93105
 31
0.0
  0
LINE
  5
E53
330
1D
100
AcDbEntity
  8
0
100
AcDbLine
 10
178.25
 20
189.13105
 30
0.0
 11
178.25
 21
184.01105
 31
0.0
  0
LINE
  5
E54
330
1D
100
AcDbEntity
  8
0
100
AcDbLine
 10
178.25
 20
193.93105
 30
0.0
 11
178.25
 21
189.13105
 31
0.0
  0
LINE
  5
E55
330
1D
100
AcDbEntity
  8
0
100
AcDbLine
 10
180.25
 20
189.13105
 30
0.0
 11
180.25
 21
184.01105
 31
0.0
  0
LINE
  5
E56
330
1D
100
AcDbEntity
  8
0
100
AcDbLine
 10
180.25
 20
189.13105
 30
0.0
 11
180.25
 21
193.93105
 31
0.0
  0
LINE
  5
E57
330
1D
100
AcDbEntity
  8
0
100
AcDbLine
 10
180.25
 20
193.93105
 30
0.0
 11
180.25
 21
189.13105
 31
0.0
  0
LINE
  5
E58
330
1D
100
AcDbEntity
  8
0
100
AcDbLine
 10
180.25
 20
184.01105
 30
0.0
 11
180.25
 21
189.13105
 31
0.0
  0
LINE
  5
E59
330
1D
100
AcDbEntity
  8
0
100
AcDbLine
 10
173.315
 20
199.01105
 30
0.0
 11
174.799
 21
199.01105
 31
0.0
  0
LINE
  5
E5A
330
1D
100
AcDbEntity
  8
0
100
AcDbLine
 10
173.315
 20
206.01105
 30
0.0
 11
174.799
 21
206.01105
 31
0.0
  0
LINE
  5
E5B
330
1D
100
AcDbEntity
  8
0
100
AcDbLine
 10
170.145
 20
199.01105
 30
0.0
 11
173.027
 21
199.01105
 31
0.0
  0
LINE
  5
E5C
330
1D
100
AcDbEntity
  8
0
100
AcDbLine
 10
171.635
 20
199.01105
 30
0.0
 11
173.315
 21
199.01105
 31
0.0
  0
LINE
  5
E5D
330
1D
100
AcDbEntity
  8
0
100
AcDbLine
 10
169.843
 20
199.01105
 30
0.0
 11
171.038
 21
199.01105
 31
0.0
  0
LINE
  5
E5E
330
1D
100
AcDbEntity
  8
0
100
AcDbLine
 10
169.843
 20
199.01105
 30
0.0
 11
171.635
 21
199.01105
 31
0.0
  0
LINE
  5
E5F
330
1D
100
AcDbEntity
  8
0
100
AcDbLine
 10
171.038
 20
199.01105
 30
0.0
 11
172.158
 21
199.01105
 31
0.0
  0
LINE
  5
E60
330
1D
100
AcDbEntity
  8
0
100
AcDbLine
 10
172.158
 20
199.01105
 30
0.0
 11
173.147
 21
199.01105
 31
0.0
  0
LINE
  5
E61
330
1D
100
AcDbEntity
  8
0
100
AcDbLine
 10
173.147
 20
199.01105
 30
0.0
 11
173.894
 21
199.01105
 31
0.0
  0
LINE
  5
E62
330
1D
100
AcDbEntity
  8
0
100
AcDbLine
 10
173.894
 20
199.01105
 30
0.0
 11
174.342
 21
199.01105
 31
0.0
  0
LINE
  5
E63
330
1D
100
AcDbEntity
  8
0
100
AcDbLine
 10
169.843
 20
206.01105
 30
0.0
 11
171.635
 21
206.01105
 31
0.0
  0
LINE
  5
E64
330
1D
100
AcDbEntity
  8
0
100
AcDbLine
 10
171.635
 20
206.01105
 30
0.0
 11
173.315
 21
206.01105
 31
0.0
  0
LINE
  5
E65
330
1D
100
AcDbEntity
  8
0
100
AcDbLine
 10
174.342
 20
199.01105
 30
0.0
 11
174.51
 21
199.01105
 31
0.0
  0
LINE
  5
E66
330
1D
100
AcDbEntity
  8
0
100
AcDbLine
 10
176.843
 20
199.01105
 30
0.0
 11
176.843
 21
206.01105
 31
0.0
  0
LINE
  5
E67
330
1D
100
AcDbEntity
  8
0
100
AcDbLine
 10
176.843
 20
200.098232044888
 30
0.0
 11
177.162
 21
201.37105
 31
0.0
  0
LINE
  5
E68
330
1D
100
AcDbEntity
  8
0
100
AcDbLine
 10
176.843
 20
206.01105
 30
0.0
 11
176.843
 21
199.01105
 31
0.0
  0
LINE
  5
E69
330
1D
100
AcDbEntity
  8
0
100
AcDbLine
 10
178.25
 20
198.17105
 30
0.0
 11
178.25
 21
201.37105
 31
0.0
  0
LINE
  5
E6A
330
1D
100
AcDbEntity
  8
0
100
AcDbLine
 10
178.25
 20
201.37105
 30
0.0
 11
178.25
 21
198.17105
 31
0.0
  0
LINE
  5
E6B
330
1D
100
AcDbEntity
  8
0
100
AcDbLine
 10
180.25
 20
198.17105
 30
0.0
 11
180.25
 21
201.37105
 31
0.0
  0
LINE
  5
E6C
330
1D
100
AcDbEntity
  8
0
100
AcDbLine
 10
180.25
 20
201.37105
 30
0.0
 11
180.25
 21
198.17105
 31
0.0
  0
LINE
  5
E6D
330
1D
100
AcDbEntity
  8
0
100
AcDbLine
 10
174.799
 20
199.01105
 30
0.0
 11
175.919
 21
199.01105
 31
0.0
  0
LINE
  5
E6E
330
1D
100
AcDbEntity
  8
0
100
AcDbLine
 10
175.919
 20
199.01105
 30
0.0
 11
176.591
 21
199.01105
 31
0.0
  0
LINE
  5
E6F
330
1D
100
AcDbEntity
  8
0
100
AcDbLine
 10
176.36
 20
198.17105
 30
0.0
 11
176.570525
 21
199.01105
 31
0.0
  0
LINE
  5
E70
330
1D
100
AcDbEntity
  8
0
100
AcDbLine
 10
176.591
 20
199.01105
 30
0.0
 11
176.843
 21
199.01105
 31
0.0
  0
LINE
  5
E71
330
1D
100
AcDbEntity
  8
0
100
AcDbLine
 10
174.799
 20
206.01105
 30
0.0
 11
175.919
 21
206.01105
 31
0.0
  0
LINE
  5
E72
330
1D
100
AcDbEntity
  8
0
100
AcDbLine
 10
175.919
 20
206.01105
 30
0.0
 11
176.591
 21
206.01105
 31
0.0
  0
LINE
  5
E73
330
1D
100
AcDbEntity
  8
0
100
AcDbLine
 10
177.162
 20
201.37105
 30
0.0
 11
177.843
 21
203.29105
 31
0.0
  0
LINE
  5
E74
330
1D
100
AcDbEntity
  8
0
100
AcDbLine
 10
176.591
 20
206.01105
 30
0.0
 11
176.843
 21
206.01105
 31
0.0
  0
LINE
  5
E75
330
1D
100
AcDbEntity
  8
0
100
AcDbLine
 10
176.843
 20
206.01105
 30
0.0
 11
177.608
 21
206.01105
 31
0.0
  0
LINE
  5
E76
330
1D
100
AcDbEntity
  8
0
100
AcDbLine
 10
177.608
 20
206.01105
 30
0.0
 11
178.25
 21
206.01105
 31
0.0
  0
LINE
  5
E77
330
1D
100
AcDbEntity
  8
0
100
AcDbLine
 10
177.843
 20
203.29105
 30
0.0
 11
178.25
 21
204.01105
 31
0.0
  0
LINE
  5
E78
330
1D
100
AcDbEntity
  8
0
100
AcDbLine
 10
178.25
 20
201.37105
 30
0.0
 11
178.25
 21
203.29105
 31
0.0
  0
LINE
  5
E79
330
1D
100
AcDbEntity
  8
0
100
AcDbLine
 10
178.25
 20
203.29105
 30
0.0
 11
178.25
 21
204.01105
 31
0.0
  0
LINE
  5
E7A
330
1D
100
AcDbEntity
  8
0
100
AcDbLine
 10
178.25
 20
203.29105
 30
0.0
 11
178.25
 21
201.37105
 31
0.0
  0
LINE
  5
E7B
330
1D
100
AcDbEntity
  8
0
100
AcDbLine
 10
178.25
 20
206.01105
 30
0.0
 11
178.25
 21
204.01105
 31
0.0
  0
LINE
  5
E7C
330
1D
100
AcDbEntity
  8
0
100
AcDbLine
 10
178.25
 20
204.01105
 30
0.0
 11
178.25
 21
206.01105
 31
0.0
  0
LINE
  5
E7D
330
1D
100
AcDbEntity
  8
0
100
AcDbLine
 10
178.25
 20
204.01105
 30
0.0
 11
180.25
 21
204.01105
 31
0.0
  0
LINE
  5
E7E
330
1D
100
AcDbEntity
  8
0
100
AcDbLine
 10
178.25
 20
204.01105
 30
0.0
 11
178.25
 21
203.29105
 31
0.0
  0
LINE
  5
E7F
330
1D
100
AcDbEntity
  8
0
100
AcDbLine
 10
180.25
 20
201.37105
 30
0.0
 11
180.25
 21
203.29105
 31
0.0
  0
LINE
  5
E80
330
1D
100
AcDbEntity
  8
0
100
AcDbLine
 10
180.25
 20
203.29105
 30
0.0
 11
180.25
 21
201.37105
 31
0.0
  0
LINE
  5
E81
330
1D
100
AcDbEntity
  8
0
100
AcDbLine
 10
180.25
 20
203.29105
 30
0.0
 11
180.25
 21
204.01105
 31
0.0
  0
LINE
  5
E82
330
1D
100
AcDbEntity
  8
0
100
AcDbLine
 10
180.25
 20
204.01105
 30
0.0
 11
180.25
 21
203.29105
 31
0.0
  0
ENDSEC
  0
SECTION
  2
OBJECTS
  0
DICTIONARY
  5
C
330
0
100
AcDbDictionary
281
     1
  3
ACAD_GROUP
350
D
  3
ACAD_LAYOUT
350
1A
  3
ACAD_MLEADERSTYLE
350
79D
  3
ACAD_MLINESTYLE
350
17
  3
ACAD_PLOTSETTINGS
350
19
  3
ACAD_PLOTSTYLENAME
350
E
  3
ACAD_SCALELIST
350
6B6
  3
AcDbVariableDictionary
350
79B
  3
DWGPROPS
350
E8E
  0
DICTIONARY
  5
D
102
{ACAD_REACTORS
330
C
102
}
330
C
100
AcDbDictionary
281
     1
  0
DICTIONARY
  5
1A
102
{ACAD_REACTORS
330
C
102
}
330
C
100
AcDbDictionary
281
     1
  3
Layout1
350
1C
  3
Model
350
1E
  0
DICTIONARY
  5
79D
102
{ACAD_REACTORS
330
C
102
}
330
C
100
AcDbDictionary
281
     1
  0
DICTIONARY
  5
17
102
{ACAD_REACTORS
330
C
102
}
330
C
100
AcDbDictionary
281
     1
  3
Standard
350
18
  0
DICTIONARY
  5
19
102
{ACAD_REACTORS
330
C
102
}
330
C
100
AcDbDictionary
281
     1
  0
ACDBDICTIONARYWDFLT
  5
E
102
{ACAD_REACTORS
330
C
102
}
330
C
100
AcDbDictionary
281
     1
  3
Normal
350
F
100
AcDbDictionaryWithDefault
340
F
  0
DICTIONARY
  5
6B6
102
{ACAD_REACTORS
330
C
102
}
330
C
100
AcDbDictionary
281
     1
  3
A0
350
6B7
  3
A1
350
6B8
  3
A2
350
6B9
  3
A3
350
6BA
  3
A4
350
6BB
  3
A5
350
6BC
  3
A6
350
6BD
  3
A7
350
6BE
  3
A8
350
6BF
  3
A9
350
6C0
  3
B0
350
6C1
  3
B1
350
6C2
  3
B2
350
6C3
  3
B3
350
6C4
  3
B4
350
6C5
  3
B5
350
6C6
  3
B6
350
6C7
  3
B7
350
6C8
  3
B8
350
6C9
  3
B9
350
6CA
  3
C0
350
6CB
  3
C1
350
6CC
  3
C2
350
6CD
  3
C3
350
6CE
  3
C4
350
6CF
  3
C5
350
6D0
  3
C6
350
6D1
  3
C7
350
6D2
  3
C8
350
6D3
  3
C9
350
6D4
  3
D0
350
6D5
  3
D1
350
6D6
  3
D2
350
6D7
  0
DICTIONARY
  5
79B
102
{ACAD_REACTORS
330
C
102
}
330
C
100
AcDbDictionary
281
     1
  3
CANNOSCALE
350
E86
  0
XRECORD
  5
E8E
102
{ACAD_REACTORS
330
C
102
}
330
C
100
AcDbXrecord
280
     1
  1
DWGPROPS COOKIE
  2

  3

  4

  6

  7

  8
MARTIN
  9

300
=
301
=
302
=
303
=
304
=
305
=
306
=
307
=
308
=
309
=
 40
0.0
 41
2456184.567019387
 42
2456184.621880139
  1

 90
        0
  0
LAYOUT
  5
1C
102
{ACAD_REACTORS
330
1A
102
}
330
1A
100
AcDbPlotSettings
  1

  2
none_device
  4

  6

 40
0.0
 41
0.0
 42
0.0
 43
0.0
 44
0.0
 45
0.0
 46
0.0
 47
0.0
 48
0.0
 49
0.0
140
0.0
141
0.0
142
1.0
143
1.0
 70
   688
 72
     0
 73
     0
 74
     5
  7

 75
    16
147
1.0
148
0.0
149
0.0
100
AcDbLayout
  1
Layout1
 70
     1
 71
     1
 10
0.0
 20
0.0
 11
12.0
 21
9.0
 12
0.0
 22
0.0
 32
0.0
 14
1.000000000000E+20
 24
1.000000000000E+20
 34
1.000000000000E+20
 15
-1.000000000000E+20
 25
-1.000000000000E+20
 35
-1.000000000000E+20
146
0.0
 13
0.0
 23
0.0
 33
0.0
 16
1.0
 26
0.0
 36
0.0
 17
0.0
 27
1.0
 37
0.0
 76
     0
330
1B
  0
LAYOUT
  5
1E
102
{ACAD_REACTORS
330
1A
102
}
330
1A
100
AcDbPlotSettings
  1

  2
none_device
  4

  6

 40
0.0
 41
0.0
 42
0.0
 43
0.0
 44
0.0
 45
0.0
 46
0.0
 47
0.0
 48
0.0
 49
0.0
140
0.0
141
0.0
142
1.0
143
1.0
 70
  1712
 72
     0
 73
     0
 74
     0
  7

 75
     0
147
1.0
148
0.0
149
0.0
100
AcDbLayout
  1
Model
 70
     1
 71
     0
 10
0.0
 20
0.0
 11
12.0
 21
9.0
 12
0.0
 22
0.0
 32
0.0
 14
31.75
 24
0.01925
 34
0.0
 15
201.75
 25
206.01105
 35
0.0
146
0.0
 13
0.0
 23
0.0
 33
0.0
 16
1.0
 26
0.0
 36
0.0
 17
0.0
 27
1.0
 37
0.0
 76
     0
330
1D
331
6B1
  0
MLINESTYLE
  5
18
102
{ACAD_REACTORS
330
17
102
}
330
17
100
AcDbMlineStyle
  2
Standard
 70
     0
  3

 62
   256
 51
90.0
 52
90.0
 71
     2
 49
0.5
 62
   256
  6
BYLAYER
 49
-0.5
 62
   256
  6
BYLAYER
  0
ACDBPLACEHOLDER
  5
F
102
{ACAD_REACTORS
330
E
102
}
330
E
  0
SCALE
  5
6B7
102
{ACAD_REACTORS
330
6B6
102
}
330
6B6
100
AcDbScale
 70
     0
300
1:1
140
1.0
141
1.0
290
     1
  0
SCALE
  5
6B8
102
{ACAD_REACTORS
330
6B6
102
}
330
6B6
100
AcDbScale
 70
     0
300
1:2
140
1.0
141
2.0
290
     0
  0
SCALE
  5
6B9
102
{ACAD_REACTORS
330
6B6
102
}
330
6B6
100
AcDbScale
 70
     0
300
1:4
140
1.0
141
4.0
290
     0
  0
SCALE
  5
6BA
102
{ACAD_REACTORS
330
6B6
102
}
330
6B6
100
AcDbScale
 70
     0
300
1:5
140
1.0
141
5.0
290
     0
  0
SCALE
  5
6BB
102
{ACAD_REACTORS
330
6B6
102
}
330
6B6
100
AcDbScale
 70
     0
300
1:8
140
1.0
141
8.0
290
     0
  0
SCALE
  5
6BC
102
{ACAD_REACTORS
330
6B6
102
}
330
6B6
100
AcDbScale
 70
     0
300
1:10
140
1.0
141
10.0
290
     0
  0
SCALE
  5
6BD
102
{ACAD_REACTORS
330
6B6
102
}
330
6B6
100
AcDbScale
 70
     0
300
1:16
140
1.0
141
16.0
290
     0
  0
SCALE
  5
6BE
102
{ACAD_REACTORS
330
6B6
102
}
330
6B6
100
AcDbScale
 70
     0
300
1:20
140
1.0
141
20.0
290
     0
  0
SCALE
  5
6BF
102
{ACAD_REACTORS
330
6B6
102
}
330
6B6
100
AcDbScale
 70
     0
300
1:30
140
1.0
141
30.0
290
     0
  0
SCALE
  5
6C0
102
{ACAD_REACTORS
330
6B6
102
}
330
6B6
100
AcDbScale
 70
     0
300
1:40
140
1.0
141
40.0
290
     0
  0
SCALE
  5
6C1
102
{ACAD_REACTORS
330
6B6
102
}
330
6B6
100
AcDbScale
 70
     0
300
1:50
140
1.0
141
50.0
290
     0
  0
SCALE
  5
6C2
102
{ACAD_REACTORS
330
6B6
102
}
330
6B6
100
AcDbScale
 70
     0
300
1:100
140
1.0
141
100.0
290
     0
  0
SCALE
  5
6C3
102
{ACAD_REACTORS
330
6B6
102
}
330
6B6
100
AcDbScale
 70
     0
300
2:1
140
2.0
141
1.0
290
     0
  0
SCALE
  5
6C4
102
{ACAD_REACTORS
330
6B6
102
}
330
6B6
100
AcDbScale
 70
     0
300
4:1
140
4.0
141
1.0
290
     0
  0
SCALE
  5
6C5
102
{ACAD_REACTORS
330
6B6
102
}
330
6B6
100
AcDbScale
 70
     0
300
8:1
140
8.0
141
1.0
290
     0
  0
SCALE
  5
6C6
102
{ACAD_REACTORS
330
6B6
102
}
330
6B6
100
AcDbScale
 70
     0
300
10:1
140
10.0
141
1.0
290
     0
  0
SCALE
  5
6C7
102
{ACAD_REACTORS
330
6B6
102
}
330
6B6
100
AcDbScale
 70
     0
300
100:1
140
100.0
141
1.0
290
     0
  0
SCALE
  5
6C8
102
{ACAD_REACTORS
330
6B6
102
}
330
6B6
100
AcDbScale
 70
     0
300
1/128" = 1'-0"
140
0.0078125
141
12.0
290
     0
  0
SCALE
  5
6C9
102
{ACAD_REACTORS
330
6B6
102
}
330
6B6
100
AcDbScale
 70
     0
300
1/64" = 1'-0"
140
0.015625
141
12.0
290
     0
  0
SCALE
  5
6CA
102
{ACAD_REACTORS
330
6B6
102
}
330
6B6
100
AcDbScale
 70
     0
300
1/32" = 1'-0"
140
0.03125
141
12.0
290
     0
  0
SCALE
  5
6CB
102
{ACAD_REACTORS
330
6B6
102
}
330
6B6
100
AcDbScale
 70
     0
300
1/16" = 1'-0"
140
0.0625
141
12.0
290
     0
  0
SCALE
  5
6CC
102
{ACAD_REACTORS
330
6B6
102
}
330
6B6
100
AcDbScale
 70
     0
300
3/32" = 1'-0"
140
0.09375
141
12.0
290
     0
  0
SCALE
  5
6CD
102
{ACAD_REACTORS
330
6B6
102
}
330
6B6
100
AcDbScale
 70
     0
300
1/8" = 1'-0"
140
0.125
141
12.0
290
     0
  0
SCALE
  5
6CE
102
{ACAD_REACTORS
330
6B6
102
}
330
6B6
100
AcDbScale
 70
     0
300
3/16" = 1'-0"
140
0.1875
141
12.0
290
     0
  0
SCALE
  5
6CF
102
{ACAD_REACTORS
330
6B6
102
}
330
6B6
100
AcDbScale
 70
     0
300
1/4" = 1'-0"
140
0.25
141
12.0
290
     0
  0
SCALE
  5
6D0
102
{ACAD_REACTORS
330
6B6
102
}
330
6B6
100
AcDbScale
 70
     0
300
3/8" = 1'-0"
140
0.375
141
12.0
290
     0
  0
SCALE
  5
6D1
102
{ACAD_REACTORS
330
6B6
102
}
330
6B6
100
AcDbScale
 70
     0
300
1/2" = 1'-0"
140
0.5
141
12.0
290
     0
  0
SCALE
  5
6D2
102
{ACAD_REACTORS
330
6B6
102
}
330
6B6
100
AcDbScale
 70
     0
300
3/4" = 1'-0"
140
0.75
141
12.0
290
     0
  0
SCALE
  5
6D3
102
{ACAD_REACTORS
330
6B6
102
}
330
6B6
100
AcDbScale
 70
     0
300
1" = 1'-0"
140
1.0
141
12.0
290
     0
  0
SCALE
  5
6D4
102
{ACAD_REACTORS
330
6B6
102
}
330
6B6
100
AcDbScale
 70
     0
300
1-1/2" = 1'-0"
140
1.5
141
12.0
290
     0
  0
SCALE
  5
6D5
102
{ACAD_REACTORS
330
6B6
102
}
330
6B6
100
AcDbScale
 70
     0
300
3" = 1'-0"
140
3.0
141
12.0
290
     0
  0
SCALE
  5
6D6
102
{ACAD_REACTORS
330
6B6
102
}
330
6B6
100
AcDbScale
 70
     0
300
6" = 1'-0"
140
6.0
141
12.0
290
     0
  0
SCALE
  5
6D7
102
{ACAD_REACTORS
330
6B6
102
}
330
6B6
100
AcDbScale
 70
     0
300
1'-0" = 1'-0"
140
12.0
141
12.0
290
     0
  0
DICTIONARYVAR
  5
E86
102
{ACAD_REACTORS
330
79B
102
}
330
79B
100
DictionaryVariables
280
     0
  1
1:1
  0
ENDSEC
  0
SECTION
  2
THUMBNAILIMAGE
 90
    16364
310
28000000B40000005500000001000800000000000000000000000000000000000000000000000000FFFFFF000000FF0000FFFF0000FF0000FFFF0000FF000000FF00FF000000000080808000C0C0C0000000FF007F7FFF000000A5005252A50000007F003F3F7F0000004C0026264C000000260013132600003FFF007F9FFF
310
000029A5005267A500001F7F003F4F7F0000134C00262F4C000009260013172600007FFF007FBFFF000052A500527CA500003F7F003F5F7F0000264C0026394C0000132600131C260000BFFF007FDFFF00007CA5005291A500005F7F003F6F7F0000394C0026424C00001C26001321260000FFFF007FFFFF0000A5A50052A5
310
A500007F7F003F7F7F00004C4C00264C4C00002626001326260000FFBF007FFFDF0000A57C0052A59100007F5F003F7F6F00004C3900264C420000261C001326210000FF7F007FFFBF0000A5520052A57C00007F3F003F7F5F00004C2600264C39000026130013261C0000FF3F007FFF9F0000A5290052A56700007F1F003F
310
7F4F00004C1300264C2F00002609001326170000FF00007FFF7F0000A5000052A55200007F00003F7F3F00004C0000264C260000260000132613003FFF00009FFF7F0029A5000067A552001F7F00004F7F3F00134C00002F4C260009260000172613007FFF0000BFFF7F0052A500007CA552003F7F00005F7F3F00264C0000
310
394C2600132600001C261300BFFF0000DFFF7F007CA5000091A552005F7F00006F7F3F00394C0000424C26001C26000021261300FFFF0000FFFF7F00A5A50000A5A552007F7F00007F7F3F004C4C00004C4C26002626000026261300FFBF0000FFDF7F00A57C0000A59152007F5F00007F6F3F004C3900004C422600261C00
310
0026211300FF7F0000FFBF7F00A5520000A57C52007F3F00007F5F3F004C2600004C39260026130000261C1300FF3F0000FF9F7F00A5290000A56752007F1F00007F4F3F004C1300004C2F26002609000026171300FF000000FF7F7F00A5000000A55252007F0000007F3F3F004C0000004C2626002600000026131300FF00
310
3F00FF7F9F00A5002900A55267007F001F007F3F4F004C0013004C262F002600090026131700FF007F00FF7FBF00A5005200A5527C007F003F007F3F5F004C0026004C2639002600130026131C00FF00BF00FF7FDF00A5007C00A55291007F005F007F3F6F004C0039004C26420026001C0026132100FF00FF00FF7FFF00A5
310
00A500A552A5007F007F007F3F7F004C004C004C264C002600260026132600BF00FF00DF7FFF007C00A5009152A5005F007F006F3F7F0039004C0042264C001C002600211326007F00FF00BF7FFF005200A5007C52A5003F007F005F3F7F0026004C0039264C00130026001C1326003F00FF009F7FFF002900A5006752A500
310
1F007F004F3F7F0013004C002F264C000900260017132600000000002D2D2D005B5B5B0089898900B7B7B700B3B3B30000000000000000000000000000000000000000000000000000000000000000000000000000000000000000000000000000000000000000000000000000000000000000000000000000000000000000
310
00000000000000000000000000070707070707070707000000000000000000000000000000000000000000000000000000000000000000000000000000000000000000000000000000000000000000000000000000000000000000000000000000000000000000000000000000000000000000000000000000000000000000
310
00000000000000000000000000000000000000000000000000000000000000000000000000000000000000000000000000000000000000000000000000000000000707000000000000000007070000000000000000000000000000000000000000000000000000000000000000000000000000000000000000000000000000
310
00000000000000000000000000000000000000000000000000000000000000000000000000000000000000000000000000000000000000000000000000000000000000000000000000000000000000000000000000000000000000000000000000000000000000000000000000000000000000000007000000000000000000
310
00000707000000000000000000000000000000000000000000000000000000000000000000000000000000000000000000000000000000000000000000000000000000000000000000000000000000000000000000000000000000000000000000000000000000000000000000000000000000000000000000000000000000
310
00000000000000000000000000000000000000000000000000000000000000000000000000000000000000070000000000000000000000000700000000000000000000000000000000000000000000000000000000000000000000000000000000000000000000000000000000000000000000000000000000000000000000
310
00000000000000000000000000000000000000000000000000000000000000000000000000000000000000000000000000000000000000000000000000000000000000000000000000000000000000000000000000000000000000000000000707000000000000000000000000070000000000000000000000000000000000
310
00000000000000000000000000000000000000000000000000000000000000000000000000000000000000000000000000000000000000000000000000000000000000000000000000000000000000000000000000000000000000000000000000000000000000000000000000000000000000000000000000000000000000
310
00000000000000000000000000000000000000000007070000000000000000000000070700000000000000000000000000000000000000000000000000000000000000000000000000000000000000000000000000000000000000000000000000000000000000000000000000000000000000000000000000000000000000
310
00000000000000000000000000000000000000000000000000000000000000000000000000000000000000000000000000000000000000000000000000000000000000000000000000000707070000000000000000000007070700000000000000000000000000000000000000000000000000000000000000000000000000
310
00000000000000000000000000000000000000000000000000000000000000000000000000000000000000000000000000000000000000000000000000000000000000000000000000000000000000000000000000000000000000000000000000000000000000000000000000000000000000000000000000000000000000
310
07000700000000000000000007070007000000000000000000000000000000000000000000000000000000000000000000000000000000000000000000000000000000000000000000000000000000000000000000000000000000000000000000000000000000000000000000000000000000000000000000000000000000
310
00000000000000000000000000000000000000000000000000000000000000000000000000000000000000000000000000000000000700070700000000000000070700000700000000000000000000000000000000000000000000000000000000000000000000000000000000000000000000000000000000000000000000
310
00000000000000000000000000000000000000000000000000000000000000000000000000000000000000000000000000000000000000000000000000000000000000000000000000000000000000000000000000000000000000000000000000000000000000000007000000070707000000000707070000070000000000
310
00000000000000000000000000000000000000000000000000000000000000000000000000000000000000000000000000000000000000000000000000000000000000000000000000000000000000000000000000000000000000000000000000000000000000000000000000000000000000000000000000000000000000
310
00000000000000000000000000000000000000000000000000000000000000070000000007070707070707000000000700000000000000000000000000000000000000000000000000000000000000000000000000000000000000000000000000000000000000000000000000000000000000000000000000000000000000
310
00000000000000000000000000000000000000000000000000000000000000000000000000000000000000000000000000000000000000000000000000000000000000000000000000000000000000000000000007000000000000000707000000000000000700000000000000000000000000000000000000000000000000
310
00000000000000000000000000000000000000000000000000000000000000000000000000000000000000000000000000000000000000000000000000000000000000000000000000000000000000000000000000000000000000000000000000000000000000000000000000000000000000000000000000000000000000
310
00000000000000000000070000000000000000000000000000000007000000000000000000000000000000000000000000000000000000000000000000000000000000000000000000000000000000000000000000000000000000000000000000000000000000000000000000000000000000000000000000000000000000
310
00000000000000000000000000000000000000000000000000000000000000000000000000000000000000000000000000000000000000000000000000000007000000000000000000000000000000000700000000000000000000000000000000000000000000000000000000000000000000000000000000000000000000
310
00000000000000000000000000000000000000000000000000000000000000000000000000000000000000000000000000000000000000000000000000000000000000000000000000000000000000000000000000000000000000000000000000000000000000000000000000000000000000000700000000000000000000
310
00000000000007000000000000000000000000000000000000000000000000000000000000000000000000000000000000000000000000000000000000000000000000000000000000000000000000000000000000000000000000000000000000000000000000000000000000000000000000000000000000000000000000
310
00000000000000000000000000000000000000000000000000000000000000000000000000000000000007000000000000000000000000000000000700000000000000000000000000000000000000000000000000000000000000000000000000000000000000000000000000000000000000000000000000000000000000
310
00000000000000000000000000000000000000000000000000000000000000000000000000000000000000000000000000000000000000000000000000000000000000000000000000000000000000000000000000000000000000000000070000000000000000000000000000000000070000000000000000000000000000
310
00000000000000000000000000000000000000000000000000000000000000000000000000000000000000000000000000000000000000000000000000000000000000000000000000000000000000000000000000000000000000000000000000000000000000000000000000000000000000000000000000000000000000
310
00000000000000000000000000000000000000000700000000000707070707070707000000000007000000000000000000000000000000000000000000000000000000000000000000000000000000000000000000000000000000000000000000000000000000000000000000000000000000000000000000000000000000
310
00000000000000000000000000000000000000000000000000000000000000000000000000000000000000000000000000000000000000000000000000000000000000000000000000070000000000070000000000000700000000000700000000000000000000000000000000000000000000000000000000000000000000
310
00000000000000000000000000000000000000000000000000000000000000000000000000000000000000000000000000000000000000000000000000000000000000000000000000000000000000000000000000000000000000000000000000000000000000000000000000000000000000000000000000000000000000
310
00000000000700000000000007000000000000000000000000000000000000000000000000000000000000000000000000000000000000000000000000000000000000000000000000000000000000000000000000000000000000000000000000000000000000000000000000000000000000000000000000000000000000
310
00000000000000000000000000000000000000000000000000000000000000000000000000000000000000000000000000000000070000000007000000000000000700000000000700000000000000000000000000000000000000000000000000000000000000000000000000000000000000000000000000000000000000
310
00000000000000000000000000000000000000000000000000000000000000000000000000000000000000000000000000000000000000000000000000000000000000000000000000000000000000000000000000000000000000000000000000000000000000000007000000000700000000000000000700000000070000
310
00000000000000000000000000000000000000000000000000000000000000000000000000000000000000000000000000000000000000000000000000000000000000000000000000000000000000000000000000000000000000000000000000000000000000000000000000000000000000000000000000000000000000
310
00000000000000000000000000000000000000000000000000000000000000070000000007000000000000000007000000000700000000000000000000000000000000000000000000000000000000000000000000000000000000000000000000000000000000000000000000000000000000000000000000000000000000
310
00000000000000000000000000000000000000000000000000000000000000000000000000000000000000000000000000000000000000000000000000000000000000000000000000000000000000000000000700000000000700000000000000000700000000070000000000000000000000000000000000000000000000
310
00000000000000000000000000000000000000000000000000000000000000000000000000000000000000000000000000000000000000000000000000000000000000000000000000000000000000000000000000000000000000000000000000000000000000000000000000000000000000000000000000000000000000
310
00000000000000000007000000000700000000000000000007000000000700000000000000000000000000000000000000000000000000000000000000000000000000000000000000000000000000000000000000000000000000000000000000000000000000000000000000000000000000000000000000000000000000
310
00000000000000000000000000000000000000000000000000000000000000000000000000000000000000000000000000000000000000000000000000000707070707070000000000000000000707070707070000000000000000000000000000000000000000000000000000000000000000000000000000000000000000
310
00000000000000000000000000000000000000000000000000000000000000000000000000000000000000000000000000000000000000000000000000000000000000000000000000000000000000000000000000000000000000000000000000000000000000000000000000000000000000000700000007000000000000
310
00000007000000000700000000000000000000000000000000000000000000000000000000000000000000000000000000000000000000000000000000000000000000000000000000000000000000000000000000000000000000000000000000000000000000000000000000000000000000000000000000000000000000
310
00000000000000000000000000000000000000000000000000000000000000000000000000000000000007000000070000000000000000000007000000070000000000000000000000000000000000000000000000000000000000000000000000000000000000000000000000000000000000000000000000000000000000
310
00000000000000000000000000000000000000000000000000000000000000000000000000000000000000000000000000000000000000000000000000000000000000000000000000000000000000000000000000000000000000000000000700000700000000000000000000000700000007000000000000000000000000
310
00000000000000000000000000000000000000000000000000000000000000000000000000000000000000000000000000000000000000000000000000000000000000000000000000000000000000000000000000000000000000000000000000000000000000000000000000000000000000000000000000000000000000
310
00000000000000000000000000000000000000000007000007000000000000000000000007000000070000000000000000000000000000000000000000000000000000000000000000000000000000000000000000000000000000000000000000000000000000000000000000000000000000000000000000000000000000
310
00000000000000000000000000000000000000000000000000000000000000000000000000000000000000000000000000000000000000000000000000000000000000000000000000000700000707070707070707070707070700000007000000000000000000000000000000000000000000000000000000000000000000
310
00000000000000000000000000000000000000000000000000000000000000000000000000000000000000000000000000000000000000000000000000000000000000000000000000000000000000000000000000000000000000000000000000000000000007070707070707070707070707070707070707070707070707
310
07070707070707070707070707070707070707070707070707070707070707070707070707070707070707070700000000000000000000000000000000000000000000000000000000000000000000000000000000000000000000000000000000000000000000000000000000000000000000000000000000000000000000
310
00000000000000000000000000000000000000000000000000000000070000000000000000000000000000000000000000000000000000000000000000000000000000000000000000000000000000000000000000000000000000000000000000070000000000000000000000000000000000000000000000000000000000
310
00000000000000000000000000000000000000000000000000000000000000000000000000000000000000000000000000000000000000000000000000000000000000000000000000000000000000000007000000000000000000000000000000000000000000000000000000000000000000000000000000000000000000
310
00000000000000000000000000000000000000000000000700000000000000000000000000000000000000000000000000000000000000000000000000000000000000000000000000000000000000000000000000000000000000000000000000000000000000000000000000000000000000000000000000000000000000
310
00000000000000070000000000000000000000000000000000000000000000000000000000000000000000000000000000000000000000000000000000000000000000000000000000000000070000000000000000000000000000000000000000000000000000000000000000000000000000000000000000000000000000
310
00000000000000000000000000000000000000000000000000000000000000000000000000000000000000000000000000000000000000000000000007000000000000000000000000000000000000000000000000000000000000000000000000000000000000000000000000000000000000000000000000000000000000
310
00000700000000000000000000000000000000000000000000000000000000000000000000000000000000000000000000000000000000000000000000000000000000000000000000000000000000000000000000000000000000000000000000000000000000000000000000000000000700000000000000000000000000
310
00000000000000000000000000000000000000000000000000000000000000000000000000000000000000000000000000000000000000070000000000000000000000000000000000000000000000000000000000000000000000000000000000000000000000000000000000000000000000000000000000000000000000
310
00000000000000000000000000000000000000000000000000000000000000000000000000000007000000000000000000000000000000000000000000000000000000000000000000000000000000000000000000000000000000000000000000000000000000000000000007000000000000000000000000000000000000
310
00000000000000000000000000000000000000000000000000000000000000000000000000000000000000000000000000000000000000000000000000000000000000000000000000000000000000000000000000000000000000000700000000000000000000000000000000000000000000000000000000000000000000
310
00000000000000000000000000000000000000000000000000000000000000000000070000000000000000000000000000000000000000000000000000000000000000000000000000000000000000000000000000000000000000000000000000000000000000000000000000000000000000000000000000000000000000
310
00000000000000000000000000000000000007070707070707070707070707070707070707070707070707070707070707070707070707070707070707070707070707070707070707070707070707070707070707070707000000000000000000000000000000000000000000000000000000000000000000000000000000
310
00000000000000000000000000000000000000000000000000000000000000000000000000000000000000000000000000000000000000000000000000000000000000000000000000000000000000000007000000000000000000000000000000000000000000000000000000000000000000000000000000000000000000
310
00000007000000000000000000000000000000000000000000000000000000000000000000000000000000000000000000000000000000000000000000000000000000000000000000000000000000000000000000000000000000000000000000000000000000000000000000000000000000000000000000000000000000
310
00000000000000070000000000000000000000000000000000000000000000000000000000000000000000000000000000000000000000000700000000000000000000000000000000000000000000000000000000000000000000000000000000000000000000000000000000000000000000000000000000000000000000
310
00000000000000000000000000000000000000000000000000000000000000000000000000000000000000000000000000000000000000000000000007000000000000000000000000000000000000000000000000000000000000000000000000000000000000000000000000070000000000000000000000000000000000
310
00000000000000000000000000000000000000000000000000000000000000000000000000000000000000000000000000000000000000000000000000000000000000000000000000000000000000000000000000000000000000000000000000000000000000000000000000000000000700000000000000000000000000
310
00000000000000000000000000000000000000000000000000000000000000000000000700000000000000000000000000000000000000000000000000000000000000000000000000000000000000000000000000000000000000000000000000000000000000000000000000000000000000000000000000000000000000
310
00000000000000000000000000000000000000000000000000000000000000000000000000000007000000000000000000000000000000000000000000000000000000000000000000000000000000000000000000000000070000000000000000000000000000000000000000000000000000000000000000000000000000
310
00000000000000000000000000000000000000000000000000000000000000000000000000000000000000000000000000000000000000000000000000000000000000000000000000000000000000000000000000000000000000000700000000000000000000000000000000000000000000000000000000000000000000
310
00000000000000000000000000000700000000000000000000000000000000000000000000000000000000000000000000000000000000000000000000000000000000000000000000000000000000000000000000000000000000000000000000000000000000000000000000000000000000000000000000000000000000
310
00000000000000000000000000000000000007000000000000000000000000000000000000000000000000000000000000000000000000000000000000000000000000070000000000000000000000000000000000000000000000000000000000000000000000000000000000000000000000000000000000000000000000
310
00000000000000000000000000000000000000000000000000000000000000000000000000000000000000000000000000000000000000000000000000000000000000000000000700000000000000000000000000000000000000000000000000000000000000000000000000000000000000000000000007000000000000
310
00000000000000000000000000000000000000000000000000000000000000000000000000000000000000000000000000000000000000000000000000000000000000000000000000000000000000000000000000000000000000000000000000000000000000000000000000000000000000000000000000000000070000
310
00000000000000000000000000000000000000000000000000000000000000000000000000000000000000000000070000000000000000000000000000000000000000000000000000000000000000000000000000000000000000000000000000000000000000000000000000000000000000000000000000000000000000
310
00000000000000000000000000000000000000000000000000000000000000000000000000000000000000000000000000000700000000000000000000000000000000000000000000000000000000000000000000000000000000000000000000000007000000000000000000000000000000000000000000000000000000
310
00000000000000000000000000000000000000000000000000000000000000000000000000000000000000000000000000000000000000000000000000000000000000000000000000000000000000000000000000000000000000000000000000000000000000070000000000000000000000000000000000000000000000
310
00000000000000000000000000000000000000000000000000070000000000000000000000000000000000000000000000000000000000000000000000000000000000000000000000000000000000000000000000000000000000000000000000000000000000000000000000000000000000000000000000000000000000
310
00000000000000000000000000000000000000000000000000000000000700000000000000000000000000000000000000000000000000000000000000000000000000000000000000000000000007000000000000000000000000000000000000000000000000000000000000000000000000000000000000000000000000
310
00000000000000000000000000000000000000000000000000000000000000000000000000000000000000000000000000000000000000000000000000000000000000000000000000000000000000000000070000000000000000000000000000000000000000000000000000000000000000000000000000000000000000
310
00000000070000000000000000000000000000000000000000000000000000000000000000000000000000000000000000000000000000000000000000000000000000000000000000000000000000000000000000000000000000000000000000000000000000000000000000000000000000000000000000000000000000
310
00000000000000000700000000000000000000000000000000000000000000000000000000000000000000000000000000000000000000000007000000000000000000000000000000000000000000000000000000000000000000000000000000000000000000000000000000000000000000000000000000000000000000
310
00000000000000000000000000000000000000000000000000000000000000000000000000000000000000000000000000000000000000070707070707070707070707070707070707070707070707070707070707070707070707070707070707070707070707070707070707070707070707070700000000000000000000
310
00000000000000000000000000000000000000000000000000000000000000000000000000000000000000000000000000000000000000000000000000000000000000000000000000000000000000000000000000000000000000000000000000000000000000000000000007070707070707070707070707070707070707
310
07070707070707070707070707070707070707070707070707070707070707070707070707070707070707000000000000000000000000000000000000000000000000000000000000000000000000000000000000000000000000000000000000000000000000000000000000000000000000000000000000000000000000
310
00000000000000000000000000000000000000000000000000000000000000000000000000000000070000000000000000000000000000000000000000000000000000000000000000000000000000000000000000000000000700000000000000000000000000000000000000000000000000000000000000000000000000
310
00000000000000000000000000000000000000000000000000000000000000000000000000000000000000000000000000000000000000000000000000000000000000000000000000000000000000000000000000000000000000000007000000000000000000000000000000000000000000000000000000000000000000
310
00000000000000000000000000000007000000000000000000000000000000000000000000000000000000000000000000000000000000000000000000000000000000000000000000000000000000000000000000000000000000000000000000000000000000000000000000000000000000000000000000000000000000
310
00000000000000000000000000000000000000070000000000000000000000000000000000000000000000000000000000000000000000000000000000000000000000000700000000000000000000000000000000000000000000000000000000000000000000000000000000000000000000000000000000000000000000
310
00000000000000000000000000000000000000000000000000000000000000000000000000000000000000000000000000000000000000000000000000000000000000000000000007000000000000000000000000000000000000000000000000000000000000000000000000000000000000000000000000070000000000
310
00000000000000000000000000000000000000000000000000000000000000000000000000000000000000000000000000000000000000000000000000000000000000000000000000000000000000000000000000000000000000000000000000000000000000000000000000000000000000000000000000000000000700
310
00000000000000000000000000000000000000000000000000000000000000000000000000000000000000000000000700000000000000000000000000000000000000000000000000000000000000000000000000000000000000000000000000000000000000000000000000000000000000000000000000000000000000
310
00000000000000000000000000000000000000000000000000000000000000000000000000000000000000000000000000000007000000000000000000000000000000000000000000000000000000000000000000000000000000000000000000000000070000000000000000000000000000000000000000000000000000
310
00000000000000000000000000000000000000000000000000000000000000000000000000000000000000000000000000000000000000000000000000000000000000000000000000000000000000000000000000000000000000000000000000000000000000000700000000000000000000000000000000000000000000
310
00000000000000000000000000000000000000000000000000000700000000000000000000000000000000000000000000000000000000000000000000000000000000000000000000000000000000000000000000000000000000000000000000000000000000000000000000000000000000000000000000000000000000
310
00000000000000000000000000000000000000000000000000000000000007000000000000000000000000000000000000000000000000000000000000000000000000000000000000000000000000070000000000000000000000000000000000000000000000000000000000000000000000000000000000000000000000
310
00000000000000000000000000000000000000000000000000000000000000000000000000000000000000000000000000000000000000000000000000000000000000000000000000000000000000000000000700000000000000000000000000000000000000000000000000000000000000000000000000000000000000
310
00000000000700000000000000000000000000000000000000000000000000000000000000000000000000000000000000000000000000000000000000000000000000000000000000000000000000000000000000000000000000000000000000000000000000000000000000000000000000000000000000000000000000
310
00000000000000000007000000000000000000000000000000000000000000000000000000000000000000000000000000000000000000000000070000000000000000000000000000000000000000000000000000000000000000000000000000000000000000000000000000000000000000000000000000000000000000
310
00000000000000000000000000000000000000000000000000000000000000000000000000000000000000000000000000000000000000000000000000070700000000000000000000000000000000000000000000070707070700000000000000000000000000000000000000000007070000000000000000000000000000
310
00000000000000000000000000000000000000000000000000000000000000000000000000000000000000000000000000000000000000000000000000000000000000000000000000000000000000000000000000000000000000000000000000000000000000000000000000000000000007070000000000000000000000
310
00000000000000000007070000070000070700000000000000000000000000000000000000070700000000000000000000000000000000000000000000000000000000000000000000000000000000000000000000000000000000000000000000000000000000000000000000000000000000000000000000000000000000
310
00000000000000000000000000000000000000000000000000000000000000000000000000000000070700000000000000000000000000000000000000070707070707070707070000000000000000000000000000000000000007070000000000000000000000000000000000000000000000000000000000000000000000
310
00000000000000000000000000000000000000000000000000000000000000000000000000000000000000000000000000000000000000000000000000000000000000000000000000000000000000000000000000000000000000000007070700000000000000000000000000000000000707000707070007070707070000
310
00000000000000000000000000000000070700000000000000000000000000000000000000000000000000000000000000000000000000000000000000000000000000000000000000000000000000000000000000000000000000000000000000000000000000000000000000000000000000000000000000000000000000
310
00000000000000000000000000000000000000070707000000000000000000000000000000000707070700000000000000070707070000000000000000000000000000000707070000000000000000000000000000000000000000000000000000000000000000000000000000000000000000000000000000000000000000
310
00000000000000000000000000000000000000000000000000000000000000000000000000000000000000000000000000000000000000000000000000000000000000000000000007070700000000000000000000000000000007000707000000000000000000070707000000000000000000000000000000070707000000
310
00000000000000000000000000000000000000000000000000000000000000000000000000000000000000000000000000000000000000000000000000000000000000000000000000000000000000000000000000000000000000000000000000000000000000000000000000000000000000000000000000000000000707
310
07000000000000000000000000000000070707000000000000000000000707070000000000000000000000000000000707070000000000000000000000000000000000000000000000000000000000000000000000000000000000000000000000000000000000000000000000000000000000000000000000000000000000
310
00000000000000000000000000000000000000000000000000000000000000000000000000000000000000000000000000000007070700000000000000000000000000000007070700000000000000000000070707000000000000000000000000000000070707000000000000000000000000000000000000000000000000
310
00000000000000000000000000000000000000000000000000000000000000000000000000000000000000000000000000000000000000000000000000000000000000000000000000000000000000000000000000000000000000000000000000000000000000000707000000000000000000000000000000000707070000
310
00000000000000000000000000000000000000000000000000000707070000000000000000000000000000000000000000000000000000000000000000000000000000000000000000000000000000000000000000000000000000000000000000000000000000000000000000000000000000000000000000000000000000
310
00000000000000000000000000000000000000000000000000000000000007070700000000000000000000000000000007070700000000000000000000070707000000000000000000000000000000070707000000000000000000000000000000000000000000000000000000000000000000000000000000000000000000
310
00000000000000000000000000000000000000000000000000000000000000000000000000000000000000000000000000000000000000000000000000000000000000000000000000000000000000000000000707070000000000000000000000000000000707070000000000000000000007070700000000000000000000
310
00000000000707070000000000000000000000000000000000000000000000000000000000000000000000000000000000000000000000000000000000000000000000000000000000000000000000000000000000000000000000000000000000000000000000000000000000000000000000000000000000000000000000
310
00000000000000000007070700000000000000000000000000000007070007000000000000000000070707000000000000000000000000000000070707000000000000000000000000000000000000000000000000000000000000000000000000000000000000000000000000000000000000000000000000000000000000
310
00000000000000000000000000000000000000000000000000000000000000000000000000000000000000000000000000000000000000000000000000000707070000000000000000000000000000000007070700000000000000000700070700000000000000000000000000000007070700000000000000000000000000
310
00000000000000000000000000000000000000000000000000000000000000000000000000000000000000000000000000000000000000000000000000000000000000000000000000000000000000000000000000000000000000000000000000000000000000000000000000000000000000070707000000000000000000
310
00000000000000070007070700000000000707070700000000000000000000000000000000070707000000000000000000000000000000000000000000000000000000000000000000000000000000000000000000000000000000000000000000000000000000000000000000000000000000000000000000000000000000
310
00000000000000000000000000000000000000000000000000000000000000000000000000000000000707070707070707070707070700000000000000070007000707070707070007000000000000070707070707070707070707070700000000000000000000000000000000000000000000000000000000000000000000
310
00000000000000000000000000000000000000000000000000000000000000000000000000000000000000000000000000000000000000000000000000000000000000000000000000000000000000000000000000000000000000000000070707000000000000000000000000000000000000070707070707070700070000
310
00000000000000000000000000000000000707000000000000000000000000000000000000000000000000000000000000000000000000000000000000000000000000000000000000000000000000000000000000000000000000000000000000000000000000000000000000000000000000000000000000000000000000
310
00000000000000000000000000000000000000000707070000000000000000000000000000000000000000070707070707070000000000000000000000000000000000000000070700000000000000000000000000000000000000000000000000000000000000000000000000000000000000000000000000000000000000
310
00000000000000000000000000000000000000000000000000000000000000000000000000000000000000000000000000000000000000000000000000000000000000000000000000000707070707070707070707070707070707070707070707070707070707070707070707070707070707070707070707070707000000
310
00000000000000000000000000000000000000000000000000000000000000000000000000000000000000000000000000000000000000000000000000000000000000000000000000000000000000000000000000000000000000000000000000000000000000000000000000000000000000000000000000000000000000
310
000000000000000000000000000000000000000000000000000000000000000000000000000000000000000000000000000000000000000000000000000000000000000000000000000000000000000000000000000000000000000000000000000000000000000000000000
  0
ENDSEC
  0
EOF
