  0
SECTION
  2
HEADER
  9
$ACADVER
  1
AC1015
  9
$ACADMAINTVER
 70
     6
  9
$DWGCODEPAGE
  3
ANSI_1252
  9
$INSBASE
 10
0.0
 20
0.0
 30
0.0
  9
$EXTMIN
 10
0.0
 20
0.133172
 30
0.0
  9
$EXTMAX
 10
295.0
 20
225.866828
 30
0.0
  9
$LIMMIN
 10
0.0
 20
0.0
  9
$LIMMAX
 10
12.0
 20
9.0
  9
$ORTHOMODE
 70
     0
  9
$REGENMODE
 70
     1
  9
$FILLMODE
 70
     1
  9
$QTEXTMODE
 70
     0
  9
$MIRRTEXT
 70
     1
  9
$LTSCALE
 40
1.0
  9
$ATTMODE
 70
     1
  9
$TEXTSIZE
 40
0.2
  9
$TRACEWID
 40
0.05
  9
$TEXTSTYLE
  7
Standard
  9
$CLAYER
  8
0
  9
$CELTYPE
  6
ByBlock
  9
$CECOLOR
 62
   256
  9
$CELTSCALE
 40
1.0
  9
$DISPSILH
 70
     0
  9
$DIMSCALE
 40
1.0
  9
$DIMASZ
 40
0.18
  9
$DIMEXO
 40
0.0625
  9
$DIMDLI
 40
0.38
  9
$DIMRND
 40
0.0
  9
$DIMDLE
 40
0.0
  9
$DIMEXE
 40
0.18
  9
$DIMTP
 40
0.0
  9
$DIMTM
 40
0.0
  9
$DIMTXT
 40
0.18
  9
$DIMCEN
 40
0.09
  9
$DIMTSZ
 40
0.0
  9
$DIMTOL
 70
     0
  9
$DIMLIM
 70
     0
  9
$DIMTIH
 70
     1
  9
$DIMTOH
 70
     1
  9
$DIMSE1
 70
     0
  9
$DIMSE2
 70
     0
  9
$DIMTAD
 70
     0
  9
$DIMZIN
 70
     0
  9
$DIMBLK
  1

  9
$DIMASO
 70
     1
  9
$DIMSHO
 70
     1
  9
$DIMPOST
  1

  9
$DIMAPOST
  1

  9
$DIMALT
 70
     0
  9
$DIMALTD
 70
     2
  9
$DIMALTF
 40
25.4
  9
$DIMLFAC
 40
1.0
  9
$DIMTOFL
 70
     0
  9
$DIMTVP
 40
0.0
  9
$DIMTIX
 70
     0
  9
$DIMSOXD
 70
     0
  9
$DIMSAH
 70
     0
  9
$DIMBLK1
  1

  9
$DIMBLK2
  1

  9
$DIMSTYLE
  2
Standard
  9
$DIMCLRD
 70
     0
  9
$DIMCLRE
 70
     0
  9
$DIMCLRT
 70
     0
  9
$DIMTFAC
 40
1.0
  9
$DIMGAP
 40
0.09
  9
$DIMJUST
 70
     0
  9
$DIMSD1
 70
     0
  9
$DIMSD2
 70
     0
  9
$DIMTOLJ
 70
     1
  9
$DIMTZIN
 70
     0
  9
$DIMALTZ
 70
     0
  9
$DIMALTTZ
 70
     0
  9
$DIMUPT
 70
     0
  9
$DIMDEC
 70
     4
  9
$DIMTDEC
 70
     4
  9
$DIMALTU
 70
     2
  9
$DIMALTTD
 70
     2
  9
$DIMTXSTY
  7
Standard
  9
$DIMAUNIT
 70
     0
  9
$DIMADEC
 70
     0
  9
$DIMALTRND
 40
0.0
  9
$DIMAZIN
 70
     0
  9
$DIMDSEP
 70
    46
  9
$DIMATFIT
 70
     3
  9
$DIMFRAC
 70
     0
  9
$DIMLDRBLK
  1

  9
$DIMLUNIT
 70
     2
  9
$DIMLWD
 70
    -2
  9
$DIMLWE
 70
    -2
  9
$DIMTMOVE
 70
     2
  9
$LUNITS
 70
     2
  9
$LUPREC
 70
     4
  9
$SKETCHINC
 40
0.1
  9
$FILLETRAD
 40
0.5
  9
$AUNITS
 70
     0
  9
$AUPREC
 70
     0
  9
$MENU
  1
.
  9
$ELEVATION
 40
0.0
  9
$PELEVATION
 40
0.0
  9
$THICKNESS
 40
0.0
  9
$LIMCHECK
 70
     0
  9
$CHAMFERA
 40
0.5
  9
$CHAMFERB
 40
0.5
  9
$CHAMFERC
 40
1.0
  9
$CHAMFERD
 40
0.0
  9
$SKPOLY
 70
     0
  9
$TDCREATE
 40
2456184.848897998
  9
$TDUCREATE
 40
2456184.765564664
  9
$TDUPDATE
 40
2456184.850487812
  9
$TDUUPDATE
 40
2456184.767154479
  9
$TDINDWG
 40
0.001589456
  9
$TDUSRTIMER
 40
0.001589456
  9
$USRTIMER
 70
     1
  9
$ANGBASE
 50
0.0
  9
$ANGDIR
 70
     0
  9
$PDMODE
 70
     0
  9
$PDSIZE
 40
0.0
  9
$PLINEWID
 40
0.0
  9
$SPLFRAME
 70
     0
  9
$SPLINETYPE
 70
     6
  9
$SPLINESEGS
 70
     8
  9
$HANDSEED
  5
BA0
  9
$SURFTAB1
 70
     6
  9
$SURFTAB2
 70
     6
  9
$SURFTYPE
 70
     6
  9
$SURFU
 70
     6
  9
$SURFV
 70
     6
  9
$UCSBASE
  2

  9
$UCSNAME
  2

  9
$UCSORG
 10
0.0
 20
0.0
 30
0.0
  9
$UCSXDIR
 10
1.0
 20
0.0
 30
0.0
  9
$UCSYDIR
 10
0.0
 20
1.0
 30
0.0
  9
$UCSORTHOREF
  2

  9
$UCSORTHOVIEW
 70
     0
  9
$UCSORGTOP
 10
0.0
 20
0.0
 30
0.0
  9
$UCSORGBOTTOM
 10
0.0
 20
0.0
 30
0.0
  9
$UCSORGLEFT
 10
0.0
 20
0.0
 30
0.0
  9
$UCSORGRIGHT
 10
0.0
 20
0.0
 30
0.0
  9
$UCSORGFRONT
 10
0.0
 20
0.0
 30
0.0
  9
$UCSORGBACK
 10
0.0
 20
0.0
 30
0.0
  9
$PUCSBASE
  2

  9
$PUCSNAME
  2

  9
$PUCSORG
 10
0.0
 20
0.0
 30
0.0
  9
$PUCSXDIR
 10
1.0
 20
0.0
 30
0.0
  9
$PUCSYDIR
 10
0.0
 20
1.0
 30
0.0
  9
$PUCSORTHOREF
  2

  9
$PUCSORTHOVIEW
 70
     0
  9
$PUCSORGTOP
 10
0.0
 20
0.0
 30
0.0
  9
$PUCSORGBOTTOM
 10
0.0
 20
0.0
 30
0.0
  9
$PUCSORGLEFT
 10
0.0
 20
0.0
 30
0.0
  9
$PUCSORGRIGHT
 10
0.0
 20
0.0
 30
0.0
  9
$PUCSORGFRONT
 10
0.0
 20
0.0
 30
0.0
  9
$PUCSORGBACK
 10
0.0
 20
0.0
 30
0.0
  9
$USERI1
 70
     0
  9
$USERI2
 70
     0
  9
$USERI3
 70
     0
  9
$USERI4
 70
     0
  9
$USERI5
 70
     0
  9
$USERR1
 40
0.0
  9
$USERR2
 40
0.0
  9
$USERR3
 40
0.0
  9
$USERR4
 40
0.0
  9
$USERR5
 40
0.0
  9
$WORLDVIEW
 70
     1
  9
$SHADEDGE
 70
     3
  9
$SHADEDIF
 70
    70
  9
$TILEMODE
 70
     1
  9
$MAXACTVP
 70
    64
  9
$PINSBASE
 10
0.0
 20
0.0
 30
0.0
  9
$PLIMCHECK
 70
     0
  9
$PEXTMIN
 10
1.000000000000E+20
 20
1.000000000000E+20
 30
1.000000000000E+20
  9
$PEXTMAX
 10
-1.000000000000E+20
 20
-1.000000000000E+20
 30
-1.000000000000E+20
  9
$PLIMMIN
 10
0.0
 20
0.0
  9
$PLIMMAX
 10
12.0
 20
9.0
  9
$UNITMODE
 70
     0
  9
$VISRETAIN
 70
     1
  9
$PLINEGEN
 70
     0
  9
$PSLTSCALE
 70
     1
  9
$TREEDEPTH
 70
  3020
  9
$CMLSTYLE
  2
Standard
  9
$CMLJUST
 70
     0
  9
$CMLSCALE
 40
1.0
  9
$PROXYGRAPHICS
 70
     1
  9
$MEASUREMENT
 70
     0
  9
$CELWEIGHT
370
    -1
  9
$ENDCAPS
280
     0
  9
$JOINSTYLE
280
     0
  9
$LWDISPLAY
290
     0
  9
$INSUNITS
 70
     0
  9
$HYPERLINKBASE
  1

  9
$STYLESHEET
  1

  9
$XEDIT
290
     1
  9
$CEPSNTYPE
380
     0
  9
$PSTYLEMODE
290
     1
  9
$FINGERPRINTGUID
  2
{D9A17CBD-F80E-4DA3-9C24-3AD4CE87D185}
  9
$VERSIONGUID
  2
{FAEB1C32-E019-11D5-929B-00C0DF256EC4}
  9
$EXTNAMES
290
     1
  9
$PSVPSCALE
 40
0.0
  9
$OLESTARTUP
290
     0
  0
ENDSEC
  0
SECTION
  2
CLASSES
  0
CLASS
  1
ACDBDICTIONARYWDFLT
  2
AcDbDictionaryWithDefault
  3
ObjectDBX Classes
 90
        0
280
     0
281
     0
  0
CLASS
  1
SCALE
  2
AcDbScale
  3
ObjectDBX Classes
 90
     1153
280
     0
281
     0
  0
CLASS
  1
DICTIONARYVAR
  2
AcDbDictionaryVar
  3
ObjectDBX Classes
 90
        0
280
     0
281
     0
  0
CLASS
  1
ACDBPLACEHOLDER
  2
AcDbPlaceHolder
  3
ObjectDBX Classes
 90
        0
280
     0
281
     0
  0
CLASS
  1
LAYOUT
  2
AcDbLayout
  3
ObjectDBX Classes
 90
        0
280
     0
281
     0
  0
ENDSEC
  0
SECTION
  2
TABLES
  0
TABLE
  2
VPORT
  5
8
330
0
100
AcDbSymbolTable
 70
     1
  0
VPORT
  5
6D4
330
8
100
AcDbSymbolTableRecord
100
AcDbViewportTableRecord
  2
*Active
 70
     0
 10
0.0
 20
0.0
 11
1.0
 21
1.0
 12
147.5
 22
112.933414
 13
0.0
 23
0.0
 14
0.5
 24
0.5
 15
0.5
 25
0.5
 16
0.0
 26
0.0
 36
1.0
 17
0.0
 27
0.0
 37
0.0
 40
230.38416456
 41
1.863448275862
 42
50.0
 43
0.0
 44
0.0
 50
0.0
 51
0.0
 71
    16
 72
   100
 73
     1
 74
     3
 75
     0
 76
     0
 77
     0
 78
     0
281
     0
 65
     1
110
0.0
120
0.0
130
0.0
111
1.0
121
0.0
131
0.0
112
0.0
122
1.0
132
0.0
 79
     0
146
0.0
  0
ENDTAB
  0
TABLE
  2
LTYPE
  5
5
330
0
100
AcDbSymbolTable
 70
     1
  0
LTYPE
  5
14
330
5
100
AcDbSymbolTableRecord
100
AcDbLinetypeTableRecord
  2
ByBlock
 70
     0
  3

 72
    65
 73
     0
 40
0.0
  0
LTYPE
  5
15
330
5
100
AcDbSymbolTableRecord
100
AcDbLinetypeTableRecord
  2
ByLayer
 70
     0
  3

 72
    65
 73
     0
 40
0.0
  0
LTYPE
  5
16
330
5
100
AcDbSymbolTableRecord
100
AcDbLinetypeTableRecord
  2
Continuous
 70
     0
  3
Solid line
 72
    65
 73
     0
 40
0.0
  0
ENDTAB
  0
TABLE
  2
LAYER
  5
2
330
0
100
AcDbSymbolTable
 70
     1
  0
LAYER
  5
10
330
2
100
AcDbSymbolTableRecord
100
AcDbLayerTableRecord
  2
0
 70
     0
 62
     7
  6
Continuous
370
    -3
390
F
  0
ENDTAB
  0
TABLE
  2
STYLE
  5
3
330
0
100
AcDbSymbolTable
 70
     1
  0
STYLE
  5
11
330
3
100
AcDbSymbolTableRecord
100
AcDbTextStyleTableRecord
  2
Standard
 70
     0
 40
0.0
 41
1.0
 50
0.0
 71
     0
 42
0.2
  3
txt
  4

  0
ENDTAB
  0
TABLE
  2
VIEW
  5
6
330
0
100
AcDbSymbolTable
 70
     0
  0
ENDTAB
  0
TABLE
  2
UCS
  5
7
330
0
100
AcDbSymbolTable
 70
     0
  0
ENDTAB
  0
TABLE
  2
APPID
  5
9
330
0
100
AcDbSymbolTable
 70
     1
  0
APPID
  5
12
330
9
100
AcDbSymbolTableRecord
100
AcDbRegAppTableRecord
  2
ACAD
 70
     0
  0
ENDTAB
  0
TABLE
  2
DIMSTYLE
  5
A
330
0
100
AcDbSymbolTable
 70
     1
100
AcDbDimStyleTable
  0
DIMSTYLE
105
20
330
A
100
AcDbSymbolTableRecord
100
AcDbDimStyleTableRecord
  2
Standard
 70
     0
340
11
  0
ENDTAB
  0
TABLE
  2
BLOCK_RECORD
  5
1
330
0
100
AcDbSymbolTable
 70
     1
  0
BLOCK_RECORD
  5
1D
330
1
100
AcDbSymbolTableRecord
100
AcDbBlockTableRecord
  2
*Model_Space
340
1E
  0
BLOCK_RECORD
  5
1B
330
1
100
AcDbSymbolTableRecord
100
AcDbBlockTableRecord
  2
*Paper_Space
340
1C
  0
ENDTAB
  0
ENDSEC
  0
SECTION
  2
BLOCKS
  0
BLOCK
  5
6D7
330
1D
100
AcDbEntity
  8
0
100
AcDbBlockBegin
  2
*Model_Space
 70
     0
 10
0.0
 20
0.0
 30
0.0
  3
*Model_Space
  1
*Model_Space
  0
ENDBLK
  5
6D8
330
1D
100
AcDbEntity
  8
0
100
AcDbBlockEnd
  0
BLOCK
  5
6D5
330
1B
100
AcDbEntity
 67
     1
  8
0
100
AcDbBlockBegin
  2
*Paper_Space
 70
     0
 10
0.0
 20
0.0
 30
0.0
  3
*Paper_Space
  1
*Paper_Space
  0
ENDBLK
  5
6D6
330
1B
100
AcDbEntity
 67
     1
  8
0
100
AcDbBlockEnd
  0
ENDSEC
  0
SECTION
  2
ENTITIES
  0
LINE
  5
21
330
1D
100
AcDbEntity
  8
0
100
AcDbLine
 10
72.6656
 20
4.426908
 30
0.0
 11
75.3651
 21
2.751298
 31
0.0
  0
LINE
  5
22
330
1D
100
AcDbEntity
  8
0
100
AcDbLine
 10
72.6656
 20
4.427058
 30
0.0
 11
75.3654
 21
2.751298
 31
0.0
  0
LINE
  5
23
330
1D
100
AcDbEntity
  8
0
100
AcDbLine
 10
70.9253
 20
6.394908
 30
0.0
 11
71.1635
 21
5.963618
 31
0.0
  0
LINE
  5
24
330
1D
100
AcDbEntity
  8
0
100
AcDbLine
 10
70.9253
 20
6.394908
 30
0.0
 11
72.6656
 21
4.427058
 31
0.0
  0
LINE
  5
25
330
1D
100
AcDbEntity
  8
0
100
AcDbLine
 10
70.9253
 20
6.394908
 30
0.0
 11
72.6656
 21
4.426908
 31
0.0
  0
LINE
  5
26
330
1D
100
AcDbEntity
  8
0
100
AcDbLine
 10
71.1635
 20
5.963618
 30
0.0
 11
72.8777
 21
4.025248
 31
0.0
  0
LINE
  5
27
330
1D
100
AcDbEntity
  8
0
100
AcDbLine
 10
72.8777
 20
4.025248
 30
0.0
 11
75.5365
 21
2.374908
 31
0.0
  0
LINE
  5
28
330
1D
100
AcDbEntity
  8
0
100
AcDbLine
 10
75.3654
 20
2.751298
 30
0.0
 11
78.8402
 21
1.481958
 31
0.0
  0
LINE
  5
29
330
1D
100
AcDbEntity
  8
0
100
AcDbLine
 10
75.5365
 20
2.374908
 30
0.0
 11
79.0374
 21
1.092748
 31
0.0
  0
LINE
  5
2A
330
1D
100
AcDbEntity
  8
0
100
AcDbLine
 10
75.3651
 20
2.751298
 30
0.0
 11
78.8402
 21
1.482078
 31
0.0
  0
LINE
  5
12F
330
1D
100
AcDbEntity
  8
0
100
AcDbLine
 10
70.2634
 20
8.520908
 30
0.0
 11
70.9253
 21
6.394908
 31
0.0
  0
LINE
  5
130
330
1D
100
AcDbEntity
  8
0
100
AcDbLine
 10
70.2631
 20
8.521178
 30
0.0
 11
70.9253
 21
6.394908
 31
0.0
  0
LINE
  5
139
330
1D
100
AcDbEntity
  8
0
100
AcDbLine
 10
67.14
 20
60.215828
 30
0.0
 11
68.2436
 21
42.009628
 31
0.0
  0
LINE
  5
13A
330
1D
100
AcDbEntity
  8
0
100
AcDbLine
 10
67.14
 20
60.215428
 30
0.0
 11
68.2437
 21
42.009228
 31
0.0
  0
LINE
  5
13B
330
1D
100
AcDbEntity
  8
0
100
AcDbLine
 10
68.2437
 20
42.009828
 30
0.0
 11
70.2634
 21
8.520908
 31
0.0
  0
LINE
  5
173
330
1D
100
AcDbEntity
  8
0
100
AcDbLine
 10
66.5863
 20
69.346128
 30
0.0
 11
67.14
 21
60.215828
 31
0.0
  0
LINE
  5
174
330
1D
100
AcDbEntity
  8
0
100
AcDbLine
 10
66.5864
 20
69.345328
 30
0.0
 11
67.14
 21
60.215428
 31
0.0
  0
LINE
  5
181
330
1D
100
AcDbEntity
  8
0
100
AcDbLine
 10
66.0303
 20
78.549328
 30
0.0
 11
66.5864
 21
69.345328
 31
0.0
  0
LINE
  5
182
330
1D
100
AcDbEntity
  8
0
100
AcDbLine
 10
65.5494
 20
86.594128
 30
0.0
 11
66.0303
 21
78.549328
 31
0.0
  0
LINE
  5
183
330
1D
100
AcDbEntity
  8
0
100
AcDbLine
 10
65.5493
 20
86.593628
 30
0.0
 11
66.0304
 21
78.550328
 31
0.0
  0
LINE
  5
184
330
1D
100
AcDbEntity
  8
0
100
AcDbLine
 10
66.0304
 20
78.550328
 30
0.0
 11
66.5863
 21
69.346128
 31
0.0
  0
LINE
  5
1C0
330
1D
100
AcDbEntity
  8
0
100
AcDbLine
 10
65.162466787188
 20
93.218230297133
 30
0.0
 11
65.5494
 21
86.594128
 31
0.0
  0
LINE
  5
1C1
330
1D
100
AcDbEntity
  8
0
100
AcDbLine
 10
65.162735022596
 20
93.214504814884
 30
0.0
 11
65.5493
 21
86.593628
 31
0.0
  0
LINE
  5
24F
330
1D
100
AcDbEntity
  8
0
100
AcDbLine
 10
15.0
 20
225.866828
 30
0.0
 11
15.3
 21
225.866828
 31
0.0
  0
LINE
  5
251
330
1D
100
AcDbEntity
  8
0
100
AcDbLine
 10
16.0
 20
225.866828
 30
0.0
 11
294.0
 21
225.866828
 31
0.0
  0
LINE
  5
256
330
1D
100
AcDbEntity
  8
0
100
AcDbLine
 10
16.0
 20
225.866828
 30
0.0
 11
294.0
 21
225.866828
 31
0.0
  0
LINE
  5
25A
330
1D
100
AcDbEntity
  8
0
100
AcDbLine
 10
15.3
 20
225.866828
 30
0.0
 11
16.0
 21
225.866828
 31
0.0
  0
LINE
  5
329
330
1D
100
AcDbEntity
  8
0
100
AcDbLine
 10
87.127
 20
0.133172
 30
0.0
 11
91.315
 21
0.459179
 31
0.0
  0
LINE
  5
32A
330
1D
100
AcDbEntity
  8
0
100
AcDbLine
 10
87.1328
 20
0.475302
 30
0.0
 11
91.3851
 21
0.806168
 31
0.0
  0
LINE
  5
32B
330
1D
100
AcDbEntity
  8
0
100
AcDbLine
 10
82.8542
 20
0.705868
 30
0.0
 11
87.1328
 21
0.475302
 31
0.0
  0
LINE
  5
32C
330
1D
100
AcDbEntity
  8
0
100
AcDbLine
 10
87.1329
 20
0.475556
 30
0.0
 11
91.385
 21
0.806481
 31
0.0
  0
LINE
  5
32E
330
1D
100
AcDbEntity
  8
0
100
AcDbLine
 10
78.8405
 20
1.482258
 30
0.0
 11
82.8541
 21
0.706002
 31
0.0
  0
LINE
  5
32F
330
1D
100
AcDbEntity
  8
0
100
AcDbLine
 10
79.0377
 20
1.092658
 30
0.0
 11
82.9129
 21
0.359997
 31
0.0
  0
LINE
  5
332
330
1D
100
AcDbEntity
  8
0
100
AcDbLine
 10
82.8541
 20
0.706002
 30
0.0
 11
87.1329
 21
0.475556
 31
0.0
  0
LINE
  5
333
330
1D
100
AcDbEntity
  8
0
100
AcDbLine
 10
91.3851
 20
0.806168
 30
0.0
 11
95.3208
 21
1.676558
 31
0.0
  0
LINE
  5
334
330
1D
100
AcDbEntity
  8
0
100
AcDbLine
 10
91.385
 20
0.806481
 30
0.0
 11
95.3212
 21
1.676658
 31
0.0
  0
LINE
  5
335
330
1D
100
AcDbEntity
  8
0
100
AcDbLine
 10
95.3208
 20
1.676558
 30
0.0
 11
98.6723
 21
3.026108
 31
0.0
  0
LINE
  5
336
330
1D
100
AcDbEntity
  8
0
100
AcDbLine
 10
95.3212
 20
1.676658
 30
0.0
 11
98.6724
 21
3.026448
 31
0.0
  0
LINE
  5
337
330
1D
100
AcDbEntity
  8
0
100
AcDbLine
 10
98.6723
 20
3.026108
 30
0.0
 11
101.211
 21
4.763628
 31
0.0
  0
LINE
  5
338
330
1D
100
AcDbEntity
  8
0
100
AcDbLine
 10
98.6724
 20
3.026448
 30
0.0
 11
101.211
 21
4.764018
 31
0.0
  0
LINE
  5
339
330
1D
100
AcDbEntity
  8
0
100
AcDbLine
 10
101.211
 20
4.763628
 30
0.0
 11
102.763
 21
6.771038
 31
0.0
  0
LINE
  5
33A
330
1D
100
AcDbEntity
  8
0
100
AcDbLine
 10
102.522
 20
6.333858
 30
0.0
 11
102.763
 21
6.770758
 31
0.0
  0
LINE
  5
33B
330
1D
100
AcDbEntity
  8
0
100
AcDbLine
 10
101.211
 20
4.764018
 30
0.0
 11
102.763
 21
6.770758
 31
0.0
  0
LINE
  5
33C
330
1D
100
AcDbEntity
  8
0
100
AcDbLine
 10
103.224
 20
8.909938
 30
0.0
 11
105.244
 21
42.009728
 31
0.0
  0
LINE
  5
33D
330
1D
100
AcDbEntity
  8
0
100
AcDbLine
 10
103.224
 20
8.909938
 30
0.0
 11
105.244
 21
42.009728
 31
0.0
  0
LINE
  5
33E
330
1D
100
AcDbEntity
  8
0
100
AcDbLine
 10
102.763
 20
6.771038
 30
0.0
 11
103.224
 21
8.909938
 31
0.0
  0
LINE
  5
33F
330
1D
100
AcDbEntity
  8
0
100
AcDbLine
 10
102.763
 20
6.770758
 30
0.0
 11
103.224
 21
8.910028
 31
0.0
  0
LINE
  5
340
330
1D
100
AcDbEntity
  8
0
100
AcDbLine
 10
100.993
 20
4.356948
 30
0.0
 11
102.522
 21
6.333858
 31
0.0
  0
LINE
  5
341
330
1D
100
AcDbEntity
  8
0
100
AcDbLine
 10
98.4927
 20
2.645818
 30
0.0
 11
100.993
 21
4.356948
 31
0.0
  0
LINE
  5
342
330
1D
100
AcDbEntity
  8
0
100
AcDbLine
 10
95.1917
 20
1.316378
 30
0.0
 11
98.4927
 21
2.645818
 31
0.0
  0
LINE
  5
343
330
1D
100
AcDbEntity
  8
0
100
AcDbLine
 10
91.315
 20
0.459179
 30
0.0
 11
95.1917
 21
1.316378
 31
0.0
  0
LINE
  5
344
330
1D
100
AcDbEntity
  8
0
100
AcDbLine
 10
82.9129
 20
0.359997
 30
0.0
 11
87.127
 21
0.133172
 31
0.0
  0
LINE
  5
345
330
1D
100
AcDbEntity
  8
0
100
AcDbLine
 10
78.8403
 20
1.482198
 30
0.0
 11
82.8542
 21
0.705868
 31
0.0
  0
LINE
  5
3A4
330
1D
100
AcDbEntity
  8
0
100
AcDbLine
 10
105.244
 20
42.009628
 30
0.0
 11
106.347
 21
60.215828
 31
0.0
  0
LINE
  5
3A9
330
1D
100
AcDbEntity
  8
0
100
AcDbLine
 10
106.347
 20
60.215828
 30
0.0
 11
106.901
 21
69.346128
 31
0.0
  0
LINE
  5
3AA
330
1D
100
AcDbEntity
  8
0
100
AcDbLine
 10
105.244
 20
42.010028
 30
0.0
 11
106.347
 21
60.215128
 31
0.0
  0
LINE
  5
3AB
330
1D
100
AcDbEntity
  8
0
100
AcDbLine
 10
106.901
 20
69.345428
 30
0.0
 11
107.457
 21
78.549928
 31
0.0
  0
LINE
  5
3AC
330
1D
100
AcDbEntity
  8
0
100
AcDbLine
 10
107.457
 20
78.549928
 30
0.0
 11
107.938
 21
86.595228
 31
0.0
  0
LINE
  5
3AD
330
1D
100
AcDbEntity
  8
0
100
AcDbLine
 10
107.457
 20
78.550328
 30
0.0
 11
107.938
 21
86.593628
 31
0.0
  0
LINE
  5
3AE
330
1D
100
AcDbEntity
  8
0
100
AcDbLine
 10
106.901
 20
69.346128
 30
0.0
 11
107.457
 21
78.550328
 31
0.0
  0
LINE
  5
3B0
330
1D
100
AcDbEntity
  8
0
100
AcDbLine
 10
107.938
 20
86.595228
 30
0.0
 11
108.471922021114
 21
95.733788775022
 31
0.0
  0
LINE
  5
3B5
330
1D
100
AcDbEntity
  8
0
100
AcDbLine
 10
109.109
 20
99.538528
 30
0.0
 11
110.602
 21
102.401828
 31
0.0
  0
LINE
  5
3B6
330
1D
100
AcDbEntity
  8
0
100
AcDbLine
 10
108.712
 20
97.928928
 30
0.0
 11
109.274609407045
 21
99.856136449559
 31
0.0
  0
LINE
  5
3B7
330
1D
100
AcDbEntity
  8
0
100
AcDbLine
 10
108.468
 20
95.697928
 30
0.0
 11
108.712
 21
97.928928
 31
0.0
  0
LINE
  5
3BA
330
1D
100
AcDbEntity
  8
0
100
AcDbLine
 10
106.347
 20
60.215128
 30
0.0
 11
106.901
 21
69.345428
 31
0.0
  0
LINE
  5
3F9
330
1D
100
AcDbEntity
  8
0
100
AcDbLine
 10
110.602
 20
102.401828
 30
0.0
 11
112.792
 21
105.189828
 31
0.0
  0
LINE
  5
409
330
1D
100
AcDbEntity
  8
0
100
AcDbLine
 10
115.475
 20
107.658828
 30
0.0
 11
118.341
 21
109.618828
 31
0.0
  0
LINE
  5
40A
330
1D
100
AcDbEntity
  8
0
100
AcDbLine
 10
112.792
 20
105.189828
 30
0.0
 11
115.475
 21
107.658828
 31
0.0
  0
LINE
  5
40B
330
1D
100
AcDbEntity
  8
0
100
AcDbLine
 10
118.019820337745
 20
109.399179661542
 30
0.0
 11
119.392
 21
110.048828
 31
0.0
  0
LINE
  5
40C
330
1D
100
AcDbEntity
  8
0
100
AcDbLine
 10
119.392
 20
110.048828
 30
0.0
 11
120.843
 21
110.617828
 31
0.0
  0
LINE
  5
40D
330
1D
100
AcDbEntity
  8
0
100
AcDbLine
 10
119.392
 20
110.049828
 30
0.0
 11
120.843
 21
110.617828
 31
0.0
  0
LINE
  5
40F
330
1D
100
AcDbEntity
  8
0
100
AcDbLine
 10
118.020298025264
 20
109.399506342469
 30
0.0
 11
119.392
 21
110.049828
 31
0.0
  0
LINE
  5
6D1
330
1D
100
AcDbEntity
  8
0
100
AcDbLine
 10
294.7
 20
225.866828
 30
0.0
 11
295.0
 21
225.866828
 31
0.0
  0
LINE
  5
6D3
330
1D
100
AcDbEntity
  8
0
100
AcDbLine
 10
294.0
 20
225.866828
 30
0.0
 11
294.7
 21
225.866828
 31
0.0
  0
LINE
  5
947
330
1D
100
AcDbEntity
  8
0
100
AcDbLine
 10
19.4443
 20
75.866828
 30
0.0
 11
19.8663
 21
75.968893
 31
0.0
  0
LINE
  5
948
330
1D
100
AcDbEntity
  8
0
100
AcDbLine
 10
18.7367
 20
75.953954
 30
0.0
 11
19.4443
 21
75.866828
 31
0.0
  0
LINE
  5
949
330
1D
100
AcDbEntity
  8
0
100
AcDbLine
 10
18.7367
 20
75.953954
 30
0.0
 11
19.4443
 21
75.866828
 31
0.0
  0
LINE
  5
94A
330
1D
100
AcDbEntity
  8
0
100
AcDbLine
 10
19.4443
 20
75.866828
 30
0.0
 11
19.8663
 21
75.968893
 31
0.0
  0
LINE
  5
94B
330
1D
100
AcDbEntity
  8
0
100
AcDbLine
 10
19.8663
 20
75.968893
 30
0.0
 11
20.0187
 21
76.007904
 31
0.0
  0
LINE
  5
94C
330
1D
100
AcDbEntity
  8
0
100
AcDbLine
 10
20.0187
 20
76.007904
 30
0.0
 11
20.252
 21
76.084124
 31
0.0
  0
LINE
  5
94D
330
1D
100
AcDbEntity
  8
0
100
AcDbLine
 10
20.0188
 20
76.0078
 30
0.0
 11
20.252
 21
76.084124
 31
0.0
  0
LINE
  5
94E
330
1D
100
AcDbEntity
  8
0
100
AcDbLine
 10
2.91629
 20
93.535828
 30
0.0
 11
3.38498
 21
92.733428
 31
0.0
  0
LINE
  5
94F
330
1D
100
AcDbEntity
  8
0
100
AcDbLine
 10
2.91646
 20
93.535628
 30
0.0
 11
3.38516
 21
92.733228
 31
0.0
  0
LINE
  5
950
330
1D
100
AcDbEntity
  8
0
100
AcDbLine
 10
2.47937
 20
94.312528
 30
0.0
 11
2.91646
 21
93.535628
 31
0.0
  0
LINE
  5
951
330
1D
100
AcDbEntity
  8
0
100
AcDbLine
 10
3.38516
 20
92.733228
 30
0.0
 11
4.41482
 21
91.054528
 31
0.0
  0
LINE
  5
952
330
1D
100
AcDbEntity
  8
0
100
AcDbLine
 10
3.38498
 20
92.733428
 30
0.0
 11
4.41482
 21
91.054528
 31
0.0
  0
LINE
  5
953
330
1D
100
AcDbEntity
  8
0
100
AcDbLine
 10
1.70647
 20
95.780528
 30
0.0
 11
2.07547
 21
95.061728
 31
0.0
  0
LINE
  5
954
330
1D
100
AcDbEntity
  8
0
100
AcDbLine
 10
1.70641
 20
95.780528
 30
0.0
 11
2.07564
 21
95.061628
 31
0.0
  0
LINE
  5
955
330
1D
100
AcDbEntity
  8
0
100
AcDbLine
 10
0.604287
 20
98.230328
 30
0.0
 11
1.05956
 21
97.129628
 31
0.0
  0
LINE
  5
956
330
1D
100
AcDbEntity
  8
0
100
AcDbLine
 10
0.073247
 20
100.036828
 30
0.0
 11
0.274733
 21
99.202528
 31
0.0
  0
LINE
  5
957
330
1D
100
AcDbEntity
  8
0
100
AcDbLine
 10
0.073247
 20
100.036828
 30
0.0
 11
0.274733
 21
99.202528
 31
0.0
  0
LINE
  5
958
330
1D
100
AcDbEntity
  8
0
100
AcDbLine
 10
0.018493
 20
100.977928
 30
0.0
 11
0.083767
 21
101.534628
 31
0.0
  0
LINE
  5
959
330
1D
100
AcDbEntity
  8
0
100
AcDbLine
 10
0.018493
 20
100.977928
 30
0.0
 11
0.083767
 21
101.534628
 31
0.0
  0
LINE
  5
95A
330
1D
100
AcDbEntity
  8
0
100
AcDbLine
 10
0.0
 20
100.751128
 30
0.0
 11
0.073247
 21
100.036828
 31
0.0
  0
LINE
  5
95B
330
1D
100
AcDbEntity
  8
0
100
AcDbLine
 10
0.0
 20
100.751128
 30
0.0
 11
0.018493
 21
100.977928
 31
0.0
  0
LINE
  5
95C
330
1D
100
AcDbEntity
  8
0
100
AcDbLine
 10
0.274733
 20
99.202528
 30
0.0
 11
0.604287
 21
98.230328
 31
0.0
  0
LINE
  5
95D
330
1D
100
AcDbEntity
  8
0
100
AcDbLine
 10
1.05956
 20
97.129628
 30
0.0
 11
1.70641
 21
95.780528
 31
0.0
  0
LINE
  5
95E
330
1D
100
AcDbEntity
  8
0
100
AcDbLine
 10
2.07564
 20
95.061628
 30
0.0
 11
2.47937
 21
94.312528
 31
0.0
  0
LINE
  5
95F
330
1D
100
AcDbEntity
  8
0
100
AcDbLine
 10
2.07547
 20
95.061728
 30
0.0
 11
2.47945
 21
94.312528
 31
0.0
  0
LINE
  5
960
330
1D
100
AcDbEntity
  8
0
100
AcDbLine
 10
2.47945
 20
94.312528
 30
0.0
 11
2.91629
 21
93.535828
 31
0.0
  0
LINE
  5
961
330
1D
100
AcDbEntity
  8
0
100
AcDbLine
 10
4.41482
 20
91.054528
 30
0.0
 11
5.01918
 21
90.111228
 31
0.0
  0
LINE
  5
962
330
1D
100
AcDbEntity
  8
0
100
AcDbLine
 10
4.41482
 20
91.054528
 30
0.0
 11
5.01928
 21
90.111128
 31
0.0
  0
LINE
  5
963
330
1D
100
AcDbEntity
  8
0
100
AcDbLine
 10
4.22701
 20
100.979728
 30
0.0
 11
4.78975
 21
100.580228
 31
0.0
  0
LINE
  5
964
330
1D
100
AcDbEntity
  8
0
100
AcDbLine
 10
4.22683
 20
100.979628
 30
0.0
 11
4.78994
 21
100.580528
 31
0.0
  0
LINE
  5
965
330
1D
100
AcDbEntity
  8
0
100
AcDbLine
 10
0.083767
 20
101.534628
 30
0.0
 11
0.284739
 21
101.922228
 31
0.0
  0
LINE
  5
966
330
1D
100
AcDbEntity
  8
0
100
AcDbLine
 10
0.415862
 20
102.119328
 30
0.0
 11
0.58201
 21
102.260328
 31
0.0
  0
LINE
  5
967
330
1D
100
AcDbEntity
  8
0
100
AcDbLine
 10
0.284739
 20
101.922228
 30
0.0
 11
0.415862
 21
102.119328
 31
0.0
  0
LINE
  5
968
330
1D
100
AcDbEntity
  8
0
100
AcDbLine
 10
0.582271
 20
102.260128
 30
0.0
 11
9.11337
 21
110.032628
 31
0.0
  0
LINE
  5
969
330
1D
100
AcDbEntity
  8
0
100
AcDbLine
 10
0.416145
 20
102.119528
 30
0.0
 11
0.582271
 21
102.260128
 31
0.0
  0
LINE
  5
96A
330
1D
100
AcDbEntity
  8
0
100
AcDbLine
 10
0.786089
 20
102.350928
 30
0.0
 11
1.02653
 21
102.392128
 31
0.0
  0
LINE
  5
96B
330
1D
100
AcDbEntity
  8
0
100
AcDbLine
 10
0.58201
 20
102.260328
 30
0.0
 11
0.786089
 21
102.350928
 31
0.0
  0
LINE
  5
96C
330
1D
100
AcDbEntity
  8
0
100
AcDbLine
 10
1.02653
 20
102.392128
 30
0.0
 11
1.30199
 21
102.384628
 31
0.0
  0
LINE
  5
96D
330
1D
100
AcDbEntity
  8
0
100
AcDbLine
 10
0.78623
 20
102.351228
 30
0.0
 11
1.02683
 21
102.392128
 31
0.0
  0
LINE
  5
96E
330
1D
100
AcDbEntity
  8
0
100
AcDbLine
 10
1.30199
 20
102.384628
 30
0.0
 11
1.61078
 21
102.329728
 31
0.0
  0
LINE
  5
96F
330
1D
100
AcDbEntity
  8
0
100
AcDbLine
 10
1.61078
 20
102.329728
 30
0.0
 11
1.9513
 21
102.228528
 31
0.0
  0
LINE
  5
970
330
1D
100
AcDbEntity
  8
0
100
AcDbLine
 10
1.61098
 20
102.329628
 30
0.0
 11
1.9513
 21
102.228528
 31
0.0
  0
LINE
  5
971
330
1D
100
AcDbEntity
  8
0
100
AcDbLine
 10
1.30185
 20
102.384628
 30
0.0
 11
1.61098
 21
102.329628
 31
0.0
  0
LINE
  5
972
330
1D
100
AcDbEntity
  8
0
100
AcDbLine
 10
1.02683
 20
102.392128
 30
0.0
 11
1.30185
 21
102.384628
 31
0.0
  0
LINE
  5
973
330
1D
100
AcDbEntity
  8
0
100
AcDbLine
 10
0.582271
 20
102.260128
 30
0.0
 11
9.11337
 21
110.032628
 31
0.0
  0
LINE
  5
974
330
1D
100
AcDbEntity
  8
0
100
AcDbLine
 10
0.582271
 20
102.260128
 30
0.0
 11
0.78623
 21
102.351228
 31
0.0
  0
LINE
  5
975
330
1D
100
AcDbEntity
  8
0
100
AcDbLine
 10
1.9513
 20
102.228528
 30
0.0
 11
2.32159
 21
102.082528
 31
0.0
  0
LINE
  5
976
330
1D
100
AcDbEntity
  8
0
100
AcDbLine
 10
1.9513
 20
102.228528
 30
0.0
 11
2.32186
 21
102.082628
 31
0.0
  0
LINE
  5
977
330
1D
100
AcDbEntity
  8
0
100
AcDbLine
 10
3.68981
 20
101.334928
 30
0.0
 11
4.22701
 21
100.979728
 31
0.0
  0
LINE
  5
978
330
1D
100
AcDbEntity
  8
0
100
AcDbLine
 10
2.32186
 20
102.082628
 30
0.0
 11
2.72045
 21
101.893828
 31
0.0
  0
LINE
  5
979
330
1D
100
AcDbEntity
  8
0
100
AcDbLine
 10
2.72045
 20
101.893828
 30
0.0
 11
3.19044
 21
101.638028
 31
0.0
  0
LINE
  5
97A
330
1D
100
AcDbEntity
  8
0
100
AcDbLine
 10
2.7203
 20
101.893728
 30
0.0
 11
3.19044
 21
101.638028
 31
0.0
  0
LINE
  5
97B
330
1D
100
AcDbEntity
  8
0
100
AcDbLine
 10
3.19044
 20
101.638028
 30
0.0
 11
3.68995
 21
101.335028
 31
0.0
  0
LINE
  5
97C
330
1D
100
AcDbEntity
  8
0
100
AcDbLine
 10
3.19044
 20
101.638028
 30
0.0
 11
3.68981
 21
101.334928
 31
0.0
  0
LINE
  5
97D
330
1D
100
AcDbEntity
  8
0
100
AcDbLine
 10
3.68995
 20
101.335028
 30
0.0
 11
4.22683
 21
100.979628
 31
0.0
  0
LINE
  5
97E
330
1D
100
AcDbEntity
  8
0
100
AcDbLine
 10
2.32159
 20
102.082528
 30
0.0
 11
2.7203
 21
101.893728
 31
0.0
  0
LINE
  5
97F
330
1D
100
AcDbEntity
  8
0
100
AcDbLine
 10
5.01928
 20
90.111128
 30
0.0
 11
5.60973
 21
89.216328
 31
0.0
  0
LINE
  5
980
330
1D
100
AcDbEntity
  8
0
100
AcDbLine
 10
5.60973
 20
89.216328
 30
0.0
 11
6.41486
 21
88.037528
 31
0.0
  0
LINE
  5
981
330
1D
100
AcDbEntity
  8
0
100
AcDbLine
 10
5.60973
 20
89.216328
 30
0.0
 11
6.41476
 21
88.037528
 31
0.0
  0
LINE
  5
982
330
1D
100
AcDbEntity
  8
0
100
AcDbLine
 10
5.01918
 20
90.111228
 30
0.0
 11
5.60973
 21
89.216328
 31
0.0
  0
LINE
  5
983
330
1D
100
AcDbEntity
  8
0
100
AcDbLine
 10
7.23735
 20
86.879728
 30
0.0
 11
8.07323
 21
85.749988
 31
0.0
  0
LINE
  5
984
330
1D
100
AcDbEntity
  8
0
100
AcDbLine
 10
6.41476
 20
88.037528
 30
0.0
 11
7.23735
 21
86.879728
 31
0.0
  0
LINE
  5
985
330
1D
100
AcDbEntity
  8
0
100
AcDbLine
 10
8.07323
 20
85.749988
 30
0.0
 11
9.14373
 21
84.369288
 31
0.0
  0
LINE
  5
986
330
1D
100
AcDbEntity
  8
0
100
AcDbLine
 10
8.07325
 20
85.749878
 30
0.0
 11
9.14389
 21
84.369158
 31
0.0
  0
LINE
  5
987
330
1D
100
AcDbEntity
  8
0
100
AcDbLine
 10
7.23748
 20
86.879728
 30
0.0
 11
8.07325
 21
85.749878
 31
0.0
  0
LINE
  5
988
330
1D
100
AcDbEntity
  8
0
100
AcDbLine
 10
6.41486
 20
88.037528
 30
0.0
 11
7.23748
 21
86.879728
 31
0.0
  0
LINE
  5
989
330
1D
100
AcDbEntity
  8
0
100
AcDbLine
 10
10.2166
 20
83.058688
 30
0.0
 11
11.2798
 21
81.832278
 31
0.0
  0
LINE
  5
98A
330
1D
100
AcDbEntity
  8
0
100
AcDbLine
 10
10.2164
 20
83.058818
 30
0.0
 11
11.2798
 21
81.832108
 31
0.0
  0
LINE
  5
98B
330
1D
100
AcDbEntity
  8
0
100
AcDbLine
 10
9.14373
 20
84.369288
 30
0.0
 11
10.2166
 21
83.058688
 31
0.0
  0
LINE
  5
98C
330
1D
100
AcDbEntity
  8
0
100
AcDbLine
 10
9.14389
 20
84.369158
 30
0.0
 11
10.2164
 21
83.058818
 31
0.0
  0
LINE
  5
98D
330
1D
100
AcDbEntity
  8
0
100
AcDbLine
 10
12.4125
 20
80.607128
 30
0.0
 11
13.1801
 21
79.828638
 31
0.0
  0
LINE
  5
98E
330
1D
100
AcDbEntity
  8
0
100
AcDbLine
 10
12.3212
 20
80.703038
 30
0.0
 11
12.4125
 21
80.607128
 31
0.0
  0
LINE
  5
98F
330
1D
100
AcDbEntity
  8
0
100
AcDbLine
 10
13.1801
 20
79.828638
 30
0.0
 11
13.7045
 21
79.304948
 31
0.0
  0
LINE
  5
990
330
1D
100
AcDbEntity
  8
0
100
AcDbLine
 10
11.2798
 20
81.832278
 30
0.0
 11
12.3212
 21
80.703038
 31
0.0
  0
LINE
  5
991
330
1D
100
AcDbEntity
  8
0
100
AcDbLine
 10
11.2798
 20
81.832108
 30
0.0
 11
12.3212
 21
80.703038
 31
0.0
  0
LINE
  5
992
330
1D
100
AcDbEntity
  8
0
100
AcDbLine
 10
13.7045
 20
79.304948
 30
0.0
 11
15.1547
 21
78.012918
 31
0.0
  0
LINE
  5
993
330
1D
100
AcDbEntity
  8
0
100
AcDbLine
 10
12.8955
 20
92.943128
 30
0.0
 11
13.599
 21
92.156428
 31
0.0
  0
LINE
  5
994
330
1D
100
AcDbEntity
  8
0
100
AcDbLine
 10
12.8955
 20
92.943228
 30
0.0
 11
13.599
 21
92.156428
 31
0.0
  0
LINE
  5
995
330
1D
100
AcDbEntity
  8
0
100
AcDbLine
 10
12.1992
 20
93.703828
 30
0.0
 11
12.8955
 21
92.943128
 31
0.0
  0
LINE
  5
996
330
1D
100
AcDbEntity
  8
0
100
AcDbLine
 10
12.1992
 20
93.703828
 30
0.0
 11
12.8955
 21
92.943228
 31
0.0
  0
LINE
  5
997
330
1D
100
AcDbEntity
  8
0
100
AcDbLine
 10
11.5101
 20
94.439528
 30
0.0
 11
12.1992
 21
93.703828
 31
0.0
  0
LINE
  5
998
330
1D
100
AcDbEntity
  8
0
100
AcDbLine
 10
8.1137
 20
97.808028
 30
0.0
 11
8.79043
 21
97.173528
 31
0.0
  0
LINE
  5
999
330
1D
100
AcDbEntity
  8
0
100
AcDbLine
 10
8.11385
 20
97.807928
 30
0.0
 11
8.79043
 21
97.173528
 31
0.0
  0
LINE
  5
99A
330
1D
100
AcDbEntity
  8
0
100
AcDbLine
 10
7.44611
 20
98.413428
 30
0.0
 11
8.11385
 21
97.807928
 31
0.0
  0
LINE
  5
99B
330
1D
100
AcDbEntity
  8
0
100
AcDbLine
 10
7.44611
 20
98.413428
 30
0.0
 11
8.1137
 21
97.808028
 31
0.0
  0
LINE
  5
99C
330
1D
100
AcDbEntity
  8
0
100
AcDbLine
 10
6.14165
 20
99.530328
 30
0.0
 11
6.78842
 21
98.988128
 31
0.0
  0
LINE
  5
99D
330
1D
100
AcDbEntity
  8
0
100
AcDbLine
 10
5.35321
 20
100.157528
 30
0.0
 11
6.14165
 21
99.530328
 31
0.0
  0
LINE
  5
99E
330
1D
100
AcDbEntity
  8
0
100
AcDbLine
 10
5.35332
 20
100.157328
 30
0.0
 11
6.14165
 21
99.530328
 31
0.0
  0
LINE
  5
99F
330
1D
100
AcDbEntity
  8
0
100
AcDbLine
 10
16.5539
 20
76.955678
 30
0.0
 11
17.7913
 21
76.272102
 31
0.0
  0
LINE
  5
9A0
330
1D
100
AcDbEntity
  8
0
100
AcDbLine
 10
15.1547
 20
78.012918
 30
0.0
 11
16.5539
 21
76.955678
 31
0.0
  0
LINE
  5
9A1
330
1D
100
AcDbEntity
  8
0
100
AcDbLine
 10
17.7913
 20
76.272102
 30
0.0
 11
18.7367
 21
75.953954
 31
0.0
  0
LINE
  5
9A2
330
1D
100
AcDbEntity
  8
0
100
AcDbLine
 10
17.7913
 20
76.272102
 30
0.0
 11
18.7367
 21
75.953954
 31
0.0
  0
LINE
  5
9A3
330
1D
100
AcDbEntity
  8
0
100
AcDbLine
 10
17.279
 20
87.648628
 30
0.0
 11
17.8418
 21
86.870228
 31
0.0
  0
LINE
  5
9A4
330
1D
100
AcDbEntity
  8
0
100
AcDbLine
 10
17.2791
 20
87.648428
 30
0.0
 11
17.8418
 21
86.870228
 31
0.0
  0
LINE
  5
9A5
330
1D
100
AcDbEntity
  8
0
100
AcDbLine
 10
16.802
 20
88.283928
 30
0.0
 11
17.279
 21
87.648628
 31
0.0
  0
LINE
  5
9A6
330
1D
100
AcDbEntity
  8
0
100
AcDbLine
 10
16.8021
 20
88.283828
 30
0.0
 11
17.2791
 21
87.648428
 31
0.0
  0
LINE
  5
9A7
330
1D
100
AcDbEntity
  8
0
100
AcDbLine
 10
18.3893
 20
86.058028
 30
0.0
 11
18.8335
 21
85.305648
 31
0.0
  0
LINE
  5
9A8
330
1D
100
AcDbEntity
  8
0
100
AcDbLine
 10
18.3893
 20
86.058128
 30
0.0
 11
18.8335
 21
85.305648
 31
0.0
  0
LINE
  5
9A9
330
1D
100
AcDbEntity
  8
0
100
AcDbLine
 10
15.4437
 20
89.995728
 30
0.0
 11
16.2521
 21
88.992628
 31
0.0
  0
LINE
  5
9AA
330
1D
100
AcDbEntity
  8
0
100
AcDbLine
 10
15.4437
 20
89.995728
 30
0.0
 11
16.252
 21
88.992728
 31
0.0
  0
LINE
  5
9AB
330
1D
100
AcDbEntity
  8
0
100
AcDbLine
 10
16.252
 20
88.992728
 30
0.0
 11
16.802
 21
88.283928
 31
0.0
  0
LINE
  5
9AC
330
1D
100
AcDbEntity
  8
0
100
AcDbLine
 10
16.2521
 20
88.992628
 30
0.0
 11
16.8021
 21
88.283828
 31
0.0
  0
LINE
  5
9AD
330
1D
100
AcDbEntity
  8
0
100
AcDbLine
 10
20.252
 20
76.084124
 30
0.0
 11
20.464
 21
76.208176
 31
0.0
  0
LINE
  5
9AE
330
1D
100
AcDbEntity
  8
0
100
AcDbLine
 10
4.78975
 20
100.580228
 30
0.0
 11
5.35332
 21
100.157328
 31
0.0
  0
LINE
  5
9AF
330
1D
100
AcDbEntity
  8
0
100
AcDbLine
 10
4.78975
 20
100.580228
 30
0.0
 11
5.35321
 21
100.157528
 31
0.0
  0
LINE
  5
9B0
330
1D
100
AcDbEntity
  8
0
100
AcDbLine
 10
20.464
 20
76.208176
 30
0.0
 11
20.7063
 21
76.437386
 31
0.0
  0
LINE
  5
9B1
330
1D
100
AcDbEntity
  8
0
100
AcDbLine
 10
20.464
 20
76.208116
 30
0.0
 11
20.7062
 21
76.43752
 31
0.0
  0
LINE
  5
9B2
330
1D
100
AcDbEntity
  8
0
100
AcDbLine
 10
20.7063
 20
76.437386
 30
0.0
 11
20.8664
 21
76.675774
 31
0.0
  0
LINE
  5
9B3
330
1D
100
AcDbEntity
  8
0
100
AcDbLine
 10
20.9912
 20
76.954528
 30
0.0
 11
21.0819
 21
77.271718
 31
0.0
  0
LINE
  5
9B4
330
1D
100
AcDbEntity
  8
0
100
AcDbLine
 10
20.8664
 20
76.675774
 30
0.0
 11
20.9912
 21
76.954528
 31
0.0
  0
LINE
  5
9B5
330
1D
100
AcDbEntity
  8
0
100
AcDbLine
 10
20.9912
 20
76.954588
 30
0.0
 11
21.0819
 21
77.271718
 31
0.0
  0
LINE
  5
9B6
330
1D
100
AcDbEntity
  8
0
100
AcDbLine
 10
20.8665
 20
76.675759
 30
0.0
 11
20.9912
 21
76.954588
 31
0.0
  0
LINE
  5
9B7
330
1D
100
AcDbEntity
  8
0
100
AcDbLine
 10
20.7062
 20
76.43752
 30
0.0
 11
20.8665
 21
76.675759
 31
0.0
  0
LINE
  5
9B8
330
1D
100
AcDbEntity
  8
0
100
AcDbLine
 10
20.9784
 20
79.825328
 30
0.0
 11
21.068
 21
79.326678
 31
0.0
  0
LINE
  5
9B9
330
1D
100
AcDbEntity
  8
0
100
AcDbLine
 10
20.9782
 20
79.825488
 30
0.0
 11
21.068
 21
79.326678
 31
0.0
  0
LINE
  5
9BA
330
1D
100
AcDbEntity
  8
0
100
AcDbLine
 10
20.8582
 20
80.358478
 30
0.0
 11
20.9784
 21
79.825328
 31
0.0
  0
LINE
  5
9BB
330
1D
100
AcDbEntity
  8
0
100
AcDbLine
 10
20.7056
 20
80.928308
 30
0.0
 11
20.8582
 21
80.358478
 31
0.0
  0
LINE
  5
9BC
330
1D
100
AcDbEntity
  8
0
100
AcDbLine
 10
20.7056
 20
80.928208
 30
0.0
 11
20.8582
 21
80.358378
 31
0.0
  0
LINE
  5
9BD
330
1D
100
AcDbEntity
  8
0
100
AcDbLine
 10
20.8582
 20
80.358378
 30
0.0
 11
20.9782
 21
79.825488
 31
0.0
  0
LINE
  5
9BE
330
1D
100
AcDbEntity
  8
0
100
AcDbLine
 10
21.353982830051
 20
76.796166616996
 30
0.0
 11
29.95
 21
82.162668
 31
0.0
  0
LINE
  5
9BF
330
1D
100
AcDbEntity
  8
0
100
AcDbLine
 10
21.353982830051
 20
76.796166616996
 30
0.0
 11
29.95
 21
82.162668
 31
0.0
  0
LINE
  5
9C0
330
1D
100
AcDbEntity
  8
0
100
AcDbLine
 10
29.95
 20
82.162668
 30
0.0
 11
37.8086
 21
86.805428
 31
0.0
  0
LINE
  5
9C1
330
1D
100
AcDbEntity
  8
0
100
AcDbLine
 10
37.8086
 20
86.805428
 30
0.0
 11
56.0905
 21
97.250828
 31
0.0
  0
LINE
  5
9C2
330
1D
100
AcDbEntity
  8
0
100
AcDbLine
 10
56.4001
 20
97.431828
 30
0.0
 11
56.7637
 21
97.916428
 31
0.0
  0
LINE
  5
9C3
330
1D
100
AcDbEntity
  8
0
100
AcDbLine
 10
56.0905
 20
97.250828
 30
0.0
 11
56.4003
 21
97.431928
 31
0.0
  0
LINE
  5
9C4
330
1D
100
AcDbEntity
  8
0
100
AcDbLine
 10
56.0905
 20
97.250828
 30
0.0
 11
56.4001
 21
97.431828
 31
0.0
  0
LINE
  5
9C5
330
1D
100
AcDbEntity
  8
0
100
AcDbLine
 10
56.7637
 20
97.916428
 30
0.0
 11
56.8471
 21
98.675428
 31
0.0
  0
LINE
  5
9C6
330
1D
100
AcDbEntity
  8
0
100
AcDbLine
 10
56.773418452353
 20
98.004872908104
 30
0.0
 11
56.9679
 21
98.061228
 31
0.0
  0
LINE
  5
9C7
330
1D
100
AcDbEntity
  8
0
100
AcDbLine
 10
56.8471
 20
98.675428
 30
0.0
 11
56.8915
 21
99.060928
 31
0.0
  0
LINE
  5
9C8
330
1D
100
AcDbEntity
  8
0
100
AcDbLine
 10
56.8604
 20
99.354028
 30
0.0
 11
56.8915
 21
99.060928
 31
0.0
  0
LINE
  5
9C9
330
1D
100
AcDbEntity
  8
0
100
AcDbLine
 10
56.8025
 20
100.054928
 30
0.0
 11
56.8604
 21
99.354028
 31
0.0
  0
LINE
  5
9CA
330
1D
100
AcDbEntity
  8
0
100
AcDbLine
 10
56.4973
 20
101.174228
 30
0.0
 11
56.8025
 21
100.054928
 31
0.0
  0
LINE
  5
9CB
330
1D
100
AcDbEntity
  8
0
100
AcDbLine
 10
56.1794
 20
102.178928
 30
0.0
 11
56.4973
 21
101.174228
 31
0.0
  0
LINE
  5
9CC
330
1D
100
AcDbEntity
  8
0
100
AcDbLine
 10
56.5801
 20
102.802228
 30
0.0
 11
56.9618
 21
101.698228
 31
0.0
  0
LINE
  5
9CD
330
1D
100
AcDbEntity
  8
0
100
AcDbLine
 10
56.9618
 20
101.698228
 30
0.0
 11
57.3545
 21
100.067028
 31
0.0
  0
LINE
  5
9CE
330
1D
100
AcDbEntity
  8
0
100
AcDbLine
 10
56.5799
 20
102.802128
 30
0.0
 11
56.9616
 21
101.697728
 31
0.0
  0
LINE
  5
9CF
330
1D
100
AcDbEntity
  8
0
100
AcDbLine
 10
56.9616
 20
101.697728
 30
0.0
 11
57.3547
 21
100.067128
 31
0.0
  0
LINE
  5
9D0
330
1D
100
AcDbEntity
  8
0
100
AcDbLine
 10
56.9679
 20
98.061228
 30
0.0
 11
57.3272
 21
98.600728
 31
0.0
  0
LINE
  5
9D1
330
1D
100
AcDbEntity
  8
0
100
AcDbLine
 10
56.9677
 20
98.060828
 30
0.0
 11
61.2198
 21
100.429828
 31
0.0
  0
LINE
  5
9D2
330
1D
100
AcDbEntity
  8
0
100
AcDbLine
 10
56.9677
 20
98.060828
 30
0.0
 11
57.3272
 21
98.600728
 31
0.0
  0
LINE
  5
9D3
330
1D
100
AcDbEntity
  8
0
100
AcDbLine
 10
56.773390776527
 20
98.004621038182
 30
0.0
 11
56.9677
 21
98.060828
 31
0.0
  0
LINE
  5
9D4
330
1D
100
AcDbEntity
  8
0
100
AcDbLine
 10
57.3545
 20
100.067028
 30
0.0
 11
57.386
 21
98.860728
 31
0.0
  0
LINE
  5
9D7
330
1D
100
AcDbEntity
  8
0
100
AcDbLine
 10
57.3547
 20
100.067128
 30
0.0
 11
57.3861
 21
98.860528
 31
0.0
  0
LINE
  5
9D8
330
1D
100
AcDbEntity
  8
0
100
AcDbLine
 10
57.3272
 20
98.600728
 30
0.0
 11
57.3861
 21
98.860528
 31
0.0
  0
LINE
  5
9D9
330
1D
100
AcDbEntity
  8
0
100
AcDbLine
 10
57.3272
 20
98.600728
 30
0.0
 11
57.386
 21
98.860728
 31
0.0
  0
LINE
  5
9DA
330
1D
100
AcDbEntity
  8
0
100
AcDbLine
 10
20.2521
 20
76.083975
 30
0.0
 11
20.464
 21
76.208116
 31
0.0
  0
LINE
  5
9DB
330
1D
100
AcDbEntity
  8
0
100
AcDbLine
 10
54.2949
 20
106.367628
 30
0.0
 11
55.0177
 21
104.907128
 31
0.0
  0
LINE
  5
9DC
330
1D
100
AcDbEntity
  8
0
100
AcDbLine
 10
55.0177
 20
104.907128
 30
0.0
 11
55.6808
 21
103.437728
 31
0.0
  0
LINE
  5
9DD
330
1D
100
AcDbEntity
  8
0
100
AcDbLine
 10
9.11337
 20
110.032628
 30
0.0
 11
18.7616
 21
118.905928
 31
0.0
  0
LINE
  5
9DE
330
1D
100
AcDbEntity
  8
0
100
AcDbLine
 10
9.11337
 20
110.032628
 30
0.0
 11
18.7616
 21
118.905928
 31
0.0
  0
LINE
  5
9DF
330
1D
100
AcDbEntity
  8
0
100
AcDbLine
 10
18.7616
 20
118.905928
 30
0.0
 11
25.9317
 21
125.401728
 31
0.0
  0
LINE
  5
9E0
330
1D
100
AcDbEntity
  8
0
100
AcDbLine
 10
38.284
 20
128.607128
 30
0.0
 11
39.3474
 21
127.628028
 31
0.0
  0
LINE
  5
9E1
330
1D
100
AcDbEntity
  8
0
100
AcDbLine
 10
37.2841
 20
129.453728
 30
0.0
 11
38.284
 21
128.607128
 31
0.0
  0
LINE
  5
9E2
330
1D
100
AcDbEntity
  8
0
100
AcDbLine
 10
25.9317
 20
125.401728
 30
0.0
 11
32.1579
 21
130.904628
 31
0.0
  0
LINE
  5
9E3
330
1D
100
AcDbEntity
  8
0
100
AcDbLine
 10
15.3
 20
205.166828
 30
0.0
 11
16.0
 21
204.866828
 31
0.0
  0
LINE
  5
9E4
330
1D
100
AcDbEntity
  8
0
100
AcDbLine
 10
15.0
 20
205.866828
 30
0.0
 11
15.0
 21
225.866828
 31
0.0
  0
LINE
  5
9E5
330
1D
100
AcDbEntity
  8
0
100
AcDbLine
 10
15.0
 20
205.866828
 30
0.0
 11
15.3
 21
205.166828
 31
0.0
  0
LINE
  5
9E6
330
1D
100
AcDbEntity
  8
0
100
AcDbLine
 10
15.0
 20
225.866828
 30
0.0
 11
15.0
 21
205.866828
 31
0.0
  0
LINE
  5
9E7
330
1D
100
AcDbEntity
  8
0
100
AcDbLine
 10
15.0
 20
225.866828
 30
0.0
 11
15.3
 21
225.866828
 31
0.0
  0
LINE
  5
9E8
330
1D
100
AcDbEntity
  8
0
100
AcDbLine
 10
16.0
 20
204.866828
 30
0.0
 11
55.9679
 21
204.866828
 31
0.0
  0
LINE
  5
9E9
330
1D
100
AcDbEntity
  8
0
100
AcDbLine
 10
16.0
 20
225.866828
 30
0.0
 11
294.0
 21
225.866828
 31
0.0
  0
LINE
  5
9EA
330
1D
100
AcDbEntity
  8
0
100
AcDbLine
 10
16.0
 20
204.866828
 30
0.0
 11
55.9679
 21
204.866828
 31
0.0
  0
LINE
  5
9EB
330
1D
100
AcDbEntity
  8
0
100
AcDbLine
 10
16.0
 20
225.866828
 30
0.0
 11
294.0
 21
225.866828
 31
0.0
  0
LINE
  5
9EC
330
1D
100
AcDbEntity
  8
0
100
AcDbLine
 10
15.3
 20
225.866828
 30
0.0
 11
16.0
 21
225.866828
 31
0.0
  0
LINE
  5
9ED
330
1D
100
AcDbEntity
  8
0
100
AcDbLine
 10
32.1579
 20
130.904428
 30
0.0
 11
32.5052
 21
131.031228
 31
0.0
  0
LINE
  5
9EE
330
1D
100
AcDbEntity
  8
0
100
AcDbLine
 10
33.6626
 20
130.998928
 30
0.0
 11
34.582
 21
130.559328
 31
0.0
  0
LINE
  5
9EF
330
1D
100
AcDbEntity
  8
0
100
AcDbLine
 10
32.5052
 20
131.031228
 30
0.0
 11
32.9894
 21
131.111928
 31
0.0
  0
LINE
  5
9F0
330
1D
100
AcDbEntity
  8
0
100
AcDbLine
 10
35.9256
 20
130.453228
 30
0.0
 11
37.2841
 21
129.453728
 31
0.0
  0
LINE
  5
9F1
330
1D
100
AcDbEntity
  8
0
100
AcDbLine
 10
34.582
 20
130.559328
 30
0.0
 11
35.2916
 21
130.183928
 31
0.0
  0
LINE
  5
9F2
330
1D
100
AcDbEntity
  8
0
100
AcDbLine
 10
32.7939
 20
131.104328
 30
0.0
 11
33.122
 21
131.343828
 31
0.0
  0
LINE
  5
9F3
330
1D
100
AcDbEntity
  8
0
100
AcDbLine
 10
32.7941
 20
131.104728
 30
0.0
 11
33.7196
 21
131.950828
 31
0.0
  0
LINE
  5
9F4
330
1D
100
AcDbEntity
  8
0
100
AcDbLine
 10
32.7941
 20
131.104728
 30
0.0
 11
33.122
 21
131.343928
 31
0.0
  0
LINE
  5
9F5
330
1D
100
AcDbEntity
  8
0
100
AcDbLine
 10
33.122
 20
131.343828
 30
0.0
 11
33.5633
 21
131.423628
 31
0.0
  0
LINE
  5
9F6
330
1D
100
AcDbEntity
  8
0
100
AcDbLine
 10
33.5633
 20
131.423628
 30
0.0
 11
34.1125
 21
131.344328
 31
0.0
  0
LINE
  5
9F7
330
1D
100
AcDbEntity
  8
0
100
AcDbLine
 10
32.9894
 20
131.111928
 30
0.0
 11
33.6626
 21
130.998928
 31
0.0
  0
LINE
  5
9F8
330
1D
100
AcDbEntity
  8
0
100
AcDbLine
 10
33.7194
 20
131.950828
 30
0.0
 11
37.562
 21
135.526628
 31
0.0
  0
LINE
  5
9F9
330
1D
100
AcDbEntity
  8
0
100
AcDbLine
 10
34.1125
 20
131.344328
 30
0.0
 11
34.765
 21
131.106328
 31
0.0
  0
LINE
  5
9FA
330
1D
100
AcDbEntity
  8
0
100
AcDbLine
 10
34.765
 20
131.106328
 30
0.0
 11
35.9256
 21
130.453228
 31
0.0
  0
LINE
  5
9FB
330
1D
100
AcDbEntity
  8
0
100
AcDbLine
 10
37.562
 20
135.526628
 30
0.0
 11
39.421
 21
137.460928
 31
0.0
  0
LINE
  5
9FC
330
1D
100
AcDbEntity
  8
0
100
AcDbLine
 10
32.1579
 20
130.904628
 30
0.0
 11
32.5052
 21
131.031228
 31
0.0
  0
LINE
  5
9FD
330
1D
100
AcDbEntity
  8
0
100
AcDbLine
 10
51.3121
 20
111.553028
 30
0.0
 11
52.4418
 21
109.702828
 31
0.0
  0
LINE
  5
9FE
330
1D
100
AcDbEntity
  8
0
100
AcDbLine
 10
51.3121
 20
111.553028
 30
0.0
 11
52.4419
 21
109.702928
 31
0.0
  0
LINE
  5
9FF
330
1D
100
AcDbEntity
  8
0
100
AcDbLine
 10
51.2219
 20
111.696228
 30
0.0
 11
51.3121
 21
111.553028
 31
0.0
  0
LINE
  5
A00
330
1D
100
AcDbEntity
  8
0
100
AcDbLine
 10
51.2221
 20
111.696028
 30
0.0
 11
51.3121
 21
111.553028
 31
0.0
  0
LINE
  5
A01
330
1D
100
AcDbEntity
  8
0
100
AcDbLine
 10
51.9558
 20
111.668328
 30
0.0
 11
52.7741
 21
110.329728
 31
0.0
  0
LINE
  5
A02
330
1D
100
AcDbEntity
  8
0
100
AcDbLine
 10
48.7113
 20
115.466828
 30
0.0
 11
49.9978
 21
113.583128
 31
0.0
  0
LINE
  5
A03
330
1D
100
AcDbEntity
  8
0
100
AcDbLine
 10
51.0915
 20
113.026928
 30
0.0
 11
51.9558
 21
111.668328
 31
0.0
  0
LINE
  5
A04
330
1D
100
AcDbEntity
  8
0
100
AcDbLine
 10
49.9982
 20
113.582728
 30
0.0
 11
51.2219
 21
111.696228
 31
0.0
  0
LINE
  5
A05
330
1D
100
AcDbEntity
  8
0
100
AcDbLine
 10
49.9988
 20
114.671328
 30
0.0
 11
51.0911
 21
113.026828
 31
0.0
  0
LINE
  5
A06
330
1D
100
AcDbEntity
  8
0
100
AcDbLine
 10
49.9993
 20
114.671728
 30
0.0
 11
51.0915
 21
113.026928
 31
0.0
  0
LINE
  5
A07
330
1D
100
AcDbEntity
  8
0
100
AcDbLine
 10
51.0911
 20
113.026828
 30
0.0
 11
51.9563
 21
111.668428
 31
0.0
  0
LINE
  5
A08
330
1D
100
AcDbEntity
  8
0
100
AcDbLine
 10
52.7739
 20
110.329528
 30
0.0
 11
53.5403
 21
109.019828
 31
0.0
  0
LINE
  5
A09
330
1D
100
AcDbEntity
  8
0
100
AcDbLine
 10
52.4419
 20
109.702928
 30
0.0
 11
53.4686
 21
107.912028
 31
0.0
  0
LINE
  5
A0A
330
1D
100
AcDbEntity
  8
0
100
AcDbLine
 10
51.9563
 20
111.668428
 30
0.0
 11
52.7739
 21
110.329528
 31
0.0
  0
LINE
  5
A0B
330
1D
100
AcDbEntity
  8
0
100
AcDbLine
 10
41.6236
 20
125.310428
 30
0.0
 11
42.8167
 21
123.990028
 31
0.0
  0
LINE
  5
A0C
330
1D
100
AcDbEntity
  8
0
100
AcDbLine
 10
42.8167
 20
123.990028
 30
0.0
 11
44.0305
 21
122.578028
 31
0.0
  0
LINE
  5
A0D
330
1D
100
AcDbEntity
  8
0
100
AcDbLine
 10
41.9399
 20
124.057828
 30
0.0
 11
43.1968
 21
122.619128
 31
0.0
  0
LINE
  5
A0E
330
1D
100
AcDbEntity
  8
0
100
AcDbLine
 10
41.9401
 20
124.057628
 30
0.0
 11
43.1967
 21
122.619328
 31
0.0
  0
LINE
  5
A0F
330
1D
100
AcDbEntity
  8
0
100
AcDbLine
 10
40.7103
 20
125.393328
 30
0.0
 11
41.9399
 21
124.057828
 31
0.0
  0
LINE
  5
A10
330
1D
100
AcDbEntity
  8
0
100
AcDbLine
 10
41.6239
 20
125.310528
 30
0.0
 11
42.8168
 21
123.990028
 31
0.0
  0
LINE
  5
A11
330
1D
100
AcDbEntity
  8
0
100
AcDbLine
 10
45.2527
 20
121.089528
 30
0.0
 11
46.4719
 21
119.539328
 31
0.0
  0
LINE
  5
A12
330
1D
100
AcDbEntity
  8
0
100
AcDbLine
 10
44.0302
 20
122.578428
 30
0.0
 11
45.2527
 21
121.089528
 31
0.0
  0
LINE
  5
A13
330
1D
100
AcDbEntity
  8
0
100
AcDbLine
 10
44.0305
 20
122.578028
 30
0.0
 11
45.2527
 21
121.089528
 31
0.0
  0
LINE
  5
A14
330
1D
100
AcDbEntity
  8
0
100
AcDbLine
 10
43.1968
 20
122.619128
 30
0.0
 11
44.5952
 21
120.935328
 31
0.0
  0
LINE
  5
A15
330
1D
100
AcDbEntity
  8
0
100
AcDbLine
 10
43.1967
 20
122.619328
 30
0.0
 11
44.5952
 21
120.935328
 31
0.0
  0
LINE
  5
A16
330
1D
100
AcDbEntity
  8
0
100
AcDbLine
 10
44.5952
 20
120.935328
 30
0.0
 11
45.9925
 21
119.166428
 31
0.0
  0
LINE
  5
A17
330
1D
100
AcDbEntity
  8
0
100
AcDbLine
 10
42.8168
 20
123.990028
 30
0.0
 11
44.0302
 21
122.578428
 31
0.0
  0
LINE
  5
A18
330
1D
100
AcDbEntity
  8
0
100
AcDbLine
 10
39.52
 20
126.612628
 30
0.0
 11
40.7103
 21
125.393328
 31
0.0
  0
LINE
  5
A19
330
1D
100
AcDbEntity
  8
0
100
AcDbLine
 10
39.3474
 20
127.628028
 30
0.0
 11
40.464
 21
126.526628
 31
0.0
  0
LINE
  5
A1A
330
1D
100
AcDbEntity
  8
0
100
AcDbLine
 10
39.5199
 20
126.612728
 30
0.0
 11
40.7102
 21
125.393528
 31
0.0
  0
LINE
  5
A1B
330
1D
100
AcDbEntity
  8
0
100
AcDbLine
 10
40.464
 20
126.526628
 30
0.0
 11
41.6239
 21
125.310528
 31
0.0
  0
LINE
  5
A1C
330
1D
100
AcDbEntity
  8
0
100
AcDbLine
 10
40.4641
 20
126.526628
 30
0.0
 11
41.6236
 21
125.310428
 31
0.0
  0
LINE
  5
A1D
330
1D
100
AcDbEntity
  8
0
100
AcDbLine
 10
40.7102
 20
125.393528
 30
0.0
 11
41.9401
 21
124.057628
 31
0.0
  0
LINE
  5
A1E
330
1D
100
AcDbEntity
  8
0
100
AcDbLine
 10
48.8572
 20
116.315228
 30
0.0
 11
49.9988
 21
114.671328
 31
0.0
  0
LINE
  5
A1F
330
1D
100
AcDbEntity
  8
0
100
AcDbLine
 10
45.9926
 20
119.166428
 30
0.0
 11
47.3706
 21
117.335628
 31
0.0
  0
LINE
  5
A20
330
1D
100
AcDbEntity
  8
0
100
AcDbLine
 10
47.3706
 20
117.335628
 30
0.0
 11
48.7113
 21
115.466828
 31
0.0
  0
LINE
  5
A21
330
1D
100
AcDbEntity
  8
0
100
AcDbLine
 10
47.6776
 20
117.942828
 30
0.0
 11
48.8572
 21
116.315228
 31
0.0
  0
LINE
  5
A22
330
1D
100
AcDbEntity
  8
0
100
AcDbLine
 10
46.4722
 20
119.539728
 30
0.0
 11
47.6776
 21
117.942828
 31
0.0
  0
LINE
  5
A23
330
1D
100
AcDbEntity
  8
0
100
AcDbLine
 10
54.2503
 20
107.746328
 30
0.0
 11
55.4809
 21
105.345728
 31
0.0
  0
LINE
  5
A24
330
1D
100
AcDbEntity
  8
0
100
AcDbLine
 10
53.4686
 20
107.912028
 30
0.0
 11
54.2948
 21
106.367928
 31
0.0
  0
LINE
  5
A25
330
1D
100
AcDbEntity
  8
0
100
AcDbLine
 10
53.5405
 20
109.019428
 30
0.0
 11
54.2503
 21
107.746328
 31
0.0
  0
LINE
  5
A26
330
1D
100
AcDbEntity
  8
0
100
AcDbLine
 10
44.11
 20
143.219928
 30
0.0
 11
46.7937
 21
147.228028
 31
0.0
  0
LINE
  5
A27
330
1D
100
AcDbEntity
  8
0
100
AcDbLine
 10
41.3419
 20
139.654528
 30
0.0
 11
44.11
 21
143.219928
 31
0.0
  0
LINE
  5
A28
330
1D
100
AcDbEntity
  8
0
100
AcDbLine
 10
39.421
 20
137.460928
 30
0.0
 11
41.3419
 21
139.654528
 31
0.0
  0
LINE
  5
A29
330
1D
100
AcDbEntity
  8
0
100
AcDbLine
 10
46.7937
 20
147.228028
 30
0.0
 11
49.3624
 21
151.734028
 31
0.0
  0
LINE
  5
A2A
330
1D
100
AcDbEntity
  8
0
100
AcDbLine
 10
51.6262
 20
156.509528
 30
0.0
 11
53.4424
 21
161.344828
 31
0.0
  0
LINE
  5
A2B
330
1D
100
AcDbEntity
  8
0
100
AcDbLine
 10
54.3879
 20
164.596828
 30
0.0
 11
55.1187
 21
167.821628
 31
0.0
  0
LINE
  5
A2C
330
1D
100
AcDbEntity
  8
0
100
AcDbLine
 10
53.4424
 20
161.344828
 30
0.0
 11
54.3879
 21
164.596828
 31
0.0
  0
LINE
  5
A2D
330
1D
100
AcDbEntity
  8
0
100
AcDbLine
 10
49.3624
 20
151.734028
 30
0.0
 11
51.6262
 21
156.509528
 31
0.0
  0
LINE
  5
A2E
330
1D
100
AcDbEntity
  8
0
100
AcDbLine
 10
56.0856
 20
104.021328
 30
0.0
 11
56.5801
 21
102.802228
 31
0.0
  0
LINE
  5
A2F
330
1D
100
AcDbEntity
  8
0
100
AcDbLine
 10
55.481
 20
105.345928
 30
0.0
 11
56.0856
 21
104.021328
 31
0.0
  0
LINE
  5
A30
330
1D
100
AcDbEntity
  8
0
100
AcDbLine
 10
56.0859
 20
104.021328
 30
0.0
 11
56.5799
 21
102.802128
 31
0.0
  0
LINE
  5
A31
330
1D
100
AcDbEntity
  8
0
100
AcDbLine
 10
55.4809
 20
105.345728
 30
0.0
 11
56.0859
 21
104.021328
 31
0.0
  0
LINE
  5
A32
330
1D
100
AcDbEntity
  8
0
100
AcDbLine
 10
55.6808
 20
103.437728
 30
0.0
 11
56.1794
 21
102.178928
 31
0.0
  0
LINE
  5
A33
330
1D
100
AcDbEntity
  8
0
100
AcDbLine
 10
55.1187
 20
167.821628
 30
0.0
 11
55.7099
 21
171.946728
 31
0.0
  0
LINE
  5
A34
330
1D
100
AcDbEntity
  8
0
100
AcDbLine
 10
55.9064
 20
174.608228
 30
0.0
 11
55.9679
 21
179.770828
 31
0.0
  0
LINE
  5
A35
330
1D
100
AcDbEntity
  8
0
100
AcDbLine
 10
55.7099
 20
171.946728
 30
0.0
 11
55.9064
 21
174.608228
 31
0.0
  0
LINE
  5
A36
330
1D
100
AcDbEntity
  8
0
100
AcDbLine
 10
55.9679
 20
179.770828
 30
0.0
 11
55.9679
 21
187.317828
 31
0.0
  0
LINE
  5
A37
330
1D
100
AcDbEntity
  8
0
100
AcDbLine
 10
55.9679
 20
204.866828
 30
0.0
 11
55.9679
 21
187.317828
 31
0.0
  0
LINE
  5
A38
330
1D
100
AcDbEntity
  8
0
100
AcDbLine
 10
55.9679
 20
187.317828
 30
0.0
 11
55.9679
 21
204.866828
 31
0.0
  0
LINE
  5
A39
330
1D
100
AcDbEntity
  8
0
100
AcDbLine
 10
55.9679
 20
187.317828
 30
0.0
 11
55.9679
 21
179.770828
 31
0.0
  0
LINE
  5
A3A
330
1D
100
AcDbEntity
  8
0
100
AcDbLine
 10
55.0179
 20
104.907028
 30
0.0
 11
55.054377633527
 21
104.82585200135
 31
0.0
  0
LINE
  5
A3D
330
1D
100
AcDbEntity
  8
0
100
AcDbLine
 10
249.383
 20
107.910828
 30
0.0
 11
255.525
 21
102.629128
 31
0.0
  0
LINE
  5
A43
330
1D
100
AcDbEntity
  8
0
100
AcDbLine
 10
231.526
 20
123.692828
 30
0.0
 11
232.02
 21
123.117728
 31
0.0
  0
LINE
  5
A44
330
1D
100
AcDbEntity
  8
0
100
AcDbLine
 10
232.02
 20
123.117728
 30
0.0
 11
232.931
 21
122.240528
 31
0.0
  0
LINE
  5
A45
330
1D
100
AcDbEntity
  8
0
100
AcDbLine
 10
232.02
 20
123.117728
 30
0.0
 11
232.932
 21
122.240428
 31
0.0
  0
LINE
  5
A46
330
1D
100
AcDbEntity
  8
0
100
AcDbLine
 10
232.931
 20
122.240528
 30
0.0
 11
249.383
 21
107.910828
 31
0.0
  0
LINE
  5
A47
330
1D
100
AcDbEntity
  8
0
100
AcDbLine
 10
231.527
 20
123.692528
 30
0.0
 11
232.02
 21
123.117728
 31
0.0
  0
LINE
  5
A48
330
1D
100
AcDbEntity
  8
0
100
AcDbLine
 10
230.888
 20
124.418828
 30
0.0
 11
231.618537887948
 21
123.585098163241
 31
0.0
  0
LINE
  5
A49
330
1D
100
AcDbEntity
  8
0
100
AcDbLine
 10
231.075
 20
124.302228
 30
0.0
 11
231.527
 21
123.692528
 31
0.0
  0
LINE
  5
A4A
330
1D
100
AcDbEntity
  8
0
100
AcDbLine
 10
231.075
 20
124.302228
 30
0.0
 11
231.526
 21
123.692828
 31
0.0
  0
LINE
  5
A4D
330
1D
100
AcDbEntity
  8
0
100
AcDbLine
 10
229.673
 20
126.483828
 30
0.0
 11
230.888
 21
124.418828
 31
0.0
  0
LINE
  5
A4E
330
1D
100
AcDbEntity
  8
0
100
AcDbLine
 10
229.711
 20
127.052428
 30
0.0
 11
229.984
 21
126.321828
 31
0.0
  0
LINE
  5
A4F
330
1D
100
AcDbEntity
  8
0
100
AcDbLine
 10
230.667
 20
124.944628
 30
0.0
 11
231.075
 21
124.302228
 31
0.0
  0
LINE
  5
A50
330
1D
100
AcDbEntity
  8
0
100
AcDbLine
 10
230.303
 20
125.618628
 30
0.0
 11
230.667
 21
124.944628
 31
0.0
  0
LINE
  5
A51
330
1D
100
AcDbEntity
  8
0
100
AcDbLine
 10
229.984
 20
126.321828
 30
0.0
 11
230.303
 21
125.618628
 31
0.0
  0
LINE
  5
A52
330
1D
100
AcDbEntity
  8
0
100
AcDbLine
 10
229.711
 20
127.052728
 30
0.0
 11
229.984
 21
126.321828
 31
0.0
  0
LINE
  5
A53
330
1D
100
AcDbEntity
  8
0
100
AcDbLine
 10
229.485
 20
127.808928
 30
0.0
 11
229.711
 21
127.052728
 31
0.0
  0
LINE
  5
A54
330
1D
100
AcDbEntity
  8
0
100
AcDbLine
 10
229.485
 20
127.808928
 30
0.0
 11
229.711
 21
127.052428
 31
0.0
  0
LINE
  5
A55
330
1D
100
AcDbEntity
  8
0
100
AcDbLine
 10
228.177
 20
126.960728
 30
0.0
 11
231.890204654943
 21
123.268831852109
 31
0.0
  0
LINE
  5
A56
330
1D
100
AcDbEntity
  8
0
100
AcDbLine
 10
250.797
 20
113.214928
 30
0.0
 11
250.893
 21
112.224128
 31
0.0
  0
LINE
  5
A57
330
1D
100
AcDbEntity
  8
0
100
AcDbLine
 10
250.747
 20
114.213928
 30
0.0
 11
250.798
 21
113.215128
 31
0.0
  0
LINE
  5
A58
330
1D
100
AcDbEntity
  8
0
100
AcDbLine
 10
250.747
 20
114.213928
 30
0.0
 11
250.797
 21
113.214928
 31
0.0
  0
LINE
  5
A59
330
1D
100
AcDbEntity
  8
0
100
AcDbLine
 10
250.798
 20
113.215128
 30
0.0
 11
250.893
 21
112.224128
 31
0.0
  0
LINE
  5
A5A
330
1D
100
AcDbEntity
  8
0
100
AcDbLine
 10
251.226
 20
110.271428
 30
0.0
 11
251.537
 21
109.078428
 31
0.0
  0
LINE
  5
A5B
330
1D
100
AcDbEntity
  8
0
100
AcDbLine
 10
251.226
 20
110.271428
 30
0.0
 11
251.537
 21
109.078328
 31
0.0
  0
LINE
  5
A5C
330
1D
100
AcDbEntity
  8
0
100
AcDbLine
 10
251.126
 20
119.169028
 30
0.0
 11
251.327
 21
120.164928
 31
0.0
  0
LINE
  5
A5D
330
1D
100
AcDbEntity
  8
0
100
AcDbLine
 10
250.969
 20
118.177628
 30
0.0
 11
251.126
 21
119.169028
 31
0.0
  0
LINE
  5
A5E
330
1D
100
AcDbEntity
  8
0
100
AcDbLine
 10
250.809
 20
116.687328
 30
0.0
 11
250.969
 21
118.177628
 31
0.0
  0
LINE
  5
A5F
330
1D
100
AcDbEntity
  8
0
100
AcDbLine
 10
250.741
 20
115.200528
 30
0.0
 11
250.809
 21
116.687328
 31
0.0
  0
LINE
  5
A60
330
1D
100
AcDbEntity
  8
0
100
AcDbLine
 10
250.741
 20
115.200528
 30
0.0
 11
250.747
 21
114.213928
 31
0.0
  0
LINE
  5
A61
330
1D
100
AcDbEntity
  8
0
100
AcDbLine
 10
251.537
 20
109.078328
 30
0.0
 11
251.818
 21
108.218028
 31
0.0
  0
LINE
  5
A62
330
1D
100
AcDbEntity
  8
0
100
AcDbLine
 10
251.818
 20
108.218228
 30
0.0
 11
252.155
 21
107.351228
 31
0.0
  0
LINE
  5
A63
330
1D
100
AcDbEntity
  8
0
100
AcDbLine
 10
252.155
 20
107.351228
 30
0.0
 11
252.538
 21
106.515928
 31
0.0
  0
LINE
  5
A64
330
1D
100
AcDbEntity
  8
0
100
AcDbLine
 10
252.155
 20
107.351328
 30
0.0
 11
252.538
 21
106.515928
 31
0.0
  0
LINE
  5
A65
330
1D
100
AcDbEntity
  8
0
100
AcDbLine
 10
261.517
 20
100.147328
 30
0.0
 11
262.71
 21
100.088828
 31
0.0
  0
LINE
  5
A66
330
1D
100
AcDbEntity
  8
0
100
AcDbLine
 10
260.366
 20
100.316728
 30
0.0
 11
261.517
 21
100.147328
 31
0.0
  0
LINE
  5
A67
330
1D
100
AcDbEntity
  8
0
100
AcDbLine
 10
260.366
 20
100.316528
 30
0.0
 11
261.517
 21
100.147728
 31
0.0
  0
LINE
  5
A68
330
1D
100
AcDbEntity
  8
0
100
AcDbLine
 10
261.517
 20
100.147728
 30
0.0
 11
262.71
 21
100.088828
 31
0.0
  0
LINE
  5
A69
330
1D
100
AcDbEntity
  8
0
100
AcDbLine
 10
262.71
 20
100.088828
 30
0.0
 11
263.49
 21
100.110328
 31
0.0
  0
LINE
  5
A6A
330
1D
100
AcDbEntity
  8
0
100
AcDbLine
 10
262.71
 20
100.088828
 30
0.0
 11
263.49
 21
100.110128
 31
0.0
  0
LINE
  5
A6B
330
1D
100
AcDbEntity
  8
0
100
AcDbLine
 10
259.264
 20
100.593428
 30
0.0
 11
260.366
 21
100.316728
 31
0.0
  0
LINE
  5
A6C
330
1D
100
AcDbEntity
  8
0
100
AcDbLine
 10
259.264
 20
100.593628
 30
0.0
 11
260.366
 21
100.316528
 31
0.0
  0
LINE
  5
A6D
330
1D
100
AcDbEntity
  8
0
100
AcDbLine
 10
263.49
 20
100.110128
 30
0.0
 11
264.4
 21
100.126828
 31
0.0
  0
LINE
  5
A6E
330
1D
100
AcDbEntity
  8
0
100
AcDbLine
 10
265.569
 20
100.296028
 30
0.0
 11
266.704
 21
100.660928
 31
0.0
  0
LINE
  5
A6F
330
1D
100
AcDbEntity
  8
0
100
AcDbLine
 10
264.4
 20
100.126828
 30
0.0
 11
265.569
 21
100.296028
 31
0.0
  0
LINE
  5
A70
330
1D
100
AcDbEntity
  8
0
100
AcDbLine
 10
258.216
 20
100.974228
 30
0.0
 11
258.34753060306
 21
100.92643520072
 31
0.0
  0
LINE
  5
A71
330
1D
100
AcDbEntity
  8
0
100
AcDbLine
 10
258.216
 20
100.974428
 30
0.0
 11
258.345290279028
 21
100.927449242124
 31
0.0
  0
LINE
  5
A72
330
1D
100
AcDbEntity
  8
0
100
AcDbLine
 10
257.491
 20
101.314128
 30
0.0
 11
258.216
 21
100.974228
 31
0.0
  0
LINE
  5
A73
330
1D
100
AcDbEntity
  8
0
100
AcDbLine
 10
256.799
 20
101.705028
 30
0.0
 11
257.491
 21
101.314428
 31
0.0
  0
LINE
  5
A74
330
1D
100
AcDbEntity
  8
0
100
AcDbLine
 10
256.799
 20
101.705028
 30
0.0
 11
257.491
 21
101.314128
 31
0.0
  0
LINE
  5
A75
330
1D
100
AcDbEntity
  8
0
100
AcDbLine
 10
257.491
 20
101.314428
 30
0.0
 11
258.216
 21
100.974428
 31
0.0
  0
LINE
  5
A76
330
1D
100
AcDbEntity
  8
0
100
AcDbLine
 10
266.704
 20
100.660928
 30
0.0
 11
267.518
 21
100.914228
 31
0.0
  0
LINE
  5
A77
330
1D
100
AcDbEntity
  8
0
100
AcDbLine
 10
267.518
 20
100.914228
 30
0.0
 11
268.332
 21
101.212928
 31
0.0
  0
LINE
  5
A78
330
1D
100
AcDbEntity
  8
0
100
AcDbLine
 10
269.144
 20
101.555928
 30
0.0
 11
270.499
 21
102.232428
 31
0.0
  0
LINE
  5
A79
330
1D
100
AcDbEntity
  8
0
100
AcDbLine
 10
269.143
 20
101.556128
 30
0.0
 11
270.499
 21
102.232128
 31
0.0
  0
LINE
  5
A7A
330
1D
100
AcDbEntity
  8
0
100
AcDbLine
 10
268.332
 20
101.212928
 30
0.0
 11
269.143
 21
101.556128
 31
0.0
  0
LINE
  5
A7B
330
1D
100
AcDbEntity
  8
0
100
AcDbLine
 10
268.332
 20
101.212928
 30
0.0
 11
269.144
 21
101.555928
 31
0.0
  0
LINE
  5
A7C
330
1D
100
AcDbEntity
  8
0
100
AcDbLine
 10
254.4
 20
103.728328
 30
0.0
 11
254.943
 21
103.158428
 31
0.0
  0
LINE
  5
A7D
330
1D
100
AcDbEntity
  8
0
100
AcDbLine
 10
255.524
 20
102.629328
 30
0.0
 11
256.144
 21
102.144028
 31
0.0
  0
LINE
  5
A7E
330
1D
100
AcDbEntity
  8
0
100
AcDbLine
 10
255.525
 20
102.629128
 30
0.0
 11
256.144
 21
102.144328
 31
0.0
  0
LINE
  5
A7F
330
1D
100
AcDbEntity
  8
0
100
AcDbLine
 10
252.961
 20
105.730228
 30
0.0
 11
253.43
 21
104.981128
 31
0.0
  0
LINE
  5
A80
330
1D
100
AcDbEntity
  8
0
100
AcDbLine
 10
252.961
 20
105.730228
 30
0.0
 11
253.429
 21
104.981228
 31
0.0
  0
LINE
  5
A81
330
1D
100
AcDbEntity
  8
0
100
AcDbLine
 10
253.429
 20
104.981228
 30
0.0
 11
253.895
 21
104.336928
 31
0.0
  0
LINE
  5
A82
330
1D
100
AcDbEntity
  8
0
100
AcDbLine
 10
253.895
 20
104.336928
 30
0.0
 11
254.4
 21
103.728328
 31
0.0
  0
LINE
  5
A83
330
1D
100
AcDbEntity
  8
0
100
AcDbLine
 10
253.43
 20
104.981128
 30
0.0
 11
253.895
 21
104.336728
 31
0.0
  0
LINE
  5
A84
330
1D
100
AcDbEntity
  8
0
100
AcDbLine
 10
253.895
 20
104.336728
 30
0.0
 11
254.4
 21
103.728328
 31
0.0
  0
LINE
  5
A85
330
1D
100
AcDbEntity
  8
0
100
AcDbLine
 10
256.144
 20
102.144028
 30
0.0
 11
256.799
 21
101.705028
 31
0.0
  0
LINE
  5
A86
330
1D
100
AcDbEntity
  8
0
100
AcDbLine
 10
256.144
 20
102.144328
 30
0.0
 11
256.799
 21
101.705028
 31
0.0
  0
LINE
  5
A87
330
1D
100
AcDbEntity
  8
0
100
AcDbLine
 10
270.499
 20
102.232128
 30
0.0
 11
272.352
 21
103.218928
 31
0.0
  0
LINE
  5
A88
330
1D
100
AcDbEntity
  8
0
100
AcDbLine
 10
272.352
 20
103.218928
 30
0.0
 11
274.458
 21
104.872328
 31
0.0
  0
LINE
  5
A89
330
1D
100
AcDbEntity
  8
0
100
AcDbLine
 10
274.458
 20
104.872328
 30
0.0
 11
275.743
 21
106.032028
 31
0.0
  0
LINE
  5
A8A
330
1D
100
AcDbEntity
  8
0
100
AcDbLine
 10
275.766
 20
106.031428
 30
0.0
 11
277.396
 21
107.830328
 31
0.0
  0
LINE
  5
A8B
330
1D
100
AcDbEntity
  8
0
100
AcDbLine
 10
275.5377458545
 20
105.846788130322
 30
0.0
 11
275.766
 21
106.031428
 31
0.0
  0
LINE
  5
A8C
330
1D
100
AcDbEntity
  8
0
100
AcDbLine
 10
277.396
 20
107.830328
 30
0.0
 11
278.99
 21
109.867628
 31
0.0
  0
LINE
  5
A8D
330
1D
100
AcDbEntity
  8
0
100
AcDbLine
 10
251.818
 20
108.218028
 30
0.0
 11
252.155
 21
107.351328
 31
0.0
  0
LINE
  5
A8E
330
1D
100
AcDbEntity
  8
0
100
AcDbLine
 10
251.327
 20
120.164928
 30
0.0
 11
251.575
 21
121.164828
 31
0.0
  0
LINE
  5
A8F
330
1D
100
AcDbEntity
  8
0
100
AcDbLine
 10
251.875
 20
122.168928
 30
0.0
 11
252.13
 21
122.898328
 31
0.0
  0
LINE
  5
A90
330
1D
100
AcDbEntity
  8
0
100
AcDbLine
 10
251.575
 20
121.164828
 30
0.0
 11
251.875
 21
122.168928
 31
0.0
  0
LINE
  5
A91
330
1D
100
AcDbEntity
  8
0
100
AcDbLine
 10
253.443
 20
125.609528
 30
0.0
 11
253.879
 21
126.246528
 31
0.0
  0
LINE
  5
A92
330
1D
100
AcDbEntity
  8
0
100
AcDbLine
 10
253.443
 20
125.609628
 30
0.0
 11
253.879
 21
126.246728
 31
0.0
  0
LINE
  5
A93
330
1D
100
AcDbEntity
  8
0
100
AcDbLine
 10
253.009
 20
124.863428
 30
0.0
 11
253.443
 21
125.609628
 31
0.0
  0
LINE
  5
A94
330
1D
100
AcDbEntity
  8
0
100
AcDbLine
 10
253.009
 20
124.863428
 30
0.0
 11
253.443
 21
125.609528
 31
0.0
  0
LINE
  5
A95
330
1D
100
AcDbEntity
  8
0
100
AcDbLine
 10
253.879
 20
126.246728
 30
0.0
 11
254.483
 21
126.980628
 31
0.0
  0
LINE
  5
A96
330
1D
100
AcDbEntity
  8
0
100
AcDbLine
 10
253.879
 20
126.246528
 30
0.0
 11
254.483
 21
126.980628
 31
0.0
  0
LINE
  5
A97
330
1D
100
AcDbEntity
  8
0
100
AcDbLine
 10
254.483
 20
126.980628
 30
0.0
 11
255.207
 21
127.676028
 31
0.0
  0
LINE
  5
A98
330
1D
100
AcDbEntity
  8
0
100
AcDbLine
 10
278.99
 20
109.867628
 30
0.0
 11
280.383
 21
112.904528
 31
0.0
  0
LINE
  5
A99
330
1D
100
AcDbEntity
  8
0
100
AcDbLine
 10
279.584
 20
123.582528
 30
0.0
 11
280.009
 21
122.873728
 31
0.0
  0
LINE
  5
A9A
330
1D
100
AcDbEntity
  8
0
100
AcDbLine
 10
279.584
 20
123.582528
 30
0.0
 11
280.009
 21
122.873628
 31
0.0
  0
LINE
  5
A9B
330
1D
100
AcDbEntity
  8
0
100
AcDbLine
 10
277.1
 20
126.306828
 30
0.0
 11
278.001
 21
125.502828
 31
0.0
  0
LINE
  5
A9C
330
1D
100
AcDbEntity
  8
0
100
AcDbLine
 10
277.1
 20
126.306828
 30
0.0
 11
278.001
 21
125.502728
 31
0.0
  0
LINE
  5
A9D
330
1D
100
AcDbEntity
  8
0
100
AcDbLine
 10
276.118
 20
127.036528
 30
0.0
 11
277.1
 21
126.306828
 31
0.0
  0
LINE
  5
A9E
330
1D
100
AcDbEntity
  8
0
100
AcDbLine
 10
276.118
 20
127.036828
 30
0.0
 11
277.1
 21
126.306828
 31
0.0
  0
LINE
  5
A9F
330
1D
100
AcDbEntity
  8
0
100
AcDbLine
 10
278.577
 20
124.898028
 30
0.0
 11
279.105
 21
124.257628
 31
0.0
  0
LINE
  5
AA0
330
1D
100
AcDbEntity
  8
0
100
AcDbLine
 10
278.001
 20
125.502728
 30
0.0
 11
278.577
 21
124.898028
 31
0.0
  0
LINE
  5
AA1
330
1D
100
AcDbEntity
  8
0
100
AcDbLine
 10
278.482610897787
 20
125.300224655351
 30
0.0
 11
279.584
 21
123.582528
 31
0.0
  0
LINE
  5
AA2
330
1D
100
AcDbEntity
  8
0
100
AcDbLine
 10
278.482610897787
 20
125.300224655351
 30
0.0
 11
279.584
 21
123.582528
 31
0.0
  0
LINE
  5
AA3
330
1D
100
AcDbEntity
  8
0
100
AcDbLine
 10
278.577
 20
124.897728
 30
0.0
 11
279.105
 21
124.257628
 31
0.0
  0
LINE
  5
AA4
330
1D
100
AcDbEntity
  8
0
100
AcDbLine
 10
278.001
 20
125.502828
 30
0.0
 11
278.577
 21
124.897728
 31
0.0
  0
LINE
  5
AA5
330
1D
100
AcDbEntity
  8
0
100
AcDbLine
 10
280.009
 20
122.873628
 30
0.0
 11
280.381
 21
122.127528
 31
0.0
  0
LINE
  5
AA6
330
1D
100
AcDbEntity
  8
0
100
AcDbLine
 10
280.381
 20
122.127528
 30
0.0
 11
280.695
 21
121.350328
 31
0.0
  0
LINE
  5
AA7
330
1D
100
AcDbEntity
  8
0
100
AcDbLine
 10
280.381
 20
122.127728
 30
0.0
 11
280.695
 21
121.350528
 31
0.0
  0
LINE
  5
AA8
330
1D
100
AcDbEntity
  8
0
100
AcDbLine
 10
280.009
 20
122.873728
 30
0.0
 11
280.381
 21
122.127728
 31
0.0
  0
LINE
  5
AA9
330
1D
100
AcDbEntity
  8
0
100
AcDbLine
 10
280.383
 20
112.904528
 30
0.0
 11
280.657
 21
113.675928
 31
0.0
  0
LINE
  5
AAA
330
1D
100
AcDbEntity
  8
0
100
AcDbLine
 10
280.657
 20
113.675928
 30
0.0
 11
280.884
 21
114.447628
 31
0.0
  0
LINE
  5
AAB
330
1D
100
AcDbEntity
  8
0
100
AcDbLine
 10
280.657
 20
113.675728
 30
0.0
 11
280.884
 21
114.447628
 31
0.0
  0
LINE
  5
AAC
330
1D
100
AcDbEntity
  8
0
100
AcDbLine
 10
280.884
 20
114.447628
 30
0.0
 11
281.064
 21
115.216928
 31
0.0
  0
LINE
  5
AAD
330
1D
100
AcDbEntity
  8
0
100
AcDbLine
 10
280.695
 20
121.350328
 30
0.0
 11
280.943
 21
120.554828
 31
0.0
  0
LINE
  5
AAE
330
1D
100
AcDbEntity
  8
0
100
AcDbLine
 10
280.943
 20
120.554828
 30
0.0
 11
281.131
 21
119.733428
 31
0.0
  0
LINE
  5
AAF
330
1D
100
AcDbEntity
  8
0
100
AcDbLine
 10
280.943
 20
120.554628
 30
0.0
 11
281.13
 21
119.733428
 31
0.0
  0
LINE
  5
AB0
330
1D
100
AcDbEntity
  8
0
100
AcDbLine
 10
280.695
 20
121.350528
 30
0.0
 11
280.943
 21
120.554628
 31
0.0
  0
LINE
  5
AB1
330
1D
100
AcDbEntity
  8
0
100
AcDbLine
 10
281.064
 20
115.216928
 30
0.0
 11
281.196
 21
115.982228
 31
0.0
  0
LINE
  5
AB2
330
1D
100
AcDbEntity
  8
0
100
AcDbLine
 10
281.196
 20
115.982228
 30
0.0
 11
281.294
 21
116.946928
 31
0.0
  0
LINE
  5
AB3
330
1D
100
AcDbEntity
  8
0
100
AcDbLine
 10
281.310965685498
 20
117.713938562455
 30
0.0
 11
281.315
 21
117.896328
 31
0.0
  0
LINE
  5
AB4
330
1D
100
AcDbEntity
  8
0
100
AcDbLine
 10
281.315
 20
117.896328
 30
0.0
 11
281.338
 21
117.123828
 31
0.0
  0
LINE
  5
AB5
330
1D
100
AcDbEntity
  8
0
100
AcDbLine
 10
281.311505872433
 20
117.702147251213
 30
0.0
 11
281.316
 21
117.896028
 31
0.0
  0
LINE
  5
AB6
330
1D
100
AcDbEntity
  8
0
100
AcDbLine
 10
281.294
 20
116.946928
 30
0.0
 11
281.338
 21
117.123828
 31
0.0
  0
LINE
  5
AB7
330
1D
100
AcDbEntity
  8
0
100
AcDbLine
 10
281.131
 20
119.733428
 30
0.0
 11
281.26
 21
118.826428
 31
0.0
  0
LINE
  5
AB8
330
1D
100
AcDbEntity
  8
0
100
AcDbLine
 10
281.26
 20
118.826428
 30
0.0
 11
281.316
 21
117.896028
 31
0.0
  0
LINE
  5
AB9
330
1D
100
AcDbEntity
  8
0
100
AcDbLine
 10
281.26
 20
118.826428
 30
0.0
 11
281.315
 21
117.896328
 31
0.0
  0
LINE
  5
ABA
330
1D
100
AcDbEntity
  8
0
100
AcDbLine
 10
281.13
 20
119.733428
 30
0.0
 11
281.26
 21
118.826428
 31
0.0
  0
LINE
  5
ABB
330
1D
100
AcDbEntity
  8
0
100
AcDbLine
 10
251.537
 20
109.078428
 30
0.0
 11
251.818
 21
108.218028
 31
0.0
  0
LINE
  5
ABC
330
1D
100
AcDbEntity
  8
0
100
AcDbLine
 10
228.902
 20
128.856128
 30
0.0
 11
229.673
 21
126.483828
 31
0.0
  0
LINE
  5
ABD
330
1D
100
AcDbEntity
  8
0
100
AcDbLine
 10
229.306
 20
128.589128
 30
0.0
 11
229.485
 21
127.808928
 31
0.0
  0
LINE
  5
ABE
330
1D
100
AcDbEntity
  8
0
100
AcDbLine
 10
204.032
 20
132.445628
 30
0.0
 11
206.395
 21
132.861628
 31
0.0
  0
LINE
  5
ABF
330
1D
100
AcDbEntity
  8
0
100
AcDbLine
 10
220.623
 20
131.228828
 30
0.0
 11
224.172555269249
 21
129.621212867028
 31
0.0
  0
LINE
  5
AC0
330
1D
100
AcDbEntity
  8
0
100
AcDbLine
 10
215.322
 20
132.842228
 30
0.0
 11
217.502
 21
132.261128
 31
0.0
  0
LINE
  5
AC1
330
1D
100
AcDbEntity
  8
0
100
AcDbLine
 10
206.395
 20
132.861228
 30
0.0
 11
208.908408393866
 21
133.160318162515
 31
0.0
  0
LINE
  5
AC2
330
1D
100
AcDbEntity
  8
0
100
AcDbLine
 10
217.502
 20
132.261128
 30
0.0
 11
220.623
 21
131.228828
 31
0.0
  0
LINE
  5
AC3
330
1D
100
AcDbEntity
  8
0
100
AcDbLine
 10
208.908408393866
 20
133.160318162515
 30
0.0
 11
211.017148435865
 21
133.178682905012
 31
0.0
  0
LINE
  5
AC4
330
1D
100
AcDbEntity
  8
0
100
AcDbLine
 10
228.655
 20
130.547128
 30
0.0
 11
228.721
 21
133.559828
 31
0.0
  0
LINE
  5
AC5
330
1D
100
AcDbEntity
  8
0
100
AcDbLine
 10
228.655
 20
130.547128
 30
0.0
 11
228.902
 21
128.856128
 31
0.0
  0
LINE
  5
AC6
330
1D
100
AcDbEntity
  8
0
100
AcDbLine
 10
228.721
 20
133.559928
 30
0.0
 11
228.966
 21
135.053828
 31
0.0
  0
LINE
  5
AC7
330
1D
100
AcDbEntity
  8
0
100
AcDbLine
 10
228.655
 20
130.547528
 30
0.0
 11
228.902
 21
128.856628
 31
0.0
  0
LINE
  5
AC8
330
1D
100
AcDbEntity
  8
0
100
AcDbLine
 10
228.655
 20
130.547528
 30
0.0
 11
228.721
 21
133.559928
 31
0.0
  0
LINE
  5
AC9
330
1D
100
AcDbEntity
  8
0
100
AcDbLine
 10
229.115
 20
129.937728
 30
0.0
 11
229.307
 21
128.589028
 31
0.0
  0
LINE
  5
ACA
330
1D
100
AcDbEntity
  8
0
100
AcDbLine
 10
229.058
 20
131.336128
 30
0.0
 11
229.115
 21
129.937528
 31
0.0
  0
LINE
  5
ACB
330
1D
100
AcDbEntity
  8
0
100
AcDbLine
 10
229.058
 20
131.336128
 30
0.0
 11
229.135
 21
132.774628
 31
0.0
  0
LINE
  5
ACC
330
1D
100
AcDbEntity
  8
0
100
AcDbLine
 10
229.058
 20
131.335928
 30
0.0
 11
229.135
 21
132.774628
 31
0.0
  0
LINE
  5
ACD
330
1D
100
AcDbEntity
  8
0
100
AcDbLine
 10
229.058
 20
131.335928
 30
0.0
 11
229.115
 21
129.937728
 31
0.0
  0
LINE
  5
ACE
330
1D
100
AcDbEntity
  8
0
100
AcDbLine
 10
229.346
 20
134.243028
 30
0.0
 11
229.69
 21
135.730428
 31
0.0
  0
LINE
  5
ACF
330
1D
100
AcDbEntity
  8
0
100
AcDbLine
 10
229.135
 20
132.774628
 30
0.0
 11
229.346
 21
134.243128
 31
0.0
  0
LINE
  5
AD0
330
1D
100
AcDbEntity
  8
0
100
AcDbLine
 10
229.135
 20
132.774628
 30
0.0
 11
229.346
 21
134.243028
 31
0.0
  0
LINE
  5
AD1
330
1D
100
AcDbEntity
  8
0
100
AcDbLine
 10
228.966
 20
135.053928
 30
0.0
 11
229.582
 21
137.308328
 31
0.0
  0
LINE
  5
AD2
330
1D
100
AcDbEntity
  8
0
100
AcDbLine
 10
228.966
 20
135.053828
 30
0.0
 11
229.582
 21
137.308328
 31
0.0
  0
LINE
  5
AD3
330
1D
100
AcDbEntity
  8
0
100
AcDbLine
 10
229.69
 20
135.730428
 30
0.0
 11
230.164
 21
137.225728
 31
0.0
  0
LINE
  5
AD4
330
1D
100
AcDbEntity
  8
0
100
AcDbLine
 10
229.69
 20
135.730428
 30
0.0
 11
230.164
 21
137.225828
 31
0.0
  0
LINE
  5
AD5
330
1D
100
AcDbEntity
  8
0
100
AcDbLine
 10
229.582
 20
137.308328
 30
0.0
 11
230.202
 21
138.922428
 31
0.0
  0
LINE
  5
AD6
330
1D
100
AcDbEntity
  8
0
100
AcDbLine
 10
230.203
 20
138.922428
 30
0.0
 11
231.598
 21
141.649128
 31
0.0
  0
LINE
  5
AD7
330
1D
100
AcDbEntity
  8
0
100
AcDbLine
 10
230.164
 20
137.225828
 30
0.0
 11
230.758
 21
138.704528
 31
0.0
  0
LINE
  5
AD8
330
1D
100
AcDbEntity
  8
0
100
AcDbLine
 10
230.164
 20
137.225728
 30
0.0
 11
230.758
 21
138.704528
 31
0.0
  0
LINE
  5
AD9
330
1D
100
AcDbEntity
  8
0
100
AcDbLine
 10
230.758
 20
138.704528
 30
0.0
 11
231.473
 21
140.169828
 31
0.0
  0
LINE
  5
ADA
330
1D
100
AcDbEntity
  8
0
100
AcDbLine
 10
230.758
 20
138.704528
 30
0.0
 11
231.473
 21
140.169928
 31
0.0
  0
LINE
  5
ADB
330
1D
100
AcDbEntity
  8
0
100
AcDbLine
 10
229.346
 20
134.243128
 30
0.0
 11
229.69
 21
135.730428
 31
0.0
  0
LINE
  5
ADC
330
1D
100
AcDbEntity
  8
0
100
AcDbLine
 10
228.721
 20
133.559828
 30
0.0
 11
228.966
 21
135.053928
 31
0.0
  0
LINE
  5
ADD
330
1D
100
AcDbEntity
  8
0
100
AcDbLine
 10
231.473
 20
140.169928
 30
0.0
 11
232.302
 21
141.611228
 31
0.0
  0
LINE
  5
ADE
330
1D
100
AcDbEntity
  8
0
100
AcDbLine
 10
231.473
 20
140.169828
 30
0.0
 11
232.302
 21
141.611428
 31
0.0
  0
LINE
  5
ADF
330
1D
100
AcDbEntity
  8
0
100
AcDbLine
 10
232.302
 20
141.611228
 30
0.0
 11
233.241
 21
143.017628
 31
0.0
  0
LINE
  5
AE0
330
1D
100
AcDbEntity
  8
0
100
AcDbLine
 10
232.302
 20
141.611428
 30
0.0
 11
233.241
 21
143.017628
 31
0.0
  0
LINE
  5
AE1
330
1D
100
AcDbEntity
  8
0
100
AcDbLine
 10
233.396
 20
144.288928
 30
0.0
 11
235.365
 21
146.565428
 31
0.0
  0
LINE
  5
AE2
330
1D
100
AcDbEntity
  8
0
100
AcDbLine
 10
233.241
 20
143.017628
 30
0.0
 11
234.282
 21
144.379828
 31
0.0
  0
LINE
  5
AE3
330
1D
100
AcDbEntity
  8
0
100
AcDbLine
 10
233.241
 20
143.017628
 30
0.0
 11
234.282
 21
144.379728
 31
0.0
  0
LINE
  5
AE4
330
1D
100
AcDbEntity
  8
0
100
AcDbLine
 10
234.282
 20
144.379728
 30
0.0
 11
235.418
 21
145.687228
 31
0.0
  0
LINE
  5
AE5
330
1D
100
AcDbEntity
  8
0
100
AcDbLine
 10
234.282
 20
144.379828
 30
0.0
 11
235.418
 21
145.687028
 31
0.0
  0
LINE
  5
AE6
330
1D
100
AcDbEntity
  8
0
100
AcDbLine
 10
231.598
 20
141.649128
 30
0.0
 11
233.397
 21
144.288828
 31
0.0
  0
LINE
  5
AE7
330
1D
100
AcDbEntity
  8
0
100
AcDbLine
 10
235.418
 20
145.687228
 30
0.0
 11
236.641
 21
146.930228
 31
0.0
  0
LINE
  5
AE8
330
1D
100
AcDbEntity
  8
0
100
AcDbLine
 10
235.418
 20
145.687028
 30
0.0
 11
236.641
 21
146.929928
 31
0.0
  0
LINE
  5
AE9
330
1D
100
AcDbEntity
  8
0
100
AcDbLine
 10
235.364
 20
146.565728
 30
0.0
 11
237.539
 21
148.602428
 31
0.0
  0
LINE
  5
AEA
330
1D
100
AcDbEntity
  8
0
100
AcDbLine
 10
236.641
 20
146.930228
 30
0.0
 11
237.955
 21
148.110428
 31
0.0
  0
LINE
  5
AEB
330
1D
100
AcDbEntity
  8
0
100
AcDbLine
 10
237.539
 20
148.602428
 30
0.0
 11
239.678
 21
150.243228
 31
0.0
  0
LINE
  5
AEC
330
1D
100
AcDbEntity
  8
0
100
AcDbLine
 10
236.641
 20
146.929928
 30
0.0
 11
237.955
 21
148.110428
 31
0.0
  0
LINE
  5
AED
330
1D
100
AcDbEntity
  8
0
100
AcDbLine
 10
237.955
 20
148.110428
 30
0.0
 11
239.01
 21
148.959528
 31
0.0
  0
LINE
  5
AEE
330
1D
100
AcDbEntity
  8
0
100
AcDbLine
 10
239.01
 20
148.959528
 30
0.0
 11
239.956
 21
149.654028
 31
0.0
  0
LINE
  5
AEF
330
1D
100
AcDbEntity
  8
0
100
AcDbLine
 10
239.01
 20
148.959528
 30
0.0
 11
239.956
 21
149.654228
 31
0.0
  0
LINE
  5
AF0
330
1D
100
AcDbEntity
  8
0
100
AcDbLine
 10
239.678
 20
150.243528
 30
0.0
 11
242.35
 21
151.889328
 31
0.0
  0
LINE
  5
AF1
330
1D
100
AcDbEntity
  8
0
100
AcDbLine
 10
255.955
 20
128.234328
 30
0.0
 11
256.637
 21
128.640428
 31
0.0
  0
LINE
  5
AF2
330
1D
100
AcDbEntity
  8
0
100
AcDbLine
 10
257.518
 20
129.058728
 30
0.0
 11
258.248
 21
129.336328
 31
0.0
  0
LINE
  5
AF3
330
1D
100
AcDbEntity
  8
0
100
AcDbLine
 10
256.637
 20
128.640428
 30
0.0
 11
257.518
 21
129.058728
 31
0.0
  0
LINE
  5
AF4
330
1D
100
AcDbEntity
  8
0
100
AcDbLine
 10
239.956
 20
149.654228
 30
0.0
 11
240.927
 21
150.306628
 31
0.0
  0
LINE
  5
AF5
330
1D
100
AcDbEntity
  8
0
100
AcDbLine
 10
239.956
 20
149.654028
 30
0.0
 11
240.927
 21
150.306728
 31
0.0
  0
LINE
  5
AF6
330
1D
100
AcDbEntity
  8
0
100
AcDbLine
 10
258.248
 20
129.336328
 30
0.0
 11
258.969
 21
129.562628
 31
0.0
  0
LINE
  5
AF7
330
1D
100
AcDbEntity
  8
0
100
AcDbLine
 10
240.927
 20
150.306628
 30
0.0
 11
241.919
 21
150.915328
 31
0.0
  0
LINE
  5
AF8
330
1D
100
AcDbEntity
  8
0
100
AcDbLine
 10
240.927
 20
150.306728
 30
0.0
 11
241.919
 21
150.915428
 31
0.0
  0
LINE
  5
AF9
330
1D
100
AcDbEntity
  8
0
100
AcDbLine
 10
241.919
 20
150.915328
 30
0.0
 11
243.442
 21
151.743428
 31
0.0
  0
LINE
  5
AFA
330
1D
100
AcDbEntity
  8
0
100
AcDbLine
 10
242.35
 20
151.889328
 30
0.0
 11
245.336
 21
153.272928
 31
0.0
  0
LINE
  5
AFB
330
1D
100
AcDbEntity
  8
0
100
AcDbLine
 10
243.442
 20
151.743428
 30
0.0
 11
244.995
 21
152.462128
 31
0.0
  0
LINE
  5
AFC
330
1D
100
AcDbEntity
  8
0
100
AcDbLine
 10
241.919
 20
150.915428
 30
0.0
 11
243.442
 21
151.743428
 31
0.0
  0
LINE
  5
AFD
330
1D
100
AcDbEntity
  8
0
100
AcDbLine
 10
273.066
 20
128.666828
 30
0.0
 11
274.09
 21
128.052228
 31
0.0
  0
LINE
  5
AFE
330
1D
100
AcDbEntity
  8
0
100
AcDbLine
 10
261.089
 20
130.020428
 30
0.0
 11
262.135
 21
130.153928
 31
0.0
  0
LINE
  5
AFF
330
1D
100
AcDbEntity
  8
0
100
AcDbLine
 10
261.089
 20
130.020428
 30
0.0
 11
262.135
 21
130.153828
 31
0.0
  0
LINE
  5
B00
330
1D
100
AcDbEntity
  8
0
100
AcDbLine
 10
261.641
 20
151.710328
 30
0.0
 11
262.601
 21
150.878828
 31
0.0
  0
LINE
  5
B01
330
1D
100
AcDbEntity
  8
0
100
AcDbLine
 10
262.135
 20
130.153828
 30
0.0
 11
263.168
 21
130.235428
 31
0.0
  0
LINE
  5
B02
330
1D
100
AcDbEntity
  8
0
100
AcDbLine
 10
262.135
 20
130.153928
 30
0.0
 11
263.168
 21
130.235428
 31
0.0
  0
LINE
  5
B03
330
1D
100
AcDbEntity
  8
0
100
AcDbLine
 10
264.19
 20
130.271028
 30
0.0
 11
265.199
 21
130.263428
 31
0.0
  0
LINE
  5
B04
330
1D
100
AcDbEntity
  8
0
100
AcDbLine
 10
264.19
 20
130.270828
 30
0.0
 11
265.199
 21
130.263428
 31
0.0
  0
LINE
  5
B05
330
1D
100
AcDbEntity
  8
0
100
AcDbLine
 10
263.168
 20
130.235428
 30
0.0
 11
264.19
 21
130.270828
 31
0.0
  0
LINE
  5
B06
330
1D
100
AcDbEntity
  8
0
100
AcDbLine
 10
263.168
 20
130.235428
 30
0.0
 11
264.19
 21
130.271028
 31
0.0
  0
LINE
  5
B07
330
1D
100
AcDbEntity
  8
0
100
AcDbLine
 10
262.095
 20
151.504628
 30
0.0
 11
263.166
 21
150.323028
 31
0.0
  0
LINE
  5
B08
330
1D
100
AcDbEntity
  8
0
100
AcDbLine
 10
262.095
 20
151.504628
 30
0.0
 11
263.166
 21
150.323328
 31
0.0
  0
LINE
  5
B09
330
1D
100
AcDbEntity
  8
0
100
AcDbLine
 10
263.166
 20
150.323328
 30
0.0
 11
263.29796667444
 21
150.11312062675
 31
0.0
  0
LINE
  5
B0A
330
1D
100
AcDbEntity
  8
0
100
AcDbLine
 10
262.601
 20
150.878828
 30
0.0
 11
263.451
 21
149.944828
 31
0.0
  0
LINE
  5
B0B
330
1D
100
AcDbEntity
  8
0
100
AcDbLine
 10
263.451
 20
149.944828
 30
0.0
 11
264.184
 21
148.914828
 31
0.0
  0
LINE
  5
B0C
330
1D
100
AcDbEntity
  8
0
100
AcDbLine
 10
263.166
 20
150.323028
 30
0.0
 11
263.297429331466
 21
150.113711198288
 31
0.0
  0
LINE
  5
B0D
330
1D
100
AcDbEntity
  8
0
100
AcDbLine
 10
262.601
 20
150.879128
 30
0.0
 11
263.451
 21
149.944928
 31
0.0
  0
LINE
  5
B0E
330
1D
100
AcDbEntity
  8
0
100
AcDbLine
 10
263.451
 20
149.944928
 30
0.0
 11
264.184
 21
148.914828
 31
0.0
  0
LINE
  5
B0F
330
1D
100
AcDbEntity
  8
0
100
AcDbLine
 10
264.184
 20
148.914828
 30
0.0
 11
270.416
 21
138.813028
 31
0.0
  0
LINE
  5
B10
330
1D
100
AcDbEntity
  8
0
100
AcDbLine
 10
269.187
 20
129.821828
 30
0.0
 11
270.182
 21
129.602228
 31
0.0
  0
LINE
  5
B11
330
1D
100
AcDbEntity
  8
0
100
AcDbLine
 10
268.203
 20
129.993628
 30
0.0
 11
269.187
 21
129.821828
 31
0.0
  0
LINE
  5
B12
330
1D
100
AcDbEntity
  8
0
100
AcDbLine
 10
242.35
 20
151.889428
 30
0.0
 11
245.337
 21
153.273028
 31
0.0
  0
LINE
  5
B13
330
1D
100
AcDbEntity
  8
0
100
AcDbLine
 10
118.156
 20
160.369328
 30
0.0
 11
119.295
 21
160.479028
 31
0.0
  0
LINE
  5
B14
330
1D
100
AcDbEntity
  8
0
100
AcDbLine
 10
116.615
 20
160.494628
 30
0.0
 11
118.156
 21
160.369328
 31
0.0
  0
LINE
  5
B15
330
1D
100
AcDbEntity
  8
0
100
AcDbLine
 10
119.295
 20
160.479128
 30
0.0
 11
121.852
 21
160.716128
 31
0.0
  0
LINE
  5
B16
330
1D
100
AcDbEntity
  8
0
100
AcDbLine
 10
115.117
 20
161.009528
 30
0.0
 11
116.615
 21
160.494628
 31
0.0
  0
LINE
  5
B17
330
1D
100
AcDbEntity
  8
0
100
AcDbLine
 10
113.313
 20
161.997228
 30
0.0
 11
115.117
 21
161.009528
 31
0.0
  0
LINE
  5
B18
330
1D
100
AcDbEntity
  8
0
100
AcDbLine
 10
110.969
 20
164.146728
 30
0.0
 11
113.313
 21
161.997228
 31
0.0
  0
LINE
  5
B19
330
1D
100
AcDbEntity
  8
0
100
AcDbLine
 10
109.287
 20
166.212328
 30
0.0
 11
110.969
 21
164.146728
 31
0.0
  0
LINE
  5
B1A
330
1D
100
AcDbEntity
  8
0
100
AcDbLine
 10
107.867
 20
168.520828
 30
0.0
 11
109.287
 21
166.212328
 31
0.0
  0
LINE
  5
B1B
330
1D
100
AcDbEntity
  8
0
100
AcDbLine
 10
194.985
 20
170.660028
 30
0.0
 11
197.22
 21
170.987128
 31
0.0
  0
LINE
  5
B1C
330
1D
100
AcDbEntity
  8
0
100
AcDbLine
 10
194.986
 20
170.660428
 30
0.0
 11
197.219
 21
170.987128
 31
0.0
  0
LINE
  5
B1D
330
1D
100
AcDbEntity
  8
0
100
AcDbLine
 10
105.095
 20
176.756828
 30
0.0
 11
105.503595065428
 21
174.087919806674
 31
0.0
  0
LINE
  5
B1E
330
1D
100
AcDbEntity
  8
0
100
AcDbLine
 10
106.588
 20
170.980428
 30
0.0
 11
107.867
 21
168.520828
 31
0.0
  0
LINE
  5
B1F
330
1D
100
AcDbEntity
  8
0
100
AcDbLine
 10
197.219
 20
170.986928
 30
0.0
 11
200.241957216511
 21
171.821866297443
 31
0.0
  0
LINE
  5
B20
330
1D
100
AcDbEntity
  8
0
100
AcDbLine
 10
105.474
 20
174.172728
 30
0.0
 11
106.588
 21
170.980428
 31
0.0
  0
LINE
  5
B21
330
1D
100
AcDbEntity
  8
0
100
AcDbLine
 10
104.968
 20
179.770828
 30
0.0
 11
105.095
 21
176.756828
 31
0.0
  0
LINE
  5
B22
330
1D
100
AcDbEntity
  8
0
100
AcDbLine
 10
104.968
 20
179.770828
 30
0.0
 11
104.968
 21
204.866828
 31
0.0
  0
LINE
  5
B23
330
1D
100
AcDbEntity
  8
0
100
AcDbLine
 10
244.995
 20
152.462128
 30
0.0
 11
246.567
 21
153.066528
 31
0.0
  0
LINE
  5
B24
330
1D
100
AcDbEntity
  8
0
100
AcDbLine
 10
245.336
 20
153.272928
 30
0.0
 11
248.363
 21
154.223928
 31
0.0
  0
LINE
  5
B25
330
1D
100
AcDbEntity
  8
0
100
AcDbLine
 10
248.145
 20
153.551728
 30
0.0
 11
249.719
 21
153.914728
 31
0.0
  0
LINE
  5
B26
330
1D
100
AcDbEntity
  8
0
100
AcDbLine
 10
246.567
 20
153.066528
 30
0.0
 11
248.145
 21
153.551828
 31
0.0
  0
LINE
  5
B27
330
1D
100
AcDbEntity
  8
0
100
AcDbLine
 10
246.567
 20
153.066528
 30
0.0
 11
248.145
 21
153.551728
 31
0.0
  0
LINE
  5
B28
330
1D
100
AcDbEntity
  8
0
100
AcDbLine
 10
248.145
 20
153.551828
 30
0.0
 11
249.719
 21
153.914728
 31
0.0
  0
LINE
  5
B29
330
1D
100
AcDbEntity
  8
0
100
AcDbLine
 10
260.395
 20
152.823228
 30
0.0
 11
262.095
 21
151.504628
 31
0.0
  0
LINE
  5
B2A
330
1D
100
AcDbEntity
  8
0
100
AcDbLine
 10
261.234
 20
152.772028
 30
0.0
 11
263.166
 21
150.323028
 31
0.0
  0
LINE
  5
B2B
330
1D
100
AcDbEntity
  8
0
100
AcDbLine
 10
260.578
 20
152.432828
 30
0.0
 11
261.642
 21
151.710228
 31
0.0
  0
LINE
  5
B2C
330
1D
100
AcDbEntity
  8
0
100
AcDbLine
 10
260.578
 20
152.432828
 30
0.0
 11
261.641
 21
151.710328
 31
0.0
  0
LINE
  5
B2D
330
1D
100
AcDbEntity
  8
0
100
AcDbLine
 10
249.719
 20
153.914728
 30
0.0
 11
251.276
 21
154.152928
 31
0.0
  0
LINE
  5
B2E
330
1D
100
AcDbEntity
  8
0
100
AcDbLine
 10
251.276
 20
154.152928
 30
0.0
 11
252.198
 21
154.235728
 31
0.0
  0
LINE
  5
B2F
330
1D
100
AcDbEntity
  8
0
100
AcDbLine
 10
259.419
 20
153.041528
 30
0.0
 11
260.578
 21
152.432828
 31
0.0
  0
LINE
  5
B30
330
1D
100
AcDbEntity
  8
0
100
AcDbLine
 10
258.173
 20
153.532328
 30
0.0
 11
259.419
 21
153.041528
 31
0.0
  0
LINE
  5
B31
330
1D
100
AcDbEntity
  8
0
100
AcDbLine
 10
257.387
 20
153.768128
 30
0.0
 11
258.173
 21
153.532328
 31
0.0
  0
LINE
  5
B32
330
1D
100
AcDbEntity
  8
0
100
AcDbLine
 10
256.574
 20
153.959528
 30
0.0
 11
257.387
 21
153.768128
 31
0.0
  0
LINE
  5
B33
330
1D
100
AcDbEntity
  8
0
100
AcDbLine
 10
252.198
 20
154.235328
 30
0.0
 11
253.108
 21
154.271828
 31
0.0
  0
LINE
  5
B34
330
1D
100
AcDbEntity
  8
0
100
AcDbLine
 10
254.88
 20
154.207328
 30
0.0
 11
255.738
 21
154.106028
 31
0.0
  0
LINE
  5
B35
330
1D
100
AcDbEntity
  8
0
100
AcDbLine
 10
252.198
 20
154.235728
 30
0.0
 11
253.108
 21
154.272028
 31
0.0
  0
LINE
  5
B36
330
1D
100
AcDbEntity
  8
0
100
AcDbLine
 10
254.88
 20
154.207128
 30
0.0
 11
255.738
 21
154.106028
 31
0.0
  0
LINE
  5
B37
330
1D
100
AcDbEntity
  8
0
100
AcDbLine
 10
255.738
 20
154.106028
 30
0.0
 11
256.574
 21
153.959628
 31
0.0
  0
LINE
  5
B38
330
1D
100
AcDbEntity
  8
0
100
AcDbLine
 10
255.738
 20
154.106028
 30
0.0
 11
256.574
 21
153.959528
 31
0.0
  0
LINE
  5
B39
330
1D
100
AcDbEntity
  8
0
100
AcDbLine
 10
256.574
 20
153.959628
 30
0.0
 11
257.387
 21
153.768428
 31
0.0
  0
LINE
  5
B3A
330
1D
100
AcDbEntity
  8
0
100
AcDbLine
 10
257.387
 20
153.768428
 30
0.0
 11
258.173
 21
153.532028
 31
0.0
  0
LINE
  5
B3B
330
1D
100
AcDbEntity
  8
0
100
AcDbLine
 10
258.406
 20
153.825328
 30
0.0
 11
260.395
 21
152.823228
 31
0.0
  0
LINE
  5
B3C
330
1D
100
AcDbEntity
  8
0
100
AcDbLine
 10
258.407
 20
153.825528
 30
0.0
 11
260.395
 21
152.823528
 31
0.0
  0
LINE
  5
B3D
330
1D
100
AcDbEntity
  8
0
100
AcDbLine
 10
258.173
 20
153.532028
 30
0.0
 11
259.419
 21
153.041728
 31
0.0
  0
LINE
  5
B3E
330
1D
100
AcDbEntity
  8
0
100
AcDbLine
 10
259.419
 20
153.041728
 30
0.0
 11
260.578
 21
152.432828
 31
0.0
  0
LINE
  5
B3F
330
1D
100
AcDbEntity
  8
0
100
AcDbLine
 10
260.395
 20
152.823528
 30
0.0
 11
262.095
 21
151.504628
 31
0.0
  0
LINE
  5
B40
330
1D
100
AcDbEntity
  8
0
100
AcDbLine
 10
248.363
 20
154.223928
 30
0.0
 11
250.826
 21
154.665828
 31
0.0
  0
LINE
  5
B41
330
1D
100
AcDbEntity
  8
0
100
AcDbLine
 10
248.363
 20
154.223928
 30
0.0
 11
250.826
 21
154.665728
 31
0.0
  0
LINE
  5
B42
330
1D
100
AcDbEntity
  8
0
100
AcDbLine
 10
253.108
 20
154.271828
 30
0.0
 11
254.002
 21
154.262528
 31
0.0
  0
LINE
  5
B43
330
1D
100
AcDbEntity
  8
0
100
AcDbLine
 10
250.826
 20
154.665728
 30
0.0
 11
253.806
 21
154.775128
 31
0.0
  0
LINE
  5
B44
330
1D
100
AcDbEntity
  8
0
100
AcDbLine
 10
250.826
 20
154.665828
 30
0.0
 11
253.806
 21
154.775228
 31
0.0
  0
LINE
  5
B45
330
1D
100
AcDbEntity
  8
0
100
AcDbLine
 10
256.212
 20
154.474628
 30
0.0
 11
258.406
 21
153.825328
 31
0.0
  0
LINE
  5
B46
330
1D
100
AcDbEntity
  8
0
100
AcDbLine
 10
253.806
 20
154.775128
 30
0.0
 11
256.212
 21
154.474628
 31
0.0
  0
LINE
  5
B47
330
1D
100
AcDbEntity
  8
0
100
AcDbLine
 10
253.806
 20
154.775228
 30
0.0
 11
256.211
 21
154.475028
 31
0.0
  0
LINE
  5
B48
330
1D
100
AcDbEntity
  8
0
100
AcDbLine
 10
256.211
 20
154.475028
 30
0.0
 11
258.407
 21
153.825528
 31
0.0
  0
LINE
  5
B49
330
1D
100
AcDbEntity
  8
0
100
AcDbLine
 10
253.108
 20
154.272028
 30
0.0
 11
254.002
 21
154.262528
 31
0.0
  0
LINE
  5
B4A
330
1D
100
AcDbEntity
  8
0
100
AcDbLine
 10
254.002
 20
154.262528
 30
0.0
 11
254.88
 21
154.207128
 31
0.0
  0
LINE
  5
B4B
330
1D
100
AcDbEntity
  8
0
100
AcDbLine
 10
254.002
 20
154.262528
 30
0.0
 11
254.88
 21
154.207328
 31
0.0
  0
LINE
  5
B4C
330
1D
100
AcDbEntity
  8
0
100
AcDbLine
 10
245.337
 20
153.273028
 30
0.0
 11
248.363
 21
154.223928
 31
0.0
  0
LINE
  5
B4D
330
1D
100
AcDbEntity
  8
0
100
AcDbLine
 10
200.24195721651
 20
171.821866297442
 30
0.0
 11
201.872
 21
172.738628
 31
0.0
  0
LINE
  5
B4E
330
1D
100
AcDbEntity
  8
0
100
AcDbLine
 10
201.872
 20
172.738628
 30
0.0
 11
203.196
 21
173.893728
 31
0.0
  0
LINE
  5
B4F
330
1D
100
AcDbEntity
  8
0
100
AcDbLine
 10
203.971430387757
 20
174.84715930345
 30
0.0
 11
204.586
 21
175.934828
 31
0.0
  0
LINE
  5
B50
330
1D
100
AcDbEntity
  8
0
100
AcDbLine
 10
204.586
 20
175.934828
 30
0.0
 11
205.551
 21
178.850828
 31
0.0
  0
LINE
  5
B51
330
1D
100
AcDbEntity
  8
0
100
AcDbLine
 10
203.196
 20
173.893728
 30
0.0
 11
203.971430387758
 21
174.847159303451
 31
0.0
  0
LINE
  5
B52
330
1D
100
AcDbEntity
  8
0
100
AcDbLine
 10
205.551
 20
178.850828
 30
0.0
 11
205.967
 21
186.980828
 31
0.0
  0
LINE
  5
B53
330
1D
100
AcDbEntity
  8
0
100
AcDbLine
 10
255.388
 20
170.621828
 30
0.0
 11
257.198
 21
161.676128
 31
0.0
  0
LINE
  5
B54
330
1D
100
AcDbEntity
  8
0
100
AcDbLine
 10
254.78656172498
 20
177.349982190281
 30
0.0
 11
254.912
 21
174.873428
 31
0.0
  0
LINE
  5
B55
330
1D
100
AcDbEntity
  8
0
100
AcDbLine
 10
254.912
 20
174.873428
 30
0.0
 11
255.388
 21
170.621828
 31
0.0
  0
LINE
  5
B56
330
1D
100
AcDbEntity
  8
0
100
AcDbLine
 10
254.786561493419
 20
177.349941624383
 30
0.0
 11
254.912
 21
174.873228
 31
0.0
  0
LINE
  5
B57
330
1D
100
AcDbEntity
  8
0
100
AcDbLine
 10
254.912
 20
174.873228
 30
0.0
 11
255.388
 21
170.621728
 31
0.0
  0
LINE
  5
B58
330
1D
100
AcDbEntity
  8
0
100
AcDbLine
 10
257.198
 20
161.676128
 30
0.0
 11
259.516373370895
 21
155.316433317852
 31
0.0
  0
LINE
  5
B59
330
1D
100
AcDbEntity
  8
0
100
AcDbLine
 10
257.198
 20
161.676128
 30
0.0
 11
259.516373370895
 21
155.316433317852
 31
0.0
  0
LINE
  5
B5A
330
1D
100
AcDbEntity
  8
0
100
AcDbLine
 10
256.962346961085
 20
162.840813850952
 30
0.0
 11
257.287961937034
 21
161.429347019967
 31
0.0
  0
LINE
  5
B5B
330
1D
100
AcDbEntity
  8
0
100
AcDbLine
 10
256.962346961085
 20
162.840813850952
 30
0.0
 11
257.287961937034
 21
161.429347019967
 31
0.0
  0
LINE
  5
B5C
330
1D
100
AcDbEntity
  8
0
100
AcDbLine
 10
205.968
 20
186.980828
 30
0.0
 11
205.968
 21
204.866828
 31
0.0
  0
LINE
  5
B5D
330
1D
100
AcDbEntity
  8
0
100
AcDbLine
 10
104.968
 20
204.866828
 30
0.0
 11
205.968
 21
204.866828
 31
0.0
  0
LINE
  5
B5E
330
1D
100
AcDbEntity
  8
0
100
AcDbLine
 10
104.968
 20
204.866828
 30
0.0
 11
104.968
 21
179.770828
 31
0.0
  0
LINE
  5
B5F
330
1D
100
AcDbEntity
  8
0
100
AcDbLine
 10
104.968
 20
204.866828
 30
0.0
 11
205.968
 21
204.866828
 31
0.0
  0
LINE
  5
B60
330
1D
100
AcDbEntity
  8
0
100
AcDbLine
 10
205.968
 20
204.866828
 30
0.0
 11
205.968
 21
186.980828
 31
0.0
  0
LINE
  5
B61
330
1D
100
AcDbEntity
  8
0
100
AcDbLine
 10
254.968
 20
186.980828
 30
0.0
 11
254.968
 21
204.866828
 31
0.0
  0
LINE
  5
B62
330
1D
100
AcDbEntity
  8
0
100
AcDbLine
 10
254.786561493419
 20
177.349941624383
 30
0.0
 11
254.968
 21
186.980828
 31
0.0
  0
LINE
  5
B63
330
1D
100
AcDbEntity
  8
0
100
AcDbLine
 10
254.968
 20
204.866828
 30
0.0
 11
294.0
 21
204.866828
 31
0.0
  0
LINE
  5
B64
330
1D
100
AcDbEntity
  8
0
100
AcDbLine
 10
294.7
 20
225.866828
 30
0.0
 11
295.0
 21
225.866828
 31
0.0
  0
LINE
  5
B65
330
1D
100
AcDbEntity
  8
0
100
AcDbLine
 10
295.0
 20
225.866828
 30
0.0
 11
295.0
 21
205.866828
 31
0.0
  0
LINE
  5
B66
330
1D
100
AcDbEntity
  8
0
100
AcDbLine
 10
295.0
 20
205.866828
 30
0.0
 11
295.0
 21
225.866828
 31
0.0
  0
LINE
  5
B67
330
1D
100
AcDbEntity
  8
0
100
AcDbLine
 10
294.0
 20
225.866828
 30
0.0
 11
294.7
 21
225.866828
 31
0.0
  0
LINE
  5
B68
330
1D
100
AcDbEntity
  8
0
100
AcDbLine
 10
254.968
 20
204.866828
 30
0.0
 11
254.968
 21
186.980828
 31
0.0
  0
LINE
  5
B69
330
1D
100
AcDbEntity
  8
0
100
AcDbLine
 10
254.968
 20
204.866828
 30
0.0
 11
294.0
 21
204.866828
 31
0.0
  0
LINE
  5
B6A
330
1D
100
AcDbEntity
  8
0
100
AcDbLine
 10
294.0
 20
204.866828
 30
0.0
 11
294.496480316154
 21
205.022922059458
 31
0.0
  0
LINE
  5
B6B
330
1D
100
AcDbEntity
  8
0
100
AcDbLine
 10
294.496480316154
 20
205.022922059458
 30
0.0
 11
294.852094091482
 21
205.400761695743
 31
0.0
  0
LINE
  5
B6C
330
1D
100
AcDbEntity
  8
0
100
AcDbLine
 10
294.852094091482
 20
205.400761695743
 30
0.0
 11
295.0
 21
205.866828
 31
0.0
  0
LINE
  5
B6D
330
1D
100
AcDbEntity
  8
0
100
AcDbLine
 10
211.017148435865
 20
133.178682905012
 30
0.0
 11
215.322
 21
132.842228
 31
0.0
  0
LINE
  5
B6E
330
1D
100
AcDbEntity
  8
0
100
AcDbLine
 10
224.172555269249
 20
129.621212867028
 30
0.0
 11
226.552453698404
 21
128.269479296137
 31
0.0
  0
LINE
  5
B6F
330
1D
100
AcDbEntity
  8
0
100
AcDbLine
 10
226.552453698404
 20
128.269479296137
 30
0.0
 11
228.190412406343
 21
126.94739256177
 31
0.0
  0
LINE
  5
B70
330
1D
100
AcDbEntity
  8
0
100
AcDbLine
 10
205.968
 20
204.866828
 30
0.0
 11
254.968
 21
204.866828
 31
0.0
  0
LINE
  5
B71
330
1D
100
AcDbEntity
  8
0
100
AcDbLine
 10
55.9679
 20
204.866828
 30
0.0
 11
104.968
 21
204.866828
 31
0.0
  0
LINE
  5
B72
330
1D
100
AcDbEntity
  8
0
100
AcDbLine
 10
121.852
 20
160.716228
 30
0.0
 11
194.985
 21
170.660028
 31
0.0
  0
LINE
  5
B75
330
1D
100
AcDbEntity
  8
0
100
AcDbLine
 10
259.516373370895
 20
155.316433317852
 30
0.0
 11
261.234
 21
152.772028
 31
0.0
  0
LINE
  5
B76
330
1D
100
AcDbEntity
  8
0
100
AcDbLine
 10
258.345290279028
 20
100.927449242124
 30
0.0
 11
259.264
 21
100.593428
 31
0.0
  0
LINE
  5
B77
330
1D
100
AcDbEntity
  8
0
100
AcDbLine
 10
278.482610897787
 20
125.300224655351
 30
0.0
 11
270.416
 21
138.813028
 31
0.0
  0
LINE
  5
B78
330
1D
100
AcDbEntity
  8
0
100
AcDbLine
 10
252.961
 20
105.730228
 30
0.0
 11
252.538
 21
106.515928
 31
0.0
  0
LINE
  5
B79
330
1D
100
AcDbEntity
  8
0
100
AcDbLine
 10
251.226
 20
110.271428
 30
0.0
 11
250.893
 21
112.224128
 31
0.0
  0
LINE
  5
B7A
330
1D
100
AcDbEntity
  8
0
100
AcDbLine
 10
252.13
 20
122.898328
 30
0.0
 11
253.009
 21
124.863428
 31
0.0
  0
LINE
  5
B7B
330
1D
100
AcDbEntity
  8
0
100
AcDbLine
 10
255.207
 20
127.676028
 30
0.0
 11
255.955
 21
128.234328
 31
0.0
  0
LINE
  5
B7C
330
1D
100
AcDbEntity
  8
0
100
AcDbLine
 10
258.969
 20
129.562628
 30
0.0
 11
261.089
 21
130.020428
 31
0.0
  0
LINE
  5
B7D
330
1D
100
AcDbEntity
  8
0
100
AcDbLine
 10
268.203
 20
129.993628
 30
0.0
 11
265.199
 21
130.263428
 31
0.0
  0
LINE
  5
B7E
330
1D
100
AcDbEntity
  8
0
100
AcDbLine
 10
270.182
 20
129.602228
 30
0.0
 11
273.066
 21
128.666828
 31
0.0
  0
LINE
  5
B7F
330
1D
100
AcDbEntity
  8
0
100
AcDbLine
 10
276.118
 20
127.036828
 30
0.0
 11
274.09
 21
128.052228
 31
0.0
  0
LINE
  5
B80
330
1D
100
AcDbEntity
  8
0
100
AcDbLine
 10
39.5199
 20
126.612728
 30
0.0
 11
38.391448925917
 21
127.767003675893
 31
0.0
  0
LINE
  5
B81
330
1D
100
AcDbEntity
  8
0
100
AcDbLine
 10
38.391448925917
 20
127.767003675893
 30
0.0
 11
37.146143860321
 21
128.884585145018
 31
0.0
  0
LINE
  5
B82
330
1D
100
AcDbEntity
  8
0
100
AcDbLine
 10
37.146143860321
 20
128.884585145018
 30
0.0
 11
35.975344226
 21
129.714788522082
 31
0.0
  0
LINE
  5
B83
330
1D
100
AcDbEntity
  8
0
100
AcDbLine
 10
35.975344226
 20
129.714788522082
 30
0.0
 11
35.2916
 21
130.183928
 31
0.0
  0
LINE
  5
B84
330
1D
100
AcDbEntity
  8
0
100
AcDbLine
 10
6.78842
 20
98.988128
 30
0.0
 11
7.44611
 21
98.413428
 31
0.0
  0
LINE
  5
B85
330
1D
100
AcDbEntity
  8
0
100
AcDbLine
 10
8.790430000001
 20
97.173527999999
 30
0.0
 11
11.5101
 21
94.439528
 31
0.0
  0
LINE
  5
B86
330
1D
100
AcDbEntity
  8
0
100
AcDbLine
 10
15.4437
 20
89.995728
 30
0.0
 11
13.599000000001
 21
92.156427999999
 31
0.0
  0
LINE
  5
B87
330
1D
100
AcDbEntity
  8
0
100
AcDbLine
 10
21.353982830051
 20
76.796166616996
 30
0.0
 11
20.464
 21
76.208116
 31
0.0
  0
LINE
  5
B88
330
1D
100
AcDbEntity
  8
0
100
AcDbLine
 10
21.0819
 20
77.271718
 30
0.0
 11
21.170288442567
 21
78.231972848896
 31
0.0
  0
LINE
  5
B89
330
1D
100
AcDbEntity
  8
0
100
AcDbLine
 10
21.170288442567
 20
78.231972848896
 30
0.0
 11
21.068
 21
79.326678
 31
0.0
  0
LINE
  5
B8A
330
1D
100
AcDbEntity
  8
0
100
AcDbLine
 10
20.7056
 20
80.928308
 30
0.0
 11
19.984072077709
 21
82.847446875887
 31
0.0
  0
LINE
  5
B8B
330
1D
100
AcDbEntity
  8
0
100
AcDbLine
 10
19.984072077709
 20
82.847446875887
 30
0.0
 11
18.8335
 21
85.305648000001
 31
0.0
  0
LINE
  5
B8C
330
1D
100
AcDbEntity
  8
0
100
AcDbLine
 10
18.3893
 20
86.058128
 30
0.0
 11
17.8418
 21
86.870228
 31
0.0
  0
LINE
  5
B90
330
1D
100
AcDbEntity
  8
0
100
AcDbLine
 10
120.843
 20
110.617828
 30
0.0
 11
204.032
 21
132.445628
 31
0.0
  0
LINE
  5
B91
330
1D
100
AcDbEntity
  8
0
100
AcDbLine
 10
65.162735022596
 20
93.214504814884
 30
0.0
 11
64.298499931213
 21
95.992817220387
 31
0.0
  0
LINE
  5
B92
330
1D
100
AcDbEntity
  8
0
100
AcDbLine
 10
64.298499931213
 20
95.992817220387
 30
0.0
 11
63.20189018979
 21
97.755225733387
 31
0.0
  0
LINE
  5
B93
330
1D
100
AcDbEntity
  8
0
100
AcDbLine
 10
63.20189018979
 20
97.755225733387
 30
0.0
 11
61.713634112145
 21
98.773506207566
 31
0.0
  0
LINE
  5
B94
330
1D
100
AcDbEntity
  8
0
100
AcDbLine
 10
61.713634112145
 20
98.773506207566
 30
0.0
 11
60.480254126745
 21
99.076726144438
 31
0.0
  0
LINE
  5
B95
330
1D
100
AcDbEntity
  8
0
100
AcDbLine
 10
60.480254126745
 20
99.076726144438
 30
0.0
 11
59.35209562833
 21
99.208796823614
 31
0.0
  0
LINE
  5
B96
330
1D
100
AcDbEntity
  8
0
100
AcDbLine
 10
59.35209562833
 20
99.208796823614
 30
0.0
 11
58.832179379988
 21
99.089275846984
 31
0.0
  0
LINE
  5
B97
330
1D
100
AcDbEntity
  8
0
100
AcDbLine
 10
61.226251706994
 20
100.440315633532
 30
0.0
 11
62.685544786493
 21
100.987719454286
 31
0.0
  0
LINE
  5
B98
330
1D
100
AcDbEntity
  8
0
100
AcDbLine
 10
62.685544786493
 20
100.987719454286
 30
0.0
 11
64.91489741003
 21
101.558651223728
 31
0.0
  0
LINE
  5
B99
330
1D
100
AcDbEntity
  8
0
100
AcDbLine
 10
64.91489741003
 20
101.558651223728
 30
0.0
 11
67.035501125101
 21
101.884897949124
 31
0.0
  0
ENDSEC
  0
SECTION
  2
OBJECTS
  0
DICTIONARY
  5
C
330
0
100
AcDbDictionary
281
     1
  3
ACAD_GROUP
350
D
  3
ACAD_LAYOUT
350
1A
  3
ACAD_MLEADERSTYLE
350
B9C
  3
ACAD_MLINESTYLE
350
17
  3
ACAD_PLOTSETTINGS
350
19
  3
ACAD_PLOTSTYLENAME
350
E
  3
ACAD_SCALELIST
350
6D9
  3
AcDbVariableDictionary
350
B9A
  3
DWGPROPS
350
B9F
  0
DICTIONARY
  5
D
102
{ACAD_REACTORS
330
C
102
}
330
C
100
AcDbDictionary
281
     1
  0
DICTIONARY
  5
1A
102
{ACAD_REACTORS
330
C
102
}
330
C
100
AcDbDictionary
281
     1
  3
Layout1
350
1C
  3
Model
350
1E
  0
DICTIONARY
  5
B9C
102
{ACAD_REACTORS
330
C
102
}
330
C
100
AcDbDictionary
281
     1
  0
DICTIONARY
  5
17
102
{ACAD_REACTORS
330
C
102
}
330
C
100
AcDbDictionary
281
     1
  3
Standard
350
18
  0
DICTIONARY
  5
19
102
{ACAD_REACTORS
330
C
102
}
330
C
100
AcDbDictionary
281
     1
  0
ACDBDICTIONARYWDFLT
  5
E
102
{ACAD_REACTORS
330
C
102
}
330
C
100
AcDbDictionary
281
     1
  3
Normal
350
F
100
AcDbDictionaryWithDefault
340
F
  0
DICTIONARY
  5
6D9
102
{ACAD_REACTORS
330
C
102
}
330
C
100
AcDbDictionary
281
     1
  3
A0
350
6DA
  3
A1
350
6DB
  3
A2
350
6DC
  3
A3
350
6DD
  3
A4
350
6DE
  3
A5
350
6DF
  3
A6
350
6E0
  3
A7
350
6E1
  3
A8
350
6E2
  3
A9
350
6E3
  3
B0
350
6E4
  3
B1
350
6E5
  3
B2
350
6E6
  3
B3
350
6E7
  3
B4
350
6E8
  3
B5
350
6E9
  3
B6
350
6EA
  3
B7
350
6EB
  3
B8
350
6EC
  3
B9
350
6ED
  3
C0
350
6EE
  3
C1
350
6EF
  3
C2
350
6F0
  3
C3
350
6F1
  3
C4
350
6F2
  3
C5
350
6F3
  3
C6
350
6F4
  3
C7
350
6F5
  3
C8
350
6F6
  3
C9
350
6F7
  3
D0
350
6F8
  3
D1
350
6F9
  3
D2
350
6FA
  0
DICTIONARY
  5
B9A
102
{ACAD_REACTORS
330
C
102
}
330
C
100
AcDbDictionary
281
     1
  3
CANNOSCALE
350
B9D
  0
XRECORD
  5
B9F
102
{ACAD_REACTORS
330
C
102
}
330
C
100
AcDbXrecord
280
     1
  1
DWGPROPS COOKIE
  2

  3

  4

  6

  7

  8
MARTIN
  9

300
=
301
=
302
=
303
=
304
=
305
=
306
=
307
=
308
=
309
=
 40
0.0
 41
2456184.765564664
 42
2456184.767154479
  1

 90
        0
  0
LAYOUT
  5
1C
102
{ACAD_REACTORS
330
1A
102
}
330
1A
100
AcDbPlotSettings
  1

  2
none_device
  4

  6

 40
0.0
 41
0.0
 42
0.0
 43
0.0
 44
0.0
 45
0.0
 46
0.0
 47
0.0
 48
0.0
 49
0.0
140
0.0
141
0.0
142
1.0
143
1.0
 70
   688
 72
     0
 73
     0
 74
     5
  7

 75
    16
147
1.0
148
0.0
149
0.0
100
AcDbLayout
  1
Layout1
 70
     1
 71
     1
 10
0.0
 20
0.0
 11
12.0
 21
9.0
 12
0.0
 22
0.0
 32
0.0
 14
1.000000000000E+20
 24
1.000000000000E+20
 34
1.000000000000E+20
 15
-1.000000000000E+20
 25
-1.000000000000E+20
 35
-1.000000000000E+20
146
0.0
 13
0.0
 23
0.0
 33
0.0
 16
1.0
 26
0.0
 36
0.0
 17
0.0
 27
1.0
 37
0.0
 76
     0
330
1B
  0
LAYOUT
  5
1E
102
{ACAD_REACTORS
330
1A
102
}
330
1A
100
AcDbPlotSettings
  1

  2
none_device
  4

  6

 40
0.0
 41
0.0
 42
0.0
 43
0.0
 44
0.0
 45
0.0
 46
0.0
 47
0.0
 48
0.0
 49
0.0
140
0.0
141
0.0
142
1.0
143
1.0
 70
  1712
 72
     0
 73
     0
 74
     0
  7

 75
     0
147
1.0
148
0.0
149
0.0
100
AcDbLayout
  1
Model
 70
     1
 71
     0
 10
0.0
 20
0.0
 11
12.0
 21
9.0
 12
0.0
 22
0.0
 32
0.0
 14
0.0
 24
0.133172
 34
0.0
 15
295.0
 25
225.866828
 35
0.0
146
0.0
 13
0.0
 23
0.0
 33
0.0
 16
1.0
 26
0.0
 36
0.0
 17
0.0
 27
1.0
 37
0.0
 76
     0
330
1D
331
6D4
  0
MLINESTYLE
  5
18
102
{ACAD_REACTORS
330
17
102
}
330
17
100
AcDbMlineStyle
  2
Standard
 70
     0
  3

 62
   256
 51
90.0
 52
90.0
 71
     2
 49
0.5
 62
   256
  6
BYLAYER
 49
-0.5
 62
   256
  6
BYLAYER
  0
ACDBPLACEHOLDER
  5
F
102
{ACAD_REACTORS
330
E
102
}
330
E
  0
SCALE
  5
6DA
102
{ACAD_REACTORS
330
6D9
102
}
330
6D9
100
AcDbScale
 70
     0
300
1:1
140
1.0
141
1.0
290
     1
  0
SCALE
  5
6DB
102
{ACAD_REACTORS
330
6D9
102
}
330
6D9
100
AcDbScale
 70
     0
300
1:2
140
1.0
141
2.0
290
     0
  0
SCALE
  5
6DC
102
{ACAD_REACTORS
330
6D9
102
}
330
6D9
100
AcDbScale
 70
     0
300
1:4
140
1.0
141
4.0
290
     0
  0
SCALE
  5
6DD
102
{ACAD_REACTORS
330
6D9
102
}
330
6D9
100
AcDbScale
 70
     0
300
1:5
140
1.0
141
5.0
290
     0
  0
SCALE
  5
6DE
102
{ACAD_REACTORS
330
6D9
102
}
330
6D9
100
AcDbScale
 70
     0
300
1:8
140
1.0
141
8.0
290
     0
  0
SCALE
  5
6DF
102
{ACAD_REACTORS
330
6D9
102
}
330
6D9
100
AcDbScale
 70
     0
300
1:10
140
1.0
141
10.0
290
     0
  0
SCALE
  5
6E0
102
{ACAD_REACTORS
330
6D9
102
}
330
6D9
100
AcDbScale
 70
     0
300
1:16
140
1.0
141
16.0
290
     0
  0
SCALE
  5
6E1
102
{ACAD_REACTORS
330
6D9
102
}
330
6D9
100
AcDbScale
 70
     0
300
1:20
140
1.0
141
20.0
290
     0
  0
SCALE
  5
6E2
102
{ACAD_REACTORS
330
6D9
102
}
330
6D9
100
AcDbScale
 70
     0
300
1:30
140
1.0
141
30.0
290
     0
  0
SCALE
  5
6E3
102
{ACAD_REACTORS
330
6D9
102
}
330
6D9
100
AcDbScale
 70
     0
300
1:40
140
1.0
141
40.0
290
     0
  0
SCALE
  5
6E4
102
{ACAD_REACTORS
330
6D9
102
}
330
6D9
100
AcDbScale
 70
     0
300
1:50
140
1.0
141
50.0
290
     0
  0
SCALE
  5
6E5
102
{ACAD_REACTORS
330
6D9
102
}
330
6D9
100
AcDbScale
 70
     0
300
1:100
140
1.0
141
100.0
290
     0
  0
SCALE
  5
6E6
102
{ACAD_REACTORS
330
6D9
102
}
330
6D9
100
AcDbScale
 70
     0
300
2:1
140
2.0
141
1.0
290
     0
  0
SCALE
  5
6E7
102
{ACAD_REACTORS
330
6D9
102
}
330
6D9
100
AcDbScale
 70
     0
300
4:1
140
4.0
141
1.0
290
     0
  0
SCALE
  5
6E8
102
{ACAD_REACTORS
330
6D9
102
}
330
6D9
100
AcDbScale
 70
     0
300
8:1
140
8.0
141
1.0
290
     0
  0
SCALE
  5
6E9
102
{ACAD_REACTORS
330
6D9
102
}
330
6D9
100
AcDbScale
 70
     0
300
10:1
140
10.0
141
1.0
290
     0
  0
SCALE
  5
6EA
102
{ACAD_REACTORS
330
6D9
102
}
330
6D9
100
AcDbScale
 70
     0
300
100:1
140
100.0
141
1.0
290
     0
  0
SCALE
  5
6EB
102
{ACAD_REACTORS
330
6D9
102
}
330
6D9
100
AcDbScale
 70
     0
300
1/128" = 1'-0"
140
0.0078125
141
12.0
290
     0
  0
SCALE
  5
6EC
102
{ACAD_REACTORS
330
6D9
102
}
330
6D9
100
AcDbScale
 70
     0
300
1/64" = 1'-0"
140
0.015625
141
12.0
290
     0
  0
SCALE
  5
6ED
102
{ACAD_REACTORS
330
6D9
102
}
330
6D9
100
AcDbScale
 70
     0
300
1/32" = 1'-0"
140
0.03125
141
12.0
290
     0
  0
SCALE
  5
6EE
102
{ACAD_REACTORS
330
6D9
102
}
330
6D9
100
AcDbScale
 70
     0
300
1/16" = 1'-0"
140
0.0625
141
12.0
290
     0
  0
SCALE
  5
6EF
102
{ACAD_REACTORS
330
6D9
102
}
330
6D9
100
AcDbScale
 70
     0
300
3/32" = 1'-0"
140
0.09375
141
12.0
290
     0
  0
SCALE
  5
6F0
102
{ACAD_REACTORS
330
6D9
102
}
330
6D9
100
AcDbScale
 70
     0
300
1/8" = 1'-0"
140
0.125
141
12.0
290
     0
  0
SCALE
  5
6F1
102
{ACAD_REACTORS
330
6D9
102
}
330
6D9
100
AcDbScale
 70
     0
300
3/16" = 1'-0"
140
0.1875
141
12.0
290
     0
  0
SCALE
  5
6F2
102
{ACAD_REACTORS
330
6D9
102
}
330
6D9
100
AcDbScale
 70
     0
300
1/4" = 1'-0"
140
0.25
141
12.0
290
     0
  0
SCALE
  5
6F3
102
{ACAD_REACTORS
330
6D9
102
}
330
6D9
100
AcDbScale
 70
     0
300
3/8" = 1'-0"
140
0.375
141
12.0
290
     0
  0
SCALE
  5
6F4
102
{ACAD_REACTORS
330
6D9
102
}
330
6D9
100
AcDbScale
 70
     0
300
1/2" = 1'-0"
140
0.5
141
12.0
290
     0
  0
SCALE
  5
6F5
102
{ACAD_REACTORS
330
6D9
102
}
330
6D9
100
AcDbScale
 70
     0
300
3/4" = 1'-0"
140
0.75
141
12.0
290
     0
  0
SCALE
  5
6F6
102
{ACAD_REACTORS
330
6D9
102
}
330
6D9
100
AcDbScale
 70
     0
300
1" = 1'-0"
140
1.0
141
12.0
290
     0
  0
SCALE
  5
6F7
102
{ACAD_REACTORS
330
6D9
102
}
330
6D9
100
AcDbScale
 70
     0
300
1-1/2" = 1'-0"
140
1.5
141
12.0
290
     0
  0
SCALE
  5
6F8
102
{ACAD_REACTORS
330
6D9
102
}
330
6D9
100
AcDbScale
 70
     0
300
3" = 1'-0"
140
3.0
141
12.0
290
     0
  0
SCALE
  5
6F9
102
{ACAD_REACTORS
330
6D9
102
}
330
6D9
100
AcDbScale
 70
     0
300
6" = 1'-0"
140
6.0
141
12.0
290
     0
  0
SCALE
  5
6FA
102
{ACAD_REACTORS
330
6D9
102
}
330
6D9
100
AcDbScale
 70
     0
300
1'-0" = 1'-0"
140
12.0
141
12.0
290
     0
  0
DICTIONARYVAR
  5
B9D
102
{ACAD_REACTORS
330
B9A
102
}
330
B9A
100
DictionaryVariables
280
     0
  1
1:1
  0
ENDSEC
  0
SECTION
  2
THUMBNAILIMAGE
 90
    16364
310
28000000B40000005500000001000800000000000000000000000000000000000000000000000000FFFFFF000000FF0000FFFF0000FF0000FFFF0000FF000000FF00FF000000000080808000C0C0C0000000FF007F7FFF000000A5005252A50000007F003F3F7F0000004C0026264C000000260013132600003FFF007F9FFF
310
000029A5005267A500001F7F003F4F7F0000134C00262F4C000009260013172600007FFF007FBFFF000052A500527CA500003F7F003F5F7F0000264C0026394C0000132600131C260000BFFF007FDFFF00007CA5005291A500005F7F003F6F7F0000394C0026424C00001C26001321260000FFFF007FFFFF0000A5A50052A5
310
A500007F7F003F7F7F00004C4C00264C4C00002626001326260000FFBF007FFFDF0000A57C0052A59100007F5F003F7F6F00004C3900264C420000261C001326210000FF7F007FFFBF0000A5520052A57C00007F3F003F7F5F00004C2600264C39000026130013261C0000FF3F007FFF9F0000A5290052A56700007F1F003F
310
7F4F00004C1300264C2F00002609001326170000FF00007FFF7F0000A5000052A55200007F00003F7F3F00004C0000264C260000260000132613003FFF00009FFF7F0029A5000067A552001F7F00004F7F3F00134C00002F4C260009260000172613007FFF0000BFFF7F0052A500007CA552003F7F00005F7F3F00264C0000
310
394C2600132600001C261300BFFF0000DFFF7F007CA5000091A552005F7F00006F7F3F00394C0000424C26001C26000021261300FFFF0000FFFF7F00A5A50000A5A552007F7F00007F7F3F004C4C00004C4C26002626000026261300FFBF0000FFDF7F00A57C0000A59152007F5F00007F6F3F004C3900004C422600261C00
310
0026211300FF7F0000FFBF7F00A5520000A57C52007F3F00007F5F3F004C2600004C39260026130000261C1300FF3F0000FF9F7F00A5290000A56752007F1F00007F4F3F004C1300004C2F26002609000026171300FF000000FF7F7F00A5000000A55252007F0000007F3F3F004C0000004C2626002600000026131300FF00
310
3F00FF7F9F00A5002900A55267007F001F007F3F4F004C0013004C262F002600090026131700FF007F00FF7FBF00A5005200A5527C007F003F007F3F5F004C0026004C2639002600130026131C00FF00BF00FF7FDF00A5007C00A55291007F005F007F3F6F004C0039004C26420026001C0026132100FF00FF00FF7FFF00A5
310
00A500A552A5007F007F007F3F7F004C004C004C264C002600260026132600BF00FF00DF7FFF007C00A5009152A5005F007F006F3F7F0039004C0042264C001C002600211326007F00FF00BF7FFF005200A5007C52A5003F007F005F3F7F0026004C0039264C00130026001C1326003F00FF009F7FFF002900A5006752A500
310
1F007F004F3F7F0013004C002F264C000900260017132600000000002D2D2D005B5B5B0089898900B7B7B700B3B3B30000000000000000000000000000000000000000000000000000000000000000000000000000000000000000000000000000000000000000000000000000000000000707070707070700000000000000
310
00000000000000000000000000000000000000000000000000000000000000000000000000000000000000000000000000000000000000000000000000000000000000000000000000000000000000000000000000000000000000000000000000000000000000000000000000000000000000000000000000000000000000
310
00000000000000000000000000000000000000000000000000000000000000000000000007070700000000000000070700000000000000000000000000000000000000000000000000000000000000000000000000000000000000000000000000000000000000000000000000000000000000000000000000000000000000
310
00000000000000000000000000000000000000000000000000000000000000000000000000000000000000000000000000000000000000000000000000000000000000000000000000000000000000000000000000000000000700000000000000000000070000000000000000000000000000000000000000000000000000
310
00000000000000000000000000000000000000000000000000000000000000000000000000000000000000000000000000000000000000000000000000000000000000000000000000000000000000000000000000000000000000000000000000000000000000000000000000000000000000000000000000000000000000
310
00000000000000000000000000000007000000000000000000000007000000000000000000000000000000000000000000000000000000000000000000000000000000000000000000000000000000000000000000000000000000000000000000000000000000000000000000000000000000000000000000000000000000
310
00000000000000000000000000000000000000000000000000000000000000000000000000000000000000000000000000000000000000000000000000000000000000000700000000000000000000000700000000000000000000000000000000000000000000000000000000000000000000000000000000000000000000
310
00000000000000000000000000000000000000000000000000000000000000000000000000000000000000000000000000000000000000000000000000000000000000000000000000000000000000000000000000000000000000000000000000000000000000000000000000000000000000000000000000070000000000
310
00000000000007000000000000000000000000000000000000000000000000000000000000000000000000000000000000000000000000000000000000000000000000000000000000000000000000000000000000000000000000000000000000000000000000000000000000000000000000000000000000000000000000
310
00000000000000000000000000000000000000000000000000000000000000000000000000000000000000000000000700000000000000000000000700000000000000000000000000000000000000000000000000000000000000000000000000000000000000000000000000000000000000000000000000000000000000
310
00000000000000000000000000000000000000000000000000000000000000000000000000000000000000000000000000000000000000000000000000000000000000000000000000000000000000000000000000000000000000000000000000000000070000000000000000000000070000000000000000000000000000
310
00000000000000000000000000000000000000000000000000000000000000000000000000000000000000000000000000000000000000000000000000000000000000000000000000000000000000000000000000000000000000000000000000000000000000000000000000000000000000000000000000000000000000
310
00000000000000000000000000000000000000000000000000000700000000000000000000000700000000000000000000000000000000000000000000000000000000000000000000000000000000000000000000000000000000000000000000000000000000000000000000000000000000000000000000000000000000
310
00000000000000000000000000000000000000000000000000000000000000000000000000000000000000000000000000000000000000000000000000000000000000000000000000000000000007000000000000000000000000070000000000000000000000000000000000000000000000000000000000000000000000
310
00000000000000000000000000000000000000000000000000000000000000000000000000000000000000000000000000000000000000000000000000000000000000000000000000000000000000000000000000000000000000000000000000000000000000000000000000000000000000000000000000000000000000
310
00000000070000000000000000000000000700000000000000000000000000000000000000000000000000000000000000000000000000000000000000000000000000000000000000000000000000000000000000000000000000000000000000000000000000000000000000000000000000000000000000000000000000
310
00000000000000000000000000000000000000000000000000000000000000000000000000000000000000000000000000000000000000000007000000000000000000000000070000000000000000000000000000000000000000000000000000000000000000000000000000000000000000000000000000000000000000
310
00000000000000000000000000000000000000000000000000000000000000000000000000000000000000000000000000000000000000000000000000000000000000000000000000000000000000000000000000000000000000000000000000000000000000000000000000000700000000000000000000000007000000
310
00000000000000000000000000000000000000000000000000000000000000000000000000000000000000000000000000000000000000000000000000000000000000000000000000000000000000000000000000000000000000000000000000000000000000000000000000000000000000000000000000000000000000
310
00000000000000000000000000000000000000000000000000000000000000000000000007000000000000000000000000070000000000000000000000000000000000000000000000000000000000000000000000000000000000000000000000000000000000000000000000000000000000000000000000000000000000
310
00000000000000000000000000000000000000000000000000000000000000000000000000000000000000000000000000000000000000000000000000000000000000000000000000000000000000000000000000000000000700000000000000000000000007000000000000000000000000000000000000000000000000
310
00000000000000000000000000000000000000000000000000000000000000000000000000000000000000000000000000000000000000000000000000000000000000000000000000000000000000000000000000000000000000000000000000000000000000000000000000000000000000000000000000000000000000
310
00000000000000000000000000000007000000000000000000000000070000000000000000000000000000000000000000000000000000000000000000000000000000000000000000000000000000000000000000000000000000000000000000000000000000000000000000000000000000000000000000000000000000
310
00000000000000000000000000000000000000000000000000000000000000000000000000000000000000000000000000000000000000000000000000000000000000000700000000000000000000000007000000000000000000000000000000000000000000000000000000000000000000000000000000000000000000
310
00000000000000000000000000000000000000000000000000000000000000000000000000000000000000000000000000000000000000000000000000000000000000000000000000000000000000000000000000000000000000000000000000000000000000000000000000000000000000000000000000070000000000
310
00000000000000070000000000000000000000000000000000000000000000000000000000000000000000000000000000000000000000000000000000000000000000000000000000000000000000000000000000000000000000000000000000000000000000000000000000000000000000000000000000000000000000
310
00000000000000000000000000000000000000000000000000000000000000000000000000000000000000000000000700000000000000000000000007000000000000000000000000000000000000000000000000000000000000000000000000000000000000000000000000000000000000000000000000000000000000
310
00000000000000000000000000000000000000000000000000000000000000000000000000000000000000000000000000000000000000000000000000000000000000000000000000000000000000000000000000000000000000000000000000000007000000000000000000000000000007000000000000000000000000
310
00000000000000000000000000000000000000000000000000000000000000000000000000000000000000000000000000000000000000000000000000000000000000000000000000000000000000000000000000000000000000000000000000000000000000000000000000000000000000000000000000000000000000
310
00000000000000000000000000000000000000000000000000070000000000000000000000000000070000000000000000000000000000000000000000000000000000000000000000000000000000000000000000000000000000000000000000000000000000000000000000000000000000000000000000000000000000
310
00000000000000000000000000000000000000000000000000000000000000000000000000000000000000000000000000000000000000000000000000000000000000000000000000000000000007000000000000000000000000000007000000000000000000000000000000000000000000000000000000000000000000
310
00000000000000000000000000000000000000000000000000000000000000000000000000000000000000000000000000000000000000000000000000000000000000000000000000000000000000000000000000000000000000000000000000000000000000000000000000000000000000000000000000000000000000
310
00000000070000000000000000000000000000070000000000000000000000000000000000000000000000000000000000000000000000000000000000000000000000000000000000000000000000000000000000000000000000000000000000000000000000000000000000000000000000000000000000000000000000
310
00000000000000000000000000000000000000000000000000000000000000000000000000000000000000000000000000000000000000000007000000000000000000000000000007000000000000000000000000000000000000000000000000000000000000000000000000000000000000000000000000000000000000
310
00000000000000000000000000000000000000000000000000000000000000000000000000000000000000000000000000000000000000000000000000000000000000000000000000000000000000000000000000000000000000000000000000000000000000000000000000000700000000000000000000000000000700
310
00000000000000000000000000000000000000000000000000000000000000000000000000000000000000000000000000000000000000000000000000000000000000000000000000000000000000000000000000000000000000000000000000000000000000000000000000000000000000000000000000000000000000
310
00000000000000000000000000000000000000000000000000000000000000000000000007000000000000000000000000000007000000000000000000000000000000000000000000000000000000000000000000000000000000000000000000000000000000000000000000000000000000000000000000000000000000
310
00000000000000000000000000000000000000000000000000000000000000000000000000000000000000000000000000000000000000000000000000000000000000000000000000000000000000000000000000000000000700000000000000000000000000000700000000000000000000000000000000000000000000
310
00000000000000000000000000000000000000000000000000000000000000000000000000000000000000000000000000000000000000000000000000000000000000000000000000000000000000000000000000000000000000000000000000000000000000000000000000000000000000000000000000000000000000
310
00000000000000000000000000000007000000000000000000000000000007000000000000000000000000000000000000000000000000000000000000000000000000000000000000000000000000000000000000000000000000000000000000000000000000000000000000000000000000000000000000000000000000
310
00000000000000000000000000000000000000000000000000000000000000000000000000000000000000000000000000000707000000000000000000000000000000000700000000000000000000000000000700000000000000000000000000000000000000000000000000000000000000000000000000000000000000
310
00000000000000000000000000000000000000000000000000000000000000000000000000000000000000000000000000000000000000000000000000000000000000000000000000000000000000000000000000000000000000000000000000000000000707000707070000000000000000000000000000070000000000
310
00000000000000000007000000000000000000000000000000000000000000000000000000000000000000000000000000000000000000000000000000000000000000000000000000000000000000000000000000000000000000000000000000000000000000000000000000000000000000000000000000000000000000
310
00000000000000000000000000000000000000000000000000000707000007000007070000000000000000000000000700000000000000000000000000000700000000000000000000000000000000000000000000000000000000000000000000000000000000000000000000000000000000000000000000000000000000
310
00000000000000000000000000000000000000000000000000000000000000000000000000000000000000000000000000000000000000000000000000000000000000000000000000000000000000070000000000000000070700000000000000000000070000000000000000000000000000070000000000000000000000
310
00000000000000000000000000000000000000000000000000000000000000000000000000000000000000000000000000000000000000000000000000000000000000000000000000000000000000000000000000000000000000000000000000000000000000000000000000000000000000000000000000000000000000
310
00000000070000000700000000000000070000000000000000000700000000000000000000000000000700000000000000000000000000000000000000000000000000000000000000000000000000000000000000000000000000000000000000000000000000000000000000000000000000000000000000000000000000
310
00000000000000000000000000000000000000000000000000000000000000000000000000000000000000000000000000000000000000000707000007070000000000000000070700000000000000070000000000000000000000000000070000000000000000000000000000000000000000000000000000000000000000
310
00000000000000000000000000000000000000000000000000000000000000000000000000000000000000000000000000000000000000000000000000000000000000000000000000000000000000000000000000000000000000000000000000000000000000000000000000070000070000000000000000000000000700
310
00000000000700000000000000000000000000000007000000000000000000000000000000000000000000000000000000000000000000000000000000000000000000000000000000000000000000000000000000000000000000000000000000000000000000000000000000000000000000000000000000000000000000
310
00000000000000000000000000000000000000000000000000000000000000000000070000000700000000000000000000000000070700000007000000000000000000000000000000000700000000000000000000000000000000000000000000000000000000000000000000000000000000000000000000000000000000
310
00000000000000000000000000000000000000000000000000000000000000000000000000000000000000000000000000000000000000000000000000000000000000000000000000000000000000000000000000000007000707000000000000000000000000000000000707070700000000000000000000000000000000
310
07000000000000000000000000000000000000000000000000000000000000000000000000000000000000000000000000000000000000000000000000000000000000000000000000000000000000000000000000000000000000000000000000000000000000000000000000000000000000000000000000000000000000
310
00000000000000000000000000070707000000000000000000000000000000000007070707070000000000000000000000000000000700000000000000000000000000000000000000000000000000000000000000000000000000000000000000000000000000000000000707070707070000000000000000000000000000
310
00000000000000000000000000000000000000000000000000000000000000000000000000000000000000000000000000000000000000000000000000000000000007000000000000000000000000000000000000000700000000000000000000000000000000000000070000000000000000000000000000000000000000
310
00000000000000000000000000000000000000000000000000000000000000000707000000000707000000000000000000000000000000000000000000000000000000000000000000000000000000000000000000000000000000000000000000000000000000000000000000000000000000000000000007070000000000
310
00000000000000000000000007000000000000000000000000000000000000000007000000000000000000000000000000000000000000000000000000000000000000000000000000000000000000000000000000070000000000000007000000000000000000000000000000000000000000000000000000000000000000
310
00000000000000000000000000000000000000000000000000000000000000000000000000000000000000000000000007000000000000000000000000000000070700000000000000000000000000000000000000000007070700000000000000000000000000000000000000000000000000000000000000000000000000
310
00000000000000000000070000000000000000000707000000000000000000000000000000000000000000000000000000000000000000000000000000000000000000000000000000000000000000000000000000000000000000000000000000000000000007000000000000000000000000000707000000000000000000
310
00000000000000000000000000000007070000000000000000000000000000000000000000000000000000000000000000000000000000000000000000000707000000000000000000000700000000000000000000000000000000000000000000000000000000000000000000000000000000000000000000000000000000
310
00000000000000000000000000000000000000000000000000000000000700000000000000000000000007000000000000000000000000000000000000000000000000000000070707070000000000000000000000000000000000000000000000000000000000000000000000000000000007000700000000000000000000
310
07000000000000000000000000000000000000000000000000000000000000000000000000000000000000000000000000000000000000000000000000000000000000000000000000000000000000000000000700000000000000000000070700000000000000000000000000000000000000000000000000000000000000
310
07070707000000000000000000000000000000000000000000000000000000000000000000000707000007000000000000000000000700000000000000000000000000000000000000000000000000000000000000000000000000000000000000000000000000000000000000000000000000000000000000000000000000
310
00000000000000000000070000000000000000070700000000000000000000000000000000000000000000000000000000000000000000000007070707000000000000000000000000000000000000000000000000000000000007000000000700000000000000000000070000000000000000000000000000000000000000
310
00000000000000000000000000000000000000000000000000000000000000000000000000000000000000000000000000000000000000000000000000000000070000000000000007000000000000000000000000000000000000000000000000000000000000000000000000000000000007070707000000000000000000
310
00000000000000000000000000000707000000000007070000000000000000000700000000000000000000000000000000000000000000000000000000000000000000000000000000000000000000000000000000000000000000000000000000000000000000000000000000000000000000000000070000000000070000
310
00000000000000000000000000000000000000000000000000000000000000000000000000000000000000000707070700000000000000000000000000000000000007070000000000000007000000000000000007000000000000000000000000000000000000000000000000000000000000000000000000000000000000
310
00000000000000000000000000000000000000000000000000000000000000000000000000000000000000000007000007070700000000000000000000000000000000000000000000000000000000000000000000000000000000000000000000000000000707070700000000000000000000000000070700000000000000
310
00070707000000000707000000000000000000000000000000000000000000000000000000000000000000000000000000000000000000000000000000000000000000000000000000000000000000000000000000000000000000000000000000000007070700000000000000000000000000000000000000000000000000
310
00000000000000000000000000000000000000000000000000000000000000070707070000000000000007070007000000000000000000000707070707000700000000000000000000000000000000000000000000000000000000000000000000000000000000000000000000000000000000000000000000000000000000
310
00000000000000000000000000000000000000000000000000000700000000000000000000000000000000000000000000000000000000000000000000000000000000000000000000000000000000000000000000000000070707070707070000000700000000000000000000000000000007000000000000000000000000
310
00000000000000000000000000000000000000000000000000000000000000000000000000000000000000000000000000000000000000000000000000000000000000000000000000000000000000000700000000000000000000000000000000000000000000000000000000000000000000000000000000000000000000
310
00000000000000000000000000000000000000000000000007000000000000000000000000000000070000000000000000000000000000000000000000000000000000000000000000000000000000000000000000000000000000000000000000000000000000000000000000000000000000000000000000000000000000
310
00000000000000070700000000000000000000000000000000000000000000000000000000000000000000000000000000000000000000000000000000000000000000000000000000000000000007000000000000000000000000000000000000000000000000000000000000000000000000000000000000000000000000
310
00000000000000000000000000000000000000000000000000000000000000000000000000000000000000000000000000000000000000000000000000070000000000000000000000000000000000000000000000000000000000000000000000000000000000000000000000000000000000000000000000000000000000
310
00000000070000000000000000000000000700000000000000000000000000000000000000000000000000000000000000000000000000000000000000000000000000000000000000000000000000000000000000000000000000000000000000000000000000000000000000000000000000070000000000000000000000
310
00000000000000000000000000000000000000000000000000000000000000000000000000000000000000000000000000000000000000000000070000000000000000000000070000000000000000000000000000000000000000000000000000000000000000000000000000000000000000000000000000000000000000
310
00000000000000000000000000000000000000000000000000000000000000000000000000000000000007000000000000000000000000000000000000000000000000000000000000000000000000000000000000000000000000000000000000000000000000000000000000000007070000000000000000000700000000
310
00000000000000000000000000000000000000000000000000000000000000000000000000000000000000000000000000000000000000000000000000000000000000000000000000000000000000000000000000000000000000000000000700000000000000000000000000000000000000000000000000000000000000
310
00000000000000000000000000000000000000000000000000000000000000000000000000000707000000000000000707000000000000000000000000000000000000000000000000000000000000000000000000000000000000000000000000000000000000000000000000000000000000000000000000000000000000
310
00000000000000000000000000000000000000000000070000000000000000000000000000000000000000000000000000000000000000000000000000000000000000000000000000000000000000000000000000000000000000000007070700000007070000000000000000000000000000000000000000000000000000
310
00000000000000000000000000000000000000000000000000000000000000000000000000000000000000000000000000000000000000000000000000000000000000000000000000000007000000000000000000000000000000000000000000000000000000000000000000000000000000000000000000000000000000
310
00000000000000000000000000000000000000000007070707070000000000000000000000000000000000000000000000000000000000000000000000000000000000000000000000000000000000000000000000000000000000000000000000000000000000000000000000000000000000000000000000000000000000
310
00000700000000000000000000000000000000000000000000000000000000000000000000000000000000000000000000000000000000000000000000000000000000000000000000000000000700000000000000000000000000000000000000000000000000000000000000000000000000000000000000000000000000
310
00000000000000000000000000000000000000000000000000000000000000000000000000000000000000000000000000000000000000070000000000000000000000000000000000000000000007070707070707000000000000000000000000000000000000000000000000000000000000000000000000000000000000
310
00000007000000000000000000000000000000000000000000000000000000000000000000000000000000000000000000000000000000000000000000000000000000000000000000000000000000000000000000000000000000000000000000000000000000000000000007000000000000000000000000000000000000
310
00000007000000000000000707070707070700000000000000000000000000000000000000000000000000000000000000000000000000000700000000000000000000000000000000000000000000000000000000000000000000000000000000000000000000000000000000000000000000000000000000000000000000
310
00000000000000000000000000000000000000000000000000000000000000000000000700000000000000000000000000000000000000070000000000000000000000000000000707070707070000000000000000000000000000000000000000000000000000000000000000070000000000000000000000000000000000
310
00000000000000000000000000000000000000000000000000000000000000000000000000000000000000000000000000000000000000000000000000000000000000000000000000000000000000000000000000000000070000000000000000000000000000000000000700000000000000000000000000000000000000
310
00000007070707070707000000000000000000000000000000000000000000000000000700000000000000000000000000000000000000000000000000000000000000000000000000000000000000000000000000000000000000000000000000000000000000000000000000000000000000000000000000000000000000
310
00000000000000000000000000000700000000000000000000000000000000000007000000000000000000000000000000000000000000000000000000000007070707070000000000000000000000000000000000000000070000000000000000000000000000000000000000000000000000000000000000000000000000
310
00000000000000000000000000000000000000000000000000000000000000000000000000000000000000000000000000000000000000000000000000000000000000070000000000000000000000000000000000070000000000000000000000000000000000000000000000000000000000000000000000070700000000
310
00000000000000000000000000000700000000000000000000000000000000000000000000000000000000000000000000000000000000000000000000000000000000000000000000000000000000000000000000000000000000000000000000000000000000000000000000000000000000000000000007000000000000
310
00000000000000000000000700000000000000000000000000000000000000000000000000000000000000000000000007000000000000000000000000000000000000070000000000000000000000000000000000000000000000000000000000000000000000000000000000000000000000000000000000000000000000
310
00000000000000000000000000000000000000000000000000000000000000000000000000000000000000000000070000000000000000000000000000000000070000000000000000000000000000000000000000000000000000000000000000000000000700000000000000000000000000000000000007000000000000
310
00000000000000000000000000000000000000000000000000000000000000000000000000000000000000000000000000000000000000000000000000000000000000000000000000000000000000000000000000000000000000000000000000000007000000000000000000000000000000000007000000000000000000
310
00000000000000000000000000000000000000000000000000000007000000000000000000000000000000000000070000000000000000000000000000000000000000000000000000000000000000000000000000000000000000000000000000000000000000000000000000000000000000000000000000000000000000
310
00000000000000000000000000000000000000000000000000070000000000000000000000000000000000070000000000000000000000000000000000000000000000000000000000000000000000000007000000000000000000000000000000000007000000000000000000000000000000000000000000000000000000
310
00000000000000000000000000000000000000000000000000000000000000000000000000000000000000000000000000000000000000000000000000000000000000000000000000000000000007000000000000000000000000000000000007000000000000000000000000000000000000000000000000000000000000
310
00000000000000070000000000000000000000000000000000070000000000000000000000000000000000000000000000000000000000000000000000000000000000000000000000000000000000000000000000000000000000000000000000000000000000000000000000000000000000000000000000000000000000
310
00000000070000000000000000000000000000000000070000000000000000000000000000000000000000000000000000000000000000000000000007000000000000000000000000000000000007000000000000000000000000000000000000000000000000000000000000000000000000000000000000000000000000
310
00000000000000000000000000000000000000000000000000000000000000000000000000000000000000000000000000000000000000000007000000000000000000000000000000000007000000000000000000000000000000000000000000000000000000000000000000000000000700000000000000000000000000
310
00000000070000000000000000000000000000000000000000000000000000000000000000000000000000000000000000000000000000000000000000000000000000000000000000000000000000000000000000000000000000000000000000000000000000000000000000000700000000000000000000000000000000
310
00070000000000000000000000000000000000000000000000000000000000000000000000000007000000000000000000000000000000000007000000000000000000000000000000000000000000000000000000000000000000000000000000000000000000000000000000000000000000000000000000000000000000
310
00000000000000000000000000000000000000000000000000000000000000000000000007000000000000000000000000000000000007000000000000000000000000000000000000000000000000000000000000000000000000000700000000000000000000000000000000000700000000000000000000000000000000
310
00000000000000000000000000000000000000000000000000000000000000000000000000000000000000000000000000000000000000000000000000000000000000000000000000000000000000000000000000000000000700000000000000000000000000000000000700000000000000000000000000000000000000
310
00000000000000000000000000000000000007000000000000000000000000000000000007000000000000000000000000000000000000000000000000000000000000000000000000000000000000000000000000000000000000000000000000000000000000000000000000000000000000000000000000000000000000
310
07070707070707070707070707070707070707070707070707070707070707070707070707070707070707070707070707070707070707070707070707070707070707070707070707070707070707070707070707070707070707070707070707070707070707070000000000000000000000000000000000000000000000
310
00000000000000000000000000000000000000000000000000000000000000000000000000000000000000000000000000000000000700000000000000000000000000000000000000000000000000000000000000000000000000000000000000000000000000000000000000000000000000000000000000000000000000
310
00000000000000000000000000000000000000000000000000000000000700000000000000000000000000000000000000000000000000000000000000000000000000000000000000000000000000000000000000000000000000000000000000000000000000000000070000000000000000000000000000000000000000
310
00000000000000000000000000000000000000000000000000000000000000000000000000000000000000000000000000000000000000000000000000000000000000000000000000000000000000000000070000000000000000000000000000000000000000000000000000000000000000000000000000000000000000
310
00000000000000000000000000000000000000000000000000000000000000000700000000000000000000000000000000000000000000000000000000000000000000000000000000000000000000000000000000000000000000000000000000000000000000000000000000000000000000000000000000000000000000
310
00000000000000000700000000000000000000000000000000000000000000000000000000000000000000000000000000000000000000000000000000000000000000000000000000000000000000000000000000070000000000000000000000000000000000000000000000000000000000000000000000000000000000
310
00000000000000000000000000000000000000000000000000000000000000000000000000000000000000000000000000000000000000000000000000070000000000000000000000000000000000000000000000000000000000000000000000000000000000000000000000000000000000000000000000000000000000
310
00000000000000000000000700000000000000000000000000000000000000000000000000000000000000000000000000000000000000000000000000000000000000000000000000000000000000000000000000000000000000000000000000000000000000000000000000000000000007000000000000000000000000
310
00000000000000000000000000000000000000000000000000000000000000000000000000000000000000000000000000000000000000000000000000000000070000000000000000000000000000000000000000000000000000000000000000000000000000000000000000000000000000000000000000000000000000
310
00000000000000000000000000000000000000000000000000000000000000000000000000000000070000000000000000000000000000000000000000000000000000000000000000000000000000000000000000000000000000000000000000000000000000000000000000000000000000000007000000000000000000
310
00000000000000000000000000000000000000000000000000000000000000000000000000000000000000000000000000000000000000000000000000000000000000000000000000000000000000000000000000000000000000000007000000000000000000000000000000000000000000000000000000000000000000
310
00000000000000000000000000000000000000000000000000000000000000000000000000000000000000070707070707070707070707070707070707070707070707070707070707070707070707070707070707070707070707070707070707070707070707070707070707070707070707070707070707070707070707
310
07070707070707070707070707070707070707070000000000000000000000000000000000000000000000000000000000000000000000000000000000000000000000000000000000000000000000000000000000000000000000000000000000000000000000000000000000000000000000000000000000000000000000
310
000000000000000000000000000000000000000000000000000000000000000000000000000000000000000000000000000000000000000000000000000000000000000000000000000000000000000000000000000000000000000000000000000000000000000000000000
  0
ENDSEC
  0
EOF
