  0
SECTION
  2
HEADER
  9
$ACADVER
  1
AC1015
  9
$ACADMAINTVER
 70
     6
  9
$DWGCODEPAGE
  3
ANSI_1252
  9
$INSBASE
 10
0.0
 20
0.0
 30
0.0
  9
$EXTMIN
 10
0.0036
 20
0.0975
 30
0.0
  9
$EXTMAX
 10
69.9964
 20
188.9025
 30
0.0
  9
$LIMMIN
 10
0.0
 20
0.0
  9
$LIMMAX
 10
12.0
 20
9.0
  9
$ORTHOMODE
 70
     0
  9
$REGENMODE
 70
     1
  9
$FILLMODE
 70
     1
  9
$QTEXTMODE
 70
     0
  9
$MIRRTEXT
 70
     1
  9
$LTSCALE
 40
1.0
  9
$ATTMODE
 70
     1
  9
$TEXTSIZE
 40
0.2
  9
$TRACEWID
 40
0.05
  9
$TEXTSTYLE
  7
Standard
  9
$CLAYER
  8
0
  9
$CELTYPE
  6
ByBlock
  9
$CECOLOR
 62
   256
  9
$CELTSCALE
 40
1.0
  9
$DISPSILH
 70
     0
  9
$DIMSCALE
 40
1.0
  9
$DIMASZ
 40
0.18
  9
$DIMEXO
 40
0.0625
  9
$DIMDLI
 40
0.38
  9
$DIMRND
 40
0.0
  9
$DIMDLE
 40
0.0
  9
$DIMEXE
 40
0.18
  9
$DIMTP
 40
0.0
  9
$DIMTM
 40
0.0
  9
$DIMTXT
 40
0.18
  9
$DIMCEN
 40
0.09
  9
$DIMTSZ
 40
0.0
  9
$DIMTOL
 70
     0
  9
$DIMLIM
 70
     0
  9
$DIMTIH
 70
     1
  9
$DIMTOH
 70
     1
  9
$DIMSE1
 70
     0
  9
$DIMSE2
 70
     0
  9
$DIMTAD
 70
     0
  9
$DIMZIN
 70
     0
  9
$DIMBLK
  1

  9
$DIMASO
 70
     1
  9
$DIMSHO
 70
     1
  9
$DIMPOST
  1

  9
$DIMAPOST
  1

  9
$DIMALT
 70
     0
  9
$DIMALTD
 70
     2
  9
$DIMALTF
 40
25.4
  9
$DIMLFAC
 40
1.0
  9
$DIMTOFL
 70
     0
  9
$DIMTVP
 40
0.0
  9
$DIMTIX
 70
     0
  9
$DIMSOXD
 70
     0
  9
$DIMSAH
 70
     0
  9
$DIMBLK1
  1

  9
$DIMBLK2
  1

  9
$DIMSTYLE
  2
Standard
  9
$DIMCLRD
 70
     0
  9
$DIMCLRE
 70
     0
  9
$DIMCLRT
 70
     0
  9
$DIMTFAC
 40
1.0
  9
$DIMGAP
 40
0.09
  9
$DIMJUST
 70
     0
  9
$DIMSD1
 70
     0
  9
$DIMSD2
 70
     0
  9
$DIMTOLJ
 70
     1
  9
$DIMTZIN
 70
     0
  9
$DIMALTZ
 70
     0
  9
$DIMALTTZ
 70
     0
  9
$DIMUPT
 70
     0
  9
$DIMDEC
 70
     4
  9
$DIMTDEC
 70
     4
  9
$DIMALTU
 70
     2
  9
$DIMALTTD
 70
     2
  9
$DIMTXSTY
  7
Standard
  9
$DIMAUNIT
 70
     0
  9
$DIMADEC
 70
     0
  9
$DIMALTRND
 40
0.0
  9
$DIMAZIN
 70
     0
  9
$DIMDSEP
 70
    46
  9
$DIMATFIT
 70
     3
  9
$DIMFRAC
 70
     0
  9
$DIMLDRBLK
  1

  9
$DIMLUNIT
 70
     2
  9
$DIMLWD
 70
    -2
  9
$DIMLWE
 70
    -2
  9
$DIMTMOVE
 70
     2
  9
$LUNITS
 70
     2
  9
$LUPREC
 70
     4
  9
$SKETCHINC
 40
0.1
  9
$FILLETRAD
 40
0.5
  9
$AUNITS
 70
     0
  9
$AUPREC
 70
     0
  9
$MENU
  1
.
  9
$ELEVATION
 40
0.0
  9
$PELEVATION
 40
0.0
  9
$THICKNESS
 40
0.0
  9
$LIMCHECK
 70
     0
  9
$CHAMFERA
 40
0.5
  9
$CHAMFERB
 40
0.5
  9
$CHAMFERC
 40
1.0
  9
$CHAMFERD
 40
0.0
  9
$SKPOLY
 70
     0
  9
$TDCREATE
 40
2456184.823127419
  9
$TDUCREATE
 40
2456184.739794086
  9
$TDUPDATE
 40
2456184.833321655
  9
$TDUUPDATE
 40
2456184.749988322
  9
$TDINDWG
 40
0.0101938773
  9
$TDUSRTIMER
 40
0.0101938773
  9
$USRTIMER
 70
     1
  9
$ANGBASE
 50
0.0
  9
$ANGDIR
 70
     0
  9
$PDMODE
 70
     0
  9
$PDSIZE
 40
0.0
  9
$PLINEWID
 40
0.0
  9
$SPLFRAME
 70
     0
  9
$SPLINETYPE
 70
     6
  9
$SPLINESEGS
 70
     8
  9
$HANDSEED
  5
97F
  9
$SURFTAB1
 70
     6
  9
$SURFTAB2
 70
     6
  9
$SURFTYPE
 70
     6
  9
$SURFU
 70
     6
  9
$SURFV
 70
     6
  9
$UCSBASE
  2

  9
$UCSNAME
  2

  9
$UCSORG
 10
0.0
 20
0.0
 30
0.0
  9
$UCSXDIR
 10
1.0
 20
0.0
 30
0.0
  9
$UCSYDIR
 10
0.0
 20
1.0
 30
0.0
  9
$UCSORTHOREF
  2

  9
$UCSORTHOVIEW
 70
     0
  9
$UCSORGTOP
 10
0.0
 20
0.0
 30
0.0
  9
$UCSORGBOTTOM
 10
0.0
 20
0.0
 30
0.0
  9
$UCSORGLEFT
 10
0.0
 20
0.0
 30
0.0
  9
$UCSORGRIGHT
 10
0.0
 20
0.0
 30
0.0
  9
$UCSORGFRONT
 10
0.0
 20
0.0
 30
0.0
  9
$UCSORGBACK
 10
0.0
 20
0.0
 30
0.0
  9
$PUCSBASE
  2

  9
$PUCSNAME
  2

  9
$PUCSORG
 10
0.0
 20
0.0
 30
0.0
  9
$PUCSXDIR
 10
1.0
 20
0.0
 30
0.0
  9
$PUCSYDIR
 10
0.0
 20
1.0
 30
0.0
  9
$PUCSORTHOREF
  2

  9
$PUCSORTHOVIEW
 70
     0
  9
$PUCSORGTOP
 10
0.0
 20
0.0
 30
0.0
  9
$PUCSORGBOTTOM
 10
0.0
 20
0.0
 30
0.0
  9
$PUCSORGLEFT
 10
0.0
 20
0.0
 30
0.0
  9
$PUCSORGRIGHT
 10
0.0
 20
0.0
 30
0.0
  9
$PUCSORGFRONT
 10
0.0
 20
0.0
 30
0.0
  9
$PUCSORGBACK
 10
0.0
 20
0.0
 30
0.0
  9
$USERI1
 70
     0
  9
$USERI2
 70
     0
  9
$USERI3
 70
     0
  9
$USERI4
 70
     0
  9
$USERI5
 70
     0
  9
$USERR1
 40
0.0
  9
$USERR2
 40
0.0
  9
$USERR3
 40
0.0
  9
$USERR4
 40
0.0
  9
$USERR5
 40
0.0
  9
$WORLDVIEW
 70
     1
  9
$SHADEDGE
 70
     3
  9
$SHADEDIF
 70
    70
  9
$TILEMODE
 70
     1
  9
$MAXACTVP
 70
    64
  9
$PINSBASE
 10
0.0
 20
0.0
 30
0.0
  9
$PLIMCHECK
 70
     0
  9
$PEXTMIN
 10
1.000000000000E+20
 20
1.000000000000E+20
 30
1.000000000000E+20
  9
$PEXTMAX
 10
-1.000000000000E+20
 20
-1.000000000000E+20
 30
-1.000000000000E+20
  9
$PLIMMIN
 10
0.0
 20
0.0
  9
$PLIMMAX
 10
12.0
 20
9.0
  9
$UNITMODE
 70
     0
  9
$VISRETAIN
 70
     1
  9
$PLINEGEN
 70
     0
  9
$PSLTSCALE
 70
     1
  9
$TREEDEPTH
 70
  3020
  9
$CMLSTYLE
  2
Standard
  9
$CMLJUST
 70
     0
  9
$CMLSCALE
 40
1.0
  9
$PROXYGRAPHICS
 70
     1
  9
$MEASUREMENT
 70
     0
  9
$CELWEIGHT
370
    -1
  9
$ENDCAPS
280
     0
  9
$JOINSTYLE
280
     0
  9
$LWDISPLAY
290
     0
  9
$INSUNITS
 70
     0
  9
$HYPERLINKBASE
  1

  9
$STYLESHEET
  1

  9
$XEDIT
290
     1
  9
$CEPSNTYPE
380
     0
  9
$PSTYLEMODE
290
     1
  9
$FINGERPRINTGUID
  2
{11080D28-83F2-449A-BD7F-7424E63A5C74}
  9
$VERSIONGUID
  2
{FAEB1C32-E019-11D5-929B-00C0DF256EC4}
  9
$EXTNAMES
290
     1
  9
$PSVPSCALE
 40
0.0
  9
$OLESTARTUP
290
     0
  0
ENDSEC
  0
SECTION
  2
CLASSES
  0
CLASS
  1
ACDBDICTIONARYWDFLT
  2
AcDbDictionaryWithDefault
  3
ObjectDBX Classes
 90
        0
280
     0
281
     0
  0
CLASS
  1
SCALE
  2
AcDbScale
  3
ObjectDBX Classes
 90
     1153
280
     0
281
     0
  0
CLASS
  1
DICTIONARYVAR
  2
AcDbDictionaryVar
  3
ObjectDBX Classes
 90
        0
280
     0
281
     0
  0
CLASS
  1
ACDBPLACEHOLDER
  2
AcDbPlaceHolder
  3
ObjectDBX Classes
 90
        0
280
     0
281
     0
  0
CLASS
  1
LAYOUT
  2
AcDbLayout
  3
ObjectDBX Classes
 90
        0
280
     0
281
     0
  0
ENDSEC
  0
SECTION
  2
TABLES
  0
TABLE
  2
VPORT
  5
8
330
0
100
AcDbSymbolTable
 70
     1
  0
VPORT
  5
935
330
8
100
AcDbSymbolTableRecord
100
AcDbViewportTableRecord
  2
*Active
 70
     0
 10
0.0
 20
0.0
 11
1.0
 21
1.0
 12
34.9982
 22
94.45125
 13
0.0
 23
0.0
 14
0.5
 24
0.5
 15
0.5
 25
0.5
 16
0.0
 26
0.0
 36
1.0
 17
0.0
 27
0.0
 37
0.0
 40
192.68055
 41
1.863448275862
 42
50.0
 43
0.0
 44
0.0
 50
0.0
 51
0.0
 71
    16
 72
   100
 73
     1
 74
     3
 75
     0
 76
     0
 77
     0
 78
     0
281
     0
 65
     1
110
0.0
120
0.0
130
0.0
111
1.0
121
0.0
131
0.0
112
0.0
122
1.0
132
0.0
 79
     0
146
0.0
  0
ENDTAB
  0
TABLE
  2
LTYPE
  5
5
330
0
100
AcDbSymbolTable
 70
     1
  0
LTYPE
  5
14
330
5
100
AcDbSymbolTableRecord
100
AcDbLinetypeTableRecord
  2
ByBlock
 70
     0
  3

 72
    65
 73
     0
 40
0.0
  0
LTYPE
  5
15
330
5
100
AcDbSymbolTableRecord
100
AcDbLinetypeTableRecord
  2
ByLayer
 70
     0
  3

 72
    65
 73
     0
 40
0.0
  0
LTYPE
  5
16
330
5
100
AcDbSymbolTableRecord
100
AcDbLinetypeTableRecord
  2
Continuous
 70
     0
  3
Solid line
 72
    65
 73
     0
 40
0.0
  0
ENDTAB
  0
TABLE
  2
LAYER
  5
2
330
0
100
AcDbSymbolTable
 70
     1
  0
LAYER
  5
10
330
2
100
AcDbSymbolTableRecord
100
AcDbLayerTableRecord
  2
0
 70
     0
 62
     7
  6
Continuous
370
    -3
390
F
  0
ENDTAB
  0
TABLE
  2
STYLE
  5
3
330
0
100
AcDbSymbolTable
 70
     1
  0
STYLE
  5
11
330
3
100
AcDbSymbolTableRecord
100
AcDbTextStyleTableRecord
  2
Standard
 70
     0
 40
0.0
 41
1.0
 50
0.0
 71
     0
 42
0.2
  3
txt
  4

  0
ENDTAB
  0
TABLE
  2
VIEW
  5
6
330
0
100
AcDbSymbolTable
 70
     0
  0
ENDTAB
  0
TABLE
  2
UCS
  5
7
330
0
100
AcDbSymbolTable
 70
     0
  0
ENDTAB
  0
TABLE
  2
APPID
  5
9
330
0
100
AcDbSymbolTable
 70
     1
  0
APPID
  5
12
330
9
100
AcDbSymbolTableRecord
100
AcDbRegAppTableRecord
  2
ACAD
 70
     0
  0
ENDTAB
  0
TABLE
  2
DIMSTYLE
  5
A
330
0
100
AcDbSymbolTable
 70
     1
100
AcDbDimStyleTable
  0
DIMSTYLE
105
20
330
A
100
AcDbSymbolTableRecord
100
AcDbDimStyleTableRecord
  2
Standard
 70
     0
340
11
  0
ENDTAB
  0
TABLE
  2
BLOCK_RECORD
  5
1
330
0
100
AcDbSymbolTable
 70
     0
  0
BLOCK_RECORD
  5
1D
330
1
100
AcDbSymbolTableRecord
100
AcDbBlockTableRecord
  2
*Model_Space
340
1E
  0
BLOCK_RECORD
  5
1B
330
1
100
AcDbSymbolTableRecord
100
AcDbBlockTableRecord
  2
*Paper_Space
340
1C
  0
ENDTAB
  0
ENDSEC
  0
SECTION
  2
BLOCKS
  0
BLOCK
  5
938
330
1D
100
AcDbEntity
  8
0
100
AcDbBlockBegin
  2
*Model_Space
 70
     0
 10
0.0
 20
0.0
 30
0.0
  3
*Model_Space
  1
*Model_Space
  0
ENDBLK
  5
939
330
1D
100
AcDbEntity
  8
0
100
AcDbBlockEnd
  0
BLOCK
  5
936
330
1B
100
AcDbEntity
 67
     1
  8
0
100
AcDbBlockBegin
  2
*Paper_Space
 70
     0
 10
0.0
 20
0.0
 30
0.0
  3
*Paper_Space
  1
*Paper_Space
  0
ENDBLK
  5
937
330
1B
100
AcDbEntity
 67
     1
  8
0
100
AcDbBlockEnd
  0
ENDSEC
  0
SECTION
  2
ENTITIES
  0
LINE
  5
21
330
1D
100
AcDbEntity
  8
0
100
AcDbLine
 10
5.32295
 20
3.36145
 30
0.0
 11
5.4495
 21
3.48689
 31
0.0
  0
LINE
  5
22
330
1D
100
AcDbEntity
  8
0
100
AcDbLine
 10
5.32295
 20
3.36145
 30
0.0
 11
5.34016
 21
3.09537
 31
0.0
  0
LINE
  5
23
330
1D
100
AcDbEntity
  8
0
100
AcDbLine
 10
5.43265
 20
2.88644
 30
0.0
 11
5.49802
 21
2.75533
 31
0.0
  0
LINE
  5
24
330
1D
100
AcDbEntity
  8
0
100
AcDbLine
 10
5.9166
 20
2.38008
 30
0.0
 11
6.37271
 21
2.17439
 31
0.0
  0
LINE
  5
25
330
1D
100
AcDbEntity
  8
0
100
AcDbLine
 10
5.80618
 20
2.47032
 30
0.0
 11
5.9166
 21
2.38008
 31
0.0
  0
LINE
  5
26
330
1D
100
AcDbEntity
  8
0
100
AcDbLine
 10
5.63649
 20
2.5855
 30
0.0
 11
5.80618
 21
2.47032
 31
0.0
  0
LINE
  5
27
330
1D
100
AcDbEntity
  8
0
100
AcDbLine
 10
5.49802
 20
2.75533
 30
0.0
 11
5.63649
 21
2.5855
 31
0.0
  0
LINE
  5
28
330
1D
100
AcDbEntity
  8
0
100
AcDbLine
 10
5.4495
 20
3.48689
 30
0.0
 11
5.77055
 21
3.63674
 31
0.0
  0
LINE
  5
29
330
1D
100
AcDbEntity
  8
0
100
AcDbLine
 10
5.34016
 20
3.09537
 30
0.0
 11
5.43265
 21
2.88644
 31
0.0
  0
LINE
  5
2A
330
1D
100
AcDbEntity
  8
0
100
AcDbLine
 10
5.32298
 20
3.36121
 30
0.0
 11
5.44942
 21
3.48721
 31
0.0
  0
LINE
  5
2B
330
1D
100
AcDbEntity
  8
0
100
AcDbLine
 10
3.90738
 20
54.1486
 30
0.0
 11
4.22044
 21
54.3275
 31
0.0
  0
LINE
  5
2C
330
1D
100
AcDbEntity
  8
0
100
AcDbLine
 10
3.90738
 20
54.1486
 30
0.0
 11
4.2211
 21
54.5472
 31
0.0
  0
LINE
  5
2D
330
1D
100
AcDbEntity
  8
0
100
AcDbLine
 10
3.90738
 20
54.1486
 30
0.0
 11
4.22072
 21
54.3274
 31
0.0
  0
LINE
  5
2E
330
1D
100
AcDbEntity
  8
0
100
AcDbLine
 10
4.2211
 20
54.5472
 30
0.0
 11
4.40119
 21
54.7266
 31
0.0
  0
LINE
  5
2F
330
1D
100
AcDbEntity
  8
0
100
AcDbLine
 10
4.22072
 20
54.3274
 30
0.0
 11
4.76231
 21
54.5022
 31
0.0
  0
LINE
  5
30
330
1D
100
AcDbEntity
  8
0
100
AcDbLine
 10
4.22044
 20
54.3275
 30
0.0
 11
4.76227
 21
54.5022
 31
0.0
  0
LINE
  5
31
330
1D
100
AcDbEntity
  8
0
100
AcDbLine
 10
3.90883
 20
54.1749
 30
0.0
 11
3.998917771566
 21
54.264904206764
 31
0.0
  0
LINE
  5
32
330
1D
100
AcDbEntity
  8
0
100
AcDbLine
 10
3.8265
 20
53.9678
 30
0.0
 11
3.90738
 21
54.1486
 31
0.0
  0
LINE
  5
33
330
1D
100
AcDbEntity
  8
0
100
AcDbLine
 10
3.8265
 20
53.9678
 30
0.0
 11
3.90883
 21
54.1749
 31
0.0
  0
LINE
  5
34
330
1D
100
AcDbEntity
  8
0
100
AcDbLine
 10
5.77055
 20
3.63692
 30
0.0
 11
6.21937
 21
3.77096
 31
0.0
  0
LINE
  5
35
330
1D
100
AcDbEntity
  8
0
100
AcDbLine
 10
5.77055
 20
3.63674
 30
0.0
 11
6.21964
 21
3.77092
 31
0.0
  0
LINE
  5
36
330
1D
100
AcDbEntity
  8
0
100
AcDbLine
 10
4.76231
 20
54.5022
 30
0.0
 11
5.52582
 21
54.6705
 31
0.0
  0
LINE
  5
37
330
1D
100
AcDbEntity
  8
0
100
AcDbLine
 10
4.76227
 20
54.5022
 30
0.0
 11
5.52596
 21
54.6705
 31
0.0
  0
LINE
  5
38
330
1D
100
AcDbEntity
  8
0
100
AcDbLine
 10
4.57565
 20
28.7225
 30
0.0
 11
5.32298
 21
3.36121
 31
0.0
  0
LINE
  5
39
330
1D
100
AcDbEntity
  8
0
100
AcDbLine
 10
4.57565
 20
28.7225
 30
0.0
 11
5.32298
 21
3.36121
 31
0.0
  0
LINE
  5
3A
330
1D
100
AcDbEntity
  8
0
100
AcDbLine
 10
5.44942
 20
3.48721
 30
0.0
 11
5.77055
 21
3.63692
 31
0.0
  0
LINE
  5
3F
330
1D
100
AcDbEntity
  8
0
100
AcDbLine
 10
6.34108
 20
2.36408
 30
0.0
 11
6.49025
 21
2.25361
 31
0.0
  0
LINE
  5
40
330
1D
100
AcDbEntity
  8
0
100
AcDbLine
 10
6.29305
 20
2.44915
 30
0.0
 11
6.34108
 21
2.36408
 31
0.0
  0
LINE
  5
41
330
1D
100
AcDbEntity
  8
0
100
AcDbLine
 10
6.29305
 20
2.44915
 30
0.0
 11
6.30636
 21
2.53341
 31
0.0
  0
LINE
  5
45
330
1D
100
AcDbEntity
  8
0
100
AcDbLine
 10
6.30609
 20
2.53341
 30
0.0
 11
6.43495
 21
2.65706
 31
0.0
  0
LINE
  5
47
330
1D
100
AcDbEntity
  8
0
100
AcDbLine
 10
6.49025
 20
2.25361
 30
0.0
 11
6.77695
 21
2.12625
 31
0.0
  0
LINE
  5
48
330
1D
100
AcDbEntity
  8
0
100
AcDbLine
 10
6.49001
 20
2.25361
 30
0.0
 11
6.7768
 21
2.12623
 31
0.0
  0
LINE
  5
4A
330
1D
100
AcDbEntity
  8
0
100
AcDbLine
 10
6.37271
 20
2.17439
 30
0.0
 11
7.071
 21
1.99954
 31
0.0
  0
LINE
  5
50
330
1D
100
AcDbEntity
  8
0
100
AcDbLine
 10
6.43485
 20
2.65707
 30
0.0
 11
6.69177
 21
2.78017
 31
0.0
  0
LINE
  5
52
330
1D
100
AcDbEntity
  8
0
100
AcDbLine
 10
6.21937
 20
3.77096
 30
0.0
 11
6.78564
 21
3.89643
 31
0.0
  0
LINE
  5
53
330
1D
100
AcDbEntity
  8
0
100
AcDbLine
 10
6.21964
 20
3.77092
 30
0.0
 11
6.78573
 21
3.89656
 31
0.0
  0
LINE
  5
56
330
1D
100
AcDbEntity
  8
0
100
AcDbLine
 10
6.43495
 20
2.65706
 30
0.0
 11
6.69177
 21
2.78017
 31
0.0
  0
LINE
  5
5A
330
1D
100
AcDbEntity
  8
0
100
AcDbLine
 10
6.69177
 20
2.78017
 30
0.0
 11
7.0807
 21
2.90271
 31
0.0
  0
LINE
  5
5B
330
1D
100
AcDbEntity
  8
0
100
AcDbLine
 10
6.69177
 20
2.78017
 30
0.0
 11
7.08058
 21
2.90271
 31
0.0
  0
LINE
  5
5C
330
1D
100
AcDbEntity
  8
0
100
AcDbLine
 10
6.30636
 20
2.53341
 30
0.0
 11
6.43485
 21
2.65707
 31
0.0
  0
LINE
  5
5F
330
1D
100
AcDbEntity
  8
0
100
AcDbLine
 10
2.93536
 20
74.9788
 30
0.0
 11
3.516351366479
 21
63.538478718141
 31
0.0
  0
LINE
  5
61
330
1D
100
AcDbEntity
  8
0
100
AcDbLine
 10
3.89303
 20
55.3428
 30
0.0
 11
4.25982
 21
54.8734
 31
0.0
  0
LINE
  5
64
330
1D
100
AcDbEntity
  8
0
100
AcDbLine
 10
5.52582
 20
54.6705
 30
0.0
 11
6.50149
 21
54.8303
 31
0.0
  0
LINE
  5
67
330
1D
100
AcDbEntity
  8
0
100
AcDbLine
 10
4.25982
 20
54.8734
 30
0.0
 11
4.557121037773
 21
54.774959946104
 31
0.0
  0
LINE
  5
69
330
1D
100
AcDbEntity
  8
0
100
AcDbLine
 10
5.3951
 20
55.0262
 30
0.0
 11
6.25714
 21
55.2003
 31
0.0
  0
LINE
  5
6A
330
1D
100
AcDbEntity
  8
0
100
AcDbLine
 10
4.78075
 20
54.8442
 30
0.0
 11
5.3951
 21
55.0262
 31
0.0
  0
LINE
  5
6B
330
1D
100
AcDbEntity
  8
0
100
AcDbLine
 10
5.39506
 20
55.0262
 30
0.0
 11
6.25714
 21
55.2003
 31
0.0
  0
LINE
  5
6C
330
1D
100
AcDbEntity
  8
0
100
AcDbLine
 10
4.7807
 20
54.8443
 30
0.0
 11
5.39506
 21
55.0262
 31
0.0
  0
LINE
  5
6D
330
1D
100
AcDbEntity
  8
0
100
AcDbLine
 10
4.40119
 20
54.7266
 30
0.0
 11
4.7807
 21
54.8443
 31
0.0
  0
LINE
  5
6E
330
1D
100
AcDbEntity
  8
0
100
AcDbLine
 10
5.52596
 20
54.6705
 30
0.0
 11
6.50169
 21
54.8303
 31
0.0
  0
LINE
  5
77
330
1D
100
AcDbEntity
  8
0
100
AcDbLine
 10
3.87456
 20
55.6612
 30
0.0
 11
4.11126
 21
55.8145
 31
0.0
  0
LINE
  5
78
330
1D
100
AcDbEntity
  8
0
100
AcDbLine
 10
3.516351366479
 20
63.538478718141
 30
0.0
 11
3.80862
 21
55.5013
 31
0.0
  0
LINE
  5
79
330
1D
100
AcDbEntity
  8
0
100
AcDbLine
 10
4.11126
 20
55.8145
 30
0.0
 11
4.48851
 21
55.9566
 31
0.0
  0
LINE
  5
7C
330
1D
100
AcDbEntity
  8
0
100
AcDbLine
 10
4.99843
 20
56.0924
 30
0.0
 11
5.65405
 21
56.2252
 31
0.0
  0
LINE
  5
7E
330
1D
100
AcDbEntity
  8
0
100
AcDbLine
 10
5.65399
 20
56.2253
 30
0.0
 11
6.46061
 21
56.3549
 31
0.0
  0
LINE
  5
80
330
1D
100
AcDbEntity
  8
0
100
AcDbLine
 10
4.48851
 20
55.9566
 30
0.0
 11
4.99843
 21
56.0924
 31
0.0
  0
LINE
  5
81
330
1D
100
AcDbEntity
  8
0
100
AcDbLine
 10
4.48851
 20
55.9566
 30
0.0
 11
4.99803
 21
56.0923
 31
0.0
  0
LINE
  5
84
330
1D
100
AcDbEntity
  8
0
100
AcDbLine
 10
3.516351366479
 20
63.538478718141
 30
0.0
 11
3.80862
 21
55.5013
 31
0.0
  0
LINE
  5
85
330
1D
100
AcDbEntity
  8
0
100
AcDbLine
 10
3.80862
 20
55.5013
 30
0.0
 11
3.87484
 21
55.6613
 31
0.0
  0
LINE
  5
86
330
1D
100
AcDbEntity
  8
0
100
AcDbLine
 10
3.80862
 20
55.5013
 30
0.0
 11
3.87456
 21
55.6612
 31
0.0
  0
LINE
  5
87
330
1D
100
AcDbEntity
  8
0
100
AcDbLine
 10
3.80862
 20
55.5013
 30
0.0
 11
3.89303
 21
55.3428
 31
0.0
  0
LINE
  5
88
330
1D
100
AcDbEntity
  8
0
100
AcDbLine
 10
0.094607
 20
140.9485
 30
0.0
 11
0.348621
 21
138.9385
 31
0.0
  0
LINE
  5
8A
330
1D
100
AcDbEntity
  8
0
100
AcDbLine
 10
0.720803
 20
137.0785
 30
0.0
 11
1.23686
 21
135.2545
 31
0.0
  0
LINE
  5
8B
330
1D
100
AcDbEntity
  8
0
100
AcDbLine
 10
0.348621
 20
138.9385
 30
0.0
 11
0.720803
 21
137.0785
 31
0.0
  0
LINE
  5
8C
330
1D
100
AcDbEntity
  8
0
100
AcDbLine
 10
1.02735
 20
119.1395
 30
0.0
 11
1.07663
 21
121.3235
 31
0.0
  0
LINE
  5
8D
330
1D
100
AcDbEntity
  8
0
100
AcDbLine
 10
0.320739
 20
139.0655
 30
0.0
 11
0.348621
 21
138.9385
 31
0.0
  0
LINE
  5
8E
330
1D
100
AcDbEntity
  8
0
100
AcDbLine
 10
0.997922
 20
115.8875
 30
0.0
 11
1.0294
 21
112.6625
 31
0.0
  0
LINE
  5
8F
330
1D
100
AcDbEntity
  8
0
100
AcDbLine
 10
0.997922
 20
115.8875
 30
0.0
 11
1.02735
 21
119.1395
 31
0.0
  0
LINE
  5
91
330
1D
100
AcDbEntity
  8
0
100
AcDbLine
 10
1.07663
 20
121.3235
 30
0.0
 11
1.17679
 21
123.9995
 31
0.0
  0
LINE
  5
92
330
1D
100
AcDbEntity
  8
0
100
AcDbLine
 10
1.25288
 20
126.0565
 30
0.0
 11
1.25952
 21
126.4965
 31
0.0
  0
LINE
  5
93
330
1D
100
AcDbEntity
  8
0
100
AcDbLine
 10
1.23686
 20
135.2545
 30
0.0
 11
1.28306
 21
135.1305
 31
0.0
  0
LINE
  5
94
330
1D
100
AcDbEntity
  8
0
100
AcDbLine
 10
1.17679
 20
123.9995
 30
0.0
 11
1.25288
 21
126.0565
 31
0.0
  0
LINE
  5
96
330
1D
100
AcDbEntity
  8
0
100
AcDbLine
 10
1.0294
 20
112.6625
 30
0.0
 11
1.1307
 21
108.7295
 31
0.0
  0
LINE
  5
97
330
1D
100
AcDbEntity
  8
0
100
AcDbLine
 10
1.1307
 20
108.7295
 30
0.0
 11
1.2799
 21
104.8945
 31
0.0
  0
LINE
  5
99
330
1D
100
AcDbEntity
  8
0
100
AcDbLine
 10
1.311063260217
 20
127.153129896826
 30
0.0
 11
1.42452
 21
129.2815
 31
0.0
  0
LINE
  5
9A
330
1D
100
AcDbEntity
  8
0
100
AcDbLine
 10
1.42452
 20
129.2815
 30
0.0
 11
1.47407
 21
129.9965
 31
0.0
  0
LINE
  5
9B
330
1D
100
AcDbEntity
  8
0
100
AcDbLine
 10
1.28306
 20
135.1305
 30
0.0
 11
1.839945316169
 21
133.620820038409
 31
0.0
  0
LINE
  5
9D
330
1D
100
AcDbEntity
  8
0
100
AcDbLine
 10
1.2799
 20
104.8945
 30
0.0
 11
1.66317
 21
97.3986
 31
0.0
  0
LINE
  5
9E
330
1D
100
AcDbEntity
  8
0
100
AcDbLine
 10
0.015365
 20
142.8425
 30
0.0
 11
0.094607
 21
140.9485
 31
0.0
  0
LINE
  5
9F
330
1D
100
AcDbEntity
  8
0
100
AcDbLine
 10
0.00955
 20
143.0905
 30
0.0
 11
0.083747
 21
145.0495
 31
0.0
  0
LINE
  5
A1
330
1D
100
AcDbEntity
  8
0
100
AcDbLine
 10
0.0036
 20
142.9715
 30
0.0
 11
0.00955
 21
143.0905
 31
0.0
  0
LINE
  5
A2
330
1D
100
AcDbEntity
  8
0
100
AcDbLine
 10
0.0036
 20
142.9715
 30
0.0
 11
0.015365
 21
142.8425
 31
0.0
  0
LINE
  5
A9
330
1D
100
AcDbEntity
  8
0
100
AcDbLine
 10
1.47407
 20
129.9965
 30
0.0
 11
1.68818
 21
132.1935
 31
0.0
  0
LINE
  5
AC
330
1D
100
AcDbEntity
  8
0
100
AcDbLine
 10
1.68818
 20
132.1935
 30
0.0
 11
1.751
 21
132.9745
 31
0.0
  0
LINE
  5
AD
330
1D
100
AcDbEntity
  8
0
100
AcDbLine
 10
1.751
 20
132.9745
 30
0.0
 11
1.88504
 21
133.9485
 31
0.0
  0
LINE
  5
B4
330
1D
100
AcDbEntity
  8
0
100
AcDbLine
 10
1.88504
 20
133.9485
 30
0.0
 11
2.1602
 21
135.6535
 31
0.0
  0
LINE
  5
B5
330
1D
100
AcDbEntity
  8
0
100
AcDbLine
 10
1.66317
 20
97.3986
 30
0.0
 11
2.33322
 21
86.0622
 31
0.0
  0
LINE
  5
B7
330
1D
100
AcDbEntity
  8
0
100
AcDbLine
 10
0.100018
 20
145.1665
 30
0.0
 11
0.333409
 21
147.1105
 31
0.0
  0
LINE
  5
B8
330
1D
100
AcDbEntity
  8
0
100
AcDbLine
 10
0.083747
 20
145.0495
 30
0.0
 11
0.100018
 21
145.1665
 31
0.0
  0
LINE
  5
B9
330
1D
100
AcDbEntity
  8
0
100
AcDbLine
 10
0.360044
 20
147.2225
 30
0.0
 11
0.749761
 21
149.1385
 31
0.0
  0
LINE
  5
BA
330
1D
100
AcDbEntity
  8
0
100
AcDbLine
 10
0.333409
 20
147.1105
 30
0.0
 11
0.360044
 21
147.2225
 31
0.0
  0
LINE
  5
C6
330
1D
100
AcDbEntity
  8
0
100
AcDbLine
 10
2.381637300057
 20
136.518160301676
 30
0.0
 11
2.47829
 21
137.4485
 31
0.0
  0
LINE
  5
C7
330
1D
100
AcDbEntity
  8
0
100
AcDbLine
 10
2.381574649727
 20
136.51791566695
 30
0.0
 11
2.47827
 21
137.4495
 31
0.0
  0
LINE
  5
C9
330
1D
100
AcDbEntity
  8
0
100
AcDbLine
 10
2.47829
 20
137.4485
 30
0.0
 11
3.13665
 21
140.9405
 31
0.0
  0
LINE
  5
CC
330
1D
100
AcDbEntity
  8
0
100
AcDbLine
 10
3.13665
 20
140.9405
 30
0.0
 11
3.43066
 21
142.1025
 31
0.0
  0
LINE
  5
CD
330
1D
100
AcDbEntity
  8
0
100
AcDbLine
 10
3.13653
 20
140.9415
 30
0.0
 11
3.43071
 21
142.1025
 31
0.0
  0
LINE
  5
CF
330
1D
100
AcDbEntity
  8
0
100
AcDbLine
 10
2.47827
 20
137.4495
 30
0.0
 11
3.13653
 21
140.9415
 31
0.0
  0
LINE
  5
DA
330
1D
100
AcDbEntity
  8
0
100
AcDbLine
 10
3.43066
 20
142.1025
 30
0.0
 11
4.58113
 21
145.8465
 31
0.0
  0
LINE
  5
EE
330
1D
100
AcDbEntity
  8
0
100
AcDbLine
 10
4.58113
 20
145.8465
 30
0.0
 11
5.44906
 21
148.1645
 31
0.0
  0
LINE
  5
F8
330
1D
100
AcDbEntity
  8
0
100
AcDbLine
 10
2.32637
 20
86.2472
 30
0.0
 11
2.33322
 21
86.0622
 31
0.0
  0
LINE
  5
F9
330
1D
100
AcDbEntity
  8
0
100
AcDbLine
 10
2.32637
 20
86.2472
 30
0.0
 11
2.9355
 21
74.9793
 31
0.0
  0
LINE
  5
FB
330
1D
100
AcDbEntity
  8
0
100
AcDbLine
 10
6.50149
 20
54.8303
 30
0.0
 11
7.6774
 21
54.9797
 31
0.0
  0
LINE
  5
FE
330
1D
100
AcDbEntity
  8
0
100
AcDbLine
 10
6.25714
 20
55.2003
 30
0.0
 11
7.35475
 21
55.3641
 31
0.0
  0
LINE
  5
FF
330
1D
100
AcDbEntity
  8
0
100
AcDbLine
 10
6.25714
 20
55.2003
 30
0.0
 11
7.35501
 21
55.3642
 31
0.0
  0
LINE
  5
105
330
1D
100
AcDbEntity
  8
0
100
AcDbLine
 10
6.46061
 20
56.3549
 30
0.0
 11
7.44516
 21
56.4831
 31
0.0
  0
LINE
  5
106
330
1D
100
AcDbEntity
  8
0
100
AcDbLine
 10
6.50169
 20
54.8303
 30
0.0
 11
7.6774
 21
54.9797
 31
0.0
  0
LINE
  5
108
330
1D
100
AcDbEntity
  8
0
100
AcDbLine
 10
6.77695
 20
2.12625
 30
0.0
 11
7.28429
 21
1.97122
 31
0.0
  0
LINE
  5
109
330
1D
100
AcDbEntity
  8
0
100
AcDbLine
 10
9.17873
 20
1.56699
 30
0.0
 11
10.3446
 21
1.39305
 31
0.0
  0
LINE
  5
10A
330
1D
100
AcDbEntity
  8
0
100
AcDbLine
 10
10.3446
 20
1.39305
 30
0.0
 11
11.7028
 21
1.22021
 31
0.0
  0
LINE
  5
10B
330
1D
100
AcDbEntity
  8
0
100
AcDbLine
 10
10.3448
 20
1.39304
 30
0.0
 11
11.7028
 21
1.22018
 31
0.0
  0
LINE
  5
10D
330
1D
100
AcDbEntity
  8
0
100
AcDbLine
 10
11.7028
 20
1.22021
 30
0.0
 11
13.2572
 21
1.044983
 31
0.0
  0
LINE
  5
110
330
1D
100
AcDbEntity
  8
0
100
AcDbLine
 10
7.28429
 20
1.97122
 30
0.0
 11
7.93206
 21
1.82016
 31
0.0
  0
LINE
  5
111
330
1D
100
AcDbEntity
  8
0
100
AcDbLine
 10
7.071
 20
1.99954
 30
0.0
 11
7.7255
 21
1.84029
 31
0.0
  0
LINE
  5
112
330
1D
100
AcDbEntity
  8
0
100
AcDbLine
 10
7.071
 20
1.99954
 30
0.0
 11
7.72574
 21
1.84028
 31
0.0
  0
LINE
  5
114
330
1D
100
AcDbEntity
  8
0
100
AcDbLine
 10
7.72574
 20
1.84028
 30
0.0
 11
8.52375
 21
1.68079
 31
0.0
  0
LINE
  5
115
330
1D
100
AcDbEntity
  8
0
100
AcDbLine
 10
7.7255
 20
1.84029
 30
0.0
 11
8.52375
 21
1.68079
 31
0.0
  0
LINE
  5
116
330
1D
100
AcDbEntity
  8
0
100
AcDbLine
 10
7.2844
 20
1.97122
 30
0.0
 11
7.93224
 21
1.82014
 31
0.0
  0
LINE
  5
118
330
1D
100
AcDbEntity
  8
0
100
AcDbLine
 10
8.52375
 20
1.68079
 30
0.0
 11
8.90197
 21
1.61327
 31
0.0
  0
LINE
  5
11E
330
1D
100
AcDbEntity
  8
0
100
AcDbLine
 10
8.90197
 20
1.61327
 30
0.0
 11
9.17885
 21
1.56699
 31
0.0
  0
LINE
  5
11F
330
1D
100
AcDbEntity
  8
0
100
AcDbLine
 10
8.90197
 20
1.61327
 30
0.0
 11
9.17873
 21
1.56699
 31
0.0
  0
LINE
  5
120
330
1D
100
AcDbEntity
  8
0
100
AcDbLine
 10
9.17885
 20
1.56699
 30
0.0
 11
10.3448
 21
1.39304
 31
0.0
  0
LINE
  5
122
330
1D
100
AcDbEntity
  8
0
100
AcDbLine
 10
20.4894
 20
0.437361
 30
0.0
 11
22.2614
 21
0.326237
 31
0.0
  0
LINE
  5
123
330
1D
100
AcDbEntity
  8
0
100
AcDbLine
 10
20.4895
 20
0.437355
 30
0.0
 11
22.2614
 21
0.326237
 31
0.0
  0
LINE
  5
124
330
1D
100
AcDbEntity
  8
0
100
AcDbLine
 10
22.2614
 20
0.326237
 30
0.0
 11
24.027
 21
0.23004
 31
0.0
  0
LINE
  5
125
330
1D
100
AcDbEntity
  8
0
100
AcDbLine
 10
22.2614
 20
0.326237
 30
0.0
 11
24.0269
 21
0.230002
 31
0.0
  0
LINE
  5
12E
330
1D
100
AcDbEntity
  8
0
100
AcDbLine
 10
25.334
 20
0.170754
 30
0.0
 11
26.5708
 21
0.127301
 31
0.0
  0
LINE
  5
136
330
1D
100
AcDbEntity
  8
0
100
AcDbLine
 10
26.5708
 20
0.127301
 30
0.0
 11
27.3863
 21
0.107567
 31
0.0
  0
LINE
  5
13A
330
1D
100
AcDbEntity
  8
0
100
AcDbLine
 10
24.0269
 20
0.230002
 30
0.0
 11
25.334
 21
0.170754
 31
0.0
  0
LINE
  5
148
330
1D
100
AcDbEntity
  8
0
100
AcDbLine
 10
15.0146
 20
0.865864
 30
0.0
 11
16.4983
 21
0.731508
 31
0.0
  0
LINE
  5
14B
330
1D
100
AcDbEntity
  8
0
100
AcDbLine
 10
15.0146
 20
0.865898
 30
0.0
 11
16.4986
 21
0.731508
 31
0.0
  0
LINE
  5
14E
330
1D
100
AcDbEntity
  8
0
100
AcDbLine
 10
18.1275
 20
0.603109
 30
0.0
 11
20.4894
 21
0.437361
 31
0.0
  0
LINE
  5
14F
330
1D
100
AcDbEntity
  8
0
100
AcDbLine
 10
18.1273
 20
0.603107
 30
0.0
 11
20.4895
 21
0.437355
 31
0.0
  0
LINE
  5
150
330
1D
100
AcDbEntity
  8
0
100
AcDbLine
 10
16.4983
 20
0.731508
 30
0.0
 11
18.1275
 21
0.603109
 31
0.0
  0
LINE
  5
151
330
1D
100
AcDbEntity
  8
0
100
AcDbLine
 10
16.4986
 20
0.731508
 30
0.0
 11
18.1273
 21
0.603107
 31
0.0
  0
LINE
  5
15D
330
1D
100
AcDbEntity
  8
0
100
AcDbLine
 10
13.2572
 20
1.044983
 30
0.0
 11
15.0146
 21
0.865864
 31
0.0
  0
LINE
  5
160
330
1D
100
AcDbEntity
  8
0
100
AcDbLine
 10
13.2573
 20
1.044965
 30
0.0
 11
15.0146
 21
0.865898
 31
0.0
  0
LINE
  5
16B
330
1D
100
AcDbEntity
  8
0
100
AcDbLine
 10
28.251
 20
0.0975
 30
0.0
 11
28.6934
 21
0.0984
 31
0.0
  0
LINE
  5
16C
330
1D
100
AcDbEntity
  8
0
100
AcDbLine
 10
28.2509
 20
0.097527
 30
0.0
 11
28.6933
 21
0.09837
 31
0.0
  0
LINE
  5
16D
330
1D
100
AcDbEntity
  8
0
100
AcDbLine
 10
28.6934
 20
0.0984
 30
0.0
 11
29.0883
 21
0.104008
 31
0.0
  0
LINE
  5
16E
330
1D
100
AcDbEntity
  8
0
100
AcDbLine
 10
29.0883
 20
0.104008
 30
0.0
 11
29.3595
 21
0.111277
 31
0.0
  0
LINE
  5
16F
330
1D
100
AcDbEntity
  8
0
100
AcDbLine
 10
29.0881
 20
0.104011
 30
0.0
 11
29.3595
 21
0.111292
 31
0.0
  0
LINE
  5
176
330
1D
100
AcDbEntity
  8
0
100
AcDbLine
 10
27.3864
 20
0.107588
 30
0.0
 11
28.251
 21
0.0975
 31
0.0
  0
LINE
  5
178
330
1D
100
AcDbEntity
  8
0
100
AcDbLine
 10
27.3863
 20
0.107567
 30
0.0
 11
28.2509
 21
0.097527
 31
0.0
  0
LINE
  5
17D
330
1D
100
AcDbEntity
  8
0
100
AcDbLine
 10
29.3595
 20
0.111277
 30
0.0
 11
29.9408
 21
0.136057
 31
0.0
  0
LINE
  5
182
330
1D
100
AcDbEntity
  8
0
100
AcDbLine
 10
29.9408
 20
0.136057
 30
0.0
 11
30.4203
 21
0.164947
 31
0.0
  0
LINE
  5
183
330
1D
100
AcDbEntity
  8
0
100
AcDbLine
 10
29.9409
 20
0.13602
 30
0.0
 11
30.4203
 21
0.164947
 31
0.0
  0
LINE
  5
19C
330
1D
100
AcDbEntity
  8
0
100
AcDbLine
 10
6.78564
 20
3.89643
 30
0.0
 11
7.56908
 21
4.03255
 31
0.0
  0
LINE
  5
19D
330
1D
100
AcDbEntity
  8
0
100
AcDbLine
 10
6.78573
 20
3.89656
 30
0.0
 11
7.56906
 21
4.03221
 31
0.0
  0
LINE
  5
19E
330
1D
100
AcDbEntity
  8
0
100
AcDbLine
 10
7.08058
 20
2.90271
 30
0.0
 11
7.59374
 21
3.0218
 31
0.0
  0
LINE
  5
19F
330
1D
100
AcDbEntity
  8
0
100
AcDbLine
 10
7.0807
 20
2.90271
 30
0.0
 11
7.59396
 21
3.02179
 31
0.0
  0
LINE
  5
1A0
330
1D
100
AcDbEntity
  8
0
100
AcDbLine
 10
7.56906
 20
4.03221
 30
0.0
 11
8.03984
 21
4.1006
 31
0.0
  0
LINE
  5
1A1
330
1D
100
AcDbEntity
  8
0
100
AcDbLine
 10
7.59374
 20
3.0218
 30
0.0
 11
8.23395
 21
3.13739
 31
0.0
  0
LINE
  5
1A2
330
1D
100
AcDbEntity
  8
0
100
AcDbLine
 10
7.59396
 20
3.02179
 30
0.0
 11
8.23418
 21
3.13739
 31
0.0
  0
LINE
  5
1A7
330
1D
100
AcDbEntity
  8
0
100
AcDbLine
 10
7.35501
 20
55.3642
 30
0.0
 11
8.67183
 21
55.5153
 31
0.0
  0
LINE
  5
1A8
330
1D
100
AcDbEntity
  8
0
100
AcDbLine
 10
7.35475
 20
55.3641
 30
0.0
 11
8.67183
 21
55.5153
 31
0.0
  0
LINE
  5
1AA
330
1D
100
AcDbEntity
  8
0
100
AcDbLine
 10
7.44516
 20
56.4831
 30
0.0
 11
8.59922
 21
56.6058
 31
0.0
  0
LINE
  5
1AB
330
1D
100
AcDbEntity
  8
0
100
AcDbLine
 10
7.56908
 20
4.03255
 30
0.0
 11
8.03967
 21
4.10072
 31
0.0
  0
LINE
  5
1AC
330
1D
100
AcDbEntity
  8
0
100
AcDbLine
 10
8.23395
 20
3.13739
 30
0.0
 11
8.98688
 21
3.2468
 31
0.0
  0
LINE
  5
1AD
330
1D
100
AcDbEntity
  8
0
100
AcDbLine
 10
8.03984
 20
4.1006
 30
0.0
 11
8.58698
 21
4.17107
 31
0.0
  0
LINE
  5
1B1
330
1D
100
AcDbEntity
  8
0
100
AcDbLine
 10
8.23418
 20
3.13739
 30
0.0
 11
8.98677
 21
3.24681
 31
0.0
  0
LINE
  5
1B2
330
1D
100
AcDbEntity
  8
0
100
AcDbLine
 10
8.03967
 20
4.10072
 30
0.0
 11
8.58671
 21
4.17096
 31
0.0
  0
LINE
  5
1B3
330
1D
100
AcDbEntity
  8
0
100
AcDbLine
 10
8.98688
 20
3.2468
 30
0.0
 11
9.85446
 21
3.3499
 31
0.0
  0
LINE
  5
1B4
330
1D
100
AcDbEntity
  8
0
100
AcDbLine
 10
9.03814
 20
55.1167
 30
0.0
 11
10.5671
 21
55.2396
 31
0.0
  0
LINE
  5
1B5
330
1D
100
AcDbEntity
  8
0
100
AcDbLine
 10
8.58698
 20
4.17107
 30
0.0
 11
9.32267
 21
4.25353
 31
0.0
  0
LINE
  5
1B8
330
1D
100
AcDbEntity
  8
0
100
AcDbLine
 10
8.98677
 20
3.24681
 30
0.0
 11
9.85459
 21
3.34994
 31
0.0
  0
LINE
  5
1B9
330
1D
100
AcDbEntity
  8
0
100
AcDbLine
 10
8.58671
 20
4.17096
 30
0.0
 11
9.32268
 21
4.25322
 31
0.0
  0
LINE
  5
1BA
330
1D
100
AcDbEntity
  8
0
100
AcDbLine
 10
8.67183
 20
55.5153
 30
0.0
 11
10.1885
 21
55.6516
 31
0.0
  0
LINE
  5
1BB
330
1D
100
AcDbEntity
  8
0
100
AcDbLine
 10
8.67183
 20
55.5153
 30
0.0
 11
10.1888
 21
55.6516
 31
0.0
  0
LINE
  5
1BC
330
1D
100
AcDbEntity
  8
0
100
AcDbLine
 10
8.59922
 20
56.6058
 30
0.0
 11
9.87203
 21
56.7169
 31
0.0
  0
LINE
  5
1BD
330
1D
100
AcDbEntity
  8
0
100
AcDbLine
 10
8.59922
 20
56.6058
 30
0.0
 11
9.87216
 21
56.7168
 31
0.0
  0
LINE
  5
1BE
330
1D
100
AcDbEntity
  8
0
100
AcDbLine
 10
9.03802
 20
55.1167
 30
0.0
 11
10.5668
 21
55.2396
 31
0.0
  0
LINE
  5
1BF
330
1D
100
AcDbEntity
  8
0
100
AcDbLine
 10
7.6774
 20
54.9797
 30
0.0
 11
9.03802
 21
55.1167
 31
0.0
  0
LINE
  5
1C0
330
1D
100
AcDbEntity
  8
0
100
AcDbLine
 10
7.6774
 20
54.9797
 30
0.0
 11
9.03814
 21
55.1167
 31
0.0
  0
LINE
  5
1C1
330
1D
100
AcDbEntity
  8
0
100
AcDbLine
 10
9.85459
 20
3.34994
 30
0.0
 11
10.8283
 21
3.44541
 31
0.0
  0
LINE
  5
1C2
330
1D
100
AcDbEntity
  8
0
100
AcDbLine
 10
9.85446
 20
3.3499
 30
0.0
 11
10.8281
 21
3.44543
 31
0.0
  0
LINE
  5
1C6
330
1D
100
AcDbEntity
  8
0
100
AcDbLine
 10
9.32267
 20
4.25353
 30
0.0
 11
10.3711
 21
4.3519
 31
0.0
  0
LINE
  5
1C7
330
1D
100
AcDbEntity
  8
0
100
AcDbLine
 10
10.1888
 20
55.6516
 30
0.0
 11
11.8839
 21
55.771
 31
0.0
  0
LINE
  5
1C8
330
1D
100
AcDbEntity
  8
0
100
AcDbLine
 10
10.1885
 20
55.6516
 30
0.0
 11
11.8837
 21
55.771
 31
0.0
  0
LINE
  5
1C9
330
1D
100
AcDbEntity
  8
0
100
AcDbLine
 10
10.3711
 20
4.3519
 30
0.0
 11
11.3147
 21
4.42608
 31
0.0
  0
LINE
  5
1CA
330
1D
100
AcDbEntity
  8
0
100
AcDbLine
 10
10.5671
 20
55.2396
 30
0.0
 11
12.2445
 21
55.3468
 31
0.0
  0
LINE
  5
1CB
330
1D
100
AcDbEntity
  8
0
100
AcDbLine
 10
10.5668
 20
55.2396
 30
0.0
 11
12.2445
 21
55.3468
 31
0.0
  0
LINE
  5
1CC
330
1D
100
AcDbEntity
  8
0
100
AcDbLine
 10
10.3712
 20
4.35153
 30
0.0
 11
11.3148
 21
4.42576
 31
0.0
  0
LINE
  5
1CD
330
1D
100
AcDbEntity
  8
0
100
AcDbLine
 10
9.32268
 20
4.25322
 30
0.0
 11
10.3712
 21
4.35153
 31
0.0
  0
LINE
  5
1D1
330
1D
100
AcDbEntity
  8
0
100
AcDbLine
 10
11.847827664606
 20
3.528301812713
 30
0.0
 11
13.9442
 21
3.66173
 31
0.0
  0
LINE
  5
1D6
330
1D
100
AcDbEntity
  8
0
100
AcDbLine
 10
11.847827664606
 20
3.528301812713
 30
0.0
 11
13.9442
 21
3.66173
 31
0.0
  0
LINE
  5
1D7
330
1D
100
AcDbEntity
  8
0
100
AcDbLine
 10
11.8839
 20
55.771
 30
0.0
 11
13.7323
 21
55.8718
 31
0.0
  0
LINE
  5
1D9
330
1D
100
AcDbEntity
  8
0
100
AcDbLine
 10
11.3147
 20
4.42608
 30
0.0
 11
12.0915
 21
4.47941
 31
0.0
  0
LINE
  5
1DA
330
1D
100
AcDbEntity
  8
0
100
AcDbLine
 10
12.0915
 20
4.47941
 30
0.0
 11
13.3187
 21
4.55268
 31
0.0
  0
LINE
  5
1DB
330
1D
100
AcDbEntity
  8
0
100
AcDbLine
 10
11.3148
 20
4.42576
 30
0.0
 11
12.0915
 21
4.47913
 31
0.0
  0
LINE
  5
1E4
330
1D
100
AcDbEntity
  8
0
100
AcDbLine
 10
13.7323
 20
55.8718
 30
0.0
 11
15.7072
 21
55.9525
 31
0.0
  0
LINE
  5
1E5
330
1D
100
AcDbEntity
  8
0
100
AcDbLine
 10
13.7323
 20
55.8718
 30
0.0
 11
15.707
 21
55.9524
 31
0.0
  0
LINE
  5
1E6
330
1D
100
AcDbEntity
  8
0
100
AcDbLine
 10
13.3187
 20
4.55268
 30
0.0
 11
14.6108
 21
4.61693
 31
0.0
  0
LINE
  5
1E7
330
1D
100
AcDbEntity
  8
0
100
AcDbLine
 10
12.2445
 20
55.3468
 30
0.0
 11
14.0498
 21
55.4371
 31
0.0
  0
LINE
  5
1E8
330
1D
100
AcDbEntity
  8
0
100
AcDbLine
 10
13.3186
 20
4.5523
 30
0.0
 11
14.6108
 21
4.61729
 31
0.0
  0
LINE
  5
1E9
330
1D
100
AcDbEntity
  8
0
100
AcDbLine
 10
12.0915
 20
4.47913
 30
0.0
 11
13.3186
 21
4.5523
 31
0.0
  0
LINE
  5
1EE
330
1D
100
AcDbEntity
  8
0
100
AcDbLine
 10
14.8481
 20
3.70657
 30
0.0
 11
15.7298
 21
3.74428
 31
0.0
  0
LINE
  5
1F1
330
1D
100
AcDbEntity
  8
0
100
AcDbLine
 10
14.8482
 20
3.70657
 30
0.0
 11
15.7298
 21
3.74428
 31
0.0
  0
LINE
  5
1F6
330
1D
100
AcDbEntity
  8
0
100
AcDbLine
 10
15.7298
 20
3.74428
 30
0.0
 11
16.6312
 21
3.77717
 31
0.0
  0
LINE
  5
1F9
330
1D
100
AcDbEntity
  8
0
100
AcDbLine
 10
17.5641
 20
3.80544
 30
0.0
 11
18.5148
 21
3.82852
 31
0.0
  0
LINE
  5
1FA
330
1D
100
AcDbEntity
  8
0
100
AcDbLine
 10
16.6312
 20
3.77717
 30
0.0
 11
17.5642
 21
3.80542
 31
0.0
  0
LINE
  5
1FB
330
1D
100
AcDbEntity
  8
0
100
AcDbLine
 10
16.6312
 20
3.77717
 30
0.0
 11
17.5641
 21
3.80544
 31
0.0
  0
LINE
  5
1FF
330
1D
100
AcDbEntity
  8
0
100
AcDbLine
 10
17.5642
 20
3.80542
 30
0.0
 11
18.5145
 21
3.82852
 31
0.0
  0
LINE
  5
201
330
1D
100
AcDbEntity
  8
0
100
AcDbLine
 10
18.5148
 20
3.82852
 30
0.0
 11
20.1745
 21
3.85596
 31
0.0
  0
LINE
  5
202
330
1D
100
AcDbEntity
  8
0
100
AcDbLine
 10
18.5145
 20
3.82852
 30
0.0
 11
20.1745
 21
3.85596
 31
0.0
  0
LINE
  5
203
330
1D
100
AcDbEntity
  8
0
100
AcDbLine
 10
26.77
 20
3.81559
 30
0.0
 11
28.1589
 21
3.77532
 31
0.0
  0
LINE
  5
205
330
1D
100
AcDbEntity
  8
0
100
AcDbLine
 10
26.7701
 20
3.81561
 30
0.0
 11
28.1589
 21
3.77532
 31
0.0
  0
LINE
  5
209
330
1D
100
AcDbEntity
  8
0
100
AcDbLine
 10
14.6108
 20
4.61693
 30
0.0
 11
15.8475
 21
4.66668
 31
0.0
  0
LINE
  5
20B
330
1D
100
AcDbEntity
  8
0
100
AcDbLine
 10
15.8475
 20
4.66668
 30
0.0
 11
17.0604
 21
4.70543
 31
0.0
  0
LINE
  5
20C
330
1D
100
AcDbEntity
  8
0
100
AcDbLine
 10
14.6108
 20
4.61729
 30
0.0
 11
15.8475
 21
4.66633
 31
0.0
  0
LINE
  5
20E
330
1D
100
AcDbEntity
  8
0
100
AcDbLine
 10
20.1745
 20
3.85596
 30
0.0
 11
21.122
 21
3.86464
 31
0.0
  0
LINE
  5
20F
330
1D
100
AcDbEntity
  8
0
100
AcDbLine
 10
20.1745
 20
3.85596
 30
0.0
 11
21.1222
 21
3.86465
 31
0.0
  0
LINE
  5
212
330
1D
100
AcDbEntity
  8
0
100
AcDbLine
 10
17.0605
 20
4.70519
 30
0.0
 11
18.2802
 21
4.7354
 31
0.0
  0
LINE
  5
213
330
1D
100
AcDbEntity
  8
0
100
AcDbLine
 10
18.2802
 20
4.7354
 30
0.0
 11
19.5947
 21
4.75897
 31
0.0
  0
LINE
  5
214
330
1D
100
AcDbEntity
  8
0
100
AcDbLine
 10
17.0604
 20
4.70543
 30
0.0
 11
18.2802
 21
4.73559
 31
0.0
  0
LINE
  5
217
330
1D
100
AcDbEntity
  8
0
100
AcDbLine
 10
19.5947
 20
4.75897
 30
0.0
 11
20.5463
 21
4.77028
 31
0.0
  0
LINE
  5
218
330
1D
100
AcDbEntity
  8
0
100
AcDbLine
 10
19.5946
 20
4.75923
 30
0.0
 11
20.5466
 21
4.77059
 31
0.0
  0
LINE
  5
21A
330
1D
100
AcDbEntity
  8
0
100
AcDbLine
 10
18.2802
 20
4.73559
 30
0.0
 11
19.5946
 21
4.75923
 31
0.0
  0
LINE
  5
21C
330
1D
100
AcDbEntity
  8
0
100
AcDbLine
 10
21.1222
 20
3.86465
 30
0.0
 11
22.1133
 21
3.86847
 31
0.0
  0
LINE
  5
21D
330
1D
100
AcDbEntity
  8
0
100
AcDbLine
 10
21.122
 20
3.86464
 30
0.0
 11
22.1133
 21
3.86848
 31
0.0
  0
LINE
  5
220
330
1D
100
AcDbEntity
  8
0
100
AcDbLine
 10
15.8475
 20
4.66633
 30
0.0
 11
17.0605
 21
4.70519
 31
0.0
  0
LINE
  5
221
330
1D
100
AcDbEntity
  8
0
100
AcDbLine
 10
15.9602
 20
55.5092
 30
0.0
 11
17.9513
 21
55.5623
 31
0.0
  0
LINE
  5
222
330
1D
100
AcDbEntity
  8
0
100
AcDbLine
 10
15.707
 20
55.9524
 30
0.0
 11
17.7795
 21
56.0119
 31
0.0
  0
LINE
  5
223
330
1D
100
AcDbEntity
  8
0
100
AcDbLine
 10
15.7072
 20
55.9525
 30
0.0
 11
17.7797
 21
56.0119
 31
0.0
  0
LINE
  5
226
330
1D
100
AcDbEntity
  8
0
100
AcDbLine
 10
15.96
 20
55.5092
 30
0.0
 11
17.9513
 21
55.5623
 31
0.0
  0
LINE
  5
227
330
1D
100
AcDbEntity
  8
0
100
AcDbLine
 10
17.9513
 20
55.5623
 30
0.0
 11
20.1234
 21
55.5971
 31
0.0
  0
LINE
  5
228
330
1D
100
AcDbEntity
  8
0
100
AcDbLine
 10
14.0498
 20
55.4371
 30
0.0
 11
15.96
 21
55.5092
 31
0.0
  0
LINE
  5
229
330
1D
100
AcDbEntity
  8
0
100
AcDbLine
 10
14.0498
 20
55.4371
 30
0.0
 11
15.9602
 21
55.5092
 31
0.0
  0
LINE
  5
22A
330
1D
100
AcDbEntity
  8
0
100
AcDbLine
 10
20.5466
 20
4.77059
 30
0.0
 11
21.7068
 21
4.77787
 31
0.0
  0
LINE
  5
22B
330
1D
100
AcDbEntity
  8
0
100
AcDbLine
 10
21.707
 20
4.77825
 30
0.0
 11
23.1661
 21
4.77719
 31
0.0
  0
LINE
  5
22C
330
1D
100
AcDbEntity
  8
0
100
AcDbLine
 10
21.7068
 20
4.77787
 30
0.0
 11
23.1662
 21
4.77684
 31
0.0
  0
LINE
  5
22D
330
1D
100
AcDbEntity
  8
0
100
AcDbLine
 10
20.1234
 20
55.5971
 30
0.0
 11
22.3278
 21
55.6092
 31
0.0
  0
LINE
  5
22E
330
1D
100
AcDbEntity
  8
0
100
AcDbLine
 10
20.1234
 20
55.5971
 30
0.0
 11
22.3275
 21
55.6092
 31
0.0
  0
LINE
  5
22F
330
1D
100
AcDbEntity
  8
0
100
AcDbLine
 10
20.5463
 20
4.77028
 30
0.0
 11
21.707
 21
4.77825
 31
0.0
  0
LINE
  5
230
330
1D
100
AcDbEntity
  8
0
100
AcDbLine
 10
22.1133
 20
3.86847
 30
0.0
 11
23.4352
 21
3.86552
 31
0.0
  0
LINE
  5
231
330
1D
100
AcDbEntity
  8
0
100
AcDbLine
 10
22.1133
 20
3.86848
 30
0.0
 11
23.4352
 21
3.86552
 31
0.0
  0
LINE
  5
232
330
1D
100
AcDbEntity
  8
0
100
AcDbLine
 10
22.3275
 20
55.6092
 30
0.0
 11
24.5327
 21
55.5985
 31
0.0
  0
LINE
  5
235
330
1D
100
AcDbEntity
  8
0
100
AcDbLine
 10
24.3896
 20
3.85755
 30
0.0
 11
25.335
 21
3.84475
 31
0.0
  0
LINE
  5
236
330
1D
100
AcDbEntity
  8
0
100
AcDbLine
 10
24.3896
 20
3.85755
 30
0.0
 11
25.3352
 21
3.84474
 31
0.0
  0
LINE
  5
239
330
1D
100
AcDbEntity
  8
0
100
AcDbLine
 10
23.4352
 20
3.86552
 30
0.0
 11
24.3896
 21
3.85755
 31
0.0
  0
LINE
  5
23A
330
1D
100
AcDbEntity
  8
0
100
AcDbLine
 10
27.4055
 20
4.7135
 30
0.0
 11
28.3531
 21
4.68556
 31
0.0
  0
LINE
  5
23B
330
1D
100
AcDbEntity
  8
0
100
AcDbLine
 10
25.3352
 20
3.84474
 30
0.0
 11
26.7701
 21
3.81561
 31
0.0
  0
LINE
  5
23C
330
1D
100
AcDbEntity
  8
0
100
AcDbLine
 10
25.335
 20
3.84475
 30
0.0
 11
26.77
 21
3.81559
 31
0.0
  0
LINE
  5
23D
330
1D
100
AcDbEntity
  8
0
100
AcDbLine
 10
25.9707
 20
4.74532
 30
0.0
 11
27.4055
 21
4.7135
 31
0.0
  0
LINE
  5
23E
330
1D
100
AcDbEntity
  8
0
100
AcDbLine
 10
25.9707
 20
4.74502
 30
0.0
 11
27.4055
 21
4.71315
 31
0.0
  0
LINE
  5
23F
330
1D
100
AcDbEntity
  8
0
100
AcDbLine
 10
27.4055
 20
4.71315
 30
0.0
 11
28.3533
 21
4.68519
 31
0.0
  0
LINE
  5
240
330
1D
100
AcDbEntity
  8
0
100
AcDbLine
 10
24.5327
 20
55.5985
 30
0.0
 11
26.708
 21
55.5652
 31
0.0
  0
LINE
  5
241
330
1D
100
AcDbEntity
  8
0
100
AcDbLine
 10
23.1662
 20
4.77684
 30
0.0
 11
24.545
 21
4.766
 31
0.0
  0
LINE
  5
242
330
1D
100
AcDbEntity
  8
0
100
AcDbLine
 10
24.545
 20
4.766
 30
0.0
 11
25.9707
 21
4.74532
 31
0.0
  0
LINE
  5
243
330
1D
100
AcDbEntity
  8
0
100
AcDbLine
 10
26.708
 20
55.5652
 30
0.0
 11
28.8221
 21
55.5097
 31
0.0
  0
LINE
  5
244
330
1D
100
AcDbEntity
  8
0
100
AcDbLine
 10
26.708
 20
55.5652
 30
0.0
 11
28.8223
 21
55.5097
 31
0.0
  0
LINE
  5
245
330
1D
100
AcDbEntity
  8
0
100
AcDbLine
 10
24.5329
 20
55.5985
 30
0.0
 11
26.708
 21
55.5652
 31
0.0
  0
LINE
  5
246
330
1D
100
AcDbEntity
  8
0
100
AcDbLine
 10
24.5449
 20
4.7657
 30
0.0
 11
25.9707
 21
4.74502
 31
0.0
  0
LINE
  5
247
330
1D
100
AcDbEntity
  8
0
100
AcDbLine
 10
23.1661
 20
4.77719
 30
0.0
 11
24.5449
 21
4.7657
 31
0.0
  0
LINE
  5
248
330
1D
100
AcDbEntity
  8
0
100
AcDbLine
 10
22.3278
 20
55.6092
 30
0.0
 11
24.5329
 21
55.5985
 31
0.0
  0
LINE
  5
24C
330
1D
100
AcDbEntity
  8
0
100
AcDbLine
 10
13.9442
 20
3.66173
 30
0.0
 11
14.8482
 21
3.70657
 31
0.0
  0
LINE
  5
24D
330
1D
100
AcDbEntity
  8
0
100
AcDbLine
 10
13.9442
 20
3.66173
 30
0.0
 11
14.8481
 21
3.70657
 31
0.0
  0
LINE
  5
251
330
1D
100
AcDbEntity
  8
0
100
AcDbLine
 10
17.7795
 20
56.0119
 30
0.0
 11
19.9194
 21
56.0492
 31
0.0
  0
LINE
  5
252
330
1D
100
AcDbEntity
  8
0
100
AcDbLine
 10
26.4282
 20
56.0245
 30
0.0
 11
28.5227
 21
55.9711
 31
0.0
  0
LINE
  5
253
330
1D
100
AcDbEntity
  8
0
100
AcDbLine
 10
17.7797
 20
56.0119
 30
0.0
 11
19.9194
 21
56.0492
 31
0.0
  0
LINE
  5
254
330
1D
100
AcDbEntity
  8
0
100
AcDbLine
 10
22.0953
 20
56.0638
 30
0.0
 11
24.2755
 21
56.0555
 31
0.0
  0
LINE
  5
256
330
1D
100
AcDbEntity
  8
0
100
AcDbLine
 10
22.095
 20
56.0638
 30
0.0
 11
24.2753
 21
56.0555
 31
0.0
  0
LINE
  5
257
330
1D
100
AcDbEntity
  8
0
100
AcDbLine
 10
24.2755
 20
56.0555
 30
0.0
 11
26.4282
 21
56.0245
 31
0.0
  0
LINE
  5
258
330
1D
100
AcDbEntity
  8
0
100
AcDbLine
 10
24.2753
 20
56.0555
 30
0.0
 11
26.4286
 21
56.0245
 31
0.0
  0
LINE
  5
259
330
1D
100
AcDbEntity
  8
0
100
AcDbLine
 10
19.9194
 20
56.0492
 30
0.0
 11
22.095
 21
56.0638
 31
0.0
  0
LINE
  5
25A
330
1D
100
AcDbEntity
  8
0
100
AcDbLine
 10
19.9194
 20
56.0492
 30
0.0
 11
22.0953
 21
56.0638
 31
0.0
  0
LINE
  5
25B
330
1D
100
AcDbEntity
  8
0
100
AcDbLine
 10
26.4286
 20
56.0245
 30
0.0
 11
28.5226
 21
55.9712
 31
0.0
  0
LINE
  5
272
330
1D
100
AcDbEntity
  8
0
100
AcDbLine
 10
9.87203
 20
56.7169
 30
0.0
 11
11.2786
 21
56.8176
 31
0.0
  0
LINE
  5
273
330
1D
100
AcDbEntity
  8
0
100
AcDbLine
 10
9.87216
 20
56.7168
 30
0.0
 11
11.2789
 21
56.8177
 31
0.0
  0
LINE
  5
277
330
1D
100
AcDbEntity
  8
0
100
AcDbLine
 10
11.2789
 20
56.8177
 30
0.0
 11
12.7923
 21
56.9061
 31
0.0
  0
LINE
  5
27B
330
1D
100
AcDbEntity
  8
0
100
AcDbLine
 10
12.7923
 20
56.9061
 30
0.0
 11
14.3799
 21
56.9804
 31
0.0
  0
LINE
  5
27D
330
1D
100
AcDbEntity
  8
0
100
AcDbLine
 10
14.3799
 20
56.9804
 30
0.0
 11
16.062
 21
57.0417
 31
0.0
  0
LINE
  5
281
330
1D
100
AcDbEntity
  8
0
100
AcDbLine
 10
16.062
 20
57.0417
 30
0.0
 11
17.7562
 21
57.0872
 31
0.0
  0
LINE
  5
285
330
1D
100
AcDbEntity
  8
0
100
AcDbLine
 10
17.7561
 20
57.087
 30
0.0
 11
19.417
 21
57.1173
 31
0.0
  0
LINE
  5
28A
330
1D
100
AcDbEntity
  8
0
100
AcDbLine
 10
23.7246
 20
57.1342
 30
0.0
 11
26.3519
 21
57.1015
 31
0.0
  0
LINE
  5
28B
330
1D
100
AcDbEntity
  8
0
100
AcDbLine
 10
19.4173
 20
57.1175
 30
0.0
 11
21.0704
 21
57.1343
 31
0.0
  0
LINE
  5
28E
330
1D
100
AcDbEntity
  8
0
100
AcDbLine
 10
21.0704
 20
57.1343
 30
0.0
 11
23.7246
 21
57.1342
 31
0.0
  0
LINE
  5
291
330
1D
100
AcDbEntity
  8
0
100
AcDbLine
 10
16.0621
 20
57.0415
 30
0.0
 11
17.7561
 21
57.087
 31
0.0
  0
LINE
  5
292
330
1D
100
AcDbEntity
  8
0
100
AcDbLine
 10
14.3801
 20
56.9803
 30
0.0
 11
16.0621
 21
57.0415
 31
0.0
  0
LINE
  5
293
330
1D
100
AcDbEntity
  8
0
100
AcDbLine
 10
12.792
 20
56.9062
 30
0.0
 11
14.3801
 21
56.9803
 31
0.0
  0
LINE
  5
294
330
1D
100
AcDbEntity
  8
0
100
AcDbLine
 10
11.2786
 20
56.8176
 30
0.0
 11
12.792
 21
56.9062
 31
0.0
  0
LINE
  5
2BB
330
1D
100
AcDbEntity
  8
0
100
AcDbLine
 10
24.2598
 20
145.6385
 30
0.0
 11
25.9544
 21
143.2825
 31
0.0
  0
LINE
  5
2BF
330
1D
100
AcDbEntity
  8
0
100
AcDbLine
 10
24.2594
 20
145.6385
 30
0.0
 11
25.9544
 21
143.2825
 31
0.0
  0
LINE
  5
2C3
330
1D
100
AcDbEntity
  8
0
100
AcDbLine
 10
24.4917
 20
146.9645
 30
0.0
 11
25.0256
 21
146.0085
 31
0.0
  0
LINE
  5
2CA
330
1D
100
AcDbEntity
  8
0
100
AcDbLine
 10
26.352
 20
57.1014
 30
0.0
 11
28.8982
 21
57.0365
 31
0.0
  0
LINE
  5
2D9
330
1D
100
AcDbEntity
  8
0
100
AcDbLine
 10
25.9544
 20
143.2825
 30
0.0
 11
27.9317
 21
141.1495
 31
0.0
  0
LINE
  5
2E9
330
1D
100
AcDbEntity
  8
0
100
AcDbLine
 10
25.8478
 20
144.8115
 30
0.0
 11
26.3534
 21
143.9915
 31
0.0
  0
LINE
  5
2EB
330
1D
100
AcDbEntity
  8
0
100
AcDbLine
 10
26.3534
 20
143.9915
 30
0.0
 11
27.5233
 21
142.6355
 31
0.0
  0
LINE
  5
2EE
330
1D
100
AcDbEntity
  8
0
100
AcDbLine
 10
25.0256
 20
146.0085
 30
0.0
 11
25.8478
 21
144.8115
 31
0.0
  0
LINE
  5
2F3
330
1D
100
AcDbEntity
  8
0
100
AcDbLine
 10
28.1589
 20
3.77532
 30
0.0
 11
29.4811
 21
3.72471
 31
0.0
  0
LINE
  5
2F6
330
1D
100
AcDbEntity
  8
0
100
AcDbLine
 10
29.4811
 20
3.72471
 30
0.0
 11
30.7491
 21
3.66354
 31
0.0
  0
LINE
  5
2F7
330
1D
100
AcDbEntity
  8
0
100
AcDbLine
 10
29.4811
 20
3.72471
 30
0.0
 11
30.7489
 21
3.66353
 31
0.0
  0
LINE
  5
2F8
330
1D
100
AcDbEntity
  8
0
100
AcDbLine
 10
28.3531
 20
4.68556
 30
0.0
 11
29.2754
 21
4.65242
 31
0.0
  0
LINE
  5
2FB
330
1D
100
AcDbEntity
  8
0
100
AcDbLine
 10
28.8223
 20
55.5097
 30
0.0
 11
30.8455
 21
55.4327
 31
0.0
  0
LINE
  5
2FC
330
1D
100
AcDbEntity
  8
0
100
AcDbLine
 10
29.2754
 20
4.65242
 30
0.0
 11
30.1648
 21
4.61463
 31
0.0
  0
LINE
  5
2FD
330
1D
100
AcDbEntity
  8
0
100
AcDbLine
 10
28.5227
 20
55.9711
 30
0.0
 11
30.5273
 21
55.8963
 31
0.0
  0
LINE
  5
2FE
330
1D
100
AcDbEntity
  8
0
100
AcDbLine
 10
28.5226
 20
55.9712
 30
0.0
 11
30.5275
 21
55.8963
 31
0.0
  0
LINE
  5
300
330
1D
100
AcDbEntity
  8
0
100
AcDbLine
 10
28.898
 20
57.0363
 30
0.0
 11
31.3121
 21
56.9408
 31
0.0
  0
LINE
  5
30C
330
1D
100
AcDbEntity
  8
0
100
AcDbLine
 10
28.8221
 20
55.5097
 30
0.0
 11
30.8455
 21
55.4327
 31
0.0
  0
LINE
  5
30E
330
1D
100
AcDbEntity
  8
0
100
AcDbLine
 10
29.2752
 20
4.65217
 30
0.0
 11
30.1649
 21
4.61458
 31
0.0
  0
LINE
  5
30F
330
1D
100
AcDbEntity
  8
0
100
AcDbLine
 10
30.1511
 20
139.2805
 30
0.0
 11
32.5699
 21
137.7145
 31
0.0
  0
LINE
  5
310
330
1D
100
AcDbEntity
  8
0
100
AcDbLine
 10
30.1513
 20
139.2805
 30
0.0
 11
32.5699
 21
137.7145
 31
0.0
  0
LINE
  5
313
330
1D
100
AcDbEntity
  8
0
100
AcDbLine
 10
27.9318
 20
141.1485
 30
0.0
 11
30.1511
 21
139.2805
 31
0.0
  0
LINE
  5
316
330
1D
100
AcDbEntity
  8
0
100
AcDbLine
 10
28.7931
 20
141.3745
 30
0.0
 11
30.1531
 21
140.2165
 31
0.0
  0
LINE
  5
318
330
1D
100
AcDbEntity
  8
0
100
AcDbLine
 10
27.9317
 20
141.1495
 30
0.0
 11
30.1513
 21
139.2805
 31
0.0
  0
LINE
  5
31B
330
1D
100
AcDbEntity
  8
0
100
AcDbLine
 10
30.1648
 20
4.61463
 30
0.0
 11
31.0269
 21
4.5724
 31
0.0
  0
LINE
  5
31E
330
1D
100
AcDbEntity
  8
0
100
AcDbLine
 10
30.1649
 20
4.61458
 30
0.0
 11
31.027
 21
4.5726
 31
0.0
  0
LINE
  5
31F
330
1D
100
AcDbEntity
  8
0
100
AcDbLine
 10
30.1531
 20
140.2165
 30
0.0
 11
31.5922
 21
139.1725
 31
0.0
  0
LINE
  5
32A
330
1D
100
AcDbEntity
  8
0
100
AcDbLine
 10
28.7933
 20
141.3745
 30
0.0
 11
30.1531
 21
140.2165
 31
0.0
  0
LINE
  5
32B
330
1D
100
AcDbEntity
  8
0
100
AcDbLine
 10
27.5233
 20
142.6355
 30
0.0
 11
28.7933
 21
141.3745
 31
0.0
  0
LINE
  5
32C
330
1D
100
AcDbEntity
  8
0
100
AcDbLine
 10
27.5233
 20
142.6355
 30
0.0
 11
28.7931
 21
141.3745
 31
0.0
  0
LINE
  5
330
330
1D
100
AcDbEntity
  8
0
100
AcDbLine
 10
6.7768
 20
2.12623
 30
0.0
 11
7.2844
 21
1.97122
 31
0.0
  0
LINE
  5
331
330
1D
100
AcDbEntity
  8
0
100
AcDbLine
 10
0.749761
 20
149.1385
 30
0.0
 11
1.29154
 21
151.0095
 31
0.0
  0
LINE
  5
332
330
1D
100
AcDbEntity
  8
0
100
AcDbLine
 10
1.29154
 20
151.0095
 30
0.0
 11
1.87764
 21
152.5815
 31
0.0
  0
LINE
  5
333
330
1D
100
AcDbEntity
  8
0
100
AcDbLine
 10
1.91425
 20
152.6895
 30
0.0
 11
2.60615
 21
154.2125
 31
0.0
  0
LINE
  5
334
330
1D
100
AcDbEntity
  8
0
100
AcDbLine
 10
1.87764
 20
152.5815
 30
0.0
 11
1.91425
 21
152.6895
 31
0.0
  0
LINE
  5
335
330
1D
100
AcDbEntity
  8
0
100
AcDbLine
 10
2.60615
 20
154.2125
 30
0.0
 11
2.65165
 21
154.3145
 31
0.0
  0
LINE
  5
337
330
1D
100
AcDbEntity
  8
0
100
AcDbLine
 10
2.65165
 20
154.3145
 30
0.0
 11
3.45163
 21
155.7935
 31
0.0
  0
LINE
  5
342
330
1D
100
AcDbEntity
  8
0
100
AcDbLine
 10
6.45059
 20
150.3695
 30
0.0
 11
7.2132
 21
151.8275
 31
0.0
  0
LINE
  5
346
330
1D
100
AcDbEntity
  8
0
100
AcDbLine
 10
8.06401
 20
153.2715
 30
0.0
 11
9.06061
 21
154.7805
 31
0.0
  0
LINE
  5
350
330
1D
100
AcDbEntity
  8
0
100
AcDbLine
 10
9.01075
 20
154.6995
 30
0.0
 11
9.06061
 21
154.7805
 31
0.0
  0
LINE
  5
351
330
1D
100
AcDbEntity
  8
0
100
AcDbLine
 10
9.01089
 20
154.6985
 30
0.0
 11
9.06044
 21
154.7805
 31
0.0
  0
LINE
  5
352
330
1D
100
AcDbEntity
  8
0
100
AcDbLine
 10
9.06044
 20
154.7805
 30
0.0
 11
10.8418
 21
157.1305
 31
0.0
  0
LINE
  5
357
330
1D
100
AcDbEntity
  8
0
100
AcDbLine
 10
7.2132
 20
151.8275
 30
0.0
 11
8.06401
 21
153.2715
 31
0.0
  0
LINE
  5
359
330
1D
100
AcDbEntity
  8
0
100
AcDbLine
 10
3.45163
 20
155.7935
 30
0.0
 11
3.50548
 21
155.8895
 31
0.0
  0
LINE
  5
35A
330
1D
100
AcDbEntity
  8
0
100
AcDbLine
 10
3.50548
 20
155.8895
 30
0.0
 11
4.40628
 21
157.3085
 31
0.0
  0
LINE
  5
35B
330
1D
100
AcDbEntity
  8
0
100
AcDbLine
 10
4.40628
 20
157.3085
 30
0.0
 11
5.76292
 21
159.1055
 31
0.0
  0
LINE
  5
369
330
1D
100
AcDbEntity
  8
0
100
AcDbLine
 10
23.9839
 20
147.8915
 30
0.0
 11
24.4917
 21
146.9645
 31
0.0
  0
LINE
  5
376
330
1D
100
AcDbEntity
  8
0
100
AcDbLine
 10
20.8827
 20
156.2935
 30
0.0
 11
20.9735
 21
158.9975
 31
0.0
  0
LINE
  5
377
330
1D
100
AcDbEntity
  8
0
100
AcDbLine
 10
20.8827
 20
156.2935
 30
0.0
 11
21.1752
 21
153.5515
 31
0.0
  0
LINE
  5
37C
330
1D
100
AcDbEntity
  8
0
100
AcDbLine
 10
21.1752
 20
153.5515
 30
0.0
 11
21.8459
 21
150.8255
 31
0.0
  0
LINE
  5
37E
330
1D
100
AcDbEntity
  8
0
100
AcDbLine
 10
20.8829
 20
156.2945
 30
0.0
 11
20.9739
 21
158.9975
 31
0.0
  0
LINE
  5
37F
330
1D
100
AcDbEntity
  8
0
100
AcDbLine
 10
20.8829
 20
156.2945
 30
0.0
 11
21.1752
 21
153.5515
 31
0.0
  0
LINE
  5
38A
330
1D
100
AcDbEntity
  8
0
100
AcDbLine
 10
10.8418
 20
157.1305
 30
0.0
 11
11.6838
 21
158.0215
 31
0.0
  0
LINE
  5
38B
330
1D
100
AcDbEntity
  8
0
100
AcDbLine
 10
11.6838
 20
158.0215
 30
0.0
 11
12.8521
 21
159.2305
 31
0.0
  0
LINE
  5
393
330
1D
100
AcDbEntity
  8
0
100
AcDbLine
 10
21.8456
 20
150.8255
 30
0.0
 11
22.8807
 21
148.1705
 31
0.0
  0
LINE
  5
394
330
1D
100
AcDbEntity
  8
0
100
AcDbLine
 10
21.8459
 20
150.8255
 30
0.0
 11
22.8807
 21
148.1695
 31
0.0
  0
LINE
  5
399
330
1D
100
AcDbEntity
  8
0
100
AcDbLine
 10
22.7346
 20
150.7785
 30
0.0
 11
23.1042
 21
149.8015
 31
0.0
  0
LINE
  5
39C
330
1D
100
AcDbEntity
  8
0
100
AcDbLine
 10
22.7348
 20
150.7785
 30
0.0
 11
23.1042
 21
149.8015
 31
0.0
  0
LINE
  5
39D
330
1D
100
AcDbEntity
  8
0
100
AcDbLine
 10
23.1042
 20
149.8015
 30
0.0
 11
23.521
 21
148.8385
 31
0.0
  0
LINE
  5
3A0
330
1D
100
AcDbEntity
  8
0
100
AcDbLine
 10
23.521
 20
148.8385
 30
0.0
 11
23.9839
 21
147.8915
 31
0.0
  0
LINE
  5
3A2
330
1D
100
AcDbEntity
  8
0
100
AcDbLine
 10
22.8807
 20
148.1705
 30
0.0
 11
24.2594
 21
145.6385
 31
0.0
  0
LINE
  5
3A8
330
1D
100
AcDbEntity
  8
0
100
AcDbLine
 10
21.624
 20
155.7725
 30
0.0
 11
21.746
 21
154.7675
 31
0.0
  0
LINE
  5
3A9
330
1D
100
AcDbEntity
  8
0
100
AcDbLine
 10
21.5532
 20
156.7755
 30
0.0
 11
21.6241
 21
155.7725
 31
0.0
  0
LINE
  5
3AA
330
1D
100
AcDbEntity
  8
0
100
AcDbLine
 10
21.5532
 20
156.7755
 30
0.0
 11
21.624
 21
155.7725
 31
0.0
  0
LINE
  5
3AB
330
1D
100
AcDbEntity
  8
0
100
AcDbLine
 10
21.6241
 20
155.7725
 30
0.0
 11
21.7459
 21
154.7685
 31
0.0
  0
LINE
  5
3B0
330
1D
100
AcDbEntity
  8
0
100
AcDbLine
 10
22.1411
 20
152.7625
 30
0.0
 11
22.4069
 21
151.6695
 31
0.0
  0
LINE
  5
3B3
330
1D
100
AcDbEntity
  8
0
100
AcDbLine
 10
22.4069
 20
151.6695
 30
0.0
 11
22.7348
 21
150.7785
 31
0.0
  0
LINE
  5
3B4
330
1D
100
AcDbEntity
  8
0
100
AcDbLine
 10
21.746
 20
154.7675
 30
0.0
 11
21.9184
 21
153.7635
 31
0.0
  0
LINE
  5
3B5
330
1D
100
AcDbEntity
  8
0
100
AcDbLine
 10
21.7459
 20
154.7685
 30
0.0
 11
21.9184
 21
153.7635
 31
0.0
  0
LINE
  5
3B6
330
1D
100
AcDbEntity
  8
0
100
AcDbLine
 10
21.9184
 20
153.7635
 30
0.0
 11
22.1411
 21
152.7625
 31
0.0
  0
LINE
  5
3B9
330
1D
100
AcDbEntity
  8
0
100
AcDbLine
 10
21.5335
 20
157.7735
 30
0.0
 11
21.5532
 21
156.7755
 31
0.0
  0
LINE
  5
3BA
330
1D
100
AcDbEntity
  8
0
100
AcDbLine
 10
21.5335
 20
157.7735
 30
0.0
 11
21.5651
 21
158.7645
 31
0.0
  0
LINE
  5
3BB
330
1D
100
AcDbEntity
  8
0
100
AcDbLine
 10
22.8807
 20
148.1695
 30
0.0
 11
24.2598
 21
145.6385
 31
0.0
  0
LINE
  5
3BF
330
1D
100
AcDbEntity
  8
0
100
AcDbLine
 10
20.9739
 20
158.9975
 30
0.0
 11
21.4476
 21
161.6085
 31
0.0
  0
LINE
  5
3C0
330
1D
100
AcDbEntity
  8
0
100
AcDbLine
 10
5.83929
 20
159.2145
 30
0.0
 11
7.34891
 21
160.8685
 31
0.0
  0
LINE
  5
3C1
330
1D
100
AcDbEntity
  8
0
100
AcDbLine
 10
5.76292
 20
159.1055
 30
0.0
 11
5.83929
 21
159.2145
 31
0.0
  0
LINE
  5
3C2
330
1D
100
AcDbEntity
  8
0
100
AcDbLine
 10
7.43467
 20
160.9655
 30
0.0
 11
9.08025
 21
162.4645
 31
0.0
  0
LINE
  5
3C3
330
1D
100
AcDbEntity
  8
0
100
AcDbLine
 10
7.34891
 20
160.8685
 30
0.0
 11
7.43467
 21
160.9655
 31
0.0
  0
LINE
  5
3C4
330
1D
100
AcDbEntity
  8
0
100
AcDbLine
 10
12.8521
 20
159.2305
 30
0.0
 11
13.9757
 21
160.2625
 31
0.0
  0
LINE
  5
3C6
330
1D
100
AcDbEntity
  8
0
100
AcDbLine
 10
9.08025
 20
162.4645
 30
0.0
 11
9.17374
 21
162.5485
 31
0.0
  0
LINE
  5
3C7
330
1D
100
AcDbEntity
  8
0
100
AcDbLine
 10
11.0421
 20
163.9575
 30
0.0
 11
12.4632
 21
164.8625
 31
0.0
  0
LINE
  5
3C8
330
1D
100
AcDbEntity
  8
0
100
AcDbLine
 10
10.942
 20
163.8855
 30
0.0
 11
11.0421
 21
163.9575
 31
0.0
  0
LINE
  5
3C9
330
1D
100
AcDbEntity
  8
0
100
AcDbLine
 10
12.4632
 20
164.8625
 30
0.0
 11
13.9429
 21
165.6655
 31
0.0
  0
LINE
  5
3CA
330
1D
100
AcDbEntity
  8
0
100
AcDbLine
 10
9.17374
 20
162.5485
 30
0.0
 11
10.942
 21
163.8855
 31
0.0
  0
LINE
  5
3CB
330
1D
100
AcDbEntity
  8
0
100
AcDbLine
 10
13.9757
 20
160.2625
 30
0.0
 11
14.9443
 21
161.1375
 31
0.0
  0
LINE
  5
3CE
330
1D
100
AcDbEntity
  8
0
100
AcDbLine
 10
14.9443
 20
161.1375
 30
0.0
 11
21.9359
 21
166.8935
 31
0.0
  0
LINE
  5
3D3
330
1D
100
AcDbEntity
  8
0
100
AcDbLine
 10
16.1329
 20
166.6495
 30
0.0
 11
16.2666
 21
166.7025
 31
0.0
  0
LINE
  5
3D4
330
1D
100
AcDbEntity
  8
0
100
AcDbLine
 10
14.0703
 20
165.7365
 30
0.0
 11
16.1329
 21
166.6495
 31
0.0
  0
LINE
  5
3D8
330
1D
100
AcDbEntity
  8
0
100
AcDbLine
 10
13.9429
 20
165.6655
 30
0.0
 11
14.0703
 21
165.7365
 31
0.0
  0
LINE
  5
3D9
330
1D
100
AcDbEntity
  8
0
100
AcDbLine
 10
18.4
 20
167.4185
 30
0.0
 11
20.5845
 21
167.9325
 31
0.0
  0
LINE
  5
3DA
330
1D
100
AcDbEntity
  8
0
100
AcDbLine
 10
16.2666
 20
166.7025
 30
0.0
 11
18.4
 21
167.4185
 31
0.0
  0
LINE
  5
3DC
330
1D
100
AcDbEntity
  8
0
100
AcDbLine
 10
21.4477
 20
161.6075
 30
0.0
 11
22.2952
 21
164.0715
 31
0.0
  0
LINE
  5
3DE
330
1D
100
AcDbEntity
  8
0
100
AcDbLine
 10
20.7222
 20
167.9675
 30
0.0
 11
22.942
 21
168.2785
 31
0.0
  0
LINE
  5
3DF
330
1D
100
AcDbEntity
  8
0
100
AcDbLine
 10
21.4476
 20
161.6085
 30
0.0
 11
22.2955
 21
164.0715
 31
0.0
  0
LINE
  5
3E0
330
1D
100
AcDbEntity
  8
0
100
AcDbLine
 10
20.5845
 20
167.9325
 30
0.0
 11
20.7222
 21
167.9675
 31
0.0
  0
LINE
  5
3E1
330
1D
100
AcDbEntity
  8
0
100
AcDbLine
 10
20.9735
 20
158.9975
 30
0.0
 11
21.4477
 21
161.6075
 31
0.0
  0
LINE
  5
3E6
330
1D
100
AcDbEntity
  8
0
100
AcDbLine
 10
21.9667
 20
161.6655
 30
0.0
 11
22.2016
 21
162.6005
 31
0.0
  0
LINE
  5
3E7
330
1D
100
AcDbEntity
  8
0
100
AcDbLine
 10
21.9667
 20
161.6665
 30
0.0
 11
22.2016
 21
162.6005
 31
0.0
  0
LINE
  5
3E8
330
1D
100
AcDbEntity
  8
0
100
AcDbLine
 10
21.7819
 20
160.7135
 30
0.0
 11
21.9667
 21
161.6665
 31
0.0
  0
LINE
  5
3E9
330
1D
100
AcDbEntity
  8
0
100
AcDbLine
 10
21.7819
 20
160.7135
 30
0.0
 11
21.9667
 21
161.6655
 31
0.0
  0
LINE
  5
3EB
330
1D
100
AcDbEntity
  8
0
100
AcDbLine
 10
21.5651
 20
158.7645
 30
0.0
 11
21.648
 21
159.7455
 31
0.0
  0
LINE
  5
3EE
330
1D
100
AcDbEntity
  8
0
100
AcDbLine
 10
22.2016
 20
162.6005
 30
0.0
 11
22.4863
 21
163.5145
 31
0.0
  0
LINE
  5
3EF
330
1D
100
AcDbEntity
  8
0
100
AcDbLine
 10
22.4863
 20
163.5145
 30
0.0
 11
22.7469
 21
164.2225
 31
0.0
  0
LINE
  5
3F1
330
1D
100
AcDbEntity
  8
0
100
AcDbLine
 10
22.2952
 20
164.0715
 30
0.0
 11
23.5004
 21
166.3395
 31
0.0
  0
LINE
  5
3F4
330
1D
100
AcDbEntity
  8
0
100
AcDbLine
 10
23.0374
 20
164.9145
 30
0.0
 11
23.3573
 21
165.5895
 31
0.0
  0
LINE
  5
3F5
330
1D
100
AcDbEntity
  8
0
100
AcDbLine
 10
22.7469
 20
164.2225
 30
0.0
 11
23.0374
 21
164.9145
 31
0.0
  0
LINE
  5
3F6
330
1D
100
AcDbEntity
  8
0
100
AcDbLine
 10
21.9359
 20
166.8935
 30
0.0
 11
24.4119
 21
168.5775
 31
0.0
  0
LINE
  5
3F7
330
1D
100
AcDbEntity
  8
0
100
AcDbLine
 10
23.2519
 20
167.788550080775
 30
0.0
 11
23.2519
 21
169.6395
 31
0.0
  0
LINE
  5
3F9
330
1D
100
AcDbEntity
  8
0
100
AcDbLine
 10
21.9362
 20
166.8925
 30
0.0
 11
24.4118
 21
168.5775
 31
0.0
  0
LINE
  5
3FA
330
1D
100
AcDbEntity
  8
0
100
AcDbLine
 10
23.3573
 20
165.5895
 30
0.0
 11
23.7063
 21
166.2465
 31
0.0
  0
LINE
  5
3FB
330
1D
100
AcDbEntity
  8
0
100
AcDbLine
 10
23.3573
 20
165.5895
 30
0.0
 11
23.7063
 21
166.2475
 31
0.0
  0
LINE
  5
3FC
330
1D
100
AcDbEntity
  8
0
100
AcDbLine
 10
23.5004
 20
166.3395
 30
0.0
 11
25.0398
 21
168.3655
 31
0.0
  0
LINE
  5
3FE
330
1D
100
AcDbEntity
  8
0
100
AcDbLine
 10
22.2955
 20
164.0715
 30
0.0
 11
23.5008
 21
166.3395
 31
0.0
  0
LINE
  5
400
330
1D
100
AcDbEntity
  8
0
100
AcDbLine
 10
23.7063
 20
166.2475
 30
0.0
 11
24.0838
 21
166.8855
 31
0.0
  0
LINE
  5
401
330
1D
100
AcDbEntity
  8
0
100
AcDbLine
 10
23.7063
 20
166.2465
 30
0.0
 11
24.084
 21
166.8855
 31
0.0
  0
LINE
  5
403
330
1D
100
AcDbEntity
  8
0
100
AcDbLine
 10
23.0817
 20
168.2955
 30
0.0
 11
23.2519
 21
168.303517242146
 31
0.0
  0
LINE
  5
405
330
1D
100
AcDbEntity
  8
0
100
AcDbLine
 10
23.2519
 20
169.6395
 30
0.0
 11
23.2519
 21
171.8215
 31
0.0
  0
LINE
  5
406
330
1D
100
AcDbEntity
  8
0
100
AcDbLine
 10
23.2519
 20
169.6395
 30
0.0
 11
23.2519
 21
167.788550080775
 31
0.0
  0
LINE
  5
407
330
1D
100
AcDbEntity
  8
0
100
AcDbLine
 10
22.942
 20
168.2785
 30
0.0
 11
23.0817
 21
168.2955
 31
0.0
  0
LINE
  5
414
330
1D
100
AcDbEntity
  8
0
100
AcDbLine
 10
24.4118
 20
168.5775
 30
0.0
 11
26.5191
 21
170.0585
 31
0.0
  0
LINE
  5
415
330
1D
100
AcDbEntity
  8
0
100
AcDbLine
 10
24.4119
 20
168.5775
 30
0.0
 11
26.5191
 21
170.0585
 31
0.0
  0
LINE
  5
418
330
1D
100
AcDbEntity
  8
0
100
AcDbLine
 10
24.084
 20
166.8855
 30
0.0
 11
24.5413
 21
167.5785
 31
0.0
  0
LINE
  5
41B
330
1D
100
AcDbEntity
  8
0
100
AcDbLine
 10
25.0394
 20
168.3655
 30
0.0
 11
25.471610430837
 21
168.774160879035
 31
0.0
  0
LINE
  5
421
330
1D
100
AcDbEntity
  8
0
100
AcDbLine
 10
25.6055
 20
168.9355
 30
0.0
 11
26.4431
 21
169.8175
 31
0.0
  0
LINE
  5
422
330
1D
100
AcDbEntity
  8
0
100
AcDbLine
 10
25.0553
 20
168.2725
 30
0.0
 11
25.6055
 21
168.9355
 31
0.0
  0
LINE
  5
423
330
1D
100
AcDbEntity
  8
0
100
AcDbLine
 10
24.5412
 20
167.5785
 30
0.0
 11
25.0553
 21
168.2725
 31
0.0
  0
LINE
  5
42F
330
1D
100
AcDbEntity
  8
0
100
AcDbLine
 10
26.5191
 20
170.0585
 30
0.0
 11
27.08181859675
 21
170.393202511078
 31
0.0
  0
LINE
  5
430
330
1D
100
AcDbEntity
  8
0
100
AcDbLine
 10
26.5191
 20
170.0585
 30
0.0
 11
27.081906855717
 21
170.3932820624
 31
0.0
  0
LINE
  5
431
330
1D
100
AcDbEntity
  8
0
100
AcDbLine
 10
26.4431
 20
169.8175
 30
0.0
 11
27.3462
 21
170.6315
 31
0.0
  0
LINE
  5
432
330
1D
100
AcDbEntity
  8
0
100
AcDbLine
 10
24.0838
 20
166.8855
 30
0.0
 11
24.5412
 21
167.5785
 31
0.0
  0
LINE
  5
433
330
1D
100
AcDbEntity
  8
0
100
AcDbLine
 10
22.4182
 20
173.7745
 30
0.0
 11
22.493
 21
173.7955
 31
0.0
  0
LINE
  5
435
330
1D
100
AcDbEntity
  8
0
100
AcDbLine
 10
23.1163
 20
173.6545
 30
0.0
 11
23.2519
 21
173.647415360502
 31
0.0
  0
LINE
  5
436
330
1D
100
AcDbEntity
  8
0
100
AcDbLine
 10
22.8719
 20
173.6715
 30
0.0
 11
23.1163
 21
173.6545
 31
0.0
  0
LINE
  5
43B
330
1D
100
AcDbEntity
  8
0
100
AcDbLine
 10
22.493
 20
173.7955
 30
0.0
 11
22.6221
 21
173.8155
 31
0.0
  0
LINE
  5
43C
330
1D
100
AcDbEntity
  8
0
100
AcDbLine
 10
23.0602
 20
173.7455
 30
0.0
 11
23.1191
 21
173.7275
 31
0.0
  0
LINE
  5
43D
330
1D
100
AcDbEntity
  8
0
100
AcDbLine
 10
23.1191
 20
173.7275
 30
0.0
 11
23.2315
 21
173.7095
 31
0.0
  0
LINE
  5
43E
330
1D
100
AcDbEntity
  8
0
100
AcDbLine
 10
23.2117
 20
173.8015
 30
0.0
 11
23.3684
 21
173.8185
 31
0.0
  0
LINE
  5
43F
330
1D
100
AcDbEntity
  8
0
100
AcDbLine
 10
23.1067
 20
173.7835
 30
0.0
 11
23.2117
 21
173.8015
 31
0.0
  0
LINE
  5
440
330
1D
100
AcDbEntity
  8
0
100
AcDbLine
 10
23.0561
 20
173.7645
 30
0.0
 11
23.1067
 21
173.7835
 31
0.0
  0
LINE
  5
441
330
1D
100
AcDbEntity
  8
0
100
AcDbLine
 10
22.5287
 20
173.7105
 30
0.0
 11
22.6748
 21
173.6905
 31
0.0
  0
LINE
  5
442
330
1D
100
AcDbEntity
  8
0
100
AcDbLine
 10
22.6748
 20
173.6905
 30
0.0
 11
22.8719
 21
173.6715
 31
0.0
  0
LINE
  5
443
330
1D
100
AcDbEntity
  8
0
100
AcDbLine
 10
22.4362
 20
173.7315
 30
0.0
 11
22.5287
 21
173.7105
 31
0.0
  0
LINE
  5
444
330
1D
100
AcDbEntity
  8
0
100
AcDbLine
 10
23.2519
 20
171.8215
 30
0.0
 11
23.2519
 21
173.805861199745
 31
0.0
  0
LINE
  5
445
330
1D
100
AcDbEntity
  8
0
100
AcDbLine
 10
23.2519
 20
171.8215
 30
0.0
 11
23.2519
 21
169.6395
 31
0.0
  0
LINE
  5
448
330
1D
100
AcDbEntity
  8
0
100
AcDbLine
 10
27.5693
 20
170.802486564886
 30
0.0
 11
27.5693
 21
171.8215
 31
0.0
  0
LINE
  5
449
330
1D
100
AcDbEntity
  8
0
100
AcDbLine
 10
27.3462
 20
170.6315
 30
0.0
 11
28.3287
 21
171.3845
 31
0.0
  0
LINE
  5
44A
330
1D
100
AcDbEntity
  8
0
100
AcDbLine
 10
27.5693
 20
173.647717518248
 30
0.0
 11
27.7882
 21
173.6605
 31
0.0
  0
LINE
  5
44B
330
1D
100
AcDbEntity
  8
0
100
AcDbLine
 10
27.5693
 20
173.707119119879
 30
0.0
 11
27.6746
 21
173.7215
 31
0.0
  0
LINE
  5
44C
330
1D
100
AcDbEntity
  8
0
100
AcDbLine
 10
27.5693
 20
173.647712851406
 30
0.0
 11
27.7882
 21
173.6605
 31
0.0
  0
LINE
  5
44D
330
1D
100
AcDbEntity
  8
0
100
AcDbLine
 10
27.5693
 20
171.8215
 30
0.0
 11
27.5693
 21
173.805037648613
 31
0.0
  0
LINE
  5
44E
330
1D
100
AcDbEntity
  8
0
100
AcDbLine
 10
27.5693
 20
171.8215
 30
0.0
 11
27.5693
 21
170.802486564886
 31
0.0
  0
LINE
  5
450
330
1D
100
AcDbEntity
  8
0
100
AcDbLine
 10
21.9028
 20
174.2455
 30
0.0
 11
21.9028
 21
188.2345
 31
0.0
  0
LINE
  5
451
330
1D
100
AcDbEntity
  8
0
100
AcDbLine
 10
21.9028
 20
174.2455
 30
0.0
 11
22.3992
 21
173.7535
 31
0.0
  0
LINE
  5
452
330
1D
100
AcDbEntity
  8
0
100
AcDbLine
 10
21.9605
 20
174.2905
 30
0.0
 11
22.0713
 21
174.3135
 31
0.0
  0
LINE
  5
453
330
1D
100
AcDbEntity
  8
0
100
AcDbLine
 10
21.904
 20
174.2685
 30
0.0
 11
21.9605
 21
174.2905
 31
0.0
  0
LINE
  5
454
330
1D
100
AcDbEntity
  8
0
100
AcDbLine
 10
22.0713
 20
174.3135
 30
0.0
 11
22.2349
 21
174.3345
 31
0.0
  0
LINE
  5
455
330
1D
100
AcDbEntity
  8
0
100
AcDbLine
 10
22.6221
 20
173.8155
 30
0.0
 11
22.8033
 21
173.8355
 31
0.0
  0
LINE
  5
456
330
1D
100
AcDbEntity
  8
0
100
AcDbLine
 10
22.2349
 20
174.3345
 30
0.0
 11
22.4485
 21
174.3545
 31
0.0
  0
LINE
  5
457
330
1D
100
AcDbEntity
  8
0
100
AcDbLine
 10
21.9028
 20
188.2345
 30
0.0
 11
21.9028
 21
174.2455
 31
0.0
  0
LINE
  5
458
330
1D
100
AcDbEntity
  8
0
100
AcDbLine
 10
21.9605
 20
188.2805
 30
0.0
 11
22.0713
 21
188.3025
 31
0.0
  0
LINE
  5
459
330
1D
100
AcDbEntity
  8
0
100
AcDbLine
 10
21.904
 20
188.2575
 30
0.0
 11
21.9605
 21
188.2805
 31
0.0
  0
LINE
  5
45A
330
1D
100
AcDbEntity
  8
0
100
AcDbLine
 10
21.904
 20
188.2575
 30
0.0
 11
22.4182
 21
188.7635
 31
0.0
  0
LINE
  5
45B
330
1D
100
AcDbEntity
  8
0
100
AcDbLine
 10
22.0713
 20
188.3025
 30
0.0
 11
22.2349
 21
188.3245
 31
0.0
  0
LINE
  5
45C
330
1D
100
AcDbEntity
  8
0
100
AcDbLine
 10
22.2349
 20
188.3245
 30
0.0
 11
22.4485
 21
188.3445
 31
0.0
  0
LINE
  5
45D
330
1D
100
AcDbEntity
  8
0
100
AcDbLine
 10
22.4485
 20
188.3445
 30
0.0
 11
22.7089
 21
188.3635
 31
0.0
  0
LINE
  5
45E
330
1D
100
AcDbEntity
  8
0
100
AcDbLine
 10
22.4485
 20
174.3545
 30
0.0
 11
22.7088
 21
174.3735
 31
0.0
  0
LINE
  5
45F
330
1D
100
AcDbEntity
  8
0
100
AcDbLine
 10
22.8033
 20
173.8355
 30
0.0
 11
23.0329
 21
173.8525
 31
0.0
  0
LINE
  5
460
330
1D
100
AcDbEntity
  8
0
100
AcDbLine
 10
22.7089
 20
188.3635
 30
0.0
 11
23.0118
 21
188.3795
 31
0.0
  0
LINE
  5
461
330
1D
100
AcDbEntity
  8
0
100
AcDbLine
 10
23.0329
 20
173.8525
 30
0.0
 11
23.3069
 21
173.8685
 31
0.0
  0
LINE
  5
462
330
1D
100
AcDbEntity
  8
0
100
AcDbLine
 10
23.3069
 20
173.8685
 30
0.0
 11
23.62
 21
173.8825
 31
0.0
  0
LINE
  5
463
330
1D
100
AcDbEntity
  8
0
100
AcDbLine
 10
23.0118
 20
188.3795
 30
0.0
 11
23.3526
 21
188.3945
 31
0.0
  0
LINE
  5
464
330
1D
100
AcDbEntity
  8
0
100
AcDbLine
 10
22.7088
 20
174.3735
 30
0.0
 11
23.7258
 21
174.4165
 31
0.0
  0
LINE
  5
465
330
1D
100
AcDbEntity
  8
0
100
AcDbLine
 10
22.6222
 20
188.8045
 30
0.0
 11
22.8033
 21
188.8245
 31
0.0
  0
LINE
  5
466
330
1D
100
AcDbEntity
  8
0
100
AcDbLine
 10
22.493
 20
188.7845
 30
0.0
 11
22.6221
 21
188.8045
 31
0.0
  0
LINE
  5
467
330
1D
100
AcDbEntity
  8
0
100
AcDbLine
 10
22.493
 20
188.7845
 30
0.0
 11
22.6222
 21
188.8045
 31
0.0
  0
LINE
  5
468
330
1D
100
AcDbEntity
  8
0
100
AcDbLine
 10
22.6221
 20
188.8045
 30
0.0
 11
22.8033
 21
188.8245
 31
0.0
  0
LINE
  5
469
330
1D
100
AcDbEntity
  8
0
100
AcDbLine
 10
22.8033
 20
188.8245
 30
0.0
 11
23.0329
 21
188.8415
 31
0.0
  0
LINE
  5
46A
330
1D
100
AcDbEntity
  8
0
100
AcDbLine
 10
23.0329
 20
188.8415
 30
0.0
 11
23.3069
 21
188.8575
 31
0.0
  0
LINE
  5
46B
330
1D
100
AcDbEntity
  8
0
100
AcDbLine
 10
23.3069
 20
188.8575
 30
0.0
 11
23.62
 21
188.8715
 31
0.0
  0
LINE
  5
46C
330
1D
100
AcDbEntity
  8
0
100
AcDbLine
 10
22.4182
 20
188.7635
 30
0.0
 11
22.493
 21
188.7845
 31
0.0
  0
LINE
  5
46D
330
1D
100
AcDbEntity
  8
0
100
AcDbLine
 10
23.5731
 20
173.8335
 30
0.0
 11
23.821
 21
173.8475
 31
0.0
  0
LINE
  5
46E
330
1D
100
AcDbEntity
  8
0
100
AcDbLine
 10
23.3684
 20
173.8185
 30
0.0
 11
23.5731
 21
173.8335
 31
0.0
  0
LINE
  5
46F
330
1D
100
AcDbEntity
  8
0
100
AcDbLine
 10
23.62
 20
173.8825
 30
0.0
 11
23.9665
 21
173.8945
 31
0.0
  0
LINE
  5
470
330
1D
100
AcDbEntity
  8
0
100
AcDbLine
 10
23.62
 20
188.8715
 30
0.0
 11
23.9665
 21
188.8835
 31
0.0
  0
LINE
  5
471
330
1D
100
AcDbEntity
  8
0
100
AcDbLine
 10
23.3526
 20
188.3945
 30
0.0
 11
23.7258
 21
188.4065
 31
0.0
  0
LINE
  5
472
330
1D
100
AcDbEntity
  8
0
100
AcDbLine
 10
23.2519
 20
173.805861199745
 30
0.0
 11
23.2519
 21
171.8215
 31
0.0
  0
LINE
  5
473
330
1D
100
AcDbEntity
  8
0
100
AcDbLine
 10
23.821
 20
173.8475
 30
0.0
 11
24.1062
 21
173.8595
 31
0.0
  0
LINE
  5
474
330
1D
100
AcDbEntity
  8
0
100
AcDbLine
 10
27.0303
 20
173.8455
 30
0.0
 11
27.2788
 21
173.8315
 31
0.0
  0
LINE
  5
475
330
1D
100
AcDbEntity
  8
0
100
AcDbLine
 10
24.2794
 20
173.8645
 30
0.0
 11
24.6172
 21
173.8725
 31
0.0
  0
LINE
  5
476
330
1D
100
AcDbEntity
  8
0
100
AcDbLine
 10
24.1062
 20
173.8595
 30
0.0
 11
24.2794
 21
173.8645
 31
0.0
  0
LINE
  5
477
330
1D
100
AcDbEntity
  8
0
100
AcDbLine
 10
26.742
 20
173.8585
 30
0.0
 11
27.0303
 21
173.8455
 31
0.0
  0
LINE
  5
478
330
1D
100
AcDbEntity
  8
0
100
AcDbLine
 10
27.2788
 20
173.8315
 30
0.0
 11
27.4813
 21
173.8155
 31
0.0
  0
LINE
  5
479
330
1D
100
AcDbEntity
  8
0
100
AcDbLine
 10
27.4813
 20
173.8155
 30
0.0
 11
27.6327
 21
173.7975
 31
0.0
  0
LINE
  5
47B
330
1D
100
AcDbEntity
  8
0
100
AcDbLine
 10
25.3427
 20
173.8795
 30
0.0
 11
25.7125
 21
173.8785
 31
0.0
  0
LINE
  5
47C
330
1D
100
AcDbEntity
  8
0
100
AcDbLine
 10
24.9746
 20
173.8775
 30
0.0
 11
25.3427
 21
173.8795
 31
0.0
  0
LINE
  5
47D
330
1D
100
AcDbEntity
  8
0
100
AcDbLine
 10
24.6172
 20
173.8725
 30
0.0
 11
24.9746
 21
173.8775
 31
0.0
  0
LINE
  5
47E
330
1D
100
AcDbEntity
  8
0
100
AcDbLine
 10
26.0749
 20
173.8745
 30
0.0
 11
26.4209
 21
173.8675
 31
0.0
  0
LINE
  5
47F
330
1D
100
AcDbEntity
  8
0
100
AcDbLine
 10
25.7125
 20
173.8785
 30
0.0
 11
26.0749
 21
173.8745
 31
0.0
  0
LINE
  5
480
330
1D
100
AcDbEntity
  8
0
100
AcDbLine
 10
24.3399
 20
173.9035
 30
0.0
 11
24.7332
 21
173.9095
 31
0.0
  0
LINE
  5
481
330
1D
100
AcDbEntity
  8
0
100
AcDbLine
 10
23.9665
 20
173.8945
 30
0.0
 11
24.3399
 21
173.9035
 31
0.0
  0
LINE
  5
484
330
1D
100
AcDbEntity
  8
0
100
AcDbLine
 10
23.7258
 20
188.4065
 30
0.0
 11
24.5457
 21
188.4235
 31
0.0
  0
LINE
  5
485
330
1D
100
AcDbEntity
  8
0
100
AcDbLine
 10
24.1256
 20
174.4265
 30
0.0
 11
24.5457
 21
174.4335
 31
0.0
  0
LINE
  5
486
330
1D
100
AcDbEntity
  8
0
100
AcDbLine
 10
24.7332
 20
173.9095
 30
0.0
 11
25.1392
 21
173.9125
 31
0.0
  0
LINE
  5
487
330
1D
100
AcDbEntity
  8
0
100
AcDbLine
 10
24.7332
 20
173.9095
 30
0.0
 11
25.1391
 21
173.9125
 31
0.0
  0
LINE
  5
488
330
1D
100
AcDbEntity
  8
0
100
AcDbLine
 10
24.5457
 20
188.4235
 30
0.0
 11
24.9794
 21
188.4275
 31
0.0
  0
LINE
  5
489
330
1D
100
AcDbEntity
  8
0
100
AcDbLine
 10
24.5457
 20
174.4335
 30
0.0
 11
24.9794
 21
174.4385
 31
0.0
  0
LINE
  5
48A
330
1D
100
AcDbEntity
  8
0
100
AcDbLine
 10
23.9665
 20
188.8835
 30
0.0
 11
24.3399
 21
188.8925
 31
0.0
  0
LINE
  5
48B
330
1D
100
AcDbEntity
  8
0
100
AcDbLine
 10
24.3399
 20
188.8925
 30
0.0
 11
24.7332
 21
188.8985
 31
0.0
  0
LINE
  5
48C
330
1D
100
AcDbEntity
  8
0
100
AcDbLine
 10
25.1391
 20
173.9125
 30
0.0
 11
25.5502
 21
173.9135
 31
0.0
  0
LINE
  5
48D
330
1D
100
AcDbEntity
  8
0
100
AcDbLine
 10
25.5502
 20
173.9135
 30
0.0
 11
25.9586
 21
173.9105
 31
0.0
  0
LINE
  5
48E
330
1D
100
AcDbEntity
  8
0
100
AcDbLine
 10
25.1392
 20
173.9125
 30
0.0
 11
25.5501
 21
173.9135
 31
0.0
  0
LINE
  5
48F
330
1D
100
AcDbEntity
  8
0
100
AcDbLine
 10
25.5501
 20
173.9135
 30
0.0
 11
25.9586
 21
173.9105
 31
0.0
  0
LINE
  5
490
330
1D
100
AcDbEntity
  8
0
100
AcDbLine
 10
25.9586
 20
173.9105
 30
0.0
 11
26.3568
 21
173.9055
 31
0.0
  0
LINE
  5
491
330
1D
100
AcDbEntity
  8
0
100
AcDbLine
 10
25.9586
 20
173.9105
 30
0.0
 11
26.3567
 21
173.9055
 31
0.0
  0
LINE
  5
492
330
1D
100
AcDbEntity
  8
0
100
AcDbLine
 10
24.9794
 20
174.4385
 30
0.0
 11
25.4199
 21
174.4395
 31
0.0
  0
LINE
  5
493
330
1D
100
AcDbEntity
  8
0
100
AcDbLine
 10
24.9794
 20
188.4275
 30
0.0
 11
25.4199
 21
188.4295
 31
0.0
  0
LINE
  5
494
330
1D
100
AcDbEntity
  8
0
100
AcDbLine
 10
25.4199
 20
188.4295
 30
0.0
 11
25.8603
 21
188.4275
 31
0.0
  0
LINE
  5
495
330
1D
100
AcDbEntity
  8
0
100
AcDbLine
 10
25.4199
 20
174.4395
 30
0.0
 11
25.8603
 21
174.4375
 31
0.0
  0
LINE
  5
496
330
1D
100
AcDbEntity
  8
0
100
AcDbLine
 10
25.8603
 20
188.4275
 30
0.0
 11
26.2935
 21
188.4235
 31
0.0
  0
LINE
  5
497
330
1D
100
AcDbEntity
  8
0
100
AcDbLine
 10
25.8603
 20
174.4375
 30
0.0
 11
26.2935
 21
174.4335
 31
0.0
  0
LINE
  5
498
330
1D
100
AcDbEntity
  8
0
100
AcDbLine
 10
24.7332
 20
188.8985
 30
0.0
 11
25.1391
 21
188.9015
 31
0.0
  0
LINE
  5
499
330
1D
100
AcDbEntity
  8
0
100
AcDbLine
 10
24.7332
 20
188.8985
 30
0.0
 11
25.1392
 21
188.9015
 31
0.0
  0
LINE
  5
49A
330
1D
100
AcDbEntity
  8
0
100
AcDbLine
 10
25.1392
 20
188.9015
 30
0.0
 11
25.5501
 21
188.9025
 31
0.0
  0
LINE
  5
49B
330
1D
100
AcDbEntity
  8
0
100
AcDbLine
 10
25.5501
 20
188.9025
 30
0.0
 11
25.9586
 21
188.8995
 31
0.0
  0
LINE
  5
49C
330
1D
100
AcDbEntity
  8
0
100
AcDbLine
 10
25.1391
 20
188.9015
 30
0.0
 11
25.5502
 21
188.9025
 31
0.0
  0
LINE
  5
49D
330
1D
100
AcDbEntity
  8
0
100
AcDbLine
 10
25.5502
 20
188.9025
 30
0.0
 11
25.9586
 21
188.8995
 31
0.0
  0
LINE
  5
49E
330
1D
100
AcDbEntity
  8
0
100
AcDbLine
 10
25.9586
 20
188.8995
 30
0.0
 11
26.3567
 21
188.8945
 31
0.0
  0
LINE
  5
49F
330
1D
100
AcDbEntity
  8
0
100
AcDbLine
 10
25.9586
 20
188.8995
 30
0.0
 11
26.3568
 21
188.8945
 31
0.0
  0
LINE
  5
4A0
330
1D
100
AcDbEntity
  8
0
100
AcDbLine
 10
23.7258
 20
174.4165
 30
0.0
 11
24.1256
 21
174.4265
 31
0.0
  0
LINE
  5
4A2
330
1D
100
AcDbEntity
  8
0
100
AcDbLine
 10
26.3567
 20
173.9055
 30
0.0
 11
26.7374
 21
173.8975
 31
0.0
  0
LINE
  5
4A3
330
1D
100
AcDbEntity
  8
0
100
AcDbLine
 10
26.3568
 20
173.9055
 30
0.0
 11
26.7374
 21
173.8975
 31
0.0
  0
LINE
  5
4A4
330
1D
100
AcDbEntity
  8
0
100
AcDbLine
 10
26.2935
 20
174.4335
 30
0.0
 11
26.7129
 21
174.4265
 31
0.0
  0
LINE
  5
4A5
330
1D
100
AcDbEntity
  8
0
100
AcDbLine
 10
26.2935
 20
188.4235
 30
0.0
 11
26.7129
 21
188.4165
 31
0.0
  0
LINE
  5
4A6
330
1D
100
AcDbEntity
  8
0
100
AcDbLine
 10
26.7129
 20
188.4165
 30
0.0
 11
27.1117
 21
188.4065
 31
0.0
  0
LINE
  5
4A7
330
1D
100
AcDbEntity
  8
0
100
AcDbLine
 10
26.7129
 20
174.4265
 30
0.0
 11
27.1117
 21
174.4165
 31
0.0
  0
LINE
  5
4A8
330
1D
100
AcDbEntity
  8
0
100
AcDbLine
 10
26.4209
 20
173.8675
 30
0.0
 11
26.742
 21
173.8585
 31
0.0
  0
LINE
  5
4A9
330
1D
100
AcDbEntity
  8
0
100
AcDbLine
 10
27.0932
 20
173.8865
 30
0.0
 11
27.4177
 21
173.8735
 31
0.0
  0
LINE
  5
4AA
330
1D
100
AcDbEntity
  8
0
100
AcDbLine
 10
27.4177
 20
173.8735
 30
0.0
 11
27.7049
 21
173.8585
 31
0.0
  0
LINE
  5
4AB
330
1D
100
AcDbEntity
  8
0
100
AcDbLine
 10
27.4177
 20
173.8735
 30
0.0
 11
27.7048
 21
173.8585
 31
0.0
  0
LINE
  5
4AC
330
1D
100
AcDbEntity
  8
0
100
AcDbLine
 10
27.1117
 20
188.4065
 30
0.0
 11
27.4837
 21
188.3935
 31
0.0
  0
LINE
  5
4AD
330
1D
100
AcDbEntity
  8
0
100
AcDbLine
 10
27.1117
 20
174.4165
 30
0.0
 11
27.4837
 21
174.4045
 31
0.0
  0
LINE
  5
4AE
330
1D
100
AcDbEntity
  8
0
100
AcDbLine
 10
27.4837
 20
188.3935
 30
0.0
 11
27.8229
 21
188.3795
 31
0.0
  0
LINE
  5
4AF
330
1D
100
AcDbEntity
  8
0
100
AcDbLine
 10
27.4837
 20
174.4045
 30
0.0
 11
27.8229
 21
174.3895
 31
0.0
  0
LINE
  5
4B0
330
1D
100
AcDbEntity
  8
0
100
AcDbLine
 10
26.7374
 20
173.8975
 30
0.0
 11
27.0932
 21
173.8865
 31
0.0
  0
LINE
  5
4B1
330
1D
100
AcDbEntity
  8
0
100
AcDbLine
 10
26.3568
 20
188.8945
 30
0.0
 11
26.7374
 21
188.8865
 31
0.0
  0
LINE
  5
4B2
330
1D
100
AcDbEntity
  8
0
100
AcDbLine
 10
26.3567
 20
188.8945
 30
0.0
 11
26.7374
 21
188.8865
 31
0.0
  0
LINE
  5
4B3
330
1D
100
AcDbEntity
  8
0
100
AcDbLine
 10
26.7374
 20
188.8865
 30
0.0
 11
27.0932
 21
188.8755
 31
0.0
  0
LINE
  5
4B4
330
1D
100
AcDbEntity
  8
0
100
AcDbLine
 10
27.0932
 20
188.8755
 30
0.0
 11
27.4177
 21
188.8625
 31
0.0
  0
LINE
  5
4B5
330
1D
100
AcDbEntity
  8
0
100
AcDbLine
 10
27.4177
 20
188.8625
 30
0.0
 11
27.7048
 21
188.8475
 31
0.0
  0
LINE
  5
4B6
330
1D
100
AcDbEntity
  8
0
100
AcDbLine
 10
27.4177
 20
188.8625
 30
0.0
 11
27.7049
 21
188.8475
 31
0.0
  0
LINE
  5
4B8
330
1D
100
AcDbEntity
  8
0
100
AcDbLine
 10
27.5693
 20
173.805037648613
 30
0.0
 11
27.5693
 21
171.8215
 31
0.0
  0
LINE
  5
4B9
330
1D
100
AcDbEntity
  8
0
100
AcDbLine
 10
27.7882
 20
173.6605
 30
0.0
 11
28.0179
 21
173.6775
 31
0.0
  0
LINE
  5
4BC
330
1D
100
AcDbEntity
  8
0
100
AcDbLine
 10
28.3287
 20
171.3845
 30
0.0
 11
29.101
 21
171.8955
 31
0.0
  0
LINE
  5
4BD
330
1D
100
AcDbEntity
  8
0
100
AcDbLine
 10
28.0179
 20
173.6775
 30
0.0
 11
28.199
 21
173.6975
 31
0.0
  0
LINE
  5
4BE
330
1D
100
AcDbEntity
  8
0
100
AcDbLine
 10
27.6746
 20
173.7215
 30
0.0
 11
27.7506
 21
173.7405
 31
0.0
  0
LINE
  5
4BF
330
1D
100
AcDbEntity
  8
0
100
AcDbLine
 10
27.6327
 20
173.7975
 30
0.0
 11
27.7294
 21
173.7795
 31
0.0
  0
LINE
  5
4C0
330
1D
100
AcDbEntity
  8
0
100
AcDbLine
 10
27.7048
 20
173.8585
 30
0.0
 11
27.9492
 21
173.8415
 31
0.0
  0
LINE
  5
4C1
330
1D
100
AcDbEntity
  8
0
100
AcDbLine
 10
27.8229
 20
188.3795
 30
0.0
 11
28.1242
 21
188.3625
 31
0.0
  0
LINE
  5
4C2
330
1D
100
AcDbEntity
  8
0
100
AcDbLine
 10
27.8229
 20
174.3895
 30
0.0
 11
28.1242
 21
174.3725
 31
0.0
  0
LINE
  5
4C3
330
1D
100
AcDbEntity
  8
0
100
AcDbLine
 10
28.1242
 20
188.3625
 30
0.0
 11
28.3826
 21
188.3435
 31
0.0
  0
LINE
  5
4C4
330
1D
100
AcDbEntity
  8
0
100
AcDbLine
 10
27.7049
 20
173.8585
 30
0.0
 11
27.9492
 21
173.8415
 31
0.0
  0
LINE
  5
4C5
330
1D
100
AcDbEntity
  8
0
100
AcDbLine
 10
28.1242
 20
174.3725
 30
0.0
 11
28.3826
 21
174.3535
 31
0.0
  0
LINE
  5
4C6
330
1D
100
AcDbEntity
  8
0
100
AcDbLine
 10
27.9492
 20
173.8415
 30
0.0
 11
28.1463
 21
173.8225
 31
0.0
  0
LINE
  5
4C7
330
1D
100
AcDbEntity
  8
0
100
AcDbLine
 10
28.2925
 20
173.8025
 30
0.0
 11
28.3849
 21
173.7815
 31
0.0
  0
LINE
  5
4C8
330
1D
100
AcDbEntity
  8
0
100
AcDbLine
 10
28.3281
 20
173.7175
 30
0.0
 11
28.4029
 21
173.7385
 31
0.0
  0
LINE
  5
4C9
330
1D
100
AcDbEntity
  8
0
100
AcDbLine
 10
28.1463
 20
173.8225
 30
0.0
 11
28.2925
 21
173.8025
 31
0.0
  0
LINE
  5
4CA
330
1D
100
AcDbEntity
  8
0
100
AcDbLine
 10
28.199
 20
173.6975
 30
0.0
 11
28.3281
 21
173.7175
 31
0.0
  0
LINE
  5
4CB
330
1D
100
AcDbEntity
  8
0
100
AcDbLine
 10
28.4029
 20
173.7385
 30
0.0
 11
28.9171
 21
174.2445
 31
0.0
  0
LINE
  5
4CC
330
1D
100
AcDbEntity
  8
0
100
AcDbLine
 10
28.3826
 20
188.3435
 30
0.0
 11
28.5942
 21
188.3235
 31
0.0
  0
LINE
  5
4CD
330
1D
100
AcDbEntity
  8
0
100
AcDbLine
 10
28.3826
 20
174.3535
 30
0.0
 11
28.5942
 21
174.3335
 31
0.0
  0
LINE
  5
4D3
330
1D
100
AcDbEntity
  8
0
100
AcDbLine
 10
28.5942
 20
188.3235
 30
0.0
 11
28.7556
 21
188.3015
 31
0.0
  0
LINE
  5
4DB
330
1D
100
AcDbEntity
  8
0
100
AcDbLine
 10
28.7556
 20
174.3125
 30
0.0
 11
28.8642
 21
174.2895
 31
0.0
  0
LINE
  5
4DC
330
1D
100
AcDbEntity
  8
0
100
AcDbLine
 10
28.7556
 20
188.3015
 30
0.0
 11
28.8642
 21
188.2795
 31
0.0
  0
LINE
  5
4DD
330
1D
100
AcDbEntity
  8
0
100
AcDbLine
 10
28.8642
 20
188.2795
 30
0.0
 11
28.9183
 21
188.2565
 31
0.0
  0
LINE
  5
4DE
330
1D
100
AcDbEntity
  8
0
100
AcDbLine
 10
28.8642
 20
174.2895
 30
0.0
 11
28.9183
 21
174.2675
 31
0.0
  0
LINE
  5
4DF
330
1D
100
AcDbEntity
  8
0
100
AcDbLine
 10
28.9183
 20
174.2675
 30
0.0
 11
28.9183
 21
188.2565
 31
0.0
  0
LINE
  5
4E0
330
1D
100
AcDbEntity
  8
0
100
AcDbLine
 10
28.9183
 20
188.2565
 30
0.0
 11
28.9183
 21
174.2675
 31
0.0
  0
LINE
  5
4E1
330
1D
100
AcDbEntity
  8
0
100
AcDbLine
 10
28.5942
 20
174.3335
 30
0.0
 11
28.7556
 21
174.3125
 31
0.0
  0
LINE
  5
4E3
330
1D
100
AcDbEntity
  8
0
100
AcDbLine
 10
28.4219
 20
188.7485
 30
0.0
 11
28.9183
 21
188.2565
 31
0.0
  0
LINE
  5
4E4
330
1D
100
AcDbEntity
  8
0
100
AcDbLine
 10
27.7048
 20
188.8475
 30
0.0
 11
27.9492
 21
188.8295
 31
0.0
  0
LINE
  5
4E5
330
1D
100
AcDbEntity
  8
0
100
AcDbLine
 10
27.7049
 20
188.8475
 30
0.0
 11
27.9492
 21
188.8295
 31
0.0
  0
LINE
  5
4E6
330
1D
100
AcDbEntity
  8
0
100
AcDbLine
 10
28.2925
 20
188.7915
 30
0.0
 11
28.3849
 21
188.7705
 31
0.0
  0
LINE
  5
4E7
330
1D
100
AcDbEntity
  8
0
100
AcDbLine
 10
28.1463
 20
188.8115
 30
0.0
 11
28.2925
 21
188.7915
 31
0.0
  0
LINE
  5
4E8
330
1D
100
AcDbEntity
  8
0
100
AcDbLine
 10
27.9492
 20
188.8295
 30
0.0
 11
28.1463
 21
188.8115
 31
0.0
  0
LINE
  5
4EA
330
1D
100
AcDbEntity
  8
0
100
AcDbLine
 10
30.4203
 20
0.164947
 30
0.0
 11
30.699
 21
0.185068
 31
0.0
  0
LINE
  5
4EB
330
1D
100
AcDbEntity
  8
0
100
AcDbLine
 10
30.4203
 20
0.164947
 30
0.0
 11
30.6992
 21
0.18507
 31
0.0
  0
LINE
  5
4EF
330
1D
100
AcDbEntity
  8
0
100
AcDbLine
 10
30.6992
 20
0.18507
 30
0.0
 11
31.3926
 21
0.244959
 31
0.0
  0
LINE
  5
4F0
330
1D
100
AcDbEntity
  8
0
100
AcDbLine
 10
30.699
 20
0.185068
 30
0.0
 11
31.3927
 21
0.244992
 31
0.0
  0
LINE
  5
4F3
330
1D
100
AcDbEntity
  8
0
100
AcDbLine
 10
31.3927
 20
0.244992
 30
0.0
 11
31.922
 21
0.299848
 31
0.0
  0
LINE
  5
4F4
330
1D
100
AcDbEntity
  8
0
100
AcDbLine
 10
31.9221
 20
0.299839
 30
0.0
 11
32.4204
 21
0.358339
 31
0.0
  0
LINE
  5
4F5
330
1D
100
AcDbEntity
  8
0
100
AcDbLine
 10
31.922
 20
0.299848
 30
0.0
 11
32.4204
 21
0.358339
 31
0.0
  0
LINE
  5
4F8
330
1D
100
AcDbEntity
  8
0
100
AcDbLine
 10
32.4204
 20
0.358339
 30
0.0
 11
32.9942
 21
0.433685
 31
0.0
  0
LINE
  5
4F9
330
1D
100
AcDbEntity
  8
0
100
AcDbLine
 10
32.9942
 20
0.433685
 30
0.0
 11
33.5162
 21
0.509506
 31
0.0
  0
LINE
  5
4FA
330
1D
100
AcDbEntity
  8
0
100
AcDbLine
 10
32.9942
 20
0.433685
 30
0.0
 11
33.5162
 21
0.509497
 31
0.0
  0
LINE
  5
503
330
1D
100
AcDbEntity
  8
0
100
AcDbLine
 10
33.5162
 20
0.509506
 30
0.0
 11
34.601
 21
0.670382
 31
0.0
  0
LINE
  5
508
330
1D
100
AcDbEntity
  8
0
100
AcDbLine
 10
34.601
 20
0.670382
 30
0.0
 11
36.1717
 21
0.976668
 31
0.0
  0
LINE
  5
53B
330
1D
100
AcDbEntity
  8
0
100
AcDbLine
 10
36.4549
 20
3.14428
 30
0.0
 11
37.0953
 21
3.0306
 31
0.0
  0
LINE
  5
53C
330
1D
100
AcDbEntity
  8
0
100
AcDbLine
 10
36.4548
 20
3.1443
 30
0.0
 11
37.0955
 21
3.0306
 31
0.0
  0
LINE
  5
53E
330
1D
100
AcDbEntity
  8
0
100
AcDbLine
 10
37.0953
 20
3.0306
 30
0.0
 11
37.6043
 21
2.91604
 31
0.0
  0
LINE
  5
53F
330
1D
100
AcDbEntity
  8
0
100
AcDbLine
 10
37.0955
 20
3.0306
 30
0.0
 11
37.6043
 21
2.91604
 31
0.0
  0
LINE
  5
543
330
1D
100
AcDbEntity
  8
0
100
AcDbLine
 10
34.4626
 20
3.3909
 30
0.0
 11
35.0343
 21
3.33102
 31
0.0
  0
LINE
  5
544
330
1D
100
AcDbEntity
  8
0
100
AcDbLine
 10
34.4628
 20
3.39088
 30
0.0
 11
35.0341
 21
3.33099
 31
0.0
  0
LINE
  5
547
330
1D
100
AcDbEntity
  8
0
100
AcDbLine
 10
33.0245
 20
3.51657
 30
0.0
 11
33.6632
 21
3.46457
 31
0.0
  0
LINE
  5
548
330
1D
100
AcDbEntity
  8
0
100
AcDbLine
 10
33.0243
 20
3.51656
 30
0.0
 11
33.6632
 21
3.46457
 31
0.0
  0
LINE
  5
54B
330
1D
100
AcDbEntity
  8
0
100
AcDbLine
 10
33.6632
 20
3.46457
 30
0.0
 11
34.4628
 21
3.39088
 31
0.0
  0
LINE
  5
54C
330
1D
100
AcDbEntity
  8
0
100
AcDbLine
 10
33.6632
 20
3.46457
 30
0.0
 11
34.4626
 21
3.3909
 31
0.0
  0
LINE
  5
54D
330
1D
100
AcDbEntity
  8
0
100
AcDbLine
 10
35.0343
 20
3.33102
 30
0.0
 11
35.5654
 21
3.26857
 31
0.0
  0
LINE
  5
54F
330
1D
100
AcDbEntity
  8
0
100
AcDbLine
 10
35.0341
 20
3.33099
 30
0.0
 11
35.5652
 21
3.26858
 31
0.0
  0
LINE
  5
550
330
1D
100
AcDbEntity
  8
0
100
AcDbLine
 10
35.5654
 20
3.26857
 30
0.0
 11
36.4549
 21
3.14428
 31
0.0
  0
LINE
  5
551
330
1D
100
AcDbEntity
  8
0
100
AcDbLine
 10
35.5652
 20
3.26858
 30
0.0
 11
36.4548
 21
3.1443
 31
0.0
  0
LINE
  5
555
330
1D
100
AcDbEntity
  8
0
100
AcDbLine
 10
37.6043
 20
2.91604
 30
0.0
 11
38.0179
 21
2.79537
 31
0.0
  0
LINE
  5
556
330
1D
100
AcDbEntity
  8
0
100
AcDbLine
 10
37.6043
 20
2.91604
 30
0.0
 11
38.0176
 21
2.79539
 31
0.0
  0
LINE
  5
557
330
1D
100
AcDbEntity
  8
0
100
AcDbLine
 10
38.4215
 20
1.65348
 30
0.0
 11
38.9226
 21
1.89938
 31
0.0
  0
LINE
  5
559
330
1D
100
AcDbEntity
  8
0
100
AcDbLine
 10
38.9226
 20
1.89938
 30
0.0
 11
39.4851
 21
2.44879
 31
0.0
  0
LINE
  5
55A
330
1D
100
AcDbEntity
  8
0
100
AcDbLine
 10
38.9226
 20
1.89938
 30
0.0
 11
39.4851
 21
2.44879
 31
0.0
  0
LINE
  5
55E
330
1D
100
AcDbEntity
  8
0
100
AcDbLine
 10
38.8106
 20
2.03382
 30
0.0
 11
38.8845
 21
2.20343
 31
0.0
  0
LINE
  5
55F
330
1D
100
AcDbEntity
  8
0
100
AcDbLine
 10
38.8106
 20
2.03382
 30
0.0
 11
38.8845
 21
2.20344
 31
0.0
  0
LINE
  5
563
330
1D
100
AcDbEntity
  8
0
100
AcDbLine
 10
38.8213
 20
2.38708
 30
0.0
 11
38.8845
 21
2.20343
 31
0.0
  0
LINE
  5
564
330
1D
100
AcDbEntity
  8
0
100
AcDbLine
 10
38.8213
 20
2.38708
 30
0.0
 11
38.8845
 21
2.20344
 31
0.0
  0
LINE
  5
568
330
1D
100
AcDbEntity
  8
0
100
AcDbLine
 10
38.7302
 20
2.48527
 30
0.0
 11
38.8213
 21
2.38708
 31
0.0
  0
LINE
  5
569
330
1D
100
AcDbEntity
  8
0
100
AcDbLine
 10
38.73
 20
2.48526
 30
0.0
 11
38.8213
 21
2.38708
 31
0.0
  0
LINE
  5
56C
330
1D
100
AcDbEntity
  8
0
100
AcDbLine
 10
39.2681
 20
3.51046
 30
0.0
 11
39.485
 21
3.38996
 31
0.0
  0
LINE
  5
56D
330
1D
100
AcDbEntity
  8
0
100
AcDbLine
 10
38.4394
 20
2.66948
 30
0.0
 11
38.7302
 21
2.48527
 31
0.0
  0
LINE
  5
56E
330
1D
100
AcDbEntity
  8
0
100
AcDbLine
 10
38.4392
 20
2.66949
 30
0.0
 11
38.73
 21
2.48526
 31
0.0
  0
LINE
  5
56F
330
1D
100
AcDbEntity
  8
0
100
AcDbLine
 10
39.485
 20
3.38996
 30
0.0
 11
39.6642
 21
3.23269
 31
0.0
  0
LINE
  5
570
330
1D
100
AcDbEntity
  8
0
100
AcDbLine
 10
39.6642
 20
3.23269
 30
0.0
 11
39.7304
 21
3.1083
 31
0.0
  0
LINE
  5
571
330
1D
100
AcDbEntity
  8
0
100
AcDbLine
 10
39.485
 20
3.39003
 30
0.0
 11
39.6643
 21
3.2328
 31
0.0
  0
LINE
  5
572
330
1D
100
AcDbEntity
  8
0
100
AcDbLine
 10
39.2681
 20
3.5105
 30
0.0
 11
39.485
 21
3.39003
 31
0.0
  0
LINE
  5
573
330
1D
100
AcDbEntity
  8
0
100
AcDbLine
 10
39.4851
 20
2.44879
 30
0.0
 11
39.6734
 21
2.72772
 31
0.0
  0
LINE
  5
574
330
1D
100
AcDbEntity
  8
0
100
AcDbLine
 10
38.2177
 20
1.57549
 30
0.0
 11
38.4215
 21
1.65348
 31
0.0
  0
LINE
  5
575
330
1D
100
AcDbEntity
  8
0
100
AcDbLine
 10
37.632
 20
1.35455
 30
0.0
 11
38.2177
 21
1.57549
 31
0.0
  0
LINE
  5
576
330
1D
100
AcDbEntity
  8
0
100
AcDbLine
 10
39.7304
 20
3.1083
 30
0.0
 11
39.7378
 21
3.04248
 31
0.0
  0
LINE
  5
577
330
1D
100
AcDbEntity
  8
0
100
AcDbLine
 10
39.7303
 20
3.10817
 30
0.0
 11
39.7378
 21
3.04235
 31
0.0
  0
LINE
  5
57C
330
1D
100
AcDbEntity
  8
0
100
AcDbLine
 10
39.6734
 20
2.72772
 30
0.0
 11
39.7378
 21
3.04248
 31
0.0
  0
LINE
  5
57D
330
1D
100
AcDbEntity
  8
0
100
AcDbLine
 10
39.6643
 20
3.2328
 30
0.0
 11
39.7303
 21
3.10817
 31
0.0
  0
LINE
  5
58B
330
1D
100
AcDbEntity
  8
0
100
AcDbLine
 10
30.7489
 20
3.66353
 30
0.0
 11
31.9222
 21
3.5944
 31
0.0
  0
LINE
  5
58C
330
1D
100
AcDbEntity
  8
0
100
AcDbLine
 10
31.867
 20
4.52529
 30
0.0
 11
32.6571
 21
4.47601
 31
0.0
  0
LINE
  5
58D
330
1D
100
AcDbEntity
  8
0
100
AcDbLine
 10
31.027
 20
4.5726
 30
0.0
 11
31.867
 21
4.52529
 31
0.0
  0
LINE
  5
58F
330
1D
100
AcDbEntity
  8
0
100
AcDbLine
 10
31.0269
 20
4.5724
 30
0.0
 11
31.867
 21
4.52562
 31
0.0
  0
LINE
  5
590
330
1D
100
AcDbEntity
  8
0
100
AcDbLine
 10
30.7491
 20
3.66354
 30
0.0
 11
31.922
 21
3.59443
 31
0.0
  0
LINE
  5
594
330
1D
100
AcDbEntity
  8
0
100
AcDbLine
 10
32.6571
 20
4.47601
 30
0.0
 11
33.9782
 21
4.37967
 31
0.0
  0
LINE
  5
596
330
1D
100
AcDbEntity
  8
0
100
AcDbLine
 10
33.9782
 20
4.37967
 30
0.0
 11
35.0257
 21
4.28793
 31
0.0
  0
LINE
  5
597
330
1D
100
AcDbEntity
  8
0
100
AcDbLine
 10
33.9784
 20
4.37966
 30
0.0
 11
35.0256
 21
4.28779
 31
0.0
  0
LINE
  5
598
330
1D
100
AcDbEntity
  8
0
100
AcDbLine
 10
35.0256
 20
4.28779
 30
0.0
 11
36.0071
 21
4.1849
 31
0.0
  0
LINE
  5
59A
330
1D
100
AcDbEntity
  8
0
100
AcDbLine
 10
31.9222
 20
3.5944
 30
0.0
 11
33.0245
 21
3.51657
 31
0.0
  0
LINE
  5
59B
330
1D
100
AcDbEntity
  8
0
100
AcDbLine
 10
31.922
 20
3.59443
 30
0.0
 11
33.0243
 21
3.51656
 31
0.0
  0
LINE
  5
59C
330
1D
100
AcDbEntity
  8
0
100
AcDbLine
 10
34.5067
 20
55.2193
 30
0.0
 11
36.093
 21
55.0858
 31
0.0
  0
LINE
  5
59E
330
1D
100
AcDbEntity
  8
0
100
AcDbLine
 10
38.2159
 20
3.84014
 30
0.0
 11
38.7004
 21
3.71696
 31
0.0
  0
LINE
  5
5A0
330
1D
100
AcDbEntity
  8
0
100
AcDbLine
 10
38.7004
 20
3.71696
 30
0.0
 11
38.9532
 21
3.63703
 31
0.0
  0
LINE
  5
5A1
330
1D
100
AcDbEntity
  8
0
100
AcDbLine
 10
38.7004
 20
3.71696
 30
0.0
 11
38.9531
 21
3.63703
 31
0.0
  0
LINE
  5
5A2
330
1D
100
AcDbEntity
  8
0
100
AcDbLine
 10
38.9532
 20
3.63703
 30
0.0
 11
39.2681
 21
3.5105
 31
0.0
  0
LINE
  5
5A5
330
1D
100
AcDbEntity
  8
0
100
AcDbLine
 10
38.9531
 20
3.63703
 30
0.0
 11
39.2681
 21
3.51046
 31
0.0
  0
LINE
  5
5A6
330
1D
100
AcDbEntity
  8
0
100
AcDbLine
 10
36.9628
 20
4.0618
 30
0.0
 11
37.6426
 21
3.95366
 31
0.0
  0
LINE
  5
5A7
330
1D
100
AcDbEntity
  8
0
100
AcDbLine
 10
37.6426
 20
3.95366
 30
0.0
 11
38.2159
 21
3.84014
 31
0.0
  0
LINE
  5
5A9
330
1D
100
AcDbEntity
  8
0
100
AcDbLine
 10
39.1898
 20
54.6856
 30
0.0
 11
39.8989
 21
54.5366
 31
0.0
  0
LINE
  5
5AA
330
1D
100
AcDbEntity
  8
0
100
AcDbLine
 10
39.1866
 20
55.0754
 30
0.0
 11
39.8709
 21
54.8954
 31
0.0
  0
LINE
  5
5AC
330
1D
100
AcDbEntity
  8
0
100
AcDbLine
 10
39.1867
 20
55.0755
 30
0.0
 11
39.8709
 21
54.8954
 31
0.0
  0
LINE
  5
5AD
330
1D
100
AcDbEntity
  8
0
100
AcDbLine
 10
39.19
 20
54.6856
 30
0.0
 11
39.8989
 21
54.5366
 31
0.0
  0
LINE
  5
5AE
330
1D
100
AcDbEntity
  8
0
100
AcDbLine
 10
38.3132
 20
54.8278
 30
0.0
 11
39.19
 21
54.6856
 31
0.0
  0
LINE
  5
5AF
330
1D
100
AcDbEntity
  8
0
100
AcDbLine
 10
38.3132
 20
54.8278
 30
0.0
 11
39.1898
 21
54.6856
 31
0.0
  0
LINE
  5
5B0
330
1D
100
AcDbEntity
  8
0
100
AcDbLine
 10
36.0073
 20
4.18517
 30
0.0
 11
36.9628
 21
4.0618
 31
0.0
  0
LINE
  5
5B6
330
1D
100
AcDbEntity
  8
0
100
AcDbLine
 10
36.093
 20
55.0858
 30
0.0
 11
37.2775
 21
54.9616
 31
0.0
  0
LINE
  5
5BA
330
1D
100
AcDbEntity
  8
0
100
AcDbLine
 10
39.8709
 20
54.8954
 30
0.0
 11
40.3004
 21
54.7096
 31
0.0
  0
LINE
  5
5BB
330
1D
100
AcDbEntity
  8
0
100
AcDbLine
 10
39.8709
 20
54.8954
 30
0.0
 11
40.3003
 21
54.7095
 31
0.0
  0
LINE
  5
5BC
330
1D
100
AcDbEntity
  8
0
100
AcDbLine
 10
39.8989
 20
54.5366
 30
0.0
 11
40.4329
 21
54.3821
 31
0.0
  0
LINE
  5
5BD
330
1D
100
AcDbEntity
  8
0
100
AcDbLine
 10
39.8141
 20
8.52086
 30
0.0
 11
39.957391922118
 21
15.915482460713
 31
0.0
  0
LINE
  5
5BE
330
1D
100
AcDbEntity
  8
0
100
AcDbLine
 10
39.8141
 20
8.52086
 30
0.0
 11
39.957391922118
 21
15.915482460713
 31
0.0
  0
LINE
  5
5BF
330
1D
100
AcDbEntity
  8
0
100
AcDbLine
 10
35.0257
 20
4.28793
 30
0.0
 11
36.0073
 21
4.18517
 31
0.0
  0
LINE
  5
5C0
330
1D
100
AcDbEntity
  8
0
100
AcDbLine
 10
30.5273
 20
55.8963
 30
0.0
 11
32.4139
 21
55.8009
 31
0.0
  0
LINE
  5
5C1
330
1D
100
AcDbEntity
  8
0
100
AcDbLine
 10
30.5275
 20
55.8963
 30
0.0
 11
32.414
 21
55.8009
 31
0.0
  0
LINE
  5
5C2
330
1D
100
AcDbEntity
  8
0
100
AcDbLine
 10
38.2577
 20
55.247
 30
0.0
 11
39.1866
 21
55.0754
 31
0.0
  0
LINE
  5
5C3
330
1D
100
AcDbEntity
  8
0
100
AcDbLine
 10
37.0976
 20
55.4075
 30
0.0
 11
38.2577
 21
55.247
 31
0.0
  0
LINE
  5
5C4
330
1D
100
AcDbEntity
  8
0
100
AcDbLine
 10
37.0978
 20
55.4075
 30
0.0
 11
38.2579
 21
55.247
 31
0.0
  0
LINE
  5
5C8
330
1D
100
AcDbEntity
  8
0
100
AcDbLine
 10
38.2579
 20
55.247
 30
0.0
 11
39.1867
 21
55.0755
 31
0.0
  0
LINE
  5
5C9
330
1D
100
AcDbEntity
  8
0
100
AcDbLine
 10
32.7493
 20
55.3355
 30
0.0
 11
34.5066
 21
55.2193
 31
0.0
  0
LINE
  5
5CA
330
1D
100
AcDbEntity
  8
0
100
AcDbLine
 10
32.749
 20
55.3355
 30
0.0
 11
34.5067
 21
55.2193
 31
0.0
  0
LINE
  5
5CB
330
1D
100
AcDbEntity
  8
0
100
AcDbLine
 10
35.7232
 20
55.5548
 30
0.0
 11
37.0976
 21
55.4075
 31
0.0
  0
LINE
  5
5CC
330
1D
100
AcDbEntity
  8
0
100
AcDbLine
 10
32.4139
 20
55.8009
 30
0.0
 11
34.1541
 21
55.6865
 31
0.0
  0
LINE
  5
5CE
330
1D
100
AcDbEntity
  8
0
100
AcDbLine
 10
32.414
 20
55.8009
 30
0.0
 11
34.154
 21
55.6865
 31
0.0
  0
LINE
  5
5D7
330
1D
100
AcDbEntity
  8
0
100
AcDbLine
 10
34.1541
 20
55.6865
 30
0.0
 11
35.7232
 21
55.5548
 31
0.0
  0
LINE
  5
5D8
330
1D
100
AcDbEntity
  8
0
100
AcDbLine
 10
34.154
 20
55.6865
 30
0.0
 11
35.7228
 21
55.5548
 31
0.0
  0
LINE
  5
5D9
330
1D
100
AcDbEntity
  8
0
100
AcDbLine
 10
35.7228
 20
55.5548
 30
0.0
 11
37.0978
 21
55.4075
 31
0.0
  0
LINE
  5
5DA
330
1D
100
AcDbEntity
  8
0
100
AcDbLine
 10
39.4686
 20
56.1633
 30
0.0
 11
40.1065
 21
56.0154
 31
0.0
  0
LINE
  5
5DB
330
1D
100
AcDbEntity
  8
0
100
AcDbLine
 10
39.4685
 20
56.1633
 30
0.0
 11
40.1063
 21
56.0152
 31
0.0
  0
LINE
  5
5E0
330
1D
100
AcDbEntity
  8
0
100
AcDbLine
 10
38.6321
 20
56.3107
 30
0.0
 11
39.4685
 21
56.1633
 31
0.0
  0
LINE
  5
5E1
330
1D
100
AcDbEntity
  8
0
100
AcDbLine
 10
38.6321
 20
56.3107
 30
0.0
 11
39.4686
 21
56.1633
 31
0.0
  0
LINE
  5
5E3
330
1D
100
AcDbEntity
  8
0
100
AcDbLine
 10
30.8455
 20
55.4327
 30
0.0
 11
32.7493
 21
55.3355
 31
0.0
  0
LINE
  5
5E4
330
1D
100
AcDbEntity
  8
0
100
AcDbLine
 10
30.8455
 20
55.4327
 30
0.0
 11
32.749
 21
55.3355
 31
0.0
  0
LINE
  5
5E9
330
1D
100
AcDbEntity
  8
0
100
AcDbLine
 10
40.1958
 20
25.2888
 30
0.0
 11
40.5221
 21
37.5676
 31
0.0
  0
LINE
  5
5EA
330
1D
100
AcDbEntity
  8
0
100
AcDbLine
 10
40.5221
 20
37.5676
 30
0.0
 11
40.7134
 21
44.7845
 31
0.0
  0
LINE
  5
5EB
330
1D
100
AcDbEntity
  8
0
100
AcDbLine
 10
40.2811
 20
54.7545
 30
0.0
 11
40.9039
 21
55.2206
 31
0.0
  0
LINE
  5
5EC
330
1D
100
AcDbEntity
  8
0
100
AcDbLine
 10
40.3004
 20
54.7096
 30
0.0
 11
40.7048
 21
54.4969
 31
0.0
  0
LINE
  5
5ED
330
1D
100
AcDbEntity
  8
0
100
AcDbLine
 10
40.7048
 20
54.4969
 30
0.0
 11
40.8881
 21
54.3152
 31
0.0
  0
LINE
  5
5EE
330
1D
100
AcDbEntity
  8
0
100
AcDbLine
 10
40.4329
 20
54.3821
 30
0.0
 11
40.8174
 21
54.2043
 31
0.0
  0
LINE
  5
5EF
330
1D
100
AcDbEntity
  8
0
100
AcDbLine
 10
40.4329
 20
54.3821
 30
0.0
 11
40.8177
 21
54.2043
 31
0.0
  0
LINE
  5
5F0
330
1D
100
AcDbEntity
  8
0
100
AcDbLine
 10
40.228801815582
 20
54.740573091187
 30
0.0
 11
40.2811
 21
54.7545
 31
0.0
  0
LINE
  5
5F1
330
1D
100
AcDbEntity
  8
0
100
AcDbLine
 10
40.1063
 20
56.0152
 30
0.0
 11
40.5823
 21
55.8597
 31
0.0
  0
LINE
  5
5F2
330
1D
100
AcDbEntity
  8
0
100
AcDbLine
 10
40.1065
 20
56.0154
 30
0.0
 11
40.582
 21
55.8599
 31
0.0
  0
LINE
  5
5F3
330
1D
100
AcDbEntity
  8
0
100
AcDbLine
 10
40.5823
 20
55.8597
 30
0.0
 11
40.8774
 21
55.7008
 31
0.0
  0
LINE
  5
5F4
330
1D
100
AcDbEntity
  8
0
100
AcDbLine
 10
40.582
 20
55.8599
 30
0.0
 11
40.8774
 21
55.7008
 31
0.0
  0
LINE
  5
5F7
330
1D
100
AcDbEntity
  8
0
100
AcDbLine
 10
39.9843
 20
17.0457
 30
0.0
 11
40.1958
 21
25.2888
 31
0.0
  0
LINE
  5
5F8
330
1D
100
AcDbEntity
  8
0
100
AcDbLine
 10
40.8177
 20
54.2043
 30
0.0
 11
40.9703
 21
54.0238
 31
0.0
  0
LINE
  5
5F9
330
1D
100
AcDbEntity
  8
0
100
AcDbLine
 10
40.8774
 20
55.7008
 30
0.0
 11
40.9887
 21
55.5431
 31
0.0
  0
LINE
  5
5FA
330
1D
100
AcDbEntity
  8
0
100
AcDbLine
 10
40.8774
 20
55.7008
 30
0.0
 11
40.9886
 21
55.543
 31
0.0
  0
LINE
  5
5FB
330
1D
100
AcDbEntity
  8
0
100
AcDbLine
 10
40.9039
 20
55.2206
 30
0.0
 11
40.9887
 21
55.5431
 31
0.0
  0
LINE
  5
5FC
330
1D
100
AcDbEntity
  8
0
100
AcDbLine
 10
40.8881
 20
54.3152
 30
0.0
 11
40.9703
 21
54.0238
 31
0.0
  0
LINE
  5
5FE
330
1D
100
AcDbEntity
  8
0
100
AcDbLine
 10
40.8174
 20
54.2043
 30
0.0
 11
40.9703
 21
54.0238
 31
0.0
  0
LINE
  5
5FF
330
1D
100
AcDbEntity
  8
0
100
AcDbLine
 10
40.7134
 20
44.7845
 30
0.0
 11
40.9703
 21
54.0238
 31
0.0
  0
LINE
  5
602
330
1D
100
AcDbEntity
  8
0
100
AcDbLine
 10
33.1243
 20
56.8425
 30
0.0
 11
35.3898
 21
56.6788
 31
0.0
  0
LINE
  5
603
330
1D
100
AcDbEntity
  8
0
100
AcDbLine
 10
33.1243
 20
56.8425
 30
0.0
 11
35.3898
 21
56.6786
 31
0.0
  0
LINE
  5
61F
330
1D
100
AcDbEntity
  8
0
100
AcDbLine
 10
35.6224
 20
56.6584
 30
0.0
 11
36.6876
 21
56.5566
 31
0.0
  0
LINE
  5
620
330
1D
100
AcDbEntity
  8
0
100
AcDbLine
 10
35.6223
 20
56.6586
 30
0.0
 11
36.6874
 21
56.5566
 31
0.0
  0
LINE
  5
621
330
1D
100
AcDbEntity
  8
0
100
AcDbLine
 10
35.3898
 20
56.6786
 30
0.0
 11
35.6223
 21
56.6586
 31
0.0
  0
LINE
  5
625
330
1D
100
AcDbEntity
  8
0
100
AcDbLine
 10
35.3898
 20
56.6788
 30
0.0
 11
35.6225
 21
56.6586
 31
0.0
  0
LINE
  5
627
330
1D
100
AcDbEntity
  8
0
100
AcDbLine
 10
36.6874
 20
56.5566
 30
0.0
 11
37.6816
 21
56.443
 31
0.0
  0
LINE
  5
628
330
1D
100
AcDbEntity
  8
0
100
AcDbLine
 10
37.6817
 20
56.443
 30
0.0
 11
38.6321
 21
56.3107
 31
0.0
  0
LINE
  5
629
330
1D
100
AcDbEntity
  8
0
100
AcDbLine
 10
37.6816
 20
56.443
 30
0.0
 11
38.6321
 21
56.3107
 31
0.0
  0
LINE
  5
630
330
1D
100
AcDbEntity
  8
0
100
AcDbLine
 10
36.6876
 20
56.5566
 30
0.0
 11
37.6817
 21
56.443
 31
0.0
  0
LINE
  5
633
330
1D
100
AcDbEntity
  8
0
100
AcDbLine
 10
40.9887
 20
55.5431
 30
0.0
 11
42.587256487314
 21
89.167126181786
 31
0.0
  0
LINE
  5
67F
330
1D
100
AcDbEntity
  8
0
100
AcDbLine
 10
40.5185
 20
135.1285
 30
0.0
 11
43.2189
 21
135.0325
 31
0.0
  0
LINE
  5
6C2
330
1D
100
AcDbEntity
  8
0
100
AcDbLine
 10
42.587256487314
 20
89.167126181786
 30
0.0
 11
43.2793
 21
100.0801
 31
0.0
  0
LINE
  5
6D2
330
1D
100
AcDbEntity
  8
0
100
AcDbLine
 10
44.2381
 20
111.8345
 30
0.0
 11
44.3795
 21
113.2815
 31
0.0
  0
LINE
  5
6D3
330
1D
100
AcDbEntity
  8
0
100
AcDbLine
 10
44.3795
 20
113.2815
 30
0.0
 11
44.5415
 21
114.3485
 31
0.0
  0
LINE
  5
6D4
330
1D
100
AcDbEntity
  8
0
100
AcDbLine
 10
44.7819
 20
115.8455
 30
0.0
 11
44.961262861061
 21
117.289781338737
 31
0.0
  0
LINE
  5
6D5
330
1D
100
AcDbEntity
  8
0
100
AcDbLine
 10
44.961262861061
 20
117.289781338737
 30
0.0
 11
45.5524
 21
120.0105
 31
0.0
  0
LINE
  5
6D6
330
1D
100
AcDbEntity
  8
0
100
AcDbLine
 10
45.5524
 20
120.0105
 30
0.0
 11
46.1357
 21
122.5805
 31
0.0
  0
LINE
  5
6D7
330
1D
100
AcDbEntity
  8
0
100
AcDbLine
 10
44.5415
 20
114.3485
 30
0.0
 11
44.7819
 21
115.8455
 31
0.0
  0
LINE
  5
6D8
330
1D
100
AcDbEntity
  8
0
100
AcDbLine
 10
44.1678
 20
111.3645
 30
0.0
 11
44.2381
 21
111.8345
 31
0.0
  0
LINE
  5
6F9
330
1D
100
AcDbEntity
  8
0
100
AcDbLine
 10
48.6094
 20
130.8725
 30
0.0
 11
49.3525
 21
132.1995
 31
0.0
  0
LINE
  5
6FE
330
1D
100
AcDbEntity
  8
0
100
AcDbLine
 10
49.3525
 20
132.1995
 30
0.0
 11
49.61917380815
 21
132.709591650655
 31
0.0
  0
LINE
  5
6FF
330
1D
100
AcDbEntity
  8
0
100
AcDbLine
 10
46.1357
 20
122.5805
 30
0.0
 11
47.455762411904
 21
127.483827970344
 31
0.0
  0
LINE
  5
701
330
1D
100
AcDbEntity
  8
0
100
AcDbLine
 10
43.2189
 20
135.0325
 30
0.0
 11
45.8511
 21
135.3275
 31
0.0
  0
LINE
  5
703
330
1D
100
AcDbEntity
  8
0
100
AcDbLine
 10
43.2188
 20
135.0325
 30
0.0
 11
45.8511
 21
135.3275
 31
0.0
  0
LINE
  5
706
330
1D
100
AcDbEntity
  8
0
100
AcDbLine
 10
45.8511
 20
135.3275
 30
0.0
 11
47.8849
 21
135.8475
 31
0.0
  0
LINE
  5
714
330
1D
100
AcDbEntity
  8
0
100
AcDbLine
 10
37.8064
 20
135.6165
 30
0.0
 11
40.5188
 21
135.1295
 31
0.0
  0
LINE
  5
716
330
1D
100
AcDbEntity
  8
0
100
AcDbLine
 10
37.9119
 20
136.2715
 30
0.0
 11
39.5713
 21
135.8945
 31
0.0
  0
LINE
  5
717
330
1D
100
AcDbEntity
  8
0
100
AcDbLine
 10
37.9122
 20
136.2715
 30
0.0
 11
39.5709
 21
135.8945
 31
0.0
  0
LINE
  5
719
330
1D
100
AcDbEntity
  8
0
100
AcDbLine
 10
35.1384
 20
136.4855
 30
0.0
 11
37.8068
 21
135.6175
 31
0.0
  0
LINE
  5
720
330
1D
100
AcDbEntity
  8
0
100
AcDbLine
 10
39.5709
 20
135.8945
 30
0.0
 11
41.2362
 21
135.6645
 31
0.0
  0
LINE
  5
727
330
1D
100
AcDbEntity
  8
0
100
AcDbLine
 10
39.5713
 20
135.8945
 30
0.0
 11
41.2362
 21
135.6645
 31
0.0
  0
LINE
  5
72E
330
1D
100
AcDbEntity
  8
0
100
AcDbLine
 10
34.6638
 20
137.4535
 30
0.0
 11
36.272
 21
136.7925
 31
0.0
  0
LINE
  5
732
330
1D
100
AcDbEntity
  8
0
100
AcDbLine
 10
33.0999
 20
138.2485
 30
0.0
 11
34.6641
 21
137.4535
 31
0.0
  0
LINE
  5
733
330
1D
100
AcDbEntity
  8
0
100
AcDbLine
 10
33.0999
 20
138.2485
 30
0.0
 11
34.6638
 21
137.4535
 31
0.0
  0
LINE
  5
737
330
1D
100
AcDbEntity
  8
0
100
AcDbLine
 10
36.272
 20
136.7925
 30
0.0
 11
37.9119
 21
136.2715
 31
0.0
  0
LINE
  5
738
330
1D
100
AcDbEntity
  8
0
100
AcDbLine
 10
36.2723
 20
136.7925
 30
0.0
 11
37.9122
 21
136.2715
 31
0.0
  0
LINE
  5
73F
330
1D
100
AcDbEntity
  8
0
100
AcDbLine
 10
34.6641
 20
137.4535
 30
0.0
 11
36.2723
 21
136.7925
 31
0.0
  0
LINE
  5
741
330
1D
100
AcDbEntity
  8
0
100
AcDbLine
 10
32.5699
 20
137.7145
 30
0.0
 11
35.1386
 21
136.4855
 31
0.0
  0
LINE
  5
742
330
1D
100
AcDbEntity
  8
0
100
AcDbLine
 10
32.5699
 20
137.7145
 30
0.0
 11
35.1384
 21
136.4855
 31
0.0
  0
LINE
  5
74A
330
1D
100
AcDbEntity
  8
0
100
AcDbLine
 10
31.5922
 20
139.1725
 30
0.0
 11
33.0999
 21
138.2485
 31
0.0
  0
LINE
  5
773
330
1D
100
AcDbEntity
  8
0
100
AcDbLine
 10
39.7216
 20
152.9225
 30
0.0
 11
40.6527
 21
152.3525
 31
0.0
  0
LINE
  5
774
330
1D
100
AcDbEntity
  8
0
100
AcDbLine
 10
39.7217
 20
152.9225
 30
0.0
 11
40.6527
 21
152.3525
 31
0.0
  0
LINE
  5
775
330
1D
100
AcDbEntity
  8
0
100
AcDbLine
 10
40.6527
 20
152.3525
 30
0.0
 11
41.7807
 21
151.8415
 31
0.0
  0
LINE
  5
776
330
1D
100
AcDbEntity
  8
0
100
AcDbLine
 10
40.6527
 20
152.3525
 30
0.0
 11
41.781
 21
151.8415
 31
0.0
  0
LINE
  5
77D
330
1D
100
AcDbEntity
  8
0
100
AcDbLine
 10
44.1369
 20
135.6145
 30
0.0
 11
45.106
 21
135.6865
 31
0.0
  0
LINE
  5
77E
330
1D
100
AcDbEntity
  8
0
100
AcDbLine
 10
42.8945
 20
135.5815
 30
0.0
 11
44.1369
 21
135.6145
 31
0.0
  0
LINE
  5
77F
330
1D
100
AcDbEntity
  8
0
100
AcDbLine
 10
44.1367
 20
135.6145
 30
0.0
 11
45.1058
 21
135.6865
 31
0.0
  0
LINE
  5
780
330
1D
100
AcDbEntity
  8
0
100
AcDbLine
 10
42.8943
 20
135.5815
 30
0.0
 11
44.1367
 21
135.6145
 31
0.0
  0
LINE
  5
781
330
1D
100
AcDbEntity
  8
0
100
AcDbLine
 10
45.106
 20
135.6865
 30
0.0
 11
46.0627
 21
135.8105
 31
0.0
  0
LINE
  5
782
330
1D
100
AcDbEntity
  8
0
100
AcDbLine
 10
45.1058
 20
135.6865
 30
0.0
 11
46.0627
 21
135.8105
 31
0.0
  0
LINE
  5
783
330
1D
100
AcDbEntity
  8
0
100
AcDbLine
 10
46.0627
 20
135.8105
 30
0.0
 11
47.0052
 21
135.9855
 31
0.0
  0
LINE
  5
789
330
1D
100
AcDbEntity
  8
0
100
AcDbLine
 10
47.8613
 20
136.1925
 30
0.0
 11
48.7005
 21
136.4425
 31
0.0
  0
LINE
  5
78B
330
1D
100
AcDbEntity
  8
0
100
AcDbLine
 10
47.0052
 20
135.9855
 30
0.0
 11
47.8615
 21
136.1925
 31
0.0
  0
LINE
  5
793
330
1D
100
AcDbEntity
  8
0
100
AcDbLine
 10
49.3744
 20
136.4115
 30
0.0
 11
50.791
 21
137.1155
 31
0.0
  0
LINE
  5
79E
330
1D
100
AcDbEntity
  8
0
100
AcDbLine
 10
44.0757
 20
151.1705
 30
0.0
 11
45.7581
 21
150.8655
 31
0.0
  0
LINE
  5
7A4
330
1D
100
AcDbEntity
  8
0
100
AcDbLine
 10
41.781
 20
151.8415
 30
0.0
 11
43.2376
 21
151.3725
 31
0.0
  0
LINE
  5
7A5
330
1D
100
AcDbEntity
  8
0
100
AcDbLine
 10
41.7807
 20
151.8415
 30
0.0
 11
43.2375
 21
151.3725
 31
0.0
  0
LINE
  5
7A6
330
1D
100
AcDbEntity
  8
0
100
AcDbLine
 10
43.2376
 20
151.3725
 30
0.0
 11
44.0757
 21
151.1705
 31
0.0
  0
LINE
  5
7A7
330
1D
100
AcDbEntity
  8
0
100
AcDbLine
 10
43.2375
 20
151.3725
 30
0.0
 11
44.0756
 21
151.1715
 31
0.0
  0
LINE
  5
7A8
330
1D
100
AcDbEntity
  8
0
100
AcDbLine
 10
44.0756
 20
151.1715
 30
0.0
 11
45.7583
 21
150.8645
 31
0.0
  0
LINE
  5
7A9
330
1D
100
AcDbEntity
  8
0
100
AcDbLine
 10
45.7583
 20
150.8645
 30
0.0
 11
48.4254
 21
150.5545
 31
0.0
  0
LINE
  5
7AA
330
1D
100
AcDbEntity
  8
0
100
AcDbLine
 10
45.7581
 20
150.8655
 30
0.0
 11
48.4255
 21
150.5545
 31
0.0
  0
LINE
  5
7B2
330
1D
100
AcDbEntity
  8
0
100
AcDbLine
 10
48.4254
 20
150.5545
 30
0.0
 11
51.0178
 21
150.4385
 31
0.0
  0
LINE
  5
7B3
330
1D
100
AcDbEntity
  8
0
100
AcDbLine
 10
48.4255
 20
150.5545
 30
0.0
 11
51.018
 21
150.4385
 31
0.0
  0
LINE
  5
7B8
330
1D
100
AcDbEntity
  8
0
100
AcDbLine
 10
49.5214
 20
136.7355
 30
0.0
 11
50.3973
 21
137.1045
 31
0.0
  0
LINE
  5
7BB
330
1D
100
AcDbEntity
  8
0
100
AcDbLine
 10
47.8848
 20
135.8475
 30
0.0
 11
49.3745
 21
136.4125
 31
0.0
  0
LINE
  5
7BD
330
1D
100
AcDbEntity
  8
0
100
AcDbLine
 10
41.2362
 20
135.6645
 30
0.0
 11
42.8943
 21
135.5815
 31
0.0
  0
LINE
  5
7BF
330
1D
100
AcDbEntity
  8
0
100
AcDbLine
 10
51.0533
 20
135.0825
 30
0.0
 11
54.348343742234
 21
139.683920651471
 31
0.0
  0
LINE
  5
7C0
330
1D
100
AcDbEntity
  8
0
100
AcDbLine
 10
51.0533
 20
135.0825
 30
0.0
 11
54.348343742234
 21
139.683920651471
 31
0.0
  0
LINE
  5
7C1
330
1D
100
AcDbEntity
  8
0
100
AcDbLine
 10
50.7908
 20
137.1165
 30
0.0
 11
52.727740502318
 21
138.420651499901
 31
0.0
  0
LINE
  5
7C4
330
1D
100
AcDbEntity
  8
0
100
AcDbLine
 10
50.7912
 20
137.1165
 30
0.0
 11
52.733750934305
 21
138.424553076021
 31
0.0
  0
LINE
  5
7C7
330
1D
100
AcDbEntity
  8
0
100
AcDbLine
 10
51.2363
 20
137.5175
 30
0.0
 11
52.0466
 21
137.9785
 31
0.0
  0
LINE
  5
7CA
330
1D
100
AcDbEntity
  8
0
100
AcDbLine
 10
54.2842
 20
139.6295
 30
0.0
 11
54.959
 21
140.2645
 31
0.0
  0
LINE
  5
7CB
330
1D
100
AcDbEntity
  8
0
100
AcDbLine
 10
55.5951
 20
140.9385
 30
0.0
 11
56.1909
 21
141.6515
 31
0.0
  0
LINE
  5
7CC
330
1D
100
AcDbEntity
  8
0
100
AcDbLine
 10
54.959
 20
140.2645
 30
0.0
 11
55.5951
 21
140.9385
 31
0.0
  0
LINE
  5
7CD
330
1D
100
AcDbEntity
  8
0
100
AcDbLine
 10
53.5726
 20
139.0355
 30
0.0
 11
54.2842
 21
139.6295
 31
0.0
  0
LINE
  5
7CE
330
1D
100
AcDbEntity
  8
0
100
AcDbLine
 10
52.8261
 20
138.4845
 30
0.0
 11
53.5726
 21
139.0355
 31
0.0
  0
LINE
  5
7D2
330
1D
100
AcDbEntity
  8
0
100
AcDbLine
 10
56.1909
 20
141.6515
 30
0.0
 11
56.6788
 21
142.3055
 31
0.0
  0
LINE
  5
7D3
330
1D
100
AcDbEntity
  8
0
100
AcDbLine
 10
52.0466
 20
137.9785
 30
0.0
 11
52.8261
 21
138.4845
 31
0.0
  0
LINE
  5
7D4
330
1D
100
AcDbEntity
  8
0
100
AcDbLine
 10
56.6788
 20
142.3055
 30
0.0
 11
58.1185
 21
144.2405
 31
0.0
  0
LINE
  5
7D5
330
1D
100
AcDbEntity
  8
0
100
AcDbLine
 10
58.1185
 20
144.2405
 30
0.0
 11
59.1835
 21
145.6885
 31
0.0
  0
LINE
  5
7D6
330
1D
100
AcDbEntity
  8
0
100
AcDbLine
 10
59.1835
 20
145.6885
 30
0.0
 11
61.0028
 21
148.1905
 31
0.0
  0
LINE
  5
7DD
330
1D
100
AcDbEntity
  8
0
100
AcDbLine
 10
51.018
 20
150.4385
 30
0.0
 11
53.5403
 21
150.5225
 31
0.0
  0
LINE
  5
7E7
330
1D
100
AcDbEntity
  8
0
100
AcDbLine
 10
53.5403
 20
150.5225
 30
0.0
 11
55.1809
 21
150.6895
 31
0.0
  0
LINE
  5
7E8
330
1D
100
AcDbEntity
  8
0
100
AcDbLine
 10
51.0178
 20
150.4385
 30
0.0
 11
53.5405
 21
150.5235
 31
0.0
  0
LINE
  5
803
330
1D
100
AcDbEntity
  8
0
100
AcDbLine
 10
53.5405
 20
150.5235
 30
0.0
 11
55.1809
 21
150.6895
 31
0.0
  0
LINE
  5
804
330
1D
100
AcDbEntity
  8
0
100
AcDbLine
 10
58.5497
 20
151.4485
 30
0.0
 11
58.8079
 21
151.5385
 31
0.0
  0
LINE
  5
807
330
1D
100
AcDbEntity
  8
0
100
AcDbLine
 10
58.8079
 20
151.5385
 30
0.0
 11
60.6476
 21
152.2895
 31
0.0
  0
LINE
  5
808
330
1D
100
AcDbEntity
  8
0
100
AcDbLine
 10
58.808
 20
151.5385
 30
0.0
 11
60.6474
 21
152.2895
 31
0.0
  0
LINE
  5
809
330
1D
100
AcDbEntity
  8
0
100
AcDbLine
 10
58.5497
 20
151.4495
 30
0.0
 11
58.808
 21
151.5385
 31
0.0
  0
LINE
  5
80A
330
1D
100
AcDbEntity
  8
0
100
AcDbLine
 10
57.4965
 20
151.1335
 30
0.0
 11
58.5497
 21
151.4485
 31
0.0
  0
LINE
  5
80B
330
1D
100
AcDbEntity
  8
0
100
AcDbLine
 10
57.4965
 20
151.1335
 30
0.0
 11
58.5497
 21
151.4495
 31
0.0
  0
LINE
  5
80C
330
1D
100
AcDbEntity
  8
0
100
AcDbLine
 10
61.0028
 20
148.1905
 30
0.0
 11
62.8218
 21
150.7015
 31
0.0
  0
LINE
  5
80D
330
1D
100
AcDbEntity
  8
0
100
AcDbLine
 10
60.6476
 20
152.2895
 30
0.0
 11
62.3938
 21
153.2105
 31
0.0
  0
LINE
  5
80E
330
1D
100
AcDbEntity
  8
0
100
AcDbLine
 10
60.6474
 20
152.2895
 30
0.0
 11
62.3939
 21
153.2105
 31
0.0
  0
LINE
  5
811
330
1D
100
AcDbEntity
  8
0
100
AcDbLine
 10
62.8218
 20
150.7015
 30
0.0
 11
63.8864
 21
152.1755
 31
0.0
  0
LINE
  5
813
330
1D
100
AcDbEntity
  8
0
100
AcDbLine
 10
63.8864
 20
152.1755
 30
0.0
 11
65.0153
 21
153.7405
 31
0.0
  0
LINE
  5
815
330
1D
100
AcDbEntity
  8
0
100
AcDbLine
 10
50.3973
 20
137.1045
 30
0.0
 11
51.2363
 21
137.5175
 31
0.0
  0
LINE
  5
820
330
1D
100
AcDbEntity
  8
0
100
AcDbLine
 10
36.8201
 20
159.6925
 30
0.0
 11
36.8773
 21
158.8445
 31
0.0
  0
LINE
  5
822
330
1D
100
AcDbEntity
  8
0
100
AcDbLine
 10
36.8773
 20
158.8445
 30
0.0
 11
37.0513
 21
157.5695
 31
0.0
  0
LINE
  5
82A
330
1D
100
AcDbEntity
  8
0
100
AcDbLine
 10
36.82
 20
159.6925
 30
0.0
 11
36.8775
 21
158.8445
 31
0.0
  0
LINE
  5
832
330
1D
100
AcDbEntity
  8
0
100
AcDbLine
 10
37.5127
 20
155.8715
 30
0.0
 11
37.9388
 21
154.9255
 31
0.0
  0
LINE
  5
835
330
1D
100
AcDbEntity
  8
0
100
AcDbLine
 10
37.0513
 20
157.5695
 30
0.0
 11
37.2019
 21
156.8795
 31
0.0
  0
LINE
  5
836
330
1D
100
AcDbEntity
  8
0
100
AcDbLine
 10
37.0513
 20
157.5685
 30
0.0
 11
37.2019
 21
156.8795
 31
0.0
  0
LINE
  5
837
330
1D
100
AcDbEntity
  8
0
100
AcDbLine
 10
37.2019
 20
156.8795
 30
0.0
 11
37.5127
 21
155.8715
 31
0.0
  0
LINE
  5
838
330
1D
100
AcDbEntity
  8
0
100
AcDbLine
 10
36.8775
 20
158.8445
 30
0.0
 11
37.0513
 21
157.5685
 31
0.0
  0
LINE
  5
839
330
1D
100
AcDbEntity
  8
0
100
AcDbLine
 10
36.9503
 20
164.0215
 30
0.0
 11
37.0019
 21
164.5435
 31
0.0
  0
LINE
  5
83A
330
1D
100
AcDbEntity
  8
0
100
AcDbLine
 10
37.0019
 20
164.5435
 30
0.0
 11
37.3734
 21
167.1065
 31
0.0
  0
LINE
  5
83B
330
1D
100
AcDbEntity
  8
0
100
AcDbLine
 10
37.0021
 20
164.5435
 30
0.0
 11
37.3732
 21
167.1065
 31
0.0
  0
LINE
  5
83C
330
1D
100
AcDbEntity
  8
0
100
AcDbLine
 10
36.9504
 20
164.0215
 30
0.0
 11
37.0021
 21
164.5435
 31
0.0
  0
LINE
  5
83D
330
1D
100
AcDbEntity
  8
0
100
AcDbLine
 10
36.8036
 20
161.3785
 30
0.0
 11
36.82
 21
159.6925
 31
0.0
  0
LINE
  5
83E
330
1D
100
AcDbEntity
  8
0
100
AcDbLine
 10
36.8036
 20
161.3785
 30
0.0
 11
36.9504
 21
164.0215
 31
0.0
  0
LINE
  5
83F
330
1D
100
AcDbEntity
  8
0
100
AcDbLine
 10
36.8036
 20
161.3785
 30
0.0
 11
36.9503
 21
164.0215
 31
0.0
  0
LINE
  5
840
330
1D
100
AcDbEntity
  8
0
100
AcDbLine
 10
36.8036
 20
161.3785
 30
0.0
 11
36.8201
 21
159.6925
 31
0.0
  0
LINE
  5
857
330
1D
100
AcDbEntity
  8
0
100
AcDbLine
 10
37.3734
 20
167.1065
 30
0.0
 11
37.8751
 21
169.3365
 31
0.0
  0
LINE
  5
858
330
1D
100
AcDbEntity
  8
0
100
AcDbLine
 10
37.3732
 20
167.1065
 30
0.0
 11
37.8751
 21
169.3355
 31
0.0
  0
LINE
  5
864
330
1D
100
AcDbEntity
  8
0
100
AcDbLine
 10
33.8678
 20
174.5515
 30
0.0
 11
35.6326
 21
175.4965
 31
0.0
  0
LINE
  5
865
330
1D
100
AcDbEntity
  8
0
100
AcDbLine
 10
35.6326
 20
175.4965
 30
0.0
 11
38.0878
 21
176.8215
 31
0.0
  0
LINE
  5
86E
330
1D
100
AcDbEntity
  8
0
100
AcDbLine
 10
39.4027
 20
153.1645
 30
0.0
 11
39.7217
 21
152.9225
 31
0.0
  0
LINE
  5
86F
330
1D
100
AcDbEntity
  8
0
100
AcDbLine
 10
38.6214
 20
153.9285
 30
0.0
 11
39.4027
 21
153.1645
 31
0.0
  0
LINE
  5
870
330
1D
100
AcDbEntity
  8
0
100
AcDbLine
 10
39.403
 20
153.1645
 30
0.0
 11
39.7216
 21
152.9225
 31
0.0
  0
LINE
  5
871
330
1D
100
AcDbEntity
  8
0
100
AcDbLine
 10
38.6212
 20
153.9285
 30
0.0
 11
39.403
 21
153.1645
 31
0.0
  0
LINE
  5
872
330
1D
100
AcDbEntity
  8
0
100
AcDbLine
 10
37.9388
 20
154.9255
 30
0.0
 11
38.253
 21
154.4105
 31
0.0
  0
LINE
  5
873
330
1D
100
AcDbEntity
  8
0
100
AcDbLine
 10
37.9388
 20
154.9255
 30
0.0
 11
38.253
 21
154.4095
 31
0.0
  0
LINE
  5
874
330
1D
100
AcDbEntity
  8
0
100
AcDbLine
 10
62.3938
 20
153.2105
 30
0.0
 11
64.0237
 21
154.3065
 31
0.0
  0
LINE
  5
877
330
1D
100
AcDbEntity
  8
0
100
AcDbLine
 10
64.0237
 20
154.3065
 30
0.0
 11
64.7888
 21
154.9235
 31
0.0
  0
LINE
  5
878
330
1D
100
AcDbEntity
  8
0
100
AcDbLine
 10
64.0237
 20
154.3065
 30
0.0
 11
64.789
 21
154.9235
 31
0.0
  0
LINE
  5
87A
330
1D
100
AcDbEntity
  8
0
100
AcDbLine
 10
64.789
 20
154.9235
 30
0.0
 11
65.5144
 21
155.5855
 31
0.0
  0
LINE
  5
87C
330
1D
100
AcDbEntity
  8
0
100
AcDbLine
 10
64.7888
 20
154.9235
 30
0.0
 11
65.5144
 21
155.5855
 31
0.0
  0
LINE
  5
87D
330
1D
100
AcDbEntity
  8
0
100
AcDbLine
 10
65.0153
 20
153.7405
 30
0.0
 11
66.0595
 21
155.1925
 31
0.0
  0
LINE
  5
87E
330
1D
100
AcDbEntity
  8
0
100
AcDbLine
 10
62.3939
 20
153.2105
 30
0.0
 11
64.0237
 21
154.3065
 31
0.0
  0
LINE
  5
880
330
1D
100
AcDbEntity
  8
0
100
AcDbLine
 10
66.8246
 20
157.0375
 30
0.0
 11
67.3548
 21
157.7565
 31
0.0
  0
LINE
  5
881
330
1D
100
AcDbEntity
  8
0
100
AcDbLine
 10
66.8246
 20
157.0375
 30
0.0
 11
67.3548
 21
157.7575
 31
0.0
  0
LINE
  5
884
330
1D
100
AcDbEntity
  8
0
100
AcDbLine
 10
67.3548
 20
157.7575
 30
0.0
 11
67.8388
 21
158.5125
 31
0.0
  0
LINE
  5
885
330
1D
100
AcDbEntity
  8
0
100
AcDbLine
 10
67.3548
 20
157.7565
 30
0.0
 11
67.8388
 21
158.5125
 31
0.0
  0
LINE
  5
886
330
1D
100
AcDbEntity
  8
0
100
AcDbLine
 10
66.0595
 20
155.1925
 30
0.0
 11
67.5803
 21
157.3075
 31
0.0
  0
LINE
  5
887
330
1D
100
AcDbEntity
  8
0
100
AcDbLine
 10
67.5803
 20
157.3075
 30
0.0
 11
68.0782
 21
158.0855
 31
0.0
  0
LINE
  5
888
330
1D
100
AcDbEntity
  8
0
100
AcDbLine
 10
68.8677
 20
159.6295
 30
0.0
 11
69.1899
 21
160.4445
 31
0.0
  0
LINE
  5
88A
330
1D
100
AcDbEntity
  8
0
100
AcDbLine
 10
68.8675
 20
159.6285
 30
0.0
 11
69.1899
 21
160.4445
 31
0.0
  0
LINE
  5
88B
330
1D
100
AcDbEntity
  8
0
100
AcDbLine
 10
68.4963
 20
158.8425
 30
0.0
 11
68.8675
 21
159.6285
 31
0.0
  0
LINE
  5
88C
330
1D
100
AcDbEntity
  8
0
100
AcDbLine
 10
68.4963
 20
158.8425
 30
0.0
 11
68.8677
 21
159.6295
 31
0.0
  0
LINE
  5
88E
330
1D
100
AcDbEntity
  8
0
100
AcDbLine
 10
68.6055
 20
160.0115
 30
0.0
 11
68.9179
 21
160.8025
 31
0.0
  0
LINE
  5
890
330
1D
100
AcDbEntity
  8
0
100
AcDbLine
 10
67.8388
 20
158.5125
 30
0.0
 11
68.6054
 21
160.0125
 31
0.0
  0
LINE
  5
891
330
1D
100
AcDbEntity
  8
0
100
AcDbLine
 10
67.8388
 20
158.5125
 30
0.0
 11
68.6055
 21
160.0115
 31
0.0
  0
LINE
  5
892
330
1D
100
AcDbEntity
  8
0
100
AcDbLine
 10
68.0782
 20
158.0855
 30
0.0
 11
68.4963
 21
158.8425
 31
0.0
  0
LINE
  5
893
330
1D
100
AcDbEntity
  8
0
100
AcDbLine
 10
37.8751
 20
169.3365
 30
0.0
 11
38.2646
 21
170.6735
 31
0.0
  0
LINE
  5
894
330
1D
100
AcDbEntity
  8
0
100
AcDbLine
 10
37.8751
 20
169.3355
 30
0.0
 11
38.2646
 21
170.6735
 31
0.0
  0
LINE
  5
895
330
1D
100
AcDbEntity
  8
0
100
AcDbLine
 10
68.9179
 20
160.8025
 30
0.0
 11
69.1805
 21
161.6165
 31
0.0
  0
LINE
  5
897
330
1D
100
AcDbEntity
  8
0
100
AcDbLine
 10
38.7311
 20
171.9755
 30
0.0
 11
39.1323
 21
172.9025
 31
0.0
  0
LINE
  5
898
330
1D
100
AcDbEntity
  8
0
100
AcDbLine
 10
38.7311
 20
171.9755
 30
0.0
 11
39.1325
 21
172.9025
 31
0.0
  0
LINE
  5
89E
330
1D
100
AcDbEntity
  8
0
100
AcDbLine
 10
39.1325
 20
172.9025
 30
0.0
 11
39.5905
 21
173.7955
 31
0.0
  0
LINE
  5
89F
330
1D
100
AcDbEntity
  8
0
100
AcDbLine
 10
39.1323
 20
172.9025
 30
0.0
 11
39.5905
 21
173.7945
 31
0.0
  0
LINE
  5
8AA
330
1D
100
AcDbEntity
  8
0
100
AcDbLine
 10
39.5905
 20
173.7955
 30
0.0
 11
40.6631
 21
175.5165
 31
0.0
  0
LINE
  5
8AF
330
1D
100
AcDbEntity
  8
0
100
AcDbLine
 10
39.35
 20
177.5005
 30
0.0
 11
41.6761
 21
178.7595
 31
0.0
  0
LINE
  5
8B0
330
1D
100
AcDbEntity
  8
0
100
AcDbLine
 10
38.0878
 20
176.8215
 30
0.0
 11
39.35
 21
177.5005
 31
0.0
  0
LINE
  5
8B1
330
1D
100
AcDbEntity
  8
0
100
AcDbLine
 10
39.5905
 20
173.7945
 30
0.0
 11
40.6631
 21
175.5165
 31
0.0
  0
LINE
  5
8B4
330
1D
100
AcDbEntity
  8
0
100
AcDbLine
 10
41.6761
 20
178.7595
 30
0.0
 11
44.0471
 21
180.0395
 31
0.0
  0
LINE
  5
8B5
330
1D
100
AcDbEntity
  8
0
100
AcDbLine
 10
40.6631
 20
175.5165
 30
0.0
 11
41.8183
 21
177.0235
 31
0.0
  0
LINE
  5
8B7
330
1D
100
AcDbEntity
  8
0
100
AcDbLine
 10
45.8644
 20
180.5025
 30
0.0
 11
46.9631
 21
181.0995
 31
0.0
  0
LINE
  5
8B8
330
1D
100
AcDbEntity
  8
0
100
AcDbLine
 10
44.3892
 20
179.4925
 30
0.0
 11
45.8645
 21
180.5025
 31
0.0
  0
LINE
  5
8B9
330
1D
100
AcDbEntity
  8
0
100
AcDbLine
 10
44.3892
 20
179.4925
 30
0.0
 11
45.8644
 21
180.5025
 31
0.0
  0
LINE
  5
8BA
330
1D
100
AcDbEntity
  8
0
100
AcDbLine
 10
45.8645
 20
180.5025
 30
0.0
 11
46.9631
 21
181.0995
 31
0.0
  0
LINE
  5
8BB
330
1D
100
AcDbEntity
  8
0
100
AcDbLine
 10
44.0471
 20
180.0395
 30
0.0
 11
46.5512
 21
181.3825
 31
0.0
  0
LINE
  5
8BC
330
1D
100
AcDbEntity
  8
0
100
AcDbLine
 10
46.5514
 20
181.3825
 30
0.0
 11
47.7379
 21
181.8975
 31
0.0
  0
LINE
  5
8BE
330
1D
100
AcDbEntity
  8
0
100
AcDbLine
 10
54.913
 20
182.3465
 30
0.0
 11
56.4018
 21
182.0625
 31
0.0
  0
LINE
  5
8BF
330
1D
100
AcDbEntity
  8
0
100
AcDbLine
 10
56.4018
 20
182.0625
 30
0.0
 11
58.1044
 21
181.5425
 31
0.0
  0
LINE
  5
8C0
330
1D
100
AcDbEntity
  8
0
100
AcDbLine
 10
51.9527
 20
182.4475
 30
0.0
 11
53.4246
 21
182.4755
 31
0.0
  0
LINE
  5
8C1
330
1D
100
AcDbEntity
  8
0
100
AcDbLine
 10
51.9527
 20
182.4475
 30
0.0
 11
53.4248
 21
182.4755
 31
0.0
  0
LINE
  5
8C2
330
1D
100
AcDbEntity
  8
0
100
AcDbLine
 10
53.4248
 20
182.4755
 30
0.0
 11
54.913
 21
182.3465
 31
0.0
  0
LINE
  5
8C3
330
1D
100
AcDbEntity
  8
0
100
AcDbLine
 10
53.4246
 20
182.4755
 30
0.0
 11
54.9133
 21
182.3465
 31
0.0
  0
LINE
  5
8C4
330
1D
100
AcDbEntity
  8
0
100
AcDbLine
 10
54.9133
 20
182.3465
 30
0.0
 11
56.4018
 21
182.0625
 31
0.0
  0
LINE
  5
8C5
330
1D
100
AcDbEntity
  8
0
100
AcDbLine
 10
48.9489
 20
182.2955
 30
0.0
 11
50.2041
 21
182.5835
 31
0.0
  0
LINE
  5
8C6
330
1D
100
AcDbEntity
  8
0
100
AcDbLine
 10
47.7379
 20
181.8975
 30
0.0
 11
48.9489
 21
182.2955
 31
0.0
  0
LINE
  5
8CC
330
1D
100
AcDbEntity
  8
0
100
AcDbLine
 10
59.7791
 20
180.8215
 30
0.0
 11
61.3859
 21
179.9165
 31
0.0
  0
LINE
  5
8CE
330
1D
100
AcDbEntity
  8
0
100
AcDbLine
 10
58.0393
 20
181.8355
 30
0.0
 11
59.8252
 21
181.0965
 31
0.0
  0
LINE
  5
8CF
330
1D
100
AcDbEntity
  8
0
100
AcDbLine
 10
59.8252
 20
181.0965
 30
0.0
 11
60.6045
 21
180.6485
 31
0.0
  0
LINE
  5
8D1
330
1D
100
AcDbEntity
  8
0
100
AcDbLine
 10
58.1044
 20
181.5425
 30
0.0
 11
59.779
 21
180.8215
 31
0.0
  0
LINE
  5
8D2
330
1D
100
AcDbEntity
  8
0
100
AcDbLine
 10
58.1044
 20
181.5425
 30
0.0
 11
59.7791
 21
180.8215
 31
0.0
  0
LINE
  5
8D3
330
1D
100
AcDbEntity
  8
0
100
AcDbLine
 10
59.779
 20
180.8215
 30
0.0
 11
61.3859
 21
179.9165
 31
0.0
  0
LINE
  5
8D4
330
1D
100
AcDbEntity
  8
0
100
AcDbLine
 10
60.6045
 20
180.6485
 30
0.0
 11
61.4223
 21
180.1595
 31
0.0
  0
LINE
  5
8D5
330
1D
100
AcDbEntity
  8
0
100
AcDbLine
 10
61.3859
 20
179.9165
 30
0.0
 11
62.8798
 21
178.8635
 31
0.0
  0
LINE
  5
8D6
330
1D
100
AcDbEntity
  8
0
100
AcDbLine
 10
61.3859
 20
179.9165
 30
0.0
 11
62.8797
 21
178.8635
 31
0.0
  0
LINE
  5
8D7
330
1D
100
AcDbEntity
  8
0
100
AcDbLine
 10
62.8797
 20
178.8635
 30
0.0
 11
64.2683
 21
177.6585
 31
0.0
  0
LINE
  5
8D8
330
1D
100
AcDbEntity
  8
0
100
AcDbLine
 10
62.8798
 20
178.8635
 30
0.0
 11
64.2682
 21
177.6595
 31
0.0
  0
LINE
  5
8D9
330
1D
100
AcDbEntity
  8
0
100
AcDbLine
 10
64.7323
 20
177.4985
 30
0.0
 11
65.7259
 21
176.4755
 31
0.0
  0
LINE
  5
8DA
330
1D
100
AcDbEntity
  8
0
100
AcDbLine
 10
64.2683
 20
177.6585
 30
0.0
 11
65.5309
 21
176.3175
 31
0.0
  0
LINE
  5
8DB
330
1D
100
AcDbEntity
  8
0
100
AcDbLine
 10
65.5309
 20
176.3175
 30
0.0
 11
65.6221
 21
176.2095
 31
0.0
  0
LINE
  5
8DC
330
1D
100
AcDbEntity
  8
0
100
AcDbLine
 10
64.2682
 20
177.6595
 30
0.0
 11
65.5311
 21
176.3175
 31
0.0
  0
LINE
  5
8E4
330
1D
100
AcDbEntity
  8
0
100
AcDbLine
 10
65.6221
 20
176.2095
 30
0.0
 11
66.7373
 21
174.7225
 31
0.0
  0
LINE
  5
8E5
330
1D
100
AcDbEntity
  8
0
100
AcDbLine
 10
65.5311
 20
176.3175
 30
0.0
 11
65.622
 21
176.2085
 31
0.0
  0
LINE
  5
8E6
330
1D
100
AcDbEntity
  8
0
100
AcDbLine
 10
65.622
 20
176.2085
 30
0.0
 11
66.7372
 21
174.7225
 31
0.0
  0
LINE
  5
8E7
330
1D
100
AcDbEntity
  8
0
100
AcDbLine
 10
63.6926
 20
178.4715
 30
0.0
 11
64.7323
 21
177.4985
 31
0.0
  0
LINE
  5
8E9
330
1D
100
AcDbEntity
  8
0
100
AcDbLine
 10
62.5863
 20
179.3605
 30
0.0
 11
63.6926
 21
178.4715
 31
0.0
  0
LINE
  5
8EA
330
1D
100
AcDbEntity
  8
0
100
AcDbLine
 10
61.4223
 20
180.1595
 30
0.0
 11
62.5863
 21
179.3605
 31
0.0
  0
LINE
  5
8EB
330
1D
100
AcDbEntity
  8
0
100
AcDbLine
 10
60.6043
 20
180.6485
 30
0.0
 11
61.4223
 21
180.1595
 31
0.0
  0
LINE
  5
8F0
330
1D
100
AcDbEntity
  8
0
100
AcDbLine
 10
56.7245
 20
182.2575
 30
0.0
 11
58.0393
 21
181.8355
 31
0.0
  0
LINE
  5
8F1
330
1D
100
AcDbEntity
  8
0
100
AcDbLine
 10
54.8301
 20
182.6625
 30
0.0
 11
55.5144
 21
182.5395
 31
0.0
  0
LINE
  5
8F3
330
1D
100
AcDbEntity
  8
0
100
AcDbLine
 10
55.5144
 20
182.5395
 30
0.0
 11
56.7245
 21
182.2575
 31
0.0
  0
LINE
  5
8F5
330
1D
100
AcDbEntity
  8
0
100
AcDbLine
 10
51.6899
 20
182.7705
 30
0.0
 11
52.4461
 21
182.8045
 31
0.0
  0
LINE
  5
8F6
330
1D
100
AcDbEntity
  8
0
100
AcDbLine
 10
51.69
 20
182.7705
 30
0.0
 11
52.4461
 21
182.8045
 31
0.0
  0
LINE
  5
8F7
330
1D
100
AcDbEntity
  8
0
100
AcDbLine
 10
53.9758
 20
182.7525
 30
0.0
 11
54.8301
 21
182.6625
 31
0.0
  0
LINE
  5
8F8
330
1D
100
AcDbEntity
  8
0
100
AcDbLine
 10
53.2086
 20
182.7985
 30
0.0
 11
53.9756
 21
182.7525
 31
0.0
  0
LINE
  5
8F9
330
1D
100
AcDbEntity
  8
0
100
AcDbLine
 10
53.2086
 20
182.7985
 30
0.0
 11
53.9758
 21
182.7525
 31
0.0
  0
LINE
  5
8FA
330
1D
100
AcDbEntity
  8
0
100
AcDbLine
 10
52.4461
 20
182.8045
 30
0.0
 11
53.2086
 21
182.7985
 31
0.0
  0
LINE
  5
8FB
330
1D
100
AcDbEntity
  8
0
100
AcDbLine
 10
50.942
 20
182.6965
 30
0.0
 11
51.69
 21
182.7705
 31
0.0
  0
LINE
  5
8FC
330
1D
100
AcDbEntity
  8
0
100
AcDbLine
 10
50.942
 20
182.6965
 30
0.0
 11
51.6899
 21
182.7705
 31
0.0
  0
LINE
  5
8FD
330
1D
100
AcDbEntity
  8
0
100
AcDbLine
 10
50.2041
 20
182.5835
 30
0.0
 11
50.942
 21
182.6965
 31
0.0
  0
LINE
  5
8FE
330
1D
100
AcDbEntity
  8
0
100
AcDbLine
 10
55.5145
 20
182.5385
 30
0.0
 11
56.7245
 21
182.2575
 31
0.0
  0
LINE
  5
900
330
1D
100
AcDbEntity
  8
0
100
AcDbLine
 10
68.4721
 20
171.4735
 30
0.0
 11
69.0711
 21
169.7565
 31
0.0
  0
LINE
  5
901
330
1D
100
AcDbEntity
  8
0
100
AcDbLine
 10
68.7297
 20
171.4525
 30
0.0
 11
69.3579
 21
169.7455
 31
0.0
  0
LINE
  5
904
330
1D
100
AcDbEntity
  8
0
100
AcDbLine
 10
67.6906
 20
173.1365
 30
0.0
 11
68.4721
 21
171.4735
 31
0.0
  0
LINE
  5
905
330
1D
100
AcDbEntity
  8
0
100
AcDbLine
 10
68.3498
 20
172.3185
 30
0.0
 11
68.7295
 21
171.4525
 31
0.0
  0
LINE
  5
906
330
1D
100
AcDbEntity
  8
0
100
AcDbLine
 10
68.3498
 20
172.3185
 30
0.0
 11
68.7297
 21
171.4525
 31
0.0
  0
LINE
  5
907
330
1D
100
AcDbEntity
  8
0
100
AcDbLine
 10
68.4718
 20
171.4735
 30
0.0
 11
69.0711
 21
169.7565
 31
0.0
  0
LINE
  5
908
330
1D
100
AcDbEntity
  8
0
100
AcDbLine
 10
67.6904
 20
173.1365
 30
0.0
 11
68.4718
 21
171.4735
 31
0.0
  0
LINE
  5
90A
330
1D
100
AcDbEntity
  8
0
100
AcDbLine
 10
66.7373
 20
174.7225
 30
0.0
 11
67.6906
 21
173.1365
 31
0.0
  0
LINE
  5
90B
330
1D
100
AcDbEntity
  8
0
100
AcDbLine
 10
66.9641
 20
174.8385
 30
0.0
 11
67.7203
 21
173.5425
 31
0.0
  0
LINE
  5
90C
330
1D
100
AcDbEntity
  8
0
100
AcDbLine
 10
67.7203
 20
173.5425
 30
0.0
 11
67.9242
 21
173.1665
 31
0.0
  0
LINE
  5
90D
330
1D
100
AcDbEntity
  8
0
100
AcDbLine
 10
66.7372
 20
174.7225
 30
0.0
 11
67.6904
 21
173.1365
 31
0.0
  0
LINE
  5
90E
330
1D
100
AcDbEntity
  8
0
100
AcDbLine
 10
67.9242
 20
173.1665
 30
0.0
 11
68.3498
 21
172.3185
 31
0.0
  0
LINE
  5
910
330
1D
100
AcDbEntity
  8
0
100
AcDbLine
 10
69.4609
 20
161.2865
 30
0.0
 11
69.6779
 21
162.1475
 31
0.0
  0
LINE
  5
911
330
1D
100
AcDbEntity
  8
0
100
AcDbLine
 10
69.1899
 20
160.4445
 30
0.0
 11
69.4609
 21
161.2865
 31
0.0
  0
LINE
  5
912
330
1D
100
AcDbEntity
  8
0
100
AcDbLine
 10
69.3912
 20
162.4525
 30
0.0
 11
69.5493
 21
163.3085
 31
0.0
  0
LINE
  5
914
330
1D
100
AcDbEntity
  8
0
100
AcDbLine
 10
69.3579
 20
169.7455
 30
0.0
 11
69.5824
 21
168.7855
 31
0.0
  0
LINE
  5
915
330
1D
100
AcDbEntity
  8
0
100
AcDbLine
 10
69.0711
 20
169.7565
 30
0.0
 11
69.4777
 21
168.0095
 31
0.0
  0
LINE
  5
919
330
1D
100
AcDbEntity
  8
0
100
AcDbLine
 10
69.4777
 20
168.0095
 30
0.0
 11
69.6485
 21
166.7115
 31
0.0
  0
LINE
  5
91A
330
1D
100
AcDbEntity
  8
0
100
AcDbLine
 10
69.4777
 20
168.0095
 30
0.0
 11
69.6489
 21
166.7125
 31
0.0
  0
LINE
  5
91B
330
1D
100
AcDbEntity
  8
0
100
AcDbLine
 10
69.9446
 20
163.8925
 30
0.0
 11
69.9964
 21
164.7675
 31
0.0
  0
LINE
  5
91C
330
1D
100
AcDbEntity
  8
0
100
AcDbLine
 10
69.8405
 20
163.0285
 30
0.0
 11
69.9446
 21
163.8925
 31
0.0
  0
LINE
  5
91D
330
1D
100
AcDbEntity
  8
0
100
AcDbLine
 10
69.8405
 20
163.0285
 30
0.0
 11
69.9445
 21
163.8925
 31
0.0
  0
LINE
  5
91E
330
1D
100
AcDbEntity
  8
0
100
AcDbLine
 10
69.5493
 20
163.3085
 30
0.0
 11
69.7003
 21
164.9925
 31
0.0
  0
LINE
  5
91F
330
1D
100
AcDbEntity
  8
0
100
AcDbLine
 10
69.6485
 20
166.7115
 30
0.0
 11
69.7003
 21
164.9925
 31
0.0
  0
LINE
  5
920
330
1D
100
AcDbEntity
  8
0
100
AcDbLine
 10
69.5822
 20
168.7855
 30
0.0
 11
69.7666
 21
167.8815
 31
0.0
  0
LINE
  5
921
330
1D
100
AcDbEntity
  8
0
100
AcDbLine
 10
69.6489
 20
166.7125
 30
0.0
 11
69.7003
 21
164.9925
 31
0.0
  0
LINE
  5
922
330
1D
100
AcDbEntity
  8
0
100
AcDbLine
 10
69.5824
 20
168.7855
 30
0.0
 11
69.7666
 21
167.8815
 31
0.0
  0
LINE
  5
923
330
1D
100
AcDbEntity
  8
0
100
AcDbLine
 10
69.7666
 20
167.8815
 30
0.0
 11
69.9432
 21
166.5425
 31
0.0
  0
LINE
  5
924
330
1D
100
AcDbEntity
  8
0
100
AcDbLine
 10
69.9432
 20
166.5425
 30
0.0
 11
69.9959
 21
165.6525
 31
0.0
  0
LINE
  5
925
330
1D
100
AcDbEntity
  8
0
100
AcDbLine
 10
69.9959
 20
165.6525
 30
0.0
 11
69.9964
 21
164.7675
 31
0.0
  0
LINE
  5
926
330
1D
100
AcDbEntity
  8
0
100
AcDbLine
 10
69.9445
 20
163.8925
 30
0.0
 11
69.9964
 21
164.7675
 31
0.0
  0
LINE
  5
927
330
1D
100
AcDbEntity
  8
0
100
AcDbLine
 10
69.6779
 20
162.1475
 30
0.0
 11
69.8405
 21
163.0285
 31
0.0
  0
LINE
  5
928
330
1D
100
AcDbEntity
  8
0
100
AcDbLine
 10
69.3914
 20
162.4535
 30
0.0
 11
69.5493
 21
163.3085
 31
0.0
  0
LINE
  5
929
330
1D
100
AcDbEntity
  8
0
100
AcDbLine
 10
69.1805
 20
161.6165
 30
0.0
 11
69.3912
 21
162.4525
 31
0.0
  0
LINE
  5
92A
330
1D
100
AcDbEntity
  8
0
100
AcDbLine
 10
69.1805
 20
161.6165
 30
0.0
 11
69.3914
 21
162.4535
 31
0.0
  0
LINE
  5
92B
330
1D
100
AcDbEntity
  8
0
100
AcDbLine
 10
68.918
 20
160.8025
 30
0.0
 11
69.1805
 21
161.6165
 31
0.0
  0
LINE
  5
92C
330
1D
100
AcDbEntity
  8
0
100
AcDbLine
 10
68.6054
 20
160.0125
 30
0.0
 11
68.918
 21
160.8025
 31
0.0
  0
LINE
  5
95C
330
1D
100
AcDbEntity
  8
0
100
AcDbLine
 10
10.8281
 20
3.44543
 30
0.0
 11
11.847827664606
 21
3.528301812713
 31
0.0
  0
LINE
  5
95D
330
1D
100
AcDbEntity
  8
0
100
AcDbLine
 10
36.1717
 20
0.976668
 30
0.0
 11
37.632
 21
1.35455
 31
0.0
  0
LINE
  5
95E
330
1D
100
AcDbEntity
  8
0
100
AcDbLine
 10
38.0176
 20
2.79539
 30
0.0
 11
38.4392
 21
2.66949
 31
0.0
  0
LINE
  5
95F
330
1D
100
AcDbEntity
  8
0
100
AcDbLine
 10
39.745472320814
 20
3.079979063655
 30
0.0
 11
39.8141
 21
8.52086
 31
0.0
  0
LINE
  5
960
330
1D
100
AcDbEntity
  8
0
100
AcDbLine
 10
39.957391922118
 20
15.915482460713
 30
0.0
 11
39.9843
 21
17.0457
 31
0.0
  0
LINE
  5
961
330
1D
100
AcDbEntity
  8
0
100
AcDbLine
 10
4.57565
 20
28.7225
 30
0.0
 11
3.8265
 21
53.9678
 31
0.0
  0
LINE
  5
962
330
1D
100
AcDbEntity
  8
0
100
AcDbLine
 10
37.2775
 20
54.9616
 30
0.0
 11
38.3132
 21
54.8278
 31
0.0
  0
LINE
  5
963
330
1D
100
AcDbEntity
  8
0
100
AcDbLine
 10
31.3121
 20
56.9408
 30
0.0
 11
33.1243
 21
56.8425
 31
0.0
  0
LINE
  5
964
330
1D
100
AcDbEntity
  8
0
100
AcDbLine
 10
43.2793
 20
100.0801
 30
0.0
 11
44.1678
 21
111.3645
 31
0.0
  0
LINE
  5
965
330
1D
100
AcDbEntity
  8
0
100
AcDbLine
 10
1.25952
 20
126.4965
 30
0.0
 11
1.311063260217
 21
127.153129896826
 31
0.0
  0
LINE
  5
966
330
1D
100
AcDbEntity
  8
0
100
AcDbLine
 10
2.1602
 20
135.6535
 30
0.0
 11
2.381574649727
 21
136.51791566695
 31
0.0
  0
LINE
  5
967
330
1D
100
AcDbEntity
  8
0
100
AcDbLine
 10
47.455762411904
 20
127.483827970344
 30
0.0
 11
48.6094
 21
130.8725
 31
0.0
  0
LINE
  5
968
330
1D
100
AcDbEntity
  8
0
100
AcDbLine
 10
49.61917380815
 20
132.709591650655
 30
0.0
 11
51.0533
 21
135.0825
 31
0.0
  0
LINE
  5
969
330
1D
100
AcDbEntity
  8
0
100
AcDbLine
 10
38.253
 20
154.4105
 30
0.0
 11
38.6212
 21
153.9285
 31
0.0
  0
LINE
  5
96A
330
1D
100
AcDbEntity
  8
0
100
AcDbLine
 10
55.1809
 20
150.6895
 30
0.0
 11
57.4965
 21
151.1335
 31
0.0
  0
LINE
  5
96B
330
1D
100
AcDbEntity
  8
0
100
AcDbLine
 10
65.5144
 20
155.5855
 30
0.0
 11
66.8246
 21
157.0375
 31
0.0
  0
LINE
  5
96C
330
1D
100
AcDbEntity
  8
0
100
AcDbLine
 10
65.7259
 20
176.4755
 30
0.0
 11
66.9641
 21
174.8385
 31
0.0
  0
LINE
  5
96D
330
1D
100
AcDbEntity
  8
0
100
AcDbLine
 10
29.101
 20
171.8955
 30
0.0
 11
33.8678
 21
174.5515
 31
0.0
  0
LINE
  5
96E
330
1D
100
AcDbEntity
  8
0
100
AcDbLine
 10
38.2646
 20
170.6735
 30
0.0
 11
38.7311
 21
171.9755
 31
0.0
  0
LINE
  5
970
330
1D
100
AcDbEntity
  8
0
100
AcDbLine
 10
41.8183
 20
177.0235
 30
0.0
 11
43.128050658089
 21
178.435546588998
 31
0.0
  0
LINE
  5
971
330
1D
100
AcDbEntity
  8
0
100
AcDbLine
 10
43.128050658089
 20
178.435546588998
 30
0.0
 11
44.3892
 21
179.4925
 31
0.0
  0
LINE
  5
972
330
1D
100
AcDbEntity
  8
0
100
AcDbLine
 10
46.963099999999
 20
181.0995
 30
0.0
 11
48.192766551967
 21
181.573563939405
 31
0.0
  0
LINE
  5
973
330
1D
100
AcDbEntity
  8
0
100
AcDbLine
 10
48.192766551967
 20
181.573563939405
 30
0.0
 11
49.42713041149
 21
181.985018559246
 31
0.0
  0
LINE
  5
974
330
1D
100
AcDbEntity
  8
0
100
AcDbLine
 10
49.42713041149
 20
181.985018559246
 30
0.0
 11
50.433881077059
 21
182.247649167655
 31
0.0
  0
LINE
  5
975
330
1D
100
AcDbEntity
  8
0
100
AcDbLine
 10
50.433881077059
 20
182.247649167655
 30
0.0
 11
51.9527
 21
182.4475
 31
0.0
  0
LINE
  5
976
330
1D
100
AcDbEntity
  8
0
100
AcDbLine
 10
5.44906
 20
148.1645
 30
0.0
 11
6.45059
 21
150.3695
 31
0.0
  0
LINE
  5
977
330
1D
100
AcDbEntity
  8
0
100
AcDbLine
 10
21.648
 20
159.7455
 30
0.0
 11
21.7819
 21
160.7135
 31
0.0
  0
LINE
  5
978
330
1D
100
AcDbEntity
  8
0
100
AcDbLine
 10
48.7005
 20
136.4425
 30
0.0
 11
49.5214
 21
136.7355
 31
0.0
  0
ENDSEC
  0
SECTION
  2
OBJECTS
  0
DICTIONARY
  5
C
330
0
100
AcDbDictionary
281
     1
  3
ACAD_GROUP
350
D
  3
ACAD_LAYOUT
350
1A
  3
ACAD_MLEADERSTYLE
350
97B
  3
ACAD_MLINESTYLE
350
17
  3
ACAD_PLOTSETTINGS
350
19
  3
ACAD_PLOTSTYLENAME
350
E
  3
ACAD_SCALELIST
350
93A
  3
AcDbVariableDictionary
350
979
  3
DWGPROPS
350
97E
  0
DICTIONARY
  5
D
102
{ACAD_REACTORS
330
C
102
}
330
C
100
AcDbDictionary
281
     1
  0
DICTIONARY
  5
1A
102
{ACAD_REACTORS
330
C
102
}
330
C
100
AcDbDictionary
281
     1
  3
Layout1
350
1C
  3
Model
350
1E
  0
DICTIONARY
  5
97B
102
{ACAD_REACTORS
330
C
102
}
330
C
100
AcDbDictionary
281
     1
  0
DICTIONARY
  5
17
102
{ACAD_REACTORS
330
C
102
}
330
C
100
AcDbDictionary
281
     1
  3
Standard
350
18
  0
DICTIONARY
  5
19
102
{ACAD_REACTORS
330
C
102
}
330
C
100
AcDbDictionary
281
     1
  0
ACDBDICTIONARYWDFLT
  5
E
102
{ACAD_REACTORS
330
C
102
}
330
C
100
AcDbDictionary
281
     1
  3
Normal
350
F
100
AcDbDictionaryWithDefault
340
F
  0
DICTIONARY
  5
93A
102
{ACAD_REACTORS
330
C
102
}
330
C
100
AcDbDictionary
281
     1
  3
A0
350
93B
  3
A1
350
93C
  3
A2
350
93D
  3
A3
350
93E
  3
A4
350
93F
  3
A5
350
940
  3
A6
350
941
  3
A7
350
942
  3
A8
350
943
  3
A9
350
944
  3
B0
350
945
  3
B1
350
946
  3
B2
350
947
  3
B3
350
948
  3
B4
350
949
  3
B5
350
94A
  3
B6
350
94B
  3
B7
350
94C
  3
B8
350
94D
  3
B9
350
94E
  3
C0
350
94F
  3
C1
350
950
  3
C2
350
951
  3
C3
350
952
  3
C4
350
953
  3
C5
350
954
  3
C6
350
955
  3
C7
350
956
  3
C8
350
957
  3
C9
350
958
  3
D0
350
959
  3
D1
350
95A
  3
D2
350
95B
  0
DICTIONARY
  5
979
102
{ACAD_REACTORS
330
C
102
}
330
C
100
AcDbDictionary
281
     1
  3
CANNOSCALE
350
97C
  0
XRECORD
  5
97E
102
{ACAD_REACTORS
330
C
102
}
330
C
100
AcDbXrecord
280
     1
  1
DWGPROPS COOKIE
  2

  3

  4

  6

  7

  8
MARTIN
  9

300
=
301
=
302
=
303
=
304
=
305
=
306
=
307
=
308
=
309
=
 40
0.0
 41
2456184.739794086
 42
2456184.749988322
  1

 90
        0
  0
LAYOUT
  5
1C
102
{ACAD_REACTORS
330
1A
102
}
330
1A
100
AcDbPlotSettings
  1

  2
none_device
  4

  6

 40
0.0
 41
0.0
 42
0.0
 43
0.0
 44
0.0
 45
0.0
 46
0.0
 47
0.0
 48
0.0
 49
0.0
140
0.0
141
0.0
142
1.0
143
1.0
 70
   688
 72
     0
 73
     0
 74
     5
  7

 75
    16
147
1.0
148
0.0
149
0.0
100
AcDbLayout
  1
Layout1
 70
     1
 71
     1
 10
0.0
 20
0.0
 11
12.0
 21
9.0
 12
0.0
 22
0.0
 32
0.0
 14
1.000000000000E+20
 24
1.000000000000E+20
 34
1.000000000000E+20
 15
-1.000000000000E+20
 25
-1.000000000000E+20
 35
-1.000000000000E+20
146
0.0
 13
0.0
 23
0.0
 33
0.0
 16
1.0
 26
0.0
 36
0.0
 17
0.0
 27
1.0
 37
0.0
 76
     0
330
1B
  0
LAYOUT
  5
1E
102
{ACAD_REACTORS
330
1A
102
}
330
1A
100
AcDbPlotSettings
  1

  2
none_device
  4

  6

 40
0.0
 41
0.0
 42
0.0
 43
0.0
 44
0.0
 45
0.0
 46
0.0
 47
0.0
 48
0.0
 49
0.0
140
0.0
141
0.0
142
1.0
143
1.0
 70
  1712
 72
     0
 73
     0
 74
     0
  7

 75
     0
147
1.0
148
0.0
149
0.0
100
AcDbLayout
  1
Model
 70
     1
 71
     0
 10
0.0
 20
0.0
 11
12.0
 21
9.0
 12
0.0
 22
0.0
 32
0.0
 14
0.0036
 24
0.0975
 34
0.0
 15
69.9964
 25
188.9025
 35
0.0
146
0.0
 13
0.0
 23
0.0
 33
0.0
 16
1.0
 26
0.0
 36
0.0
 17
0.0
 27
1.0
 37
0.0
 76
     0
330
1D
331
935
  0
MLINESTYLE
  5
18
102
{ACAD_REACTORS
330
17
102
}
330
17
100
AcDbMlineStyle
  2
Standard
 70
     0
  3

 62
   256
 51
90.0
 52
90.0
 71
     2
 49
0.5
 62
   256
  6
BYLAYER
 49
-0.5
 62
   256
  6
BYLAYER
  0
ACDBPLACEHOLDER
  5
F
102
{ACAD_REACTORS
330
E
102
}
330
E
  0
SCALE
  5
93B
102
{ACAD_REACTORS
330
93A
102
}
330
93A
100
AcDbScale
 70
     0
300
1:1
140
1.0
141
1.0
290
     1
  0
SCALE
  5
93C
102
{ACAD_REACTORS
330
93A
102
}
330
93A
100
AcDbScale
 70
     0
300
1:2
140
1.0
141
2.0
290
     0
  0
SCALE
  5
93D
102
{ACAD_REACTORS
330
93A
102
}
330
93A
100
AcDbScale
 70
     0
300
1:4
140
1.0
141
4.0
290
     0
  0
SCALE
  5
93E
102
{ACAD_REACTORS
330
93A
102
}
330
93A
100
AcDbScale
 70
     0
300
1:5
140
1.0
141
5.0
290
     0
  0
SCALE
  5
93F
102
{ACAD_REACTORS
330
93A
102
}
330
93A
100
AcDbScale
 70
     0
300
1:8
140
1.0
141
8.0
290
     0
  0
SCALE
  5
940
102
{ACAD_REACTORS
330
93A
102
}
330
93A
100
AcDbScale
 70
     0
300
1:10
140
1.0
141
10.0
290
     0
  0
SCALE
  5
941
102
{ACAD_REACTORS
330
93A
102
}
330
93A
100
AcDbScale
 70
     0
300
1:16
140
1.0
141
16.0
290
     0
  0
SCALE
  5
942
102
{ACAD_REACTORS
330
93A
102
}
330
93A
100
AcDbScale
 70
     0
300
1:20
140
1.0
141
20.0
290
     0
  0
SCALE
  5
943
102
{ACAD_REACTORS
330
93A
102
}
330
93A
100
AcDbScale
 70
     0
300
1:30
140
1.0
141
30.0
290
     0
  0
SCALE
  5
944
102
{ACAD_REACTORS
330
93A
102
}
330
93A
100
AcDbScale
 70
     0
300
1:40
140
1.0
141
40.0
290
     0
  0
SCALE
  5
945
102
{ACAD_REACTORS
330
93A
102
}
330
93A
100
AcDbScale
 70
     0
300
1:50
140
1.0
141
50.0
290
     0
  0
SCALE
  5
946
102
{ACAD_REACTORS
330
93A
102
}
330
93A
100
AcDbScale
 70
     0
300
1:100
140
1.0
141
100.0
290
     0
  0
SCALE
  5
947
102
{ACAD_REACTORS
330
93A
102
}
330
93A
100
AcDbScale
 70
     0
300
2:1
140
2.0
141
1.0
290
     0
  0
SCALE
  5
948
102
{ACAD_REACTORS
330
93A
102
}
330
93A
100
AcDbScale
 70
     0
300
4:1
140
4.0
141
1.0
290
     0
  0
SCALE
  5
949
102
{ACAD_REACTORS
330
93A
102
}
330
93A
100
AcDbScale
 70
     0
300
8:1
140
8.0
141
1.0
290
     0
  0
SCALE
  5
94A
102
{ACAD_REACTORS
330
93A
102
}
330
93A
100
AcDbScale
 70
     0
300
10:1
140
10.0
141
1.0
290
     0
  0
SCALE
  5
94B
102
{ACAD_REACTORS
330
93A
102
}
330
93A
100
AcDbScale
 70
     0
300
100:1
140
100.0
141
1.0
290
     0
  0
SCALE
  5
94C
102
{ACAD_REACTORS
330
93A
102
}
330
93A
100
AcDbScale
 70
     0
300
1/128" = 1'-0"
140
0.0078125
141
12.0
290
     0
  0
SCALE
  5
94D
102
{ACAD_REACTORS
330
93A
102
}
330
93A
100
AcDbScale
 70
     0
300
1/64" = 1'-0"
140
0.015625
141
12.0
290
     0
  0
SCALE
  5
94E
102
{ACAD_REACTORS
330
93A
102
}
330
93A
100
AcDbScale
 70
     0
300
1/32" = 1'-0"
140
0.03125
141
12.0
290
     0
  0
SCALE
  5
94F
102
{ACAD_REACTORS
330
93A
102
}
330
93A
100
AcDbScale
 70
     0
300
1/16" = 1'-0"
140
0.0625
141
12.0
290
     0
  0
SCALE
  5
950
102
{ACAD_REACTORS
330
93A
102
}
330
93A
100
AcDbScale
 70
     0
300
3/32" = 1'-0"
140
0.09375
141
12.0
290
     0
  0
SCALE
  5
951
102
{ACAD_REACTORS
330
93A
102
}
330
93A
100
AcDbScale
 70
     0
300
1/8" = 1'-0"
140
0.125
141
12.0
290
     0
  0
SCALE
  5
952
102
{ACAD_REACTORS
330
93A
102
}
330
93A
100
AcDbScale
 70
     0
300
3/16" = 1'-0"
140
0.1875
141
12.0
290
     0
  0
SCALE
  5
953
102
{ACAD_REACTORS
330
93A
102
}
330
93A
100
AcDbScale
 70
     0
300
1/4" = 1'-0"
140
0.25
141
12.0
290
     0
  0
SCALE
  5
954
102
{ACAD_REACTORS
330
93A
102
}
330
93A
100
AcDbScale
 70
     0
300
3/8" = 1'-0"
140
0.375
141
12.0
290
     0
  0
SCALE
  5
955
102
{ACAD_REACTORS
330
93A
102
}
330
93A
100
AcDbScale
 70
     0
300
1/2" = 1'-0"
140
0.5
141
12.0
290
     0
  0
SCALE
  5
956
102
{ACAD_REACTORS
330
93A
102
}
330
93A
100
AcDbScale
 70
     0
300
3/4" = 1'-0"
140
0.75
141
12.0
290
     0
  0
SCALE
  5
957
102
{ACAD_REACTORS
330
93A
102
}
330
93A
100
AcDbScale
 70
     0
300
1" = 1'-0"
140
1.0
141
12.0
290
     0
  0
SCALE
  5
958
102
{ACAD_REACTORS
330
93A
102
}
330
93A
100
AcDbScale
 70
     0
300
1-1/2" = 1'-0"
140
1.5
141
12.0
290
     0
  0
SCALE
  5
959
102
{ACAD_REACTORS
330
93A
102
}
330
93A
100
AcDbScale
 70
     0
300
3" = 1'-0"
140
3.0
141
12.0
290
     0
  0
SCALE
  5
95A
102
{ACAD_REACTORS
330
93A
102
}
330
93A
100
AcDbScale
 70
     0
300
6" = 1'-0"
140
6.0
141
12.0
290
     0
  0
SCALE
  5
95B
102
{ACAD_REACTORS
330
93A
102
}
330
93A
100
AcDbScale
 70
     0
300
1'-0" = 1'-0"
140
12.0
141
12.0
290
     0
  0
DICTIONARYVAR
  5
97C
102
{ACAD_REACTORS
330
979
102
}
330
979
100
DictionaryVariables
280
     0
  1
1:1
  0
ENDSEC
  0
SECTION
  2
THUMBNAILIMAGE
 90
    16364
310
28000000B40000005500000001000800000000000000000000000000000000000000000000000000FFFFFF000000FF0000FFFF0000FF0000FFFF0000FF000000FF00FF000000000080808000C0C0C0000000FF007F7FFF000000A5005252A50000007F003F3F7F0000004C0026264C000000260013132600003FFF007F9FFF
310
000029A5005267A500001F7F003F4F7F0000134C00262F4C000009260013172600007FFF007FBFFF000052A500527CA500003F7F003F5F7F0000264C0026394C0000132600131C260000BFFF007FDFFF00007CA5005291A500005F7F003F6F7F0000394C0026424C00001C26001321260000FFFF007FFFFF0000A5A50052A5
310
A500007F7F003F7F7F00004C4C00264C4C00002626001326260000FFBF007FFFDF0000A57C0052A59100007F5F003F7F6F00004C3900264C420000261C001326210000FF7F007FFFBF0000A5520052A57C00007F3F003F7F5F00004C2600264C39000026130013261C0000FF3F007FFF9F0000A5290052A56700007F1F003F
310
7F4F00004C1300264C2F00002609001326170000FF00007FFF7F0000A5000052A55200007F00003F7F3F00004C0000264C260000260000132613003FFF00009FFF7F0029A5000067A552001F7F00004F7F3F00134C00002F4C260009260000172613007FFF0000BFFF7F0052A500007CA552003F7F00005F7F3F00264C0000
310
394C2600132600001C261300BFFF0000DFFF7F007CA5000091A552005F7F00006F7F3F00394C0000424C26001C26000021261300FFFF0000FFFF7F00A5A50000A5A552007F7F00007F7F3F004C4C00004C4C26002626000026261300FFBF0000FFDF7F00A57C0000A59152007F5F00007F6F3F004C3900004C422600261C00
310
0026211300FF7F0000FFBF7F00A5520000A57C52007F3F00007F5F3F004C2600004C39260026130000261C1300FF3F0000FF9F7F00A5290000A56752007F1F00007F4F3F004C1300004C2F26002609000026171300FF000000FF7F7F00A5000000A55252007F0000007F3F3F004C0000004C2626002600000026131300FF00
310
3F00FF7F9F00A5002900A55267007F001F007F3F4F004C0013004C262F002600090026131700FF007F00FF7FBF00A5005200A5527C007F003F007F3F5F004C0026004C2639002600130026131C00FF00BF00FF7FDF00A5007C00A55291007F005F007F3F6F004C0039004C26420026001C0026132100FF00FF00FF7FFF00A5
310
00A500A552A5007F007F007F3F7F004C004C004C264C002600260026132600BF00FF00DF7FFF007C00A5009152A5005F007F006F3F7F0039004C0042264C001C002600211326007F00FF00BF7FFF005200A5007C52A5003F007F005F3F7F0026004C0039264C00130026001C1326003F00FF009F7FFF002900A5006752A500
310
1F007F004F3F7F0013004C002F264C000900260017132600000000002D2D2D005B5B5B0089898900B7B7B700B3B3B30000000000000000000000000000000000000000000000000000000000000000000000000000000000000000000000000000000000000000000000000000000000000000000000000000000000000000
310
07070707070707070707070707000000000000000000000000000000000000000000000000000000000000000000000000000000000000000000000000000000000000000000000000000000000000000000000000000000000000000000000000000000000000000000000000000000000000000000000000000000000000
310
00000000000000000000000000000000000000000000000000000000000000000000000000000000000000000000000000000007070707070700000000070707070707000000000000000000000000000000000000000000000000000000000000000000000000000000000000000000000000000000000000000000000000
310
00000000000000000000000000000000000000000000000000000000000000000000000000000000000000000000000000000000000000000000000000000000000000000000000000000000000000000000000000000000000000000000000000000000000000000707070707070707070707070707070700000000000000
310
00000000000000000000000000000000000000000000000000000000000000000000000000000000000000000000000000000000000000000000000000000000000000000000000000000000000000000000000000000000000000000000000000000000000000000000000000000000000000000000000000000000000000
310
00000000000000000000000000000000000000000000000000000000000007000000000000000000000000000007000000000000000000000000000000000000000000000000000000000000000000000000000000000000000000000000000000000000000000000000000000000000000000000000000000000000000000
310
00000000000000000000000000000000000000000000000000000000000000000000000000000000000000000000000000000000000000000000000000000000000000000000000000000000000000000000000700000000000000000000000000000700000000000000000000000000000000000000000000000000000000
310
00000000000000000000000000000000000000000000000000000000000000000000000000000000000000000000000000000000000000000000000000000000000000000000000000000000000000000000000000000000000000000000000000000000000000000000000000000000000000000000000000000000000000
310
00000000000000000007000000000000000000000000000007000000000000000000000000000000000000000000000000000000000000000000000000000000000000000000000000000000000000000000000000000000000000000000000000000000000000000000000000000000000000000000000000000000000000
310
00000000000000000000000000000000000000000000000000000000000000000000000000000000000000000000000000000000000000000000000000000700000000000000000000000000000700000000000000000000000000000000000000000000000000000000000000000000000000000000000000000000000000
310
00000000000000000000000000000000000000000000000000000000000000000000000000000000000000000000000000000000000000000000000000000000000000000000000000000000000000000000000000000000000000000000000000000000000000000000000000000000000000070000000000000000000000
310
00000007000000000000000000000000000000000000000000000000000000000000000000000000000000000000000000000000000000000000000000000000000000000000000000000000000000000000000000000000000000000000000000000000000000000000000000000000000000000000000000000000000000
310
00000000000000000000000000000000000000000000000000000000000000000000000000000000000700000000000000000000000000000700000000000000000000000000000000000000000000000000000000000000000000000000000000000000000000000000000000000000000000000000000000000000000000
310
00000000000000000000000000000000000000000000000000000000000000000000000000000000000000000000000000000000000000000000000000000000000000000000000000000000000000000000000000000000000000000000070000000000000000000000000000070000000000000000000000000000000000
310
00000000000000000000000000000000000000000000000000000000000000000000000000000000000000000000000000000000000000000000000000000000000000000000000000000000000000000000000000000000000000000000000000000000000000000000000000000000000000000000000000000000000000
310
00000000000000000000000000000000000000000700000000000000000000000000000700000000000000000000000000000000000000000000000000000000000000000000000000000000000000000000000000000000000000000000000000000000000000000000000000000000000000000000000000000000000000
310
00000000000000000000000000000000000000000000000000000000000000000000000000000000000000000000000000000000000000000000000000000000000000000000000000070000000000000000000000000000070000000000000000000000000000000000000000000000000000000000000000000000000000
310
00000000000000000000000000000000000000000000000000000000000000000000000000000000000000000000000000000000000000000000000000000000000000000000000000000000000000000000000000000000000000000000000000000000000000000000000000000000000000000000000000000000000007
310
00000000000000000000000000000700000000000000000000000000000000000000000000000000000000000000000000000000000000000000000000000000000000000000000000000000000000000000000000000000000000000000000000000000000000000000000000000000000000000000000000000000000000
310
00000000000000000000000000000000000000000000000000000000000000000000000000000000000000000000000000000000070000000000000000000000000000070000000000000000000000000000000000000000000000000000000000000000000000000000000000000000000000000000000000000000000000
310
00000000000000000000000000000000000000000000000000000000000000000000000000000000000000000000000000000000000000000000000000000000000000000000000000000000000000000000000000000000000000000000000000000000000000000007000000000000000000000000000007000000000000
310
00000000000000000000000000000000000000000000000000000000000000000000000000000000000000000000000000000000000000000000000000000000000000000000000000000000000000000000000000000000000000000000000000000000000000000000000000000000000000000000000000000000000000
310
00000000000000000000000000000000000000000000000000000000000000070000000000000000000000000000070000000000000000000000000000000000000000000000000000000000000000000000000000000000000000000000000000000000000000000000000000000000000000000000000000000000000000
310
00000000000000000000000000000000000000000000000000000000000000000000000000000000000000000000000000000000000000000000000000000000000000000000000000000000000000000000000007000000000000000000000000000007000000000000000000000000000000000000000000000000000000
310
00000000000000000000000000000000000000000000000000000000000000000000000000000000000000000000000000000000000000000000000000000000000000000000000000000000000000000000000000000000000000000000000000000000000000000000000000000000000000000000000000000000000000
310
00000000000000000000070000000000000000000000000000070000000000000000000000000000000000000000000000000000000000000000000000000000000000000000000000000000000000000000000000000000000000000000000000000000000000000000000000000000000000000000000000000000000000
310
00000000000000000000000000000000000000000000000000000000000000000000000000000000000000000000000000000000000000000000000000000007000000000000000000000000000007000000000000000000000000000000000000000000000000000000000000000000000000000000000000000000000000
310
00000000000000000000000000000000000000000000000000000000000000000000000000000000000000000000000000000000000000000000000000000000000000000000000000000000000000000000000000000000000000000000000000000000000000000000000000000000000000070000000000000000000000
310
00000000000700000000000000000000000000000000000000000000000000000000000000000000000000000000000000000000000000000000000000000000000000000000000000000000000000000000000000000000000000000000000000000000000000000000000000000000000000000000000000000000000000
310
00000000000000000000000000000000000000000000000000000000000000000000000000000000000700000000000000000000000000000000070000000000000000000000000000000000000000000000000000000000000000000000000000000000000000000000000000000000000000000000000000000000000000
310
00000000000000000000000000000000000000000000000000000000000000000000000000000000000000000000000000000000000000000000000000000000000000000000000000000000000000000000000000000000000000000000070000000000000000000000000000000007000000000000000000000000000000
310
00000000000000000000000000000000000000000000000000000000000000000000000000000000000000000000000000000000000000000000000000000000000000000000000000000000000000000000000000000000000000000000000000000000000000000000000000000000000000000000000000000000000000
310
00000000000000000000000000000000000000000700000000000000000000000000000000070000000000000000000000000000000000000000000000000000000000000000000000000000000000000000000000000000000000000000000000000000000000000000000000000000000000000000000000000000000000
310
00000000000000000000000000000000000000000000000000000000000000000000000000000000000000000000000000000000000000000000000000000000000000000000000000070000000000000000000000000000000007000000000000000000000000000000000000000000000000000000000000000000000000
310
00000000000000000000000000000000000000000000000000000000000000000000000000000000000000000000000000000000000000000000000000000000000000000000000000000000000000000000000000000000000000000000000000000000000000000000000000000000000000000000000000000000000007
310
07070707070707070707070707070707070000000000000000000000000000000000000000000000000000000000000000000000000000000000000000000000000000000000000000000000000000000000000000000000000000000000000000000000000000000000000000000000000000000000000000000000000000
310
00000000000000000000000000000000000000000000000000000000000000000000000000000000000000000000000000000000070707070707070707070707070707070707000000000000000000000000000000000000000000000000000000000000000000000000000000000000000000000000000000000000000000
310
00000000000000000000000000000000000000000000000000000000000000000000000000000000000000000000000000000000000000000000000000000000000000000000000000000000000000000000000000000000000000000000000000000000000000000007000000000000000000000000000000000700000000
310
00000000000000000000000000000000000000000000000000000000000000000000000000000000000000000000000000000000000000000000000000000000000000000000000000000000000000000000000000000000000000000000000000000000000000000000000000000000000000000000000000000000000000
310
00000000000000000000000000000000000000000000000000000000000000070000000000000000000000000000000007000000000000000000000000000000000000000000000000000000000000000000000000000000000000000000000000000000000000000000000000000000000000000000000000000000000000
310
00000000000000000000000000000000000000000000000000000000000000000000000000000000000000000000000000000000000000000000000000000000000000000000000000000000000000000000000007000000000000000000000000000000000700000000000000000000000000000000000000000000000000
310
00000000000000000000000000000000000000000000000000000000000000000000000000000000000000000000000000000000000000000000000000000000000000000000000000000000000000000000000000000000000000000000000000000000000000000000000000000000000000000000000000000000000000
310
00000000000000000000070000000000000000000000000000000007000000000000000000000000000000000000000000000000000000000000000000000000000000000000000000000000000000000000000000000000000000000000000000000000000000000000000000000000000000000000000000000000000000
310
00000000000000000000000000000000000000000000000000000000000000000000000000000000000000000000000000000000000000000000000000000007000000000000000000000000000000000700000000000000000000000000000000000000000000000000000000000000000000000000000000000000000000
310
00000000000000000000000000000000000000000000000000000000000000000000000000000000000000000000000000000000000000000000000000000000000000000000000000000000000000000000000000000000000000000000000000000000000000000000000000000000000000000700000000000000000000
310
00000000000007000000000000000000000000000000000000000000000000000000000000000000000000000000000000000000000000000000000000000000000000000000000000000000000000000000000000000000000000000000000000000000000000000000000000000000000000000000000000000000000000
310
00000000000000000000000000000000000000000000000000000000000000000000000000000000000007000000000000000000000000000000000700000000000000000000000000000000000000000000000000000000000000000000000000000000000000000000000000000000000000000000000000000000000000
310
00000000000000000000000000000000000000000000000000000000000000000000000000000000000000000000000000000000000000000000000000000000000000000000000000000000000000000000000000000000000000000000000700000000000000000000000000000000070000000000000000000000000000
310
00000000000000000000000000000000000000000000000000000000000000000000000000000000000000000000000000000000000000000000000000000000000000000000000000000000000000000000000000000000000000000000000000000000000000000000000000000000000000000000000000000000000000
310
00000000000000000000000000000000000000000007000000000000000000000000000000000700000000000000000000000000000000000000000000000000000000000000000000000000000000000000000000000000000000000000000000000000000000000000000000000000000000000000000000000000000000
310
00000000000000000000000000000000000000000000000000000000000000000000000000000000000000000000000000000000000000000000000000000000000000000000000000000700000000000000000000000000000000070000000000000000000000000000000000000000000000000000000000000000000000
310
00000000000000000000000000000000000000000000000000000000000000000000000000000000000000000000000000000000000000000000000000000000000000000000000000000000000000000000000000000000000000000000000000000000000000000000000000000000000000000000000000000000000000
310
07000000000000000000000000000000000700000000000000000000000000000000000000000000000000000000000000000000000000000000000000000000000000000000000000000000000000000000000000000000000000000000000000000000000000000000000000000000000000000000000000000000000000
310
00000000000000000000000000000000000000000000000000000000000000000000000000000000000000000000000000000000000700000000000000000000000000000000070000000000000000000000000000000000000000000000000000000000000000000000000000000000000000000000000000000000000000
310
00000000000000000000000000000000000000000000000000000000000000000000000000000000000000000000000000000000000000000000000000000000000000000000000000000000000000000000000000000000000000000000000000000000000000000000070000000000000000000000000000000007000000
310
00000000000000000000000000000000000000000000000000000000000000000000000000000000000000000000000000000000000000000000000000000000000000000000000000000000000000000000000000000000000000000000000000000000000000000000000000000000000000000000000000000000000000
310
00000000000000000000000000000000000000000000000000000000000000000700000000000000000000000000000000070000000000000000000000000000000000000000000000000000000000000000000000000000000000000000000000000000000000000000000000000000000000000000000000000000000000
310
00000000000000000000000000000000000000000000000000000000000000000000000000000000000000000000000000000000000000000000000000000000000000000000000000000000000000000000000000070000000000000000000000000000000007000000000000000000000000000000000000000000000000
310
00000000000000000000000000000000000000000000000000000000000000000000000000000000000000000000000000000000000000000000000000000000000000000000000000000000000000000000000000000000000000000000000000000000000000000000000000000000000000000000000000000000000000
310
00000000000000000000070000000000000000000000000000000000070000000000000000000000000000000000000000000000000000000000000000000000000000000000000000000000000000000000000000000000000000000000000000000000000000000000000000000000000000000000000000000000000000
310
00000000000000000000000000000000000000000000000000000000000000000000000000000000000000000000000000000000000000000000000000000007000000000000000000000000000000000000070000000000000000000000000000000000000000000000000000000000000000000000000000000000000000
310
00000000000000000000000000000000000000000000000000000000000000000000000000000000000000000000000000000000000000000000000000000000000000000000000000000000000000000000000000000000000000000000000000000000000000000000000000000000000000000700000000000000000000
310
00000000000000000700000000000000000000000000000000000000000000000000000000000000000000000000000000000000000000000000000000000000000000000000000000000000000000000000000000000000000000000000000000000000000000000000000000000000000000000000000000000000000000
310
00000000000000000000000000000000000000000000000000000000000000000000000000000000000007000000000000000000000000000000000000070000000000000000000000000000000000000000000000000000000000000000000000000000000000000000000000000000000000000000000000000000000000
310
00000000000000000000000000000000000000000000000000000000000000000000000000000000000000000000000000000000000000000000000000000000000000000000000000000000000000000000000000000000000000000000000700000000000000000000000000000000000007000000000000000000000000
310
00000000000000000000000000000000000000000000000000000000000000000000000000000000000000000000000000000000000000000000000000000000000000000000000000000000000000000000000000000000000000000000000000000000000000000000000000000000000000000000000000000000000000
310
00000000000000000000000000000000000000000007000000000000000000000000000000000000070000000000000000000000000000000000000000000000000000000000000000000000000000000000000000000000000000000000000000000000000000000000000000000000000000000000000000000000000000
310
00000000000000000000000000000000000000000000000000000000000000000000000000000000000000000000000000000000000000000000000000000000000000000000000000000700000000000000000000000000000000000007000000000000000000000000000000000000000000000000000000000000000000
310
00000000000000000000000000000000000000000000000000000000000000000000000000000000000000000000000000000000000000000000000000000000000000000000000000000000000000000000000000000000000000000000000000000000000000000000000000000000000000000000000000000000000000
310
07000000000000000000000000000000000000070000000000000000000000000000000000000000000000000000000000000000000000000000000000000000000000000000000000000000000000000000000000000000000000000000000000000000000000000000000000000000000000000000000000000000000000
310
00000000000000000000000000000000000000000000000000000000000000000000000000000000000000000000000000000000000700000000000000000000000000000000000007000000000000000000000000000000000000000000000000000000000000000000000000000000000000000000000000000000000000
310
00000000000000000000000000000000000000000000000000000000000000000000000000000000000000000000000000000000000000000000000000000000000000000000000000000000000000000000000000000000000000000000000000000000000000000000070000000000000000000000000000000000000700
310
00000000000000000000000000000000000000000000000000000000000000000000000000000000000000000000000000000000000000000000000000000000000000000000000000000000000000000000000000000000000000000000000000000000000000000000000000000000000000000000000000000000000000
310
00000000000000000000000000000000000000000000000000000000000000000700000000000000000000000000000000000007000000000000000000000000000000000000000000000000000000000000000000000000000000000000000000000000000000000000000000000000000000000000000000000000000000
310
00000000000000000000000000000000000000000000000000000000000000000000000000000000000000000000000000000000000000000000000000000000000000000000000000000000000000000000000000070000000000000000000000000000000000000700000000000000000000000000000000000000000000
310
00000000000000000000000000000000000000000000000000000000000000000000000000000000000000000000000000000000000000000000000000000000000000000000000000000000000000000000000000000000000000000000000000000000000000000000000000000000000000000000000000000000000000
310
00000000000000000000000700000000000000000000000000000000000000070000000000000000000000000000000000000000000000000000000000000000000000000000000000000000000000000000000000000000000000000000000000000000000000000000000000000000000000000000000000000000000000
310
00000000000000000000000000000000000000000000000000000000000000000000000000000000000000000000000000000000000000000000000000000000070000000000000000000000000000000000000007000000000000000000000000000000000000000000000000000000000000000000000000000000000000
310
00000000000000000000000000000000000000000000000000000000000000000000000000000000000000000000000000000000000000000000000000000000000000000000000000000000000000000000000000000000000000000000000000000000000000000000000000000000000000000007000000000000000000
310
00000000000000000000070000000000000000000000000000000000000000000000000000000000000000000000000000000000000000000000000000000000000000000000000000000000000000000000000000000000000000000000000000000000000000000000000000000000000000000000000000000000000000
310
00000000000000000000000000000000000000000000000000000000000000000000000000000000000000070000000000000000000000000000000000000007000000000000000000000000000000000000000000000000000000000000000000000000000000000000000000000000000000000000000000000000000000
310
00000000000000000000000000000000000000000000000000000000000000000000000000000000000000000000000000000000000000000000000000000000000000000000000000000000000000000000000000000000000000000000000007000000000000000000000000000000000000000700000000000000000000
310
00000000000000000000000000000000000000000000000000000000000000000000000000000000000000000000000000000000000000000000000000000000000000000000000000000000000000000000000000000000000000000000000000000000000000000000000000000000000000000000000000000000000000
310
00000000000000000000000000000000000000000000070000000000000000000000000000000000000000070000000000000000000000000000000000000000000000000000000000000000000000000000000000000000000000000000000000000000000000000000000000000000000000000000000000000000000000
310
00000000000000000000000000000000000000000000000000000000000000000000000000000000000000000000000000000000000000000000000000000000000000000000000000000007000000000000000000000000000000000707070000070000000000000000000000000000000000000000000000000000000000
310
00000000000000000000000000000000000000000000000000000000000000000000000000000000000000000000000000000000000000000000000000000000000000000000000000000000000000000000000000000000000000000000000000000000000000000000000000000000000000000000000000000000000000
310
00070700000000000000000000000000070707070707070707000000000000000000000000000000000000000000000000000000000000000000000000000000000000000000000000000000000000000000000000000000000000000000000000000000000000000000000000000000000000000000000000000000000000
310
00000000000000000000000000000000000000000000000000000000000000000000000000000000000000000000000000000000000007070000000000000000000000070700000000000000000707000000000000000000000000000000000000000000000000000000000000000000000000000000000000000000000000
310
00000000000000000000000000000000000000000000000000000000000000000000000000000000000000000000000000000000000000000000000000000000000000000000000000000000000000000000000000000000000000000000000000000000000000000000000707000000000000000000000707000000000000
310
00000000070000000000000000000000000000000000000000000000000000000000000000000000000000000000000000000000000000000000000000000000000000000000000000000000000000000000000000000000000000000000000000000000000000000000000000000000000000000000000000000000000000
310
00000000000000000000000000000000000000000000000000000000000000000007070000000000000000000707000000000000000000000000070000000000000000000000000000000000000000000000000000000000000000000000000000000000000000000000000000000000000000000000000000000000000000
310
00000000000000000000000000000000000000000000000000000000000000000000000000000000000000000000000000000000000000000000000000000000000000000000000000000000000000000000000000000700070000000000000007070000000000000000000000000000070000000000000000000000000000
310
00000000000000000000000000000000000000000000000000000000000000000000000000000000000000000000000000000000000000000000000000000000000000000000000000000000000000000000000000000000000000000000000000000000000000000000000000000000000000000000000000000000000000
310
00000000000000000000000007000700000000000000070000000000000000000000000000000700000000000000000000000000000000000000000000000000000000000000000000000000000000000000000000000000000000000000000000000000000000000000000000000000000000000000000000000000000000
310
00000000000000000000000000000000000000000000000000000000000000000000000000000000000000000000000000000000000000000000000000000000000700070000000000000707000000000000000000070707070700000700000000000000000000000000000000000000000000000000000000000000000000
310
00000000000000000000000000000000000000000000000000000000000000000000000000000000000000000000000000000000000000000000000000000000000000000000000000000000000000000000000000000000000000000000000000000000000000000000000000000000000000000000070000070000000000
310
07000000000000000707070000000000070707070000000000000000000000000000000000000000000000000000000000000000000000000000000000000000000000000000000000000000000000000000000000000000000000000000000000000000000000000000000000000000000000000000000000000000000000
310
00000000000000000000000000000000000000000000000000000000000000000000000000000000000000000007000007000000000700000000000007070000000000000000000007070000000000000000000000000000000000000000000000000000000000000000000000000000000000000000000000000000000000
310
00000000000000000000000000000000000000000000000000000000000000000000000000000000000000000000000000000000000000000000000000000000000000000000000000000000000000000000000000000000000000000000000000000707000700000000070000000000000700000000000000000000000007
310
00000000000000000000000000000000000000000000000000000000000000000000000000000000000000000000000000000000000000000000000000000000000000000000000000000000000000000000000000000000000000000000000000000000000000000000000000000000000000000000000000000000000000
310
00000000000000000000000000000000000000000000000000070000070000000700000000000007000000000000000000000000070700000000000000000000000000000000000000000000000000000000000000000000000000000000000000000000000000000000000000000000000000000000000000000000000000
310
00000000000000000000000000000000000000000000000000000000000000000000000000000000000000000000000000000000000000000000000000000000000000000000000000000000000000070000070000070000000000000700000000000000000000000000070000000000000000000000000000000000000000
310
00000000000000000000000000000000000000000000000000000000000000000000000000000000000000000000000000000000000000000000000000000000000000000000000000000000000000000000000000000000000000000000000000000000000000000000000000000000000000000000000000000000000000
310
00000000000007000007070707000000000007000000000000000000000000000700000000000000000000000000000000000000000000000000000000000000000000000000000000000000000000000000000000000000000000000000000000000000000000000000000000000000000000000000000000000000000000
310
00000000000000000000000000000000000000000000000000000000000000000000000000000000000000000000000000000000000000000000000007070700070700000000000700000000000000000000000000070000000000000000000000000000000000000000000000000000000000000000000000000000000000
310
00000000000000000000000000000000000000000000000000000000000000000000000000000000000000000000000000000000000000000000000000000000000000000000000000000000000000000000000000000000000000000000000000000000000000000000000000000000000000000707070700000000070000
310
00000000000000000000000700000000000000000000000000000000000000000000000000000000000000000000000000000000000000000000000000000000000000000000000000000000000000000000000000000000000000000000000000000000000000000000000000000000000000000000000000000000000000
310
00000000000000000000000000000000000000000000000000000000000000000000000000000000000000000707070000000700000000000000000000000000070000000000000000000000000000000000000000000000000000000000000000000000000000000000000000000000000000000000000000000000000000
310
00000000000000000000000000000000000000000000000000000000000000000000000000000000000000000000000000000000000000000000000000000000000000000000000000000000000000000000000000000000000000000000000007070007070000000700000000000000000000000707000000000000000000
310
00000000000000000000000000000000000000000000000000000000000000000000000000000000000000000000000000000000000000000000000000000000000000000000000000000000000000000000000000000000000000000000000000000000000000000000000000000000000000000000000000000000000000
310
00000000000000000000000000000000000000000000070707070007070007000000000000000000000007000000000000000000000000000000000000000000000000000000000000000000000000000000000000000000000000000000000000000000000000000000000000000000000000000000000000000000000000
310
00000000000000000000000000000000000000000000000000000000000000000000000000000000000000000000000000000000000000000000000000000000000000000000000000000007000007000000070707000000000000000000070700000000000000000000000000000000000000000000000000000000000000
310
00000000000000000000000000000000000000000000000000000000000000000000000000000000000000000000000000000000000000000000000000000000000000000000000000000000000000000000000000000000000000000000000000000000000000000000000000000000000000000000000000000000000000
310
00070000070000000000070707000000000000070700000000000000000000000000000000000000000000000000000000000000000000000000000000000000000000000000000000000000000000000000000000000000000000000000000000000000000000000000000000000000000000000000000000000000000000
310
00000000000000000000000000000000000000000000000000000000000000000000000000000000000000000000000000000000000007000007000000000000000707070707070700000000000000000000000000000000000000000000000000000000000000000000000000000000000000000000000000000000000000
310
00000000000000000000000000000000000000000000000000000000000000000000000000000000000000000000000000000000000000000000000000000000000000000000000000000000000000000000000000000000000000000000000000000000000000000000000700000700000000000000000000000000000000
310
00000000000000000000000000000000000000000000000000000000000000000000000000000000000000000000000000000000000000000000000000000000000000000000000000000000000000000000000000000000000000000000000000000000000000000000000000000000000000000000000000000000000000
310
00000000000000000000000000000000000000000000000000000000000000000007000007000000000000000000000000000000000000000000000000000000000000000000000000000000000000000000000000000000000000000000000000000000000000000000000000000000000000000000000000000000000000
310
00000000000000000000000000000000000000000000000000000000000000000000000000000000000000000000000000000000000000000000000000000000000000000000000000000000000000000000000000000707070700000000000000000000000000000000000000000000000000000000000000000000000000
310
00000000000000000000000000000000000000000000000000000000000000000000000000000000000000000000000000000000000000000000000000000000000000000000000000000000000000000000000000000000000000000000000000000000000000000000000000000000000000000000000000000000000000
310
000000000000000000000000000000000000000000000000000000000000000000000000000000000000000000000000000000000000000000000000000000000000000000000000000000000000000000000000000000000000000000000000000000000000000000000000
  0
ENDSEC
  0
EOF
