  0
SECTION
  2
HEADER
  9
$ACADVER
  1
AC1015
  9
$ACADMAINTVER
 70
     6
  9
$DWGCODEPAGE
  3
ANSI_1252
  9
$INSBASE
 10
0.0
 20
0.0
 30
0.0
  9
$EXTMIN
 10
0.20985
 20
0.061
 30
0.0
  9
$EXTMAX
 10
58.79015
 20
149.939
 30
0.0
  9
$LIMMIN
 10
0.0
 20
0.0
  9
$LIMMAX
 10
12.0
 20
9.0
  9
$ORTHOMODE
 70
     0
  9
$REGENMODE
 70
     1
  9
$FILLMODE
 70
     1
  9
$QTEXTMODE
 70
     0
  9
$MIRRTEXT
 70
     1
  9
$LTSCALE
 40
1.0
  9
$ATTMODE
 70
     1
  9
$TEXTSIZE
 40
0.2
  9
$TRACEWID
 40
0.05
  9
$TEXTSTYLE
  7
Standard
  9
$CLAYER
  8
0
  9
$CELTYPE
  6
ByBlock
  9
$CECOLOR
 62
   256
  9
$CELTSCALE
 40
1.0
  9
$DISPSILH
 70
     0
  9
$DIMSCALE
 40
1.0
  9
$DIMASZ
 40
0.18
  9
$DIMEXO
 40
0.0625
  9
$DIMDLI
 40
0.38
  9
$DIMRND
 40
0.0
  9
$DIMDLE
 40
0.0
  9
$DIMEXE
 40
0.18
  9
$DIMTP
 40
0.0
  9
$DIMTM
 40
0.0
  9
$DIMTXT
 40
0.18
  9
$DIMCEN
 40
0.09
  9
$DIMTSZ
 40
0.0
  9
$DIMTOL
 70
     0
  9
$DIMLIM
 70
     0
  9
$DIMTIH
 70
     1
  9
$DIMTOH
 70
     1
  9
$DIMSE1
 70
     0
  9
$DIMSE2
 70
     0
  9
$DIMTAD
 70
     0
  9
$DIMZIN
 70
     0
  9
$DIMBLK
  1

  9
$DIMASO
 70
     1
  9
$DIMSHO
 70
     1
  9
$DIMPOST
  1

  9
$DIMAPOST
  1

  9
$DIMALT
 70
     0
  9
$DIMALTD
 70
     2
  9
$DIMALTF
 40
25.4
  9
$DIMLFAC
 40
1.0
  9
$DIMTOFL
 70
     0
  9
$DIMTVP
 40
0.0
  9
$DIMTIX
 70
     0
  9
$DIMSOXD
 70
     0
  9
$DIMSAH
 70
     0
  9
$DIMBLK1
  1

  9
$DIMBLK2
  1

  9
$DIMSTYLE
  2
Standard
  9
$DIMCLRD
 70
     0
  9
$DIMCLRE
 70
     0
  9
$DIMCLRT
 70
     0
  9
$DIMTFAC
 40
1.0
  9
$DIMGAP
 40
0.09
  9
$DIMJUST
 70
     0
  9
$DIMSD1
 70
     0
  9
$DIMSD2
 70
     0
  9
$DIMTOLJ
 70
     1
  9
$DIMTZIN
 70
     0
  9
$DIMALTZ
 70
     0
  9
$DIMALTTZ
 70
     0
  9
$DIMUPT
 70
     0
  9
$DIMDEC
 70
     4
  9
$DIMTDEC
 70
     4
  9
$DIMALTU
 70
     2
  9
$DIMALTTD
 70
     2
  9
$DIMTXSTY
  7
Standard
  9
$DIMAUNIT
 70
     0
  9
$DIMADEC
 70
     0
  9
$DIMALTRND
 40
0.0
  9
$DIMAZIN
 70
     0
  9
$DIMDSEP
 70
    46
  9
$DIMATFIT
 70
     3
  9
$DIMFRAC
 70
     0
  9
$DIMLDRBLK
  1

  9
$DIMLUNIT
 70
     2
  9
$DIMLWD
 70
    -2
  9
$DIMLWE
 70
    -2
  9
$DIMTMOVE
 70
     2
  9
$LUNITS
 70
     2
  9
$LUPREC
 70
     4
  9
$SKETCHINC
 40
0.1
  9
$FILLETRAD
 40
0.5
  9
$AUNITS
 70
     0
  9
$AUPREC
 70
     0
  9
$MENU
  1
.
  9
$ELEVATION
 40
0.0
  9
$PELEVATION
 40
0.0
  9
$THICKNESS
 40
0.0
  9
$LIMCHECK
 70
     0
  9
$CHAMFERA
 40
0.5
  9
$CHAMFERB
 40
0.5
  9
$CHAMFERC
 40
1.0
  9
$CHAMFERD
 40
0.0
  9
$SKPOLY
 70
     0
  9
$TDCREATE
 40
2456184.738079317
  9
$TDUCREATE
 40
2456184.654745984
  9
$TDUPDATE
 40
2456184.744984155
  9
$TDUUPDATE
 40
2456184.661650822
  9
$TDINDWG
 40
0.0069044907
  9
$TDUSRTIMER
 40
0.0069044907
  9
$USRTIMER
 70
     1
  9
$ANGBASE
 50
0.0
  9
$ANGDIR
 70
     0
  9
$PDMODE
 70
     0
  9
$PDSIZE
 40
0.0
  9
$PLINEWID
 40
0.0
  9
$SPLFRAME
 70
     0
  9
$SPLINETYPE
 70
     6
  9
$SPLINESEGS
 70
     8
  9
$HANDSEED
  5
974
  9
$SURFTAB1
 70
     6
  9
$SURFTAB2
 70
     6
  9
$SURFTYPE
 70
     6
  9
$SURFU
 70
     6
  9
$SURFV
 70
     6
  9
$UCSBASE
  2

  9
$UCSNAME
  2

  9
$UCSORG
 10
0.0
 20
0.0
 30
0.0
  9
$UCSXDIR
 10
1.0
 20
0.0
 30
0.0
  9
$UCSYDIR
 10
0.0
 20
1.0
 30
0.0
  9
$UCSORTHOREF
  2

  9
$UCSORTHOVIEW
 70
     0
  9
$UCSORGTOP
 10
0.0
 20
0.0
 30
0.0
  9
$UCSORGBOTTOM
 10
0.0
 20
0.0
 30
0.0
  9
$UCSORGLEFT
 10
0.0
 20
0.0
 30
0.0
  9
$UCSORGRIGHT
 10
0.0
 20
0.0
 30
0.0
  9
$UCSORGFRONT
 10
0.0
 20
0.0
 30
0.0
  9
$UCSORGBACK
 10
0.0
 20
0.0
 30
0.0
  9
$PUCSBASE
  2

  9
$PUCSNAME
  2

  9
$PUCSORG
 10
0.0
 20
0.0
 30
0.0
  9
$PUCSXDIR
 10
1.0
 20
0.0
 30
0.0
  9
$PUCSYDIR
 10
0.0
 20
1.0
 30
0.0
  9
$PUCSORTHOREF
  2

  9
$PUCSORTHOVIEW
 70
     0
  9
$PUCSORGTOP
 10
0.0
 20
0.0
 30
0.0
  9
$PUCSORGBOTTOM
 10
0.0
 20
0.0
 30
0.0
  9
$PUCSORGLEFT
 10
0.0
 20
0.0
 30
0.0
  9
$PUCSORGRIGHT
 10
0.0
 20
0.0
 30
0.0
  9
$PUCSORGFRONT
 10
0.0
 20
0.0
 30
0.0
  9
$PUCSORGBACK
 10
0.0
 20
0.0
 30
0.0
  9
$USERI1
 70
     0
  9
$USERI2
 70
     0
  9
$USERI3
 70
     0
  9
$USERI4
 70
     0
  9
$USERI5
 70
     0
  9
$USERR1
 40
0.0
  9
$USERR2
 40
0.0
  9
$USERR3
 40
0.0
  9
$USERR4
 40
0.0
  9
$USERR5
 40
0.0
  9
$WORLDVIEW
 70
     1
  9
$SHADEDGE
 70
     3
  9
$SHADEDIF
 70
    70
  9
$TILEMODE
 70
     1
  9
$MAXACTVP
 70
    64
  9
$PINSBASE
 10
0.0
 20
0.0
 30
0.0
  9
$PLIMCHECK
 70
     0
  9
$PEXTMIN
 10
1.000000000000E+20
 20
1.000000000000E+20
 30
1.000000000000E+20
  9
$PEXTMAX
 10
-1.000000000000E+20
 20
-1.000000000000E+20
 30
-1.000000000000E+20
  9
$PLIMMIN
 10
0.0
 20
0.0
  9
$PLIMMAX
 10
12.0
 20
9.0
  9
$UNITMODE
 70
     0
  9
$VISRETAIN
 70
     1
  9
$PLINEGEN
 70
     0
  9
$PSLTSCALE
 70
     1
  9
$TREEDEPTH
 70
  3020
  9
$CMLSTYLE
  2
Standard
  9
$CMLJUST
 70
     0
  9
$CMLSCALE
 40
1.0
  9
$PROXYGRAPHICS
 70
     1
  9
$MEASUREMENT
 70
     0
  9
$CELWEIGHT
370
    -1
  9
$ENDCAPS
280
     0
  9
$JOINSTYLE
280
     0
  9
$LWDISPLAY
290
     0
  9
$INSUNITS
 70
     0
  9
$HYPERLINKBASE
  1

  9
$STYLESHEET
  1

  9
$XEDIT
290
     1
  9
$CEPSNTYPE
380
     0
  9
$PSTYLEMODE
290
     1
  9
$FINGERPRINTGUID
  2
{C969EF74-3964-453A-85F9-AF0C100EA8F0}
  9
$VERSIONGUID
  2
{FAEB1C32-E019-11D5-929B-00C0DF256EC4}
  9
$EXTNAMES
290
     1
  9
$PSVPSCALE
 40
0.0
  9
$OLESTARTUP
290
     0
  0
ENDSEC
  0
SECTION
  2
CLASSES
  0
CLASS
  1
ACDBDICTIONARYWDFLT
  2
AcDbDictionaryWithDefault
  3
ObjectDBX Classes
 90
        0
280
     0
281
     0
  0
CLASS
  1
SCALE
  2
AcDbScale
  3
ObjectDBX Classes
 90
     1153
280
     0
281
     0
  0
CLASS
  1
DICTIONARYVAR
  2
AcDbDictionaryVar
  3
ObjectDBX Classes
 90
        0
280
     0
281
     0
  0
CLASS
  1
ACDBPLACEHOLDER
  2
AcDbPlaceHolder
  3
ObjectDBX Classes
 90
        0
280
     0
281
     0
  0
CLASS
  1
LAYOUT
  2
AcDbLayout
  3
ObjectDBX Classes
 90
        0
280
     0
281
     0
  0
ENDSEC
  0
SECTION
  2
TABLES
  0
TABLE
  2
VPORT
  5
8
330
0
100
AcDbSymbolTable
 70
     1
  0
VPORT
  5
925
330
8
100
AcDbSymbolTableRecord
100
AcDbViewportTableRecord
  2
*Active
 70
     0
 10
0.0
 20
0.0
 11
1.0
 21
1.0
 12
29.395075
 22
74.9695
 13
0.0
 23
0.0
 14
0.5
 24
0.5
 15
0.5
 25
0.5
 16
0.0
 26
0.0
 36
1.0
 17
0.0
 27
0.0
 37
0.0
 40
152.93778
 41
1.863448275862
 42
50.0
 43
0.0
 44
0.0
 50
0.0
 51
0.0
 71
    16
 72
   100
 73
     1
 74
     3
 75
     0
 76
     0
 77
     0
 78
     0
281
     0
 65
     1
110
0.0
120
0.0
130
0.0
111
1.0
121
0.0
131
0.0
112
0.0
122
1.0
132
0.0
 79
     0
146
0.0
  0
ENDTAB
  0
TABLE
  2
LTYPE
  5
5
330
0
100
AcDbSymbolTable
 70
     1
  0
LTYPE
  5
14
330
5
100
AcDbSymbolTableRecord
100
AcDbLinetypeTableRecord
  2
ByBlock
 70
     0
  3

 72
    65
 73
     0
 40
0.0
  0
LTYPE
  5
15
330
5
100
AcDbSymbolTableRecord
100
AcDbLinetypeTableRecord
  2
ByLayer
 70
     0
  3

 72
    65
 73
     0
 40
0.0
  0
LTYPE
  5
16
330
5
100
AcDbSymbolTableRecord
100
AcDbLinetypeTableRecord
  2
Continuous
 70
     0
  3
Solid line
 72
    65
 73
     0
 40
0.0
  0
ENDTAB
  0
TABLE
  2
LAYER
  5
2
330
0
100
AcDbSymbolTable
 70
     1
  0
LAYER
  5
10
330
2
100
AcDbSymbolTableRecord
100
AcDbLayerTableRecord
  2
0
 70
     0
 62
     7
  6
Continuous
370
    -3
390
F
  0
ENDTAB
  0
TABLE
  2
STYLE
  5
3
330
0
100
AcDbSymbolTable
 70
     1
  0
STYLE
  5
11
330
3
100
AcDbSymbolTableRecord
100
AcDbTextStyleTableRecord
  2
Standard
 70
     0
 40
0.0
 41
1.0
 50
0.0
 71
     0
 42
0.2
  3
txt
  4

  0
ENDTAB
  0
TABLE
  2
VIEW
  5
6
330
0
100
AcDbSymbolTable
 70
     0
  0
ENDTAB
  0
TABLE
  2
UCS
  5
7
330
0
100
AcDbSymbolTable
 70
     0
  0
ENDTAB
  0
TABLE
  2
APPID
  5
9
330
0
100
AcDbSymbolTable
 70
     1
  0
APPID
  5
12
330
9
100
AcDbSymbolTableRecord
100
AcDbRegAppTableRecord
  2
ACAD
 70
     0
  0
ENDTAB
  0
TABLE
  2
DIMSTYLE
  5
A
330
0
100
AcDbSymbolTable
 70
     1
100
AcDbDimStyleTable
  0
DIMSTYLE
105
20
330
A
100
AcDbSymbolTableRecord
100
AcDbDimStyleTableRecord
  2
Standard
 70
     0
340
11
  0
ENDTAB
  0
TABLE
  2
BLOCK_RECORD
  5
1
330
0
100
AcDbSymbolTable
 70
     0
  0
BLOCK_RECORD
  5
1D
330
1
100
AcDbSymbolTableRecord
100
AcDbBlockTableRecord
  2
*Model_Space
340
1E
  0
BLOCK_RECORD
  5
1B
330
1
100
AcDbSymbolTableRecord
100
AcDbBlockTableRecord
  2
*Paper_Space
340
1C
  0
ENDTAB
  0
ENDSEC
  0
SECTION
  2
BLOCKS
  0
BLOCK
  5
928
330
1D
100
AcDbEntity
  8
0
100
AcDbBlockBegin
  2
*Model_Space
 70
     0
 10
0.0
 20
0.0
 30
0.0
  3
*Model_Space
  1
*Model_Space
  0
ENDBLK
  5
929
330
1D
100
AcDbEntity
  8
0
100
AcDbBlockEnd
  0
BLOCK
  5
926
330
1B
100
AcDbEntity
 67
     1
  8
0
100
AcDbBlockBegin
  2
*Paper_Space
 70
     0
 10
0.0
 20
0.0
 30
0.0
  3
*Paper_Space
  1
*Paper_Space
  0
ENDBLK
  5
927
330
1B
100
AcDbEntity
 67
     1
  8
0
100
AcDbBlockEnd
  0
ENDSEC
  0
SECTION
  2
ENTITIES
  0
LINE
  5
21
330
1D
100
AcDbEntity
  8
0
100
AcDbLine
 10
2.67378
 20
66.4559
 30
0.0
 11
2.72797
 21
65.4333
 31
0.0
  0
LINE
  5
23
330
1D
100
AcDbEntity
  8
0
100
AcDbLine
 10
2.7279
 20
65.4336
 30
0.0
 11
3.4313
 21
57.9346
 31
0.0
  0
LINE
  5
26
330
1D
100
AcDbEntity
  8
0
100
AcDbLine
 10
1.84336
 20
90.7131
 30
0.0
 11
1.90266
 21
97.0413
 31
0.0
  0
LINE
  5
2C
330
1D
100
AcDbEntity
  8
0
100
AcDbLine
 10
2.09559
 20
76.7841
 30
0.0
 11
2.67378
 21
66.4559
 31
0.0
  0
LINE
  5
32
330
1D
100
AcDbEntity
  8
0
100
AcDbLine
 10
1.86382
 20
82.5473
 30
0.0
 11
2.09559
 21
76.7841
 31
0.0
  0
LINE
  5
34
330
1D
100
AcDbEntity
  8
0
100
AcDbLine
 10
1.84652
 20
84.1656
 30
0.0
 11
1.86382
 21
82.5473
 31
0.0
  0
LINE
  5
35
330
1D
100
AcDbEntity
  8
0
100
AcDbLine
 10
1.84651
 20
84.1654
 30
0.0
 11
1.86372
 21
82.5468
 31
0.0
  0
LINE
  5
3B
330
1D
100
AcDbEntity
  8
0
100
AcDbLine
 10
2.67383
 20
66.4562
 30
0.0
 11
2.68137067743
 21
66.365628077783
 31
0.0
  0
LINE
  5
3C
330
1D
100
AcDbEntity
  8
0
100
AcDbLine
 10
2.67383
 20
66.4562
 30
0.0
 11
2.681371167298
 21
66.365618276823
 31
0.0
  0
LINE
  5
3D
330
1D
100
AcDbEntity
  8
0
100
AcDbLine
 10
2.67383
 20
66.4562
 30
0.0
 11
2.7279
 21
65.4336
 31
0.0
  0
LINE
  5
3F
330
1D
100
AcDbEntity
  8
0
100
AcDbLine
 10
4.0185
 20
52.1091
 30
0.0
 11
5.45913
 21
16.3892
 31
0.0
  0
LINE
  5
40
330
1D
100
AcDbEntity
  8
0
100
AcDbLine
 10
4.0185
 20
52.1091
 30
0.0
 11
4.18624
 21
50.6343
 31
0.0
  0
LINE
  5
41
330
1D
100
AcDbEntity
  8
0
100
AcDbLine
 10
4.0185
 20
52.1091
 30
0.0
 11
5.45913
 21
16.3892
 31
0.0
  0
LINE
  5
42
330
1D
100
AcDbEntity
  8
0
100
AcDbLine
 10
4.0185
 20
52.1091
 30
0.0
 11
4.043708438163
 21
52.686279580295
 31
0.0
  0
LINE
  5
44
330
1D
100
AcDbEntity
  8
0
100
AcDbLine
 10
4.01829
 20
52.1093
 30
0.0
 11
4.043561898351
 21
52.687535421728
 31
0.0
  0
LINE
  5
45
330
1D
100
AcDbEntity
  8
0
100
AcDbLine
 10
4.01829
 20
52.1093
 30
0.0
 11
4.18624
 21
50.6343
 31
0.0
  0
LINE
  5
46
330
1D
100
AcDbEntity
  8
0
100
AcDbLine
 10
5.58689
 20
15.2908
 30
0.0
 11
5.86292
 21
14.1662
 31
0.0
  0
LINE
  5
47
330
1D
100
AcDbEntity
  8
0
100
AcDbLine
 10
5.45913
 20
16.3892
 30
0.0
 11
5.58689
 21
15.2908
 31
0.0
  0
LINE
  5
48
330
1D
100
AcDbEntity
  8
0
100
AcDbLine
 10
5.45918
 20
16.3893
 30
0.0
 11
5.58718
 21
15.2907
 31
0.0
  0
LINE
  5
49
330
1D
100
AcDbEntity
  8
0
100
AcDbLine
 10
5.58718
 20
15.2907
 30
0.0
 11
5.86302
 21
14.166
 31
0.0
  0
LINE
  5
4A
330
1D
100
AcDbEntity
  8
0
100
AcDbLine
 10
4.58478
 20
49.1821
 30
0.0
 11
5.20857
 21
47.771
 31
0.0
  0
LINE
  5
4B
330
1D
100
AcDbEntity
  8
0
100
AcDbLine
 10
4.58459
 20
49.1822
 30
0.0
 11
5.20857
 21
47.771
 31
0.0
  0
LINE
  5
4C
330
1D
100
AcDbEntity
  8
0
100
AcDbLine
 10
4.18624
 20
50.6343
 30
0.0
 11
4.58459
 21
49.1822
 31
0.0
  0
LINE
  5
4D
330
1D
100
AcDbEntity
  8
0
100
AcDbLine
 10
4.18624
 20
50.6343
 30
0.0
 11
4.58478
 21
49.1821
 31
0.0
  0
LINE
  5
56
330
1D
100
AcDbEntity
  8
0
100
AcDbLine
 10
5.20857
 20
47.771
 30
0.0
 11
6.04994
 21
46.4184
 31
0.0
  0
LINE
  5
58
330
1D
100
AcDbEntity
  8
0
100
AcDbLine
 10
5.20857
 20
47.771
 30
0.0
 11
6.04983
 21
46.4184
 31
0.0
  0
LINE
  5
62
330
1D
100
AcDbEntity
  8
0
100
AcDbLine
 10
3.4313
 20
57.9346
 30
0.0
 11
4.043561898351
 21
52.687535421728
 31
0.0
  0
LINE
  5
69
330
1D
100
AcDbEntity
  8
0
100
AcDbLine
 10
0.783442
 20
119.536
 30
0.0
 11
1.46882
 21
117.017
 31
0.0
  0
LINE
  5
6D
330
1D
100
AcDbEntity
  8
0
100
AcDbLine
 10
1.97255
 20
98.8193
 30
0.0
 11
2.03142
 21
99.8013
 31
0.0
  0
LINE
  5
71
330
1D
100
AcDbEntity
  8
0
100
AcDbLine
 10
2.15756
 20
102.402
 30
0.0
 11
2.37287
 21
105.228
 31
0.0
  0
LINE
  5
74
330
1D
100
AcDbEntity
  8
0
100
AcDbLine
 10
2.03142
 20
99.8013
 30
0.0
 11
2.15756
 21
102.402
 31
0.0
  0
LINE
  5
76
330
1D
100
AcDbEntity
  8
0
100
AcDbLine
 10
1.90266
 20
97.0413
 30
0.0
 11
1.97255
 21
98.8193
 31
0.0
  0
LINE
  5
78
330
1D
100
AcDbEntity
  8
0
100
AcDbLine
 10
1.46882
 20
117.017
 30
0.0
 11
2.40245
 21
114.582
 31
0.0
  0
LINE
  5
7B
330
1D
100
AcDbEntity
  8
0
100
AcDbLine
 10
0.358646
 20
122.11
 30
0.0
 11
0.783442
 21
119.536
 31
0.0
  0
LINE
  5
7D
330
1D
100
AcDbEntity
  8
0
100
AcDbLine
 10
2.42521
 20
106.214
 30
0.0
 11
2.84426
 21
110.154
 31
0.0
  0
LINE
  5
7F
330
1D
100
AcDbEntity
  8
0
100
AcDbLine
 10
2.37287
 20
105.228
 30
0.0
 11
2.42521
 21
106.214
 31
0.0
  0
LINE
  5
8C
330
1D
100
AcDbEntity
  8
0
100
AcDbLine
 10
3.15182
 20
112.569
 30
0.0
 11
3.271024022453
 21
113.283292980921
 31
0.0
  0
LINE
  5
8D
330
1D
100
AcDbEntity
  8
0
100
AcDbLine
 10
3.15182
 20
112.569
 30
0.0
 11
3.271024022453
 21
113.283292980921
 31
0.0
  0
LINE
  5
8F
330
1D
100
AcDbEntity
  8
0
100
AcDbLine
 10
3.059868106513
 20
111.734969572975
 30
0.0
 11
3.15182
 21
112.569
 31
0.0
  0
LINE
  5
9E
330
1D
100
AcDbEntity
  8
0
100
AcDbLine
 10
4.699952601977
 20
121.033620448536
 30
0.0
 11
5.21929
 21
123.004
 31
0.0
  0
LINE
  5
9F
330
1D
100
AcDbEntity
  8
0
100
AcDbLine
 10
2.40245
 20
114.582
 30
0.0
 11
3.225971079288
 21
113.013327249812
 31
0.0
  0
LINE
  5
A0
330
1D
100
AcDbEntity
  8
0
100
AcDbLine
 10
2.40245
 20
114.582
 30
0.0
 11
3.225971079288
 21
113.013327249812
 31
0.0
  0
LINE
  5
A4
330
1D
100
AcDbEntity
  8
0
100
AcDbLine
 10
5.26909
 20
123.203
 30
0.0
 11
6.3535
 21
126.184
 31
0.0
  0
LINE
  5
A6
330
1D
100
AcDbEntity
  8
0
100
AcDbLine
 10
5.21929
 20
123.004
 30
0.0
 11
5.26909
 21
123.203
 31
0.0
  0
LINE
  5
A9
330
1D
100
AcDbEntity
  8
0
100
AcDbLine
 10
1.132686
 20
131.447
 30
0.0
 11
1.87666
 21
133.718
 31
0.0
  0
LINE
  5
AA
330
1D
100
AcDbEntity
  8
0
100
AcDbLine
 10
1.132686
 20
131.447
 30
0.0
 11
1.87666
 21
133.719
 31
0.0
  0
LINE
  5
AB
330
1D
100
AcDbEntity
  8
0
100
AcDbLine
 10
0.451159
 20
128.184
 30
0.0
 11
1.132686
 21
131.447
 31
0.0
  0
LINE
  5
AC
330
1D
100
AcDbEntity
  8
0
100
AcDbLine
 10
0.20985
 20
124.71
 30
0.0
 11
0.451159
 21
128.184
 31
0.0
  0
LINE
  5
AD
330
1D
100
AcDbEntity
  8
0
100
AcDbLine
 10
0.20985
 20
124.71
 30
0.0
 11
0.358646
 21
122.11
 31
0.0
  0
LINE
  5
B1
330
1D
100
AcDbEntity
  8
0
100
AcDbLine
 10
5.86292
 20
14.1662
 30
0.0
 11
6.33232
 21
12.9666
 31
0.0
  0
LINE
  5
B2
330
1D
100
AcDbEntity
  8
0
100
AcDbLine
 10
5.86302
 20
14.166
 30
0.0
 11
6.33239
 21
12.9664
 31
0.0
  0
LINE
  5
B3
330
1D
100
AcDbEntity
  8
0
100
AcDbLine
 10
6.04983
 20
46.4184
 30
0.0
 11
7.09848
 21
45.1415
 31
0.0
  0
LINE
  5
B4
330
1D
100
AcDbEntity
  8
0
100
AcDbLine
 10
6.33239
 20
12.9664
 30
0.0
 11
6.78745
 21
11.9876
 31
0.0
  0
LINE
  5
B9
330
1D
100
AcDbEntity
  8
0
100
AcDbLine
 10
6.04994
 20
46.4184
 30
0.0
 11
7.09837
 21
45.1416
 31
0.0
  0
LINE
  5
C3
330
1D
100
AcDbEntity
  8
0
100
AcDbLine
 10
6.78745
 20
11.9876
 30
0.0
 11
7.30492
 21
11.2615
 31
0.0
  0
LINE
  5
C5
330
1D
100
AcDbEntity
  8
0
100
AcDbLine
 10
7.93549
 20
10.4015
 30
0.0
 11
8.70013
 21
9.58276
 31
0.0
  0
LINE
  5
CE
330
1D
100
AcDbEntity
  8
0
100
AcDbLine
 10
11.68745
 20
7.17607
 30
0.0
 11
13.44365
 21
6.12503
 31
0.0
  0
LINE
  5
D0
330
1D
100
AcDbEntity
  8
0
100
AcDbLine
 10
9.55499
 20
8.80987
 30
0.0
 11
10.04047
 21
8.36471
 31
0.0
  0
LINE
  5
D2
330
1D
100
AcDbEntity
  8
0
100
AcDbLine
 10
10.04047
 20
8.36471
 30
0.0
 11
11.68745
 21
7.17607
 31
0.0
  0
LINE
  5
D5
330
1D
100
AcDbEntity
  8
0
100
AcDbLine
 10
8.70013
 20
9.58276
 30
0.0
 11
9.55499
 21
8.80987
 31
0.0
  0
LINE
  5
D9
330
1D
100
AcDbEntity
  8
0
100
AcDbLine
 10
7.30492
 20
11.2615
 30
0.0
 11
7.93549
 21
10.4015
 31
0.0
  0
LINE
  5
DD
330
1D
100
AcDbEntity
  8
0
100
AcDbLine
 10
7.09848
 20
45.1415
 30
0.0
 11
8.34089
 21
43.9564
 31
0.0
  0
LINE
  5
E6
330
1D
100
AcDbEntity
  8
0
100
AcDbLine
 10
12.48795
 20
41.3481
 30
0.0
 11
14.09015
 21
40.6898
 31
0.0
  0
LINE
  5
E7
330
1D
100
AcDbEntity
  8
0
100
AcDbLine
 10
10.98555
 20
42.1175
 30
0.0
 11
12.48785
 21
41.3482
 31
0.0
  0
LINE
  5
E8
330
1D
100
AcDbEntity
  8
0
100
AcDbLine
 10
10.98555
 20
42.1175
 30
0.0
 11
12.48795
 21
41.3481
 31
0.0
  0
LINE
  5
E9
330
1D
100
AcDbEntity
  8
0
100
AcDbLine
 10
12.48785
 20
41.3482
 30
0.0
 11
14.09015
 21
40.6898
 31
0.0
  0
LINE
  5
ED
330
1D
100
AcDbEntity
  8
0
100
AcDbLine
 10
8.34089
 20
43.9564
 30
0.0
 11
9.59861
 21
42.9897
 31
0.0
  0
LINE
  5
EE
330
1D
100
AcDbEntity
  8
0
100
AcDbLine
 10
9.59861
 20
42.9897
 30
0.0
 11
10.98555
 21
42.1175
 31
0.0
  0
LINE
  5
FE
330
1D
100
AcDbEntity
  8
0
100
AcDbLine
 10
8.34078
 20
43.9565
 30
0.0
 11
9.59861
 21
42.9897
 31
0.0
  0
LINE
  5
100
330
1D
100
AcDbEntity
  8
0
100
AcDbLine
 10
7.09837
 20
45.1416
 30
0.0
 11
8.34078
 21
43.9565
 31
0.0
  0
LINE
  5
137
330
1D
100
AcDbEntity
  8
0
100
AcDbLine
 10
12.55355
 20
126.388
 30
0.0
 11
12.66305
 21
129.287
 31
0.0
  0
LINE
  5
138
330
1D
100
AcDbEntity
  8
0
100
AcDbLine
 10
12.55355
 20
126.388
 30
0.0
 11
12.82035
 21
123.565
 31
0.0
  0
LINE
  5
14A
330
1D
100
AcDbEntity
  8
0
100
AcDbLine
 10
12.82035
 20
123.565
 30
0.0
 11
13.26765
 21
121.399
 31
0.0
  0
LINE
  5
14C
330
1D
100
AcDbEntity
  8
0
100
AcDbLine
 10
12.66305
 20
129.287
 30
0.0
 11
13.04295
 21
131.538
 31
0.0
  0
LINE
  5
14D
330
1D
100
AcDbEntity
  8
0
100
AcDbLine
 10
12.66325
 20
129.286
 30
0.0
 11
13.04285
 21
131.538
 31
0.0
  0
LINE
  5
14E
330
1D
100
AcDbEntity
  8
0
100
AcDbLine
 10
12.55355
 20
126.389
 30
0.0
 11
12.82055
 21
123.565
 31
0.0
  0
LINE
  5
14F
330
1D
100
AcDbEntity
  8
0
100
AcDbLine
 10
12.55355
 20
126.389
 30
0.0
 11
12.66325
 21
129.286
 31
0.0
  0
LINE
  5
152
330
1D
100
AcDbEntity
  8
0
100
AcDbLine
 10
9.42793
 20
131.926
 30
0.0
 11
9.46594
 21
131.976
 31
0.0
  0
LINE
  5
155
330
1D
100
AcDbEntity
  8
0
100
AcDbLine
 10
9.46594
 20
131.976
 30
0.0
 11
11.47975
 21
134.579
 31
0.0
  0
LINE
  5
156
330
1D
100
AcDbEntity
  8
0
100
AcDbLine
 10
9.42794
 20
131.926
 30
0.0
 11
9.46594
 21
131.976
 31
0.0
  0
LINE
  5
158
330
1D
100
AcDbEntity
  8
0
100
AcDbLine
 10
1.87666
 20
133.718
 30
0.0
 11
2.82571
 21
135.919
 31
0.0
  0
LINE
  5
159
330
1D
100
AcDbEntity
  8
0
100
AcDbLine
 10
4.06772
 20
138.184
 30
0.0
 11
5.53022
 21
140.321
 31
0.0
  0
LINE
  5
15A
330
1D
100
AcDbEntity
  8
0
100
AcDbLine
 10
2.82571
 20
135.919
 30
0.0
 11
4.06772
 21
138.184
 31
0.0
  0
LINE
  5
15B
330
1D
100
AcDbEntity
  8
0
100
AcDbLine
 10
1.87666
 20
133.719
 30
0.0
 11
2.82571
 21
135.919
 31
0.0
  0
LINE
  5
15C
330
1D
100
AcDbEntity
  8
0
100
AcDbLine
 10
7.20783
 20
142.31
 30
0.0
 11
9.09282
 21
144.118
 31
0.0
  0
LINE
  5
15D
330
1D
100
AcDbEntity
  8
0
100
AcDbLine
 10
5.53022
 20
140.321
 30
0.0
 11
7.20783
 21
142.31
 31
0.0
  0
LINE
  5
165
330
1D
100
AcDbEntity
  8
0
100
AcDbLine
 10
11.47975
 20
134.579
 30
0.0
 11
12.61715
 21
135.792
 31
0.0
  0
LINE
  5
168
330
1D
100
AcDbEntity
  8
0
100
AcDbLine
 10
11.733042489393
 20
146.039511059889
 30
0.0
 11
11.79815
 21
146.088
 31
0.0
  0
LINE
  5
169
330
1D
100
AcDbEntity
  8
0
100
AcDbLine
 10
11.08115
 20
145.654
 30
0.0
 11
13.80025
 21
147.262
 31
0.0
  0
LINE
  5
16A
330
1D
100
AcDbEntity
  8
0
100
AcDbLine
 10
11.08115
 20
145.653
 30
0.0
 11
11.79815
 21
146.088
 31
0.0
  0
LINE
  5
16B
330
1D
100
AcDbEntity
  8
0
100
AcDbLine
 10
11.08115
 20
145.653
 30
0.0
 11
13.80025
 21
147.262
 31
0.0
  0
LINE
  5
16C
330
1D
100
AcDbEntity
  8
0
100
AcDbLine
 10
9.09282
 20
144.118
 30
0.0
 11
11.08115
 21
145.654
 31
0.0
  0
LINE
  5
16D
330
1D
100
AcDbEntity
  8
0
100
AcDbLine
 10
9.09282
 20
144.118
 30
0.0
 11
11.08115
 21
145.653
 31
0.0
  0
LINE
  5
178
330
1D
100
AcDbEntity
  8
0
100
AcDbLine
 10
11.79815
 20
146.088
 30
0.0
 11
13.80025
 21
147.262
 31
0.0
  0
LINE
  5
17A
330
1D
100
AcDbEntity
  8
0
100
AcDbLine
 10
11.733042489393
 20
146.039511059889
 30
0.0
 11
11.79815
 21
146.088
 31
0.0
  0
LINE
  5
17F
330
1D
100
AcDbEntity
  8
0
100
AcDbLine
 10
13.44365
 20
6.12503
 30
0.0
 11
14.85545
 21
5.332
 31
0.0
  0
LINE
  5
182
330
1D
100
AcDbEntity
  8
0
100
AcDbLine
 10
14.09015
 20
40.6898
 30
0.0
 11
15.77685
 21
40.1487
 31
0.0
  0
LINE
  5
183
330
1D
100
AcDbEntity
  8
0
100
AcDbLine
 10
14.09015
 20
40.6898
 30
0.0
 11
15.77675
 21
40.1488
 31
0.0
  0
LINE
  5
1B2
330
1D
100
AcDbEntity
  8
0
100
AcDbLine
 10
16.26845
 20
4.67694
 30
0.0
 11
18.45645
 21
3.71751
 31
0.0
  0
LINE
  5
1DE
330
1D
100
AcDbEntity
  8
0
100
AcDbLine
 10
18.45645
 20
3.71751
 30
0.0
 11
20.90235
 21
2.8387
 31
0.0
  0
LINE
  5
235
330
1D
100
AcDbEntity
  8
0
100
AcDbLine
 10
14.85545
 20
5.332
 30
0.0
 11
16.26845
 21
4.67694
 31
0.0
  0
LINE
  5
270
330
1D
100
AcDbEntity
  8
0
100
AcDbLine
 10
15.77675
 20
40.1488
 30
0.0
 11
17.86955
 21
39.6654
 31
0.0
  0
LINE
  5
27C
330
1D
100
AcDbEntity
  8
0
100
AcDbLine
 10
17.86955
 20
39.6654
 30
0.0
 11
20.02805
 21
39.3626
 31
0.0
  0
LINE
  5
27D
330
1D
100
AcDbEntity
  8
0
100
AcDbLine
 10
17.86955
 20
39.6654
 30
0.0
 11
20.02805
 21
39.3625
 31
0.0
  0
LINE
  5
27F
330
1D
100
AcDbEntity
  8
0
100
AcDbLine
 10
15.77685
 20
40.1487
 30
0.0
 11
17.86955
 21
39.6654
 31
0.0
  0
LINE
  5
284
330
1D
100
AcDbEntity
  8
0
100
AcDbLine
 10
20.02805
 20
39.3625
 30
0.0
 11
22.22145
 21
39.2446
 31
0.0
  0
LINE
  5
291
330
1D
100
AcDbEntity
  8
0
100
AcDbLine
 10
20.02805
 20
39.3626
 30
0.0
 11
22.22165
 21
39.2447
 31
0.0
  0
LINE
  5
29F
330
1D
100
AcDbEntity
  8
0
100
AcDbLine
 10
20.90235
 20
2.8387
 30
0.0
 11
23.44985
 21
2.04381
 31
0.0
  0
LINE
  5
2BA
330
1D
100
AcDbEntity
  8
0
100
AcDbLine
 10
22.22145
 20
39.2446
 30
0.0
 11
24.41915
 21
39.3133
 31
0.0
  0
LINE
  5
2C4
330
1D
100
AcDbEntity
  8
0
100
AcDbLine
 10
22.22165
 20
39.2447
 30
0.0
 11
24.41925
 21
39.3133
 31
0.0
  0
LINE
  5
2E3
330
1D
100
AcDbEntity
  8
0
100
AcDbLine
 10
15.97055
 20
114.921
 30
0.0
 11
17.25705
 21
112.964
 31
0.0
  0
LINE
  5
2E4
330
1D
100
AcDbEntity
  8
0
100
AcDbLine
 10
13.26765
 20
121.399
 30
0.0
 11
13.92275
 21
119.258
 31
0.0
  0
LINE
  5
2E6
330
1D
100
AcDbEntity
  8
0
100
AcDbLine
 10
14.87165
 20
116.976
 30
0.0
 11
15.97025
 21
114.921
 31
0.0
  0
LINE
  5
2EB
330
1D
100
AcDbEntity
  8
0
100
AcDbLine
 10
13.04295
 20
131.538
 30
0.0
 11
13.68525
 21
133.707
 31
0.0
  0
LINE
  5
2EE
330
1D
100
AcDbEntity
  8
0
100
AcDbLine
 10
17.25685
 20
112.964
 30
0.0
 11
18.57415
 21
111.289
 31
0.0
  0
LINE
  5
2EF
330
1D
100
AcDbEntity
  8
0
100
AcDbLine
 10
20.02165
 20
109.722
 30
0.0
 11
21.57855
 21
108.29
 31
0.0
  0
LINE
  5
2F0
330
1D
100
AcDbEntity
  8
0
100
AcDbLine
 10
20.02165
 20
109.722
 30
0.0
 11
21.57855
 21
108.291
 31
0.0
  0
LINE
  5
2F6
330
1D
100
AcDbEntity
  8
0
100
AcDbLine
 10
21.57855
 20
108.29
 30
0.0
 11
23.24125
 21
106.997
 31
0.0
  0
LINE
  5
2F8
330
1D
100
AcDbEntity
  8
0
100
AcDbLine
 10
21.57855
 20
108.291
 30
0.0
 11
23.24125
 21
106.996
 31
0.0
  0
LINE
  5
2FB
330
1D
100
AcDbEntity
  8
0
100
AcDbLine
 10
22.23405
 20
125.531
 30
0.0
 11
22.88575
 21
124.024
 31
0.0
  0
LINE
  5
2FC
330
1D
100
AcDbEntity
  8
0
100
AcDbLine
 10
20.98935
 20
130.203
 30
0.0
 11
21.69855
 21
127.07
 31
0.0
  0
LINE
  5
300
330
1D
100
AcDbEntity
  8
0
100
AcDbLine
 10
21.69855
 20
127.07
 30
0.0
 11
22.23435
 21
125.532
 31
0.0
  0
LINE
  5
301
330
1D
100
AcDbEntity
  8
0
100
AcDbLine
 10
21.69855
 20
127.07
 30
0.0
 11
22.23405
 21
125.531
 31
0.0
  0
LINE
  5
302
330
1D
100
AcDbEntity
  8
0
100
AcDbLine
 10
22.23435
 20
125.532
 30
0.0
 11
22.88585
 21
124.024
 31
0.0
  0
LINE
  5
303
330
1D
100
AcDbEntity
  8
0
100
AcDbLine
 10
22.88575
 20
124.024
 30
0.0
 11
23.64935
 21
122.56
 31
0.0
  0
LINE
  5
305
330
1D
100
AcDbEntity
  8
0
100
AcDbLine
 10
22.88585
 20
124.024
 30
0.0
 11
23.64935
 21
122.56
 31
0.0
  0
LINE
  5
308
330
1D
100
AcDbEntity
  8
0
100
AcDbLine
 10
17.25705
 20
112.964
 30
0.0
 11
18.57415
 21
111.289
 31
0.0
  0
LINE
  5
30C
330
1D
100
AcDbEntity
  8
0
100
AcDbLine
 10
33.76925
 20
0.176915
 30
0.0
 11
35.05655
 21
0.096669
 31
0.0
  0
LINE
  5
313
330
1D
100
AcDbEntity
  8
0
100
AcDbLine
 10
35.05655
 20
0.096669
 30
0.0
 11
37.21365
 21
0.061
 31
0.0
  0
LINE
  5
31D
330
1D
100
AcDbEntity
  8
0
100
AcDbLine
 10
30.62135
 20
0.565124
 30
0.0
 11
33.76925
 21
0.176915
 31
0.0
  0
LINE
  5
341
330
1D
100
AcDbEntity
  8
0
100
AcDbLine
 10
26.19835
 20
1.319
 30
0.0
 11
30.62135
 21
0.565124
 31
0.0
  0
LINE
  5
3EA
330
1D
100
AcDbEntity
  8
0
100
AcDbLine
 10
23.44985
 20
2.04381
 30
0.0
 11
26.19835
 21
1.319
 31
0.0
  0
LINE
  5
471
330
1D
100
AcDbEntity
  8
0
100
AcDbLine
 10
24.41915
 20
39.3133
 30
0.0
 11
26.58985
 21
39.5675
 31
0.0
  0
LINE
  5
475
330
1D
100
AcDbEntity
  8
0
100
AcDbLine
 10
24.41925
 20
39.3133
 30
0.0
 11
26.58985
 21
39.5675
 31
0.0
  0
LINE
  5
477
330
1D
100
AcDbEntity
  8
0
100
AcDbLine
 10
28.70305
 20
40.0038
 30
0.0
 11
30.72865
 21
40.6156
 31
0.0
  0
LINE
  5
478
330
1D
100
AcDbEntity
  8
0
100
AcDbLine
 10
28.70305
 20
40.0038
 30
0.0
 11
30.72845
 21
40.6156
 31
0.0
  0
LINE
  5
481
330
1D
100
AcDbEntity
  8
0
100
AcDbLine
 10
30.72845
 20
40.6156
 30
0.0
 11
32.63785
 21
41.3948
 31
0.0
  0
LINE
  5
482
330
1D
100
AcDbEntity
  8
0
100
AcDbLine
 10
30.72865
 20
40.6156
 30
0.0
 11
32.63785
 21
41.3948
 31
0.0
  0
LINE
  5
496
330
1D
100
AcDbEntity
  8
0
100
AcDbLine
 10
36.00225
 20
43.4084
 30
0.0
 11
37.40965
 21
44.6143
 31
0.0
  0
LINE
  5
497
330
1D
100
AcDbEntity
  8
0
100
AcDbLine
 10
36.00225
 20
43.4084
 30
0.0
 11
37.40955
 21
44.6141
 31
0.0
  0
LINE
  5
49D
330
1D
100
AcDbEntity
  8
0
100
AcDbLine
 10
32.63785
 20
41.3948
 30
0.0
 11
34.40415
 21
42.3301
 31
0.0
  0
LINE
  5
4A2
330
1D
100
AcDbEntity
  8
0
100
AcDbLine
 10
37.21365
 20
0.061
 30
0.0
 11
38.68855
 21
0.194546
 31
0.0
  0
LINE
  5
4A3
330
1D
100
AcDbEntity
  8
0
100
AcDbLine
 10
38.68855
 20
0.194546
 30
0.0
 11
39.49355
 21
0.355174
 31
0.0
  0
LINE
  5
4A4
330
1D
100
AcDbEntity
  8
0
100
AcDbLine
 10
37.21365
 20
0.061
 30
0.0
 11
38.68855
 21
0.194546
 31
0.0
  0
LINE
  5
4DE
330
1D
100
AcDbEntity
  8
0
100
AcDbLine
 10
39.49355
 20
0.355174
 30
0.0
 11
40.38145
 21
0.625011
 31
0.0
  0
LINE
  5
514
330
1D
100
AcDbEntity
  8
0
100
AcDbLine
 10
37.40965
 20
44.6143
 30
0.0
 11
38.60625
 21
45.9307
 31
0.0
  0
LINE
  5
515
330
1D
100
AcDbEntity
  8
0
100
AcDbLine
 10
37.40955
 20
44.6141
 30
0.0
 11
38.60625
 21
45.9307
 31
0.0
  0
LINE
  5
51D
330
1D
100
AcDbEntity
  8
0
100
AcDbLine
 10
40.38145
 20
0.625011
 30
0.0
 11
40.83545
 21
0.861633
 31
0.0
  0
LINE
  5
51E
330
1D
100
AcDbEntity
  8
0
100
AcDbLine
 10
40.83545
 20
0.861633
 30
0.0
 11
41.23055
 21
1.14552
 31
0.0
  0
LINE
  5
524
330
1D
100
AcDbEntity
  8
0
100
AcDbLine
 10
41.23055
 20
1.14552
 30
0.0
 11
41.84385
 21
1.86186
 31
0.0
  0
LINE
  5
579
330
1D
100
AcDbEntity
  8
0
100
AcDbLine
 10
41.20845
 20
37.2787
 30
0.0
 11
41.434619009517
 21
30.456715634231
 31
0.0
  0
LINE
  5
57A
330
1D
100
AcDbEntity
  8
0
100
AcDbLine
 10
41.20845
 20
37.2787
 30
0.0
 11
41.434619009517
 21
30.456715634231
 31
0.0
  0
LINE
  5
587
330
1D
100
AcDbEntity
  8
0
100
AcDbLine
 10
42.15045
 20
19.9187
 30
0.0
 11
43.13365
 21
10.1968
 31
0.0
  0
LINE
  5
638
330
1D
100
AcDbEntity
  8
0
100
AcDbLine
 10
23.24105
 20
106.997
 30
0.0
 11
25.52815
 21
105.549
 31
0.0
  0
LINE
  5
639
330
1D
100
AcDbEntity
  8
0
100
AcDbLine
 10
35.72135
 20
102.619
 30
0.0
 11
37.36895
 21
102.637
 31
0.0
  0
LINE
  5
63A
330
1D
100
AcDbEntity
  8
0
100
AcDbLine
 10
35.72165
 20
102.619
 30
0.0
 11
37.36915
 21
102.636
 31
0.0
  0
LINE
  5
63B
330
1D
100
AcDbEntity
  8
0
100
AcDbLine
 10
37.36895
 20
102.637
 30
0.0
 11
39.04205
 21
102.8
 31
0.0
  0
LINE
  5
63C
330
1D
100
AcDbEntity
  8
0
100
AcDbLine
 10
37.36915
 20
102.636
 30
0.0
 11
39.04175
 21
102.8
 31
0.0
  0
LINE
  5
63E
330
1D
100
AcDbEntity
  8
0
100
AcDbLine
 10
28.90605
 20
103.989
 30
0.0
 11
30.65125
 21
103.42
 31
0.0
  0
LINE
  5
63F
330
1D
100
AcDbEntity
  8
0
100
AcDbLine
 10
25.52855
 20
105.549
 30
0.0
 11
27.19355
 21
104.7
 31
0.0
  0
LINE
  5
640
330
1D
100
AcDbEntity
  8
0
100
AcDbLine
 10
26.55655
 20
118.514
 30
0.0
 11
27.70975
 21
117.312
 31
0.0
  0
LINE
  5
641
330
1D
100
AcDbEntity
  8
0
100
AcDbLine
 10
26.55635
 20
118.514
 30
0.0
 11
27.70975
 21
117.312
 31
0.0
  0
LINE
  5
642
330
1D
100
AcDbEntity
  8
0
100
AcDbLine
 10
25.52815
 20
105.549
 30
0.0
 11
27.19365
 21
104.7
 31
0.0
  0
LINE
  5
643
330
1D
100
AcDbEntity
  8
0
100
AcDbLine
 10
27.19355
 20
104.7
 30
0.0
 11
28.90605
 21
103.989
 31
0.0
  0
LINE
  5
645
330
1D
100
AcDbEntity
  8
0
100
AcDbLine
 10
27.19365
 20
104.7
 30
0.0
 11
28.90585
 21
103.99
 31
0.0
  0
LINE
  5
64A
330
1D
100
AcDbEntity
  8
0
100
AcDbLine
 10
24.51935
 20
121.147
 30
0.0
 11
25.49075
 21
119.796
 31
0.0
  0
LINE
  5
64B
330
1D
100
AcDbEntity
  8
0
100
AcDbLine
 10
25.49075
 20
119.796
 30
0.0
 11
26.55655
 21
118.514
 31
0.0
  0
LINE
  5
64C
330
1D
100
AcDbEntity
  8
0
100
AcDbLine
 10
25.49055
 20
119.796
 30
0.0
 11
26.55635
 21
118.514
 31
0.0
  0
LINE
  5
650
330
1D
100
AcDbEntity
  8
0
100
AcDbLine
 10
24.51945
 20
121.147
 30
0.0
 11
25.49055
 21
119.796
 31
0.0
  0
LINE
  5
651
330
1D
100
AcDbEntity
  8
0
100
AcDbLine
 10
23.64935
 20
122.56
 30
0.0
 11
24.51945
 21
121.147
 31
0.0
  0
LINE
  5
652
330
1D
100
AcDbEntity
  8
0
100
AcDbLine
 10
23.64935
 20
122.56
 30
0.0
 11
24.51935
 21
121.147
 31
0.0
  0
LINE
  5
657
330
1D
100
AcDbEntity
  8
0
100
AcDbLine
 10
23.31805
 20
129.532
 30
0.0
 11
23.71455
 21
127.894
 31
0.0
  0
LINE
  5
658
330
1D
100
AcDbEntity
  8
0
100
AcDbLine
 10
23.71455
 20
127.894
 30
0.0
 11
24.25775
 21
126.28
 31
0.0
  0
LINE
  5
659
330
1D
100
AcDbEntity
  8
0
100
AcDbLine
 10
24.25775
 20
126.28
 30
0.0
 11
24.94405
 21
124.705
 31
0.0
  0
LINE
  5
65A
330
1D
100
AcDbEntity
  8
0
100
AcDbLine
 10
24.94405
 20
124.705
 30
0.0
 11
25.76615
 21
123.183
 31
0.0
  0
LINE
  5
65B
330
1D
100
AcDbEntity
  8
0
100
AcDbLine
 10
25.76615
 20
123.183
 30
0.0
 11
26.71725
 21
121.728
 31
0.0
  0
LINE
  5
65C
330
1D
100
AcDbEntity
  8
0
100
AcDbLine
 10
26.71725
 20
121.728
 30
0.0
 11
27.78855
 21
120.353
 31
0.0
  0
LINE
  5
65D
330
1D
100
AcDbEntity
  8
0
100
AcDbLine
 10
27.78855
 20
120.353
 30
0.0
 11
28.96985
 21
119.07
 31
0.0
  0
LINE
  5
65E
330
1D
100
AcDbEntity
  8
0
100
AcDbLine
 10
28.96985
 20
119.07
 30
0.0
 11
30.25135
 21
117.893
 31
0.0
  0
LINE
  5
65F
330
1D
100
AcDbEntity
  8
0
100
AcDbLine
 10
30.32175
 20
115.12
 30
0.0
 11
31.65775
 21
114.226
 31
0.0
  0
LINE
  5
660
330
1D
100
AcDbEntity
  8
0
100
AcDbLine
 10
30.32195
 20
115.12
 30
0.0
 11
31.65765
 21
114.226
 31
0.0
  0
LINE
  5
661
330
1D
100
AcDbEntity
  8
0
100
AcDbLine
 10
30.25135
 20
117.893
 30
0.0
 11
31.62055
 21
116.829
 31
0.0
  0
LINE
  5
662
330
1D
100
AcDbEntity
  8
0
100
AcDbLine
 10
28.90585
 20
103.99
 30
0.0
 11
30.65095
 21
103.42
 31
0.0
  0
LINE
  5
666
330
1D
100
AcDbEntity
  8
0
100
AcDbLine
 10
33.04465
 20
113.434
 30
0.0
 11
34.47395
 21
112.749
 31
0.0
  0
LINE
  5
667
330
1D
100
AcDbEntity
  8
0
100
AcDbLine
 10
33.04465
 20
113.435
 30
0.0
 11
34.47415
 21
112.749
 31
0.0
  0
LINE
  5
66A
330
1D
100
AcDbEntity
  8
0
100
AcDbLine
 10
34.47415
 20
112.749
 30
0.0
 11
35.93685
 21
112.174
 31
0.0
  0
LINE
  5
66B
330
1D
100
AcDbEntity
  8
0
100
AcDbLine
 10
34.47395
 20
112.749
 30
0.0
 11
35.93685
 21
112.174
 31
0.0
  0
LINE
  5
670
330
1D
100
AcDbEntity
  8
0
100
AcDbLine
 10
37.61765
 20
111.663
 30
0.0
 11
39.16005
 21
111.329
 31
0.0
  0
LINE
  5
671
330
1D
100
AcDbEntity
  8
0
100
AcDbLine
 10
37.61765
 20
111.663
 30
0.0
 11
39.15985
 21
111.329
 31
0.0
  0
LINE
  5
672
330
1D
100
AcDbEntity
  8
0
100
AcDbLine
 10
30.65125
 20
103.42
 30
0.0
 11
33.23975
 21
102.853
 31
0.0
  0
LINE
  5
673
330
1D
100
AcDbEntity
  8
0
100
AcDbLine
 10
31.65775
 20
114.226
 30
0.0
 11
33.04465
 21
113.434
 31
0.0
  0
LINE
  5
675
330
1D
100
AcDbEntity
  8
0
100
AcDbLine
 10
31.65765
 20
114.226
 30
0.0
 11
33.04465
 21
113.435
 31
0.0
  0
LINE
  5
679
330
1D
100
AcDbEntity
  8
0
100
AcDbLine
 10
33.06605
 20
115.89
 30
0.0
 11
34.57395
 21
115.085
 31
0.0
  0
LINE
  5
67E
330
1D
100
AcDbEntity
  8
0
100
AcDbLine
 10
31.62055
 20
116.829
 30
0.0
 11
33.06635
 21
115.89
 31
0.0
  0
LINE
  5
680
330
1D
100
AcDbEntity
  8
0
100
AcDbLine
 10
33.06635
 20
115.89
 30
0.0
 11
34.57395
 21
115.085
 31
0.0
  0
LINE
  5
681
330
1D
100
AcDbEntity
  8
0
100
AcDbLine
 10
34.57395
 20
115.085
 30
0.0
 11
36.13095
 21
114.419
 31
0.0
  0
LINE
  5
684
330
1D
100
AcDbEntity
  8
0
100
AcDbLine
 10
36.13095
 20
114.419
 30
0.0
 11
37.72295
 21
113.9
 31
0.0
  0
LINE
  5
685
330
1D
100
AcDbEntity
  8
0
100
AcDbLine
 10
37.72295
 20
113.9
 30
0.0
 11
39.33535
 21
113.531
 31
0.0
  0
LINE
  5
686
330
1D
100
AcDbEntity
  8
0
100
AcDbLine
 10
37.72295
 20
113.9
 30
0.0
 11
39.33505
 21
113.531
 31
0.0
  0
LINE
  5
687
330
1D
100
AcDbEntity
  8
0
100
AcDbLine
 10
30.65095
 20
103.42
 30
0.0
 11
33.23975
 21
102.853
 31
0.0
  0
LINE
  5
688
330
1D
100
AcDbEntity
  8
0
100
AcDbLine
 10
33.23975
 20
102.853
 30
0.0
 11
35.72165
 21
102.619
 31
0.0
  0
LINE
  5
689
330
1D
100
AcDbEntity
  8
0
100
AcDbLine
 10
33.23975
 20
102.853
 30
0.0
 11
35.72135
 21
102.619
 31
0.0
  0
LINE
  5
68A
330
1D
100
AcDbEntity
  8
0
100
AcDbLine
 10
23.24125
 20
106.996
 30
0.0
 11
25.52855
 21
105.549
 31
0.0
  0
LINE
  5
68F
330
1D
100
AcDbEntity
  8
0
100
AcDbLine
 10
40.30345
 20
48.8198
 30
0.0
 11
40.77995
 21
50.3516
 31
0.0
  0
LINE
  5
690
330
1D
100
AcDbEntity
  8
0
100
AcDbLine
 10
40.30345
 20
48.8198
 30
0.0
 11
40.77975
 21
50.3515
 31
0.0
  0
LINE
  5
694
330
1D
100
AcDbEntity
  8
0
100
AcDbLine
 10
40.77975
 20
50.3515
 30
0.0
 11
40.99785
 21
51.9128
 31
0.0
  0
LINE
  5
695
330
1D
100
AcDbEntity
  8
0
100
AcDbLine
 10
40.77995
 20
50.3516
 30
0.0
 11
40.99805
 21
51.9127
 31
0.0
  0
LINE
  5
698
330
1D
100
AcDbEntity
  8
0
100
AcDbLine
 10
40.973583975071
 20
52.797084790529
 30
0.0
 11
40.99805
 21
51.9127
 31
0.0
  0
LINE
  5
699
330
1D
100
AcDbEntity
  8
0
100
AcDbLine
 10
40.99805
 20
51.9127
 30
0.0
 11
41.20845
 21
37.2787
 31
0.0
  0
LINE
  5
69A
330
1D
100
AcDbEntity
  8
0
100
AcDbLine
 10
40.973520109167
 20
52.796279160859
 30
0.0
 11
40.99785
 21
51.9128
 31
0.0
  0
LINE
  5
6A6
330
1D
100
AcDbEntity
  8
0
100
AcDbLine
 10
39.04205
 20
102.8
 30
0.0
 11
40.67585
 21
103.108
 31
0.0
  0
LINE
  5
6A7
330
1D
100
AcDbEntity
  8
0
100
AcDbLine
 10
39.04175
 20
102.8
 30
0.0
 11
40.67605
 21
103.107
 31
0.0
  0
LINE
  5
6A8
330
1D
100
AcDbEntity
  8
0
100
AcDbLine
 10
40.67605
 20
103.107
 30
0.0
 11
42.26095
 21
103.556
 31
0.0
  0
LINE
  5
6AC
330
1D
100
AcDbEntity
  8
0
100
AcDbLine
 10
40.70665
 20
111.12
 30
0.0
 11
42.24715
 21
111.04
 31
0.0
  0
LINE
  5
6AD
330
1D
100
AcDbEntity
  8
0
100
AcDbLine
 10
39.15985
 20
111.329
 30
0.0
 11
40.70665
 21
111.12
 31
0.0
  0
LINE
  5
6B4
330
1D
100
AcDbEntity
  8
0
100
AcDbLine
 10
39.16005
 20
111.329
 30
0.0
 11
40.70665
 21
111.121
 31
0.0
  0
LINE
  5
6B5
330
1D
100
AcDbEntity
  8
0
100
AcDbLine
 10
40.70665
 20
111.121
 30
0.0
 11
42.24715
 21
111.04
 31
0.0
  0
LINE
  5
6B6
330
1D
100
AcDbEntity
  8
0
100
AcDbLine
 10
40.67585
 20
103.108
 30
0.0
 11
42.26085
 21
103.555
 31
0.0
  0
LINE
  5
6B7
330
1D
100
AcDbEntity
  8
0
100
AcDbLine
 10
42.11185
 20
66.4563
 30
0.0
 11
43.225157105256
 21
77.194684302688
 31
0.0
  0
LINE
  5
6B9
330
1D
100
AcDbEntity
  8
0
100
AcDbLine
 10
39.33505
 20
113.531
 30
0.0
 11
40.95335
 21
113.317
 31
0.0
  0
LINE
  5
6BA
330
1D
100
AcDbEntity
  8
0
100
AcDbLine
 10
39.33535
 20
113.531
 30
0.0
 11
40.95335
 21
113.317
 31
0.0
  0
LINE
  5
6BB
330
1D
100
AcDbEntity
  8
0
100
AcDbLine
 10
40.95335
 20
113.317
 30
0.0
 11
42.56275
 21
113.259
 31
0.0
  0
LINE
  5
6BE
330
1D
100
AcDbEntity
  8
0
100
AcDbLine
 10
42.56265
 20
113.259
 30
0.0
 11
44.14915
 21
113.359
 31
0.0
  0
LINE
  5
6BF
330
1D
100
AcDbEntity
  8
0
100
AcDbLine
 10
42.26095
 20
103.556
 30
0.0
 11
43.78665
 21
104.14
 31
0.0
  0
LINE
  5
6C1
330
1D
100
AcDbEntity
  8
0
100
AcDbLine
 10
42.26085
 20
103.555
 30
0.0
 11
43.78665
 21
104.14
 31
0.0
  0
LINE
  5
6C9
330
1D
100
AcDbEntity
  8
0
100
AcDbLine
 10
23.07275
 20
131.179
 30
0.0
 11
23.31805
 21
129.532
 31
0.0
  0
LINE
  5
6CA
330
1D
100
AcDbEntity
  8
0
100
AcDbLine
 10
20.77665
 20
133.342
 30
0.0
 11
21.06585
 21
136.403
 31
0.0
  0
LINE
  5
6CB
330
1D
100
AcDbEntity
  8
0
100
AcDbLine
 10
20.77665
 20
133.342
 30
0.0
 11
20.98935
 21
130.203
 31
0.0
  0
LINE
  5
6D0
330
1D
100
AcDbEntity
  8
0
100
AcDbLine
 10
20.77675
 20
133.342
 30
0.0
 11
21.06585
 21
136.403
 31
0.0
  0
LINE
  5
6D1
330
1D
100
AcDbEntity
  8
0
100
AcDbLine
 10
20.77675
 20
133.342
 30
0.0
 11
20.98935
 21
130.203
 31
0.0
  0
LINE
  5
6D4
330
1D
100
AcDbEntity
  8
0
100
AcDbLine
 10
22.98075
 20
132.821
 30
0.0
 11
23.04265
 21
134.443
 31
0.0
  0
LINE
  5
6D5
330
1D
100
AcDbEntity
  8
0
100
AcDbLine
 10
22.98075
 20
132.821
 30
0.0
 11
23.07275
 21
131.179
 31
0.0
  0
LINE
  5
78C
330
1D
100
AcDbEntity
  8
0
100
AcDbLine
 10
43.00865
 20
11.4407
 30
0.0
 11
43.13365
 21
10.1968
 31
0.0
  0
LINE
  5
78E
330
1D
100
AcDbEntity
  8
0
100
AcDbLine
 10
43.000922530445
 20
11.509211702872
 30
0.0
 11
43.00865
 21
11.4407
 31
0.0
  0
LINE
  5
7AF
330
1D
100
AcDbEntity
  8
0
100
AcDbLine
 10
43.77145
 20
111.087
 30
0.0
 11
45.26975
 21
111.263
 31
0.0
  0
LINE
  5
7B0
330
1D
100
AcDbEntity
  8
0
100
AcDbLine
 10
43.77145
 20
111.087
 30
0.0
 11
45.26985
 21
111.262
 31
0.0
  0
LINE
  5
7B2
330
1D
100
AcDbEntity
  8
0
100
AcDbLine
 10
44.14915
 20
113.359
 30
0.0
 11
45.69715
 21
113.613
 31
0.0
  0
LINE
  5
7B3
330
1D
100
AcDbEntity
  8
0
100
AcDbLine
 10
44.14885
 20
113.357
 30
0.0
 11
45.69715
 21
113.613
 31
0.0
  0
LINE
  5
7B4
330
1D
100
AcDbEntity
  8
0
100
AcDbLine
 10
43.78665
 20
104.14
 30
0.0
 11
45.35725
 21
104.924
 31
0.0
  0
LINE
  5
7B5
330
1D
100
AcDbEntity
  8
0
100
AcDbLine
 10
43.78665
 20
104.14
 30
0.0
 11
45.35745
 21
104.923
 31
0.0
  0
LINE
  5
7CD
330
1D
100
AcDbEntity
  8
0
100
AcDbLine
 10
45.35745
 20
104.923
 30
0.0
 11
46.83155
 21
105.859
 31
0.0
  0
LINE
  5
7CF
330
1D
100
AcDbEntity
  8
0
100
AcDbLine
 10
45.26985
 20
111.262
 30
0.0
 11
46.73185
 21
111.564
 31
0.0
  0
LINE
  5
7D0
330
1D
100
AcDbEntity
  8
0
100
AcDbLine
 10
45.35725
 20
104.924
 30
0.0
 11
46.83135
 21
105.859
 31
0.0
  0
LINE
  5
7D3
330
1D
100
AcDbEntity
  8
0
100
AcDbLine
 10
45.26975
 20
111.263
 30
0.0
 11
46.73205
 21
111.564
 31
0.0
  0
LINE
  5
7D4
330
1D
100
AcDbEntity
  8
0
100
AcDbLine
 10
46.38065
 20
94.7812
 30
0.0
 11
47.04365
 21
97.5318
 31
0.0
  0
LINE
  5
7D5
330
1D
100
AcDbEntity
  8
0
100
AcDbLine
 10
46.07155
 20
93.6909
 30
0.0
 11
46.38065
 21
94.7812
 31
0.0
  0
LINE
  5
7D7
330
1D
100
AcDbEntity
  8
0
100
AcDbLine
 10
46.73185
 20
111.564
 30
0.0
 11
48.14805
 21
111.991
 31
0.0
  0
LINE
  5
7D9
330
1D
100
AcDbEntity
  8
0
100
AcDbLine
 10
46.73205
 20
111.564
 30
0.0
 11
48.14835
 21
111.99
 31
0.0
  0
LINE
  5
7DA
330
1D
100
AcDbEntity
  8
0
100
AcDbLine
 10
47.04365
 20
97.5318
 30
0.0
 11
48.320058435256
 21
102.304252401192
 31
0.0
  0
LINE
  5
7DD
330
1D
100
AcDbEntity
  8
0
100
AcDbLine
 10
46.83155
 20
105.859
 30
0.0
 11
48.26485
 21
107.002
 31
0.0
  0
LINE
  5
7DF
330
1D
100
AcDbEntity
  8
0
100
AcDbLine
 10
46.83135
 20
105.859
 30
0.0
 11
48.26485
 21
107.002
 31
0.0
  0
LINE
  5
7E3
330
1D
100
AcDbEntity
  8
0
100
AcDbLine
 10
47.19405
 20
114.021
 30
0.0
 11
48.62535
 21
114.579
 31
0.0
  0
LINE
  5
7E4
330
1D
100
AcDbEntity
  8
0
100
AcDbLine
 10
47.19425
 20
114.021
 30
0.0
 11
48.62535
 21
114.579
 31
0.0
  0
LINE
  5
7E5
330
1D
100
AcDbEntity
  8
0
100
AcDbLine
 10
45.69715
 20
113.613
 30
0.0
 11
47.19425
 21
114.021
 31
0.0
  0
LINE
  5
7E6
330
1D
100
AcDbEntity
  8
0
100
AcDbLine
 10
45.69715
 20
113.613
 30
0.0
 11
47.19405
 21
114.021
 31
0.0
  0
LINE
  5
7E8
330
1D
100
AcDbEntity
  8
0
100
AcDbLine
 10
48.26485
 20
107.002
 30
0.0
 11
49.60025
 21
108.34
 31
0.0
  0
LINE
  5
7E9
330
1D
100
AcDbEntity
  8
0
100
AcDbLine
 10
48.26485
 20
107.002
 30
0.0
 11
49.60065
 21
108.34
 31
0.0
  0
LINE
  5
7ED
330
1D
100
AcDbEntity
  8
0
100
AcDbLine
 10
50.33625
 20
108.211
 30
0.0
 11
51.301217793228
 21
110.404070087922
 31
0.0
  0
LINE
  5
7EE
330
1D
100
AcDbEntity
  8
0
100
AcDbLine
 10
49.60065
 20
108.34
 30
0.0
 11
50.11635
 21
108.947
 31
0.0
  0
LINE
  5
7F0
330
1D
100
AcDbEntity
  8
0
100
AcDbLine
 10
48.14805
 20
111.991
 30
0.0
 11
50.80615
 21
113.204
 31
0.0
  0
LINE
  5
7F1
330
1D
100
AcDbEntity
  8
0
100
AcDbLine
 10
48.14835
 20
111.99
 30
0.0
 11
50.80615
 21
113.204
 31
0.0
  0
LINE
  5
7F2
330
1D
100
AcDbEntity
  8
0
100
AcDbLine
 10
50.11635
 20
108.947
 30
0.0
 11
51.48475
 21
110.892
 31
0.0
  0
LINE
  5
7F3
330
1D
100
AcDbEntity
  8
0
100
AcDbLine
 10
50.11635
 20
108.947
 30
0.0
 11
51.48455
 21
110.892
 31
0.0
  0
LINE
  5
7F7
330
1D
100
AcDbEntity
  8
0
100
AcDbLine
 10
50.80615
 20
113.204
 30
0.0
 11
53.17345
 21
114.871
 31
0.0
  0
LINE
  5
7FA
330
1D
100
AcDbEntity
  8
0
100
AcDbLine
 10
48.62535
 20
114.579
 30
0.0
 11
49.97845
 21
115.282
 31
0.0
  0
LINE
  5
7FB
330
1D
100
AcDbEntity
  8
0
100
AcDbLine
 10
51.24115
 20
116.124
 30
0.0
 11
52.40205
 21
117.096
 31
0.0
  0
LINE
  5
7FC
330
1D
100
AcDbEntity
  8
0
100
AcDbLine
 10
49.97845
 20
115.282
 30
0.0
 11
51.24145
 21
116.124
 31
0.0
  0
LINE
  5
7FD
330
1D
100
AcDbEntity
  8
0
100
AcDbLine
 10
49.97845
 20
115.282
 30
0.0
 11
51.24115
 21
116.124
 31
0.0
  0
LINE
  5
7FE
330
1D
100
AcDbEntity
  8
0
100
AcDbLine
 10
51.48455
 20
110.892
 30
0.0
 11
52.58955
 21
113.025
 31
0.0
  0
LINE
  5
7FF
330
1D
100
AcDbEntity
  8
0
100
AcDbLine
 10
51.48475
 20
110.892
 30
0.0
 11
52.58935
 21
113.024
 31
0.0
  0
LINE
  5
803
330
1D
100
AcDbEntity
  8
0
100
AcDbLine
 10
49.60045
 20
108.34
 30
0.0
 11
50.11635
 21
108.947
 31
0.0
  0
LINE
  5
807
330
1D
100
AcDbEntity
  8
0
100
AcDbLine
 10
52.58955
 20
113.025
 30
0.0
 11
56.35955
 21
118.621
 31
0.0
  0
LINE
  5
80A
330
1D
100
AcDbEntity
  8
0
100
AcDbLine
 10
53.17345
 20
114.871
 30
0.0
 11
54.29455
 21
115.932
 31
0.0
  0
LINE
  5
80F
330
1D
100
AcDbEntity
  8
0
100
AcDbLine
 10
52.40205
 20
117.096
 30
0.0
 11
53.45035
 21
118.191
 31
0.0
  0
LINE
  5
813
330
1D
100
AcDbEntity
  8
0
100
AcDbLine
 10
53.45035
 20
118.191
 30
0.0
 11
54.37665
 21
119.397
 31
0.0
  0
LINE
  5
815
330
1D
100
AcDbEntity
  8
0
100
AcDbLine
 10
54.77965
 20
116.462
 30
0.0
 11
56.35955
 21
118.621
 31
0.0
  0
LINE
  5
817
330
1D
100
AcDbEntity
  8
0
100
AcDbLine
 10
54.37665
 20
119.397
 30
0.0
 11
55.17235
 21
120.705
 31
0.0
  0
LINE
  5
818
330
1D
100
AcDbEntity
  8
0
100
AcDbLine
 10
53.45005
 20
118.191
 30
0.0
 11
54.37675
 21
119.398
 31
0.0
  0
LINE
  5
819
330
1D
100
AcDbEntity
  8
0
100
AcDbLine
 10
54.37675
 20
119.398
 30
0.0
 11
55.17225
 21
120.705
 31
0.0
  0
LINE
  5
81F
330
1D
100
AcDbEntity
  8
0
100
AcDbLine
 10
55.17235
 20
120.705
 30
0.0
 11
55.83085
 21
122.102
 31
0.0
  0
LINE
  5
820
330
1D
100
AcDbEntity
  8
0
100
AcDbLine
 10
55.83085
 20
122.102
 30
0.0
 11
56.34585
 21
123.576
 31
0.0
  0
LINE
  5
822
330
1D
100
AcDbEntity
  8
0
100
AcDbLine
 10
55.17225
 20
120.705
 30
0.0
 11
55.83105
 21
122.103
 31
0.0
  0
LINE
  5
823
330
1D
100
AcDbEntity
  8
0
100
AcDbLine
 10
55.83105
 20
122.103
 30
0.0
 11
56.34575
 21
123.576
 31
0.0
  0
LINE
  5
824
330
1D
100
AcDbEntity
  8
0
100
AcDbLine
 10
56.35955
 20
118.621
 30
0.0
 11
57.56975
 21
121.042
 31
0.0
  0
LINE
  5
825
330
1D
100
AcDbEntity
  8
0
100
AcDbLine
 10
56.35955
 20
118.621
 30
0.0
 11
57.56965
 21
121.042
 31
0.0
  0
LINE
  5
827
330
1D
100
AcDbEntity
  8
0
100
AcDbLine
 10
56.34585
 20
123.576
 30
0.0
 11
56.71265
 21
125.113
 31
0.0
  0
LINE
  5
82A
330
1D
100
AcDbEntity
  8
0
100
AcDbLine
 10
56.25595
 20
133.249
 30
0.0
 11
56.65225
 21
131.611
 31
0.0
  0
LINE
  5
82B
330
1D
100
AcDbEntity
  8
0
100
AcDbLine
 10
54.29455
 20
115.932
 30
0.0
 11
54.77965
 21
116.462
 31
0.0
  0
LINE
  5
82D
330
1D
100
AcDbEntity
  8
0
100
AcDbLine
 10
48.33465
 20
102.347
 30
0.0
 11
48.997783758843
 21
104.552308549375
 31
0.0
  0
LINE
  5
837
330
1D
100
AcDbEntity
  8
0
100
AcDbLine
 10
57.56965
 20
121.042
 30
0.0
 11
58.38295
 21
123.674
 31
0.0
  0
LINE
  5
83A
330
1D
100
AcDbEntity
  8
0
100
AcDbLine
 10
57.56975
 20
121.042
 30
0.0
 11
58.38295
 21
123.674
 31
0.0
  0
LINE
  5
83E
330
1D
100
AcDbEntity
  8
0
100
AcDbLine
 10
56.71265
 20
125.113
 30
0.0
 11
56.92805
 21
126.699
 31
0.0
  0
LINE
  5
841
330
1D
100
AcDbEntity
  8
0
100
AcDbLine
 10
56.92805
 20
126.699
 30
0.0
 11
56.98985
 21
128.321
 31
0.0
  0
LINE
  5
842
330
1D
100
AcDbEntity
  8
0
100
AcDbLine
 10
56.71285
 20
125.113
 30
0.0
 11
56.92785
 21
126.7
 31
0.0
  0
LINE
  5
843
330
1D
100
AcDbEntity
  8
0
100
AcDbLine
 10
58.78145
 20
126.455
 30
0.0
 11
58.79015
 21
128.837
 31
0.0
  0
LINE
  5
844
330
1D
100
AcDbEntity
  8
0
100
AcDbLine
 10
58.78145
 20
126.455
 30
0.0
 11
58.79005
 21
128.837
 31
0.0
  0
LINE
  5
845
330
1D
100
AcDbEntity
  8
0
100
AcDbLine
 10
58.38295
 20
123.674
 30
0.0
 11
58.78145
 21
126.455
 31
0.0
  0
LINE
  5
84B
330
1D
100
AcDbEntity
  8
0
100
AcDbLine
 10
57.06275
 20
129.855
 30
0.0
 11
57.068214951323
 21
129.757657377189
 31
0.0
  0
LINE
  5
84C
330
1D
100
AcDbEntity
  8
0
100
AcDbLine
 10
56.89785
 20
129.964
 30
0.0
 11
56.98985
 21
128.321
 31
0.0
  0
LINE
  5
84F
330
1D
100
AcDbEntity
  8
0
100
AcDbLine
 10
58.46425
 20
131.467
 30
0.0
 11
58.79015
 21
128.837
 31
0.0
  0
LINE
  5
850
330
1D
100
AcDbEntity
  8
0
100
AcDbLine
 10
58.46425
 20
131.467
 30
0.0
 11
58.79005
 21
128.837
 31
0.0
  0
LINE
  5
852
330
1D
100
AcDbEntity
  8
0
100
AcDbLine
 10
56.89765
 20
129.964
 30
0.0
 11
56.98975
 21
128.321
 31
0.0
  0
LINE
  5
853
330
1D
100
AcDbEntity
  8
0
100
AcDbLine
 10
56.92785
 20
126.7
 30
0.0
 11
56.98975
 21
128.321
 31
0.0
  0
LINE
  5
854
330
1D
100
AcDbEntity
  8
0
100
AcDbLine
 10
56.65225
 20
131.611
 30
0.0
 11
56.89765
 21
129.964
 31
0.0
  0
LINE
  5
855
330
1D
100
AcDbEntity
  8
0
100
AcDbLine
 10
56.65225
 20
131.611
 30
0.0
 11
56.89785
 21
129.964
 31
0.0
  0
LINE
  5
856
330
1D
100
AcDbEntity
  8
0
100
AcDbLine
 10
44.59685
 20
86.0369
 30
0.0
 11
44.74565
 21
87.007
 31
0.0
  0
LINE
  5
85D
330
1D
100
AcDbEntity
  8
0
100
AcDbLine
 10
13.61765
 20
136.849
 30
0.0
 11
14.83735
 21
137.995
 31
0.0
  0
LINE
  5
863
330
1D
100
AcDbEntity
  8
0
100
AcDbLine
 10
14.83735
 20
137.995
 30
0.0
 11
15.574111662166
 21
138.622587573806
 31
0.0
  0
LINE
  5
864
330
1D
100
AcDbEntity
  8
0
100
AcDbLine
 10
14.83735
 20
137.995
 30
0.0
 11
15.574111662166
 21
138.622587573806
 31
0.0
  0
LINE
  5
875
330
1D
100
AcDbEntity
  8
0
100
AcDbLine
 10
21.06585
 20
136.403
 30
0.0
 11
21.84945
 21
139.306
 31
0.0
  0
LINE
  5
876
330
1D
100
AcDbEntity
  8
0
100
AcDbLine
 10
21.06585
 20
136.403
 30
0.0
 11
21.84935
 21
139.306
 31
0.0
  0
LINE
  5
879
330
1D
100
AcDbEntity
  8
0
100
AcDbLine
 10
23.04265
 20
134.443
 30
0.0
 11
23.25755
 21
136.029
 31
0.0
  0
LINE
  5
87B
330
1D
100
AcDbEntity
  8
0
100
AcDbLine
 10
23.25755
 20
136.029
 30
0.0
 11
23.62465
 21
137.567
 31
0.0
  0
LINE
  5
87C
330
1D
100
AcDbEntity
  8
0
100
AcDbLine
 10
23.62465
 20
137.567
 30
0.0
 11
24.13945
 21
139.04
 31
0.0
  0
LINE
  5
87D
330
1D
100
AcDbEntity
  8
0
100
AcDbLine
 10
21.84945
 20
139.306
 30
0.0
 11
22.97135
 21
141.739
 31
0.0
  0
LINE
  5
87F
330
1D
100
AcDbEntity
  8
0
100
AcDbLine
 10
24.13945
 20
139.04
 30
0.0
 11
24.79815
 21
140.437
 31
0.0
  0
LINE
  5
880
330
1D
100
AcDbEntity
  8
0
100
AcDbLine
 10
21.84935
 20
139.306
 30
0.0
 11
22.97155
 21
141.739
 31
0.0
  0
LINE
  5
885
330
1D
100
AcDbEntity
  8
0
100
AcDbLine
 10
18.54805
 20
140.974
 30
0.0
 11
19.71185
 21
141.951
 31
0.0
  0
LINE
  5
88A
330
1D
100
AcDbEntity
  8
0
100
AcDbLine
 10
22.97135
 20
141.739
 30
0.0
 11
24.31965
 21
143.751
 31
0.0
  0
LINE
  5
88E
330
1D
100
AcDbEntity
  8
0
100
AcDbLine
 10
24.79815
 20
140.437
 30
0.0
 11
25.59375
 21
141.745
 31
0.0
  0
LINE
  5
892
330
1D
100
AcDbEntity
  8
0
100
AcDbLine
 10
25.59375
 20
141.745
 30
0.0
 11
26.52035
 21
142.952
 31
0.0
  0
LINE
  5
893
330
1D
100
AcDbEntity
  8
0
100
AcDbLine
 10
24.31965
 20
143.751
 30
0.0
 11
25.30315
 21
144.883
 31
0.0
  0
LINE
  5
894
330
1D
100
AcDbEntity
  8
0
100
AcDbLine
 10
24.31965
 20
143.751
 30
0.0
 11
25.30335
 21
144.883
 31
0.0
  0
LINE
  5
897
330
1D
100
AcDbEntity
  8
0
100
AcDbLine
 10
26.52035
 20
142.952
 30
0.0
 11
27.56855
 21
144.046
 31
0.0
  0
LINE
  5
898
330
1D
100
AcDbEntity
  8
0
100
AcDbLine
 10
27.56855
 20
144.046
 30
0.0
 11
28.72895
 21
145.019
 31
0.0
  0
LINE
  5
899
330
1D
100
AcDbEntity
  8
0
100
AcDbLine
 10
22.97155
 20
141.739
 30
0.0
 11
24.31965
 21
143.751
 31
0.0
  0
LINE
  5
89A
330
1D
100
AcDbEntity
  8
0
100
AcDbLine
 10
19.71185
 20
141.951
 30
0.0
 11
23.45935
 21
144.504
 31
0.0
  0
LINE
  5
8A0
330
1D
100
AcDbEntity
  8
0
100
AcDbLine
 10
15.91885
 20
148.196
 30
0.0
 11
18.20325
 21
148.951
 31
0.0
  0
LINE
  5
8A1
330
1D
100
AcDbEntity
  8
0
100
AcDbLine
 10
13.80025
 20
147.262
 30
0.0
 11
15.91885
 21
148.196
 31
0.0
  0
LINE
  5
8A2
330
1D
100
AcDbEntity
  8
0
100
AcDbLine
 10
24.33465
 20
145.063
 30
0.0
 11
25.21805
 21
145.611
 31
0.0
  0
LINE
  5
8A3
330
1D
100
AcDbEntity
  8
0
100
AcDbLine
 10
25.30335
 20
144.883
 30
0.0
 11
26.29585
 21
145.831
 31
0.0
  0
LINE
  5
8A4
330
1D
100
AcDbEntity
  8
0
100
AcDbLine
 10
25.30315
 20
144.883
 30
0.0
 11
26.29585
 21
145.831
 31
0.0
  0
LINE
  5
8A6
330
1D
100
AcDbEntity
  8
0
100
AcDbLine
 10
26.29585
 20
145.831
 30
0.0
 11
27.36865
 21
146.689
 31
0.0
  0
LINE
  5
8A9
330
1D
100
AcDbEntity
  8
0
100
AcDbLine
 10
27.36865
 20
146.689
 30
0.0
 11
29.00465
 21
147.731
 31
0.0
  0
LINE
  5
8AA
330
1D
100
AcDbEntity
  8
0
100
AcDbLine
 10
25.21805
 20
145.611
 30
0.0
 11
29.00465
 21
147.731
 31
0.0
  0
LINE
  5
8AB
330
1D
100
AcDbEntity
  8
0
100
AcDbLine
 10
23.45935
 20
144.504
 30
0.0
 11
24.33465
 21
145.063
 31
0.0
  0
LINE
  5
8AD
330
1D
100
AcDbEntity
  8
0
100
AcDbLine
 10
28.72895
 20
145.019
 30
0.0
 11
29.99185
 21
145.86
 31
0.0
  0
LINE
  5
8AF
330
1D
100
AcDbEntity
  8
0
100
AcDbLine
 10
46.90445
 20
145.252
 30
0.0
 11
48.34945
 21
144.314
 31
0.0
  0
LINE
  5
8B7
330
1D
100
AcDbEntity
  8
0
100
AcDbLine
 10
45.39635
 20
146.058
 30
0.0
 11
46.90405
 21
145.252
 31
0.0
  0
LINE
  5
8B8
330
1D
100
AcDbEntity
  8
0
100
AcDbLine
 10
46.90405
 20
145.252
 30
0.0
 11
48.34985
 21
144.313
 31
0.0
  0
LINE
  5
8B9
330
1D
100
AcDbEntity
  8
0
100
AcDbLine
 10
29.99185
 20
145.86
 30
0.0
 11
31.34505
 21
146.563
 31
0.0
  0
LINE
  5
8BC
330
1D
100
AcDbEntity
  8
0
100
AcDbLine
 10
43.83955
 20
146.723
 30
0.0
 11
45.39635
 21
146.058
 31
0.0
  0
LINE
  5
8BD
330
1D
100
AcDbEntity
  8
0
100
AcDbLine
 10
31.34505
 20
146.563
 30
0.0
 11
32.77615
 21
147.121
 31
0.0
  0
LINE
  5
8C0
330
1D
100
AcDbEntity
  8
0
100
AcDbLine
 10
48.34945
 20
144.314
 30
0.0
 11
49.71905
 21
143.25
 31
0.0
  0
LINE
  5
8C6
330
1D
100
AcDbEntity
  8
0
100
AcDbLine
 10
48.48475
 20
146.24
 30
0.0
 11
50.37175
 21
144.854
 31
0.0
  0
LINE
  5
8C8
330
1D
100
AcDbEntity
  8
0
100
AcDbLine
 10
48.48485
 20
146.241
 30
0.0
 11
50.37175
 21
144.854
 31
0.0
  0
LINE
  5
8CB
330
1D
100
AcDbEntity
  8
0
100
AcDbLine
 10
50.37175
 20
144.854
 30
0.0
 11
52.11865
 21
143.276
 31
0.0
  0
LINE
  5
8CC
330
1D
100
AcDbEntity
  8
0
100
AcDbLine
 10
50.37175
 20
144.854
 30
0.0
 11
52.11885
 21
143.276
 31
0.0
  0
LINE
  5
8CE
330
1D
100
AcDbEntity
  8
0
100
AcDbLine
 10
48.34985
 20
144.313
 30
0.0
 11
49.71905
 21
143.25
 31
0.0
  0
LINE
  5
8CF
330
1D
100
AcDbEntity
  8
0
100
AcDbLine
 10
51.00055
 20
142.072
 30
0.0
 11
52.18195
 21
140.789
 31
0.0
  0
LINE
  5
8D0
330
1D
100
AcDbEntity
  8
0
100
AcDbLine
 10
51.00055
 20
142.072
 30
0.0
 11
52.18225
 21
140.789
 31
0.0
  0
LINE
  5
8D1
330
1D
100
AcDbEntity
  8
0
100
AcDbLine
 10
47.92865
 20
146.596
 30
0.0
 11
48.48485
 21
146.241
 31
0.0
  0
LINE
  5
8D2
330
1D
100
AcDbEntity
  8
0
100
AcDbLine
 10
47.92865
 20
146.596
 30
0.0
 11
48.48475
 21
146.24
 31
0.0
  0
LINE
  5
8D4
330
1D
100
AcDbEntity
  8
0
100
AcDbLine
 10
32.77615
 20
147.121
 30
0.0
 11
34.27325
 21
147.529
 31
0.0
  0
LINE
  5
8DA
330
1D
100
AcDbEntity
  8
0
100
AcDbLine
 10
34.27325
 20
147.529
 30
0.0
 11
35.82165
 21
147.785
 31
0.0
  0
LINE
  5
8DB
330
1D
100
AcDbEntity
  8
0
100
AcDbLine
 10
35.82165
 20
147.785
 30
0.0
 11
37.40765
 21
147.883
 31
0.0
  0
LINE
  5
8DE
330
1D
100
AcDbEntity
  8
0
100
AcDbLine
 10
37.40765
 20
147.883
 30
0.0
 11
39.01695
 21
147.825
 31
0.0
  0
LINE
  5
8DF
330
1D
100
AcDbEntity
  8
0
100
AcDbLine
 10
39.01695
 20
147.825
 30
0.0
 11
40.63515
 21
147.612
 31
0.0
  0
LINE
  5
8E0
330
1D
100
AcDbEntity
  8
0
100
AcDbLine
 10
45.54375
 20
147.878
 30
0.0
 11
47.36615
 21
146.932
 31
0.0
  0
LINE
  5
8E1
330
1D
100
AcDbEntity
  8
0
100
AcDbLine
 10
45.54355
 20
147.878
 30
0.0
 11
47.36615
 21
146.932
 31
0.0
  0
LINE
  5
8E2
330
1D
100
AcDbEntity
  8
0
100
AcDbLine
 10
40.63515
 20
147.612
 30
0.0
 11
42.24755
 21
147.243
 31
0.0
  0
LINE
  5
8E3
330
1D
100
AcDbEntity
  8
0
100
AcDbLine
 10
42.24755
 20
147.243
 30
0.0
 11
43.83955
 21
146.723
 31
0.0
  0
LINE
  5
8E4
330
1D
100
AcDbEntity
  8
0
100
AcDbLine
 10
29.00465
 20
147.731
 30
0.0
 11
30.69235
 21
148.538
 31
0.0
  0
LINE
  5
8E6
330
1D
100
AcDbEntity
  8
0
100
AcDbLine
 10
47.36615
 20
146.932
 30
0.0
 11
47.92865
 21
146.596
 31
0.0
  0
LINE
  5
8E7
330
1D
100
AcDbEntity
  8
0
100
AcDbLine
 10
18.20325
 20
148.951
 30
0.0
 11
21.82435
 21
149.693
 31
0.0
  0
LINE
  5
8E8
330
1D
100
AcDbEntity
  8
0
100
AcDbLine
 10
21.82435
 20
149.693
 30
0.0
 11
25.49805
 21
149.939
 31
0.0
  0
LINE
  5
8E9
330
1D
100
AcDbEntity
  8
0
100
AcDbLine
 10
32.40975
 20
149.129
 30
0.0
 11
34.15285
 21
149.524
 31
0.0
  0
LINE
  5
8EA
330
1D
100
AcDbEntity
  8
0
100
AcDbLine
 10
30.40285
 20
149.505
 30
0.0
 11
32.191425061301
 21
149.05386896543
 31
0.0
  0
LINE
  5
8EB
330
1D
100
AcDbEntity
  8
0
100
AcDbLine
 10
27.95965
 20
149.832
 30
0.0
 11
30.40285
 21
149.505
 31
0.0
  0
LINE
  5
8EC
330
1D
100
AcDbEntity
  8
0
100
AcDbLine
 10
25.49805
 20
149.939
 30
0.0
 11
27.95965
 21
149.832
 31
0.0
  0
LINE
  5
8EE
330
1D
100
AcDbEntity
  8
0
100
AcDbLine
 10
43.74145
 20
148.663
 30
0.0
 11
45.54375
 21
147.878
 31
0.0
  0
LINE
  5
8F2
330
1D
100
AcDbEntity
  8
0
100
AcDbLine
 10
35.89425
 20
149.732
 30
0.0
 11
37.56925
 21
149.771
 31
0.0
  0
LINE
  5
8F3
330
1D
100
AcDbEntity
  8
0
100
AcDbLine
 10
37.56925
 20
149.771
 30
0.0
 11
39.26185
 21
149.655
 31
0.0
  0
LINE
  5
8F4
330
1D
100
AcDbEntity
  8
0
100
AcDbLine
 10
37.56915
 20
149.771
 30
0.0
 11
39.26185
 21
149.655
 31
0.0
  0
LINE
  5
8F5
330
1D
100
AcDbEntity
  8
0
100
AcDbLine
 10
35.89405
 20
149.732
 30
0.0
 11
37.56915
 21
149.771
 31
0.0
  0
LINE
  5
8F6
330
1D
100
AcDbEntity
  8
0
100
AcDbLine
 10
34.15285
 20
149.524
 30
0.0
 11
35.89405
 21
149.732
 31
0.0
  0
LINE
  5
8F7
330
1D
100
AcDbEntity
  8
0
100
AcDbLine
 10
34.15285
 20
149.524
 30
0.0
 11
35.89425
 21
149.732
 31
0.0
  0
LINE
  5
8F9
330
1D
100
AcDbEntity
  8
0
100
AcDbLine
 10
42.29705
 20
149.067
 30
0.0
 11
43.74145
 21
148.663
 31
0.0
  0
LINE
  5
8FB
330
1D
100
AcDbEntity
  8
0
100
AcDbLine
 10
40.82735
 20
149.414
 30
0.0
 11
42.29705
 21
149.067
 31
0.0
  0
LINE
  5
8FC
330
1D
100
AcDbEntity
  8
0
100
AcDbLine
 10
39.26185
 20
149.655
 30
0.0
 11
40.82735
 21
149.414
 31
0.0
  0
LINE
  5
8FD
330
1D
100
AcDbEntity
  8
0
100
AcDbLine
 10
32.40975
 20
149.128
 30
0.0
 11
34.15285
 21
149.524
 31
0.0
  0
LINE
  5
8FE
330
1D
100
AcDbEntity
  8
0
100
AcDbLine
 10
30.69235
 20
148.538
 30
0.0
 11
32.40975
 21
149.128
 31
0.0
  0
LINE
  5
8FF
330
1D
100
AcDbEntity
  8
0
100
AcDbLine
 10
30.69235
 20
148.538
 30
0.0
 11
32.40975
 21
149.129
 31
0.0
  0
LINE
  5
902
330
1D
100
AcDbEntity
  8
0
100
AcDbLine
 10
55.71235
 20
134.862
 30
0.0
 11
56.25595
 21
133.249
 31
0.0
  0
LINE
  5
905
330
1D
100
AcDbEntity
  8
0
100
AcDbLine
 10
52.18225
 20
140.789
 30
0.0
 11
53.25325
 21
139.414
 31
0.0
  0
LINE
  5
908
330
1D
100
AcDbEntity
  8
0
100
AcDbLine
 10
52.18195
 20
140.789
 30
0.0
 11
53.25325
 21
139.414
 31
0.0
  0
LINE
  5
909
330
1D
100
AcDbEntity
  8
0
100
AcDbLine
 10
53.25325
 20
139.414
 30
0.0
 11
54.20425
 21
137.96
 31
0.0
  0
LINE
  5
90A
330
1D
100
AcDbEntity
  8
0
100
AcDbLine
 10
53.25325
 20
139.414
 30
0.0
 11
54.20445
 21
137.96
 31
0.0
  0
LINE
  5
90E
330
1D
100
AcDbEntity
  8
0
100
AcDbLine
 10
55.06255
 20
139.691
 30
0.0
 11
56.62925
 21
136.962
 31
0.0
  0
LINE
  5
910
330
1D
100
AcDbEntity
  8
0
100
AcDbLine
 10
54.20445
 20
137.96
 30
0.0
 11
55.02675
 21
136.438
 31
0.0
  0
LINE
  5
911
330
1D
100
AcDbEntity
  8
0
100
AcDbLine
 10
55.02675
 20
136.438
 30
0.0
 11
55.71235
 21
134.862
 31
0.0
  0
LINE
  5
912
330
1D
100
AcDbEntity
  8
0
100
AcDbLine
 10
54.20425
 20
137.96
 30
0.0
 11
55.02635
 21
136.437
 31
0.0
  0
LINE
  5
913
330
1D
100
AcDbEntity
  8
0
100
AcDbLine
 10
55.02635
 20
136.437
 30
0.0
 11
55.71265
 21
134.862
 31
0.0
  0
LINE
  5
914
330
1D
100
AcDbEntity
  8
0
100
AcDbLine
 10
57.79435
 20
134.077
 30
0.0
 11
58.46425
 21
131.467
 31
0.0
  0
LINE
  5
915
330
1D
100
AcDbEntity
  8
0
100
AcDbLine
 10
57.79425
 20
134.077
 30
0.0
 11
58.46425
 21
131.467
 31
0.0
  0
LINE
  5
919
330
1D
100
AcDbEntity
  8
0
100
AcDbLine
 10
56.62925
 20
136.962
 30
0.0
 11
57.79435
 21
134.077
 31
0.0
  0
LINE
  5
91A
330
1D
100
AcDbEntity
  8
0
100
AcDbLine
 10
56.62925
 20
136.962
 30
0.0
 11
57.79425
 21
134.077
 31
0.0
  0
LINE
  5
91D
330
1D
100
AcDbEntity
  8
0
100
AcDbLine
 10
55.71265
 20
134.862
 30
0.0
 11
56.25595
 21
133.249
 31
0.0
  0
LINE
  5
91E
330
1D
100
AcDbEntity
  8
0
100
AcDbLine
 10
52.11885
 20
143.276
 30
0.0
 11
54.01615
 21
141.136
 31
0.0
  0
LINE
  5
921
330
1D
100
AcDbEntity
  8
0
100
AcDbLine
 10
54.01615
 20
141.136
 30
0.0
 11
55.06255
 21
139.691
 31
0.0
  0
LINE
  5
923
330
1D
100
AcDbEntity
  8
0
100
AcDbLine
 10
52.11865
 20
143.276
 30
0.0
 11
54.01615
 21
141.136
 31
0.0
  0
LINE
  5
924
330
1D
100
AcDbEntity
  8
0
100
AcDbLine
 10
13.04285
 20
131.538
 30
0.0
 11
13.68535
 21
133.707
 31
0.0
  0
LINE
  5
94C
330
1D
100
AcDbEntity
  8
0
100
AcDbLine
 10
1.84336
 20
90.7131
 30
0.0
 11
1.844268799035
 21
84.376184885667
 31
0.0
  0
LINE
  5
94D
330
1D
100
AcDbEntity
  8
0
100
AcDbLine
 10
2.84426
 20
110.154
 30
0.0
 11
3.059868106513
 21
111.734969572975
 31
0.0
  0
LINE
  5
94E
330
1D
100
AcDbEntity
  8
0
100
AcDbLine
 10
3.225971079288
 20
113.013327249812
 30
0.0
 11
3.675250123719
 21
115.387371338656
 31
0.0
  0
LINE
  5
94F
330
1D
100
AcDbEntity
  8
0
100
AcDbLine
 10
3.675250123719
 20
115.387371338656
 30
0.0
 11
4.396804929197
 21
119.505800428222
 31
0.0
  0
LINE
  5
950
330
1D
100
AcDbEntity
  8
0
100
AcDbLine
 10
4.396804929197
 20
119.505800428222
 30
0.0
 11
4.699952601977
 21
121.033620448536
 31
0.0
  0
LINE
  5
951
330
1D
100
AcDbEntity
  8
0
100
AcDbLine
 10
6.3535
 20
126.184
 30
0.0
 11
7.302619863663
 21
128.425729210304
 31
0.0
  0
LINE
  5
952
330
1D
100
AcDbEntity
  8
0
100
AcDbLine
 10
7.302619863663
 20
128.425729210304
 30
0.0
 11
8.331351535891
 21
130.423555936081
 31
0.0
  0
LINE
  5
953
330
1D
100
AcDbEntity
  8
0
100
AcDbLine
 10
8.331351535891
 20
130.423555936081
 30
0.0
 11
9.427924034496
 21
131.925978992758
 31
0.0
  0
LINE
  5
954
330
1D
100
AcDbEntity
  8
0
100
AcDbLine
 10
20.02165
 20
109.722
 30
0.0
 11
18.574150000001
 21
111.288999999998
 31
0.0
  0
LINE
  5
955
330
1D
100
AcDbEntity
  8
0
100
AcDbLine
 10
14.87165
 20
116.976
 30
0.0
 11
13.92275
 21
119.258
 31
0.0
  0
LINE
  5
956
330
1D
100
AcDbEntity
  8
0
100
AcDbLine
 10
12.61715
 20
135.792
 30
0.0
 11
13.61765
 21
136.849
 31
0.0
  0
LINE
  5
957
330
1D
100
AcDbEntity
  8
0
100
AcDbLine
 10
15.574111662166
 20
138.622587573806
 30
0.0
 11
18.54805
 21
140.974
 31
0.0
  0
LINE
  5
958
330
1D
100
AcDbEntity
  8
0
100
AcDbLine
 10
13.68535
 20
133.707
 30
0.0
 11
14.971158444442
 21
136.752866722491
 31
0.0
  0
LINE
  5
959
330
1D
100
AcDbEntity
  8
0
100
AcDbLine
 10
14.971158444442
 20
136.752866722491
 30
0.0
 11
15.574111662166
 21
138.622587573806
 31
0.0
  0
LINE
  5
95A
330
1D
100
AcDbEntity
  8
0
100
AcDbLine
 10
27.70975
 20
117.312
 30
0.0
 11
30.32195
 21
115.12
 31
0.0
  0
LINE
  5
95B
330
1D
100
AcDbEntity
  8
0
100
AcDbLine
 10
35.936850000001
 20
112.174
 30
0.0
 11
37.61765
 21
111.663
 31
0.0
  0
LINE
  5
95C
330
1D
100
AcDbEntity
  8
0
100
AcDbLine
 10
42.24715
 20
111.04
 30
0.0
 11
43.77145
 21
111.087
 31
0.0
  0
LINE
  5
95D
330
1D
100
AcDbEntity
  8
0
100
AcDbLine
 10
50.33625
 20
108.211
 30
0.0
 11
48.997783758843
 21
104.552308549375
 31
0.0
  0
LINE
  5
95E
330
1D
100
AcDbEntity
  8
0
100
AcDbLine
 10
46.07155
 20
93.6909
 30
0.0
 11
44.74565
 21
87.007
 31
0.0
  0
LINE
  5
95F
330
1D
100
AcDbEntity
  8
0
100
AcDbLine
 10
43.225157105256
 20
77.194684302688
 30
0.0
 11
44.59685
 21
86.0369
 31
0.0
  0
LINE
  5
960
330
1D
100
AcDbEntity
  8
0
100
AcDbLine
 10
42.11185
 20
66.4563
 30
0.0
 11
40.973520109167
 21
52.796279160859
 31
0.0
  0
LINE
  5
961
330
1D
100
AcDbEntity
  8
0
100
AcDbLine
 10
41.434619009517
 20
30.456715634231
 30
0.0
 11
42.15045
 21
19.9187
 31
0.0
  0
LINE
  5
962
330
1D
100
AcDbEntity
  8
0
100
AcDbLine
 10
41.84385
 20
1.86186
 30
0.0
 11
42.198185719523
 21
2.40285781466
 31
0.0
  0
LINE
  5
963
330
1D
100
AcDbEntity
  8
0
100
AcDbLine
 10
42.198185719523
 20
2.40285781466
 30
0.0
 11
42.588231207645
 21
3.22883649539
 31
0.0
  0
LINE
  5
964
330
1D
100
AcDbEntity
  8
0
100
AcDbLine
 10
42.588231207645
 20
3.22883649539
 30
0.0
 11
42.80065
 21
3.85611
 31
0.0
  0
LINE
  5
965
330
1D
100
AcDbEntity
  8
0
100
AcDbLine
 10
42.80065
 20
3.85611
 30
0.0
 11
43.039378273833
 21
4.878437029818
 31
0.0
  0
LINE
  5
966
330
1D
100
AcDbEntity
  8
0
100
AcDbLine
 10
43.039378273833
 20
4.878437029818
 30
0.0
 11
43.178502186783
 21
6.183811826519
 31
0.0
  0
LINE
  5
967
330
1D
100
AcDbEntity
  8
0
100
AcDbLine
 10
43.178502186783
 20
6.183811826519
 30
0.0
 11
43.19895
 21
6.45411
 31
0.0
  0
LINE
  5
968
330
1D
100
AcDbEntity
  8
0
100
AcDbLine
 10
43.19895
 20
6.45411
 30
0.0
 11
43.19895
 21
8.100089049315
 31
0.0
  0
LINE
  5
969
330
1D
100
AcDbEntity
  8
0
100
AcDbLine
 10
43.19895
 20
8.100089049315
 30
0.0
 11
43.13385
 21
10.1969
 31
0.0
  0
LINE
  5
96A
330
1D
100
AcDbEntity
  8
0
100
AcDbLine
 10
34.40415
 20
42.3301
 30
0.0
 11
36.00225
 21
43.4084
 31
0.0
  0
LINE
  5
96B
330
1D
100
AcDbEntity
  8
0
100
AcDbLine
 10
38.60625
 20
45.930700000001
 30
0.0
 11
39.762057791972
 21
47.798944200594
 31
0.0
  0
LINE
  5
96C
330
1D
100
AcDbEntity
  8
0
100
AcDbLine
 10
39.762057791972
 20
47.798944200594
 30
0.0
 11
40.30345
 21
48.8198
 31
0.0
  0
LINE
  5
96D
330
1D
100
AcDbEntity
  8
0
100
AcDbLine
 10
26.58985
 20
39.5675
 30
0.0
 11
28.70305
 21
40.0038
 31
0.0
  0
ENDSEC
  0
SECTION
  2
OBJECTS
  0
DICTIONARY
  5
C
330
0
100
AcDbDictionary
281
     1
  3
ACAD_GROUP
350
D
  3
ACAD_LAYOUT
350
1A
  3
ACAD_MLEADERSTYLE
350
970
  3
ACAD_MLINESTYLE
350
17
  3
ACAD_PLOTSETTINGS
350
19
  3
ACAD_PLOTSTYLENAME
350
E
  3
ACAD_SCALELIST
350
92A
  3
AcDbVariableDictionary
350
96E
  3
DWGPROPS
350
973
  0
DICTIONARY
  5
D
102
{ACAD_REACTORS
330
C
102
}
330
C
100
AcDbDictionary
281
     1
  0
DICTIONARY
  5
1A
102
{ACAD_REACTORS
330
C
102
}
330
C
100
AcDbDictionary
281
     1
  3
Layout1
350
1C
  3
Model
350
1E
  0
DICTIONARY
  5
970
102
{ACAD_REACTORS
330
C
102
}
330
C
100
AcDbDictionary
281
     1
  0
DICTIONARY
  5
17
102
{ACAD_REACTORS
330
C
102
}
330
C
100
AcDbDictionary
281
     1
  3
Standard
350
18
  0
DICTIONARY
  5
19
102
{ACAD_REACTORS
330
C
102
}
330
C
100
AcDbDictionary
281
     1
  0
ACDBDICTIONARYWDFLT
  5
E
102
{ACAD_REACTORS
330
C
102
}
330
C
100
AcDbDictionary
281
     1
  3
Normal
350
F
100
AcDbDictionaryWithDefault
340
F
  0
DICTIONARY
  5
92A
102
{ACAD_REACTORS
330
C
102
}
330
C
100
AcDbDictionary
281
     1
  3
A0
350
92B
  3
A1
350
92C
  3
A2
350
92D
  3
A3
350
92E
  3
A4
350
92F
  3
A5
350
930
  3
A6
350
931
  3
A7
350
932
  3
A8
350
933
  3
A9
350
934
  3
B0
350
935
  3
B1
350
936
  3
B2
350
937
  3
B3
350
938
  3
B4
350
939
  3
B5
350
93A
  3
B6
350
93B
  3
B7
350
93C
  3
B8
350
93D
  3
B9
350
93E
  3
C0
350
93F
  3
C1
350
940
  3
C2
350
941
  3
C3
350
942
  3
C4
350
943
  3
C5
350
944
  3
C6
350
945
  3
C7
350
946
  3
C8
350
947
  3
C9
350
948
  3
D0
350
949
  3
D1
350
94A
  3
D2
350
94B
  0
DICTIONARY
  5
96E
102
{ACAD_REACTORS
330
C
102
}
330
C
100
AcDbDictionary
281
     1
  3
CANNOSCALE
350
971
  0
XRECORD
  5
973
102
{ACAD_REACTORS
330
C
102
}
330
C
100
AcDbXrecord
280
     1
  1
DWGPROPS COOKIE
  2

  3

  4

  6

  7

  8
MARTIN
  9

300
=
301
=
302
=
303
=
304
=
305
=
306
=
307
=
308
=
309
=
 40
0.0
 41
2456184.654745984
 42
2456184.661650822
  1

 90
        0
  0
LAYOUT
  5
1C
102
{ACAD_REACTORS
330
1A
102
}
330
1A
100
AcDbPlotSettings
  1

  2
none_device
  4

  6

 40
0.0
 41
0.0
 42
0.0
 43
0.0
 44
0.0
 45
0.0
 46
0.0
 47
0.0
 48
0.0
 49
0.0
140
0.0
141
0.0
142
1.0
143
1.0
 70
   688
 72
     0
 73
     0
 74
     5
  7

 75
    16
147
1.0
148
0.0
149
0.0
100
AcDbLayout
  1
Layout1
 70
     1
 71
     1
 10
0.0
 20
0.0
 11
12.0
 21
9.0
 12
0.0
 22
0.0
 32
0.0
 14
1.000000000000E+20
 24
1.000000000000E+20
 34
1.000000000000E+20
 15
-1.000000000000E+20
 25
-1.000000000000E+20
 35
-1.000000000000E+20
146
0.0
 13
0.0
 23
0.0
 33
0.0
 16
1.0
 26
0.0
 36
0.0
 17
0.0
 27
1.0
 37
0.0
 76
     0
330
1B
  0
LAYOUT
  5
1E
102
{ACAD_REACTORS
330
1A
102
}
330
1A
100
AcDbPlotSettings
  1

  2
none_device
  4

  6

 40
0.0
 41
0.0
 42
0.0
 43
0.0
 44
0.0
 45
0.0
 46
0.0
 47
0.0
 48
0.0
 49
0.0
140
0.0
141
0.0
142
1.0
143
1.0
 70
  1712
 72
     0
 73
     0
 74
     0
  7

 75
     0
147
1.0
148
0.0
149
0.0
100
AcDbLayout
  1
Model
 70
     1
 71
     0
 10
0.0
 20
0.0
 11
12.0
 21
9.0
 12
0.0
 22
0.0
 32
0.0
 14
0.20985
 24
0.061
 34
0.0
 15
58.79015
 25
149.939
 35
0.0
146
0.0
 13
0.0
 23
0.0
 33
0.0
 16
1.0
 26
0.0
 36
0.0
 17
0.0
 27
1.0
 37
0.0
 76
     0
330
1D
331
925
  0
MLINESTYLE
  5
18
102
{ACAD_REACTORS
330
17
102
}
330
17
100
AcDbMlineStyle
  2
Standard
 70
     0
  3

 62
   256
 51
90.0
 52
90.0
 71
     2
 49
0.5
 62
   256
  6
BYLAYER
 49
-0.5
 62
   256
  6
BYLAYER
  0
ACDBPLACEHOLDER
  5
F
102
{ACAD_REACTORS
330
E
102
}
330
E
  0
SCALE
  5
92B
102
{ACAD_REACTORS
330
92A
102
}
330
92A
100
AcDbScale
 70
     0
300
1:1
140
1.0
141
1.0
290
     1
  0
SCALE
  5
92C
102
{ACAD_REACTORS
330
92A
102
}
330
92A
100
AcDbScale
 70
     0
300
1:2
140
1.0
141
2.0
290
     0
  0
SCALE
  5
92D
102
{ACAD_REACTORS
330
92A
102
}
330
92A
100
AcDbScale
 70
     0
300
1:4
140
1.0
141
4.0
290
     0
  0
SCALE
  5
92E
102
{ACAD_REACTORS
330
92A
102
}
330
92A
100
AcDbScale
 70
     0
300
1:5
140
1.0
141
5.0
290
     0
  0
SCALE
  5
92F
102
{ACAD_REACTORS
330
92A
102
}
330
92A
100
AcDbScale
 70
     0
300
1:8
140
1.0
141
8.0
290
     0
  0
SCALE
  5
930
102
{ACAD_REACTORS
330
92A
102
}
330
92A
100
AcDbScale
 70
     0
300
1:10
140
1.0
141
10.0
290
     0
  0
SCALE
  5
931
102
{ACAD_REACTORS
330
92A
102
}
330
92A
100
AcDbScale
 70
     0
300
1:16
140
1.0
141
16.0
290
     0
  0
SCALE
  5
932
102
{ACAD_REACTORS
330
92A
102
}
330
92A
100
AcDbScale
 70
     0
300
1:20
140
1.0
141
20.0
290
     0
  0
SCALE
  5
933
102
{ACAD_REACTORS
330
92A
102
}
330
92A
100
AcDbScale
 70
     0
300
1:30
140
1.0
141
30.0
290
     0
  0
SCALE
  5
934
102
{ACAD_REACTORS
330
92A
102
}
330
92A
100
AcDbScale
 70
     0
300
1:40
140
1.0
141
40.0
290
     0
  0
SCALE
  5
935
102
{ACAD_REACTORS
330
92A
102
}
330
92A
100
AcDbScale
 70
     0
300
1:50
140
1.0
141
50.0
290
     0
  0
SCALE
  5
936
102
{ACAD_REACTORS
330
92A
102
}
330
92A
100
AcDbScale
 70
     0
300
1:100
140
1.0
141
100.0
290
     0
  0
SCALE
  5
937
102
{ACAD_REACTORS
330
92A
102
}
330
92A
100
AcDbScale
 70
     0
300
2:1
140
2.0
141
1.0
290
     0
  0
SCALE
  5
938
102
{ACAD_REACTORS
330
92A
102
}
330
92A
100
AcDbScale
 70
     0
300
4:1
140
4.0
141
1.0
290
     0
  0
SCALE
  5
939
102
{ACAD_REACTORS
330
92A
102
}
330
92A
100
AcDbScale
 70
     0
300
8:1
140
8.0
141
1.0
290
     0
  0
SCALE
  5
93A
102
{ACAD_REACTORS
330
92A
102
}
330
92A
100
AcDbScale
 70
     0
300
10:1
140
10.0
141
1.0
290
     0
  0
SCALE
  5
93B
102
{ACAD_REACTORS
330
92A
102
}
330
92A
100
AcDbScale
 70
     0
300
100:1
140
100.0
141
1.0
290
     0
  0
SCALE
  5
93C
102
{ACAD_REACTORS
330
92A
102
}
330
92A
100
AcDbScale
 70
     0
300
1/128" = 1'-0"
140
0.0078125
141
12.0
290
     0
  0
SCALE
  5
93D
102
{ACAD_REACTORS
330
92A
102
}
330
92A
100
AcDbScale
 70
     0
300
1/64" = 1'-0"
140
0.015625
141
12.0
290
     0
  0
SCALE
  5
93E
102
{ACAD_REACTORS
330
92A
102
}
330
92A
100
AcDbScale
 70
     0
300
1/32" = 1'-0"
140
0.03125
141
12.0
290
     0
  0
SCALE
  5
93F
102
{ACAD_REACTORS
330
92A
102
}
330
92A
100
AcDbScale
 70
     0
300
1/16" = 1'-0"
140
0.0625
141
12.0
290
     0
  0
SCALE
  5
940
102
{ACAD_REACTORS
330
92A
102
}
330
92A
100
AcDbScale
 70
     0
300
3/32" = 1'-0"
140
0.09375
141
12.0
290
     0
  0
SCALE
  5
941
102
{ACAD_REACTORS
330
92A
102
}
330
92A
100
AcDbScale
 70
     0
300
1/8" = 1'-0"
140
0.125
141
12.0
290
     0
  0
SCALE
  5
942
102
{ACAD_REACTORS
330
92A
102
}
330
92A
100
AcDbScale
 70
     0
300
3/16" = 1'-0"
140
0.1875
141
12.0
290
     0
  0
SCALE
  5
943
102
{ACAD_REACTORS
330
92A
102
}
330
92A
100
AcDbScale
 70
     0
300
1/4" = 1'-0"
140
0.25
141
12.0
290
     0
  0
SCALE
  5
944
102
{ACAD_REACTORS
330
92A
102
}
330
92A
100
AcDbScale
 70
     0
300
3/8" = 1'-0"
140
0.375
141
12.0
290
     0
  0
SCALE
  5
945
102
{ACAD_REACTORS
330
92A
102
}
330
92A
100
AcDbScale
 70
     0
300
1/2" = 1'-0"
140
0.5
141
12.0
290
     0
  0
SCALE
  5
946
102
{ACAD_REACTORS
330
92A
102
}
330
92A
100
AcDbScale
 70
     0
300
3/4" = 1'-0"
140
0.75
141
12.0
290
     0
  0
SCALE
  5
947
102
{ACAD_REACTORS
330
92A
102
}
330
92A
100
AcDbScale
 70
     0
300
1" = 1'-0"
140
1.0
141
12.0
290
     0
  0
SCALE
  5
948
102
{ACAD_REACTORS
330
92A
102
}
330
92A
100
AcDbScale
 70
     0
300
1-1/2" = 1'-0"
140
1.5
141
12.0
290
     0
  0
SCALE
  5
949
102
{ACAD_REACTORS
330
92A
102
}
330
92A
100
AcDbScale
 70
     0
300
3" = 1'-0"
140
3.0
141
12.0
290
     0
  0
SCALE
  5
94A
102
{ACAD_REACTORS
330
92A
102
}
330
92A
100
AcDbScale
 70
     0
300
6" = 1'-0"
140
6.0
141
12.0
290
     0
  0
SCALE
  5
94B
102
{ACAD_REACTORS
330
92A
102
}
330
92A
100
AcDbScale
 70
     0
300
1'-0" = 1'-0"
140
12.0
141
12.0
290
     0
  0
DICTIONARYVAR
  5
971
102
{ACAD_REACTORS
330
96E
102
}
330
96E
100
DictionaryVariables
280
     0
  1
1:1
  0
ENDSEC
  0
SECTION
  2
THUMBNAILIMAGE
 90
    16364
310
28000000B40000005500000001000800000000000000000000000000000000000000000000000000FFFFFF000000FF0000FFFF0000FF0000FFFF0000FF000000FF00FF000000000080808000C0C0C0000000FF007F7FFF000000A5005252A50000007F003F3F7F0000004C0026264C000000260013132600003FFF007F9FFF
310
000029A5005267A500001F7F003F4F7F0000134C00262F4C000009260013172600007FFF007FBFFF000052A500527CA500003F7F003F5F7F0000264C0026394C0000132600131C260000BFFF007FDFFF00007CA5005291A500005F7F003F6F7F0000394C0026424C00001C26001321260000FFFF007FFFFF0000A5A50052A5
310
A500007F7F003F7F7F00004C4C00264C4C00002626001326260000FFBF007FFFDF0000A57C0052A59100007F5F003F7F6F00004C3900264C420000261C001326210000FF7F007FFFBF0000A5520052A57C00007F3F003F7F5F00004C2600264C39000026130013261C0000FF3F007FFF9F0000A5290052A56700007F1F003F
310
7F4F00004C1300264C2F00002609001326170000FF00007FFF7F0000A5000052A55200007F00003F7F3F00004C0000264C260000260000132613003FFF00009FFF7F0029A5000067A552001F7F00004F7F3F00134C00002F4C260009260000172613007FFF0000BFFF7F0052A500007CA552003F7F00005F7F3F00264C0000
310
394C2600132600001C261300BFFF0000DFFF7F007CA5000091A552005F7F00006F7F3F00394C0000424C26001C26000021261300FFFF0000FFFF7F00A5A50000A5A552007F7F00007F7F3F004C4C00004C4C26002626000026261300FFBF0000FFDF7F00A57C0000A59152007F5F00007F6F3F004C3900004C422600261C00
310
0026211300FF7F0000FFBF7F00A5520000A57C52007F3F00007F5F3F004C2600004C39260026130000261C1300FF3F0000FF9F7F00A5290000A56752007F1F00007F4F3F004C1300004C2F26002609000026171300FF000000FF7F7F00A5000000A55252007F0000007F3F3F004C0000004C2626002600000026131300FF00
310
3F00FF7F9F00A5002900A55267007F001F007F3F4F004C0013004C262F002600090026131700FF007F00FF7FBF00A5005200A5527C007F003F007F3F5F004C0026004C2639002600130026131C00FF00BF00FF7FDF00A5007C00A55291007F005F007F3F6F004C0039004C26420026001C0026132100FF00FF00FF7FFF00A5
310
00A500A552A5007F007F007F3F7F004C004C004C264C002600260026132600BF00FF00DF7FFF007C00A5009152A5005F007F006F3F7F0039004C0042264C001C002600211326007F00FF00BF7FFF005200A5007C52A5003F007F005F3F7F0026004C0039264C00130026001C1326003F00FF009F7FFF002900A5006752A500
310
1F007F004F3F7F0013004C002F264C000900260017132600000000002D2D2D005B5B5B0089898900B7B7B700B3B3B30000000000000000000000000000000000000000000000000000000000000000000000000000000000000000000000000000000000000000000000000000000000000000000000000000000000000000
310
00000000000000000000000707070707070707000000000000000000000000000000000000000000000000000000000000000000000000000000000000000000000000000000000000000000000000000000000000000000000000000000000000000000000000000000000000000000000000000000000000000000000000
310
00000000000000000000000000000000000000000000000000000000000000000000000000000000000000000000000000000000000000000000000707070707000000000000000700000000000000000000000000000000000000000000000000000000000000000000000000000000000000000000000000000000000000
310
00000000000000000000000000000000000000000000000000000000000000000000000000000000000000000000000000000000000000000000000000000000000000000000000000000000000000000000000000000000000000000000000000000000000000000000000000000707000000000000000000000000070000
310
00000000000000000000000000000000000000000000000000000000000000000000000000000000000000000000000000000000000000000000000000000000000000000000000000000000000000000000000000000000000000000000000000000000000000000000000000000000000000000000000000000000000000
310
00000000000000000000000000000000000000000000000000000000000000000000070700000000000000000000000000000007000000000000000000000000000000000000000000000000000000000000000000000000000000000000000000000000000000000000000000000000000000000000000000000000000000
310
00000000000000000000000000000000000000000000000000000000000000000000000000000000000000000000000000000000000000000000000000000000000000000000000000000000000000000000000000070700000000000000000000000000000000000700000000000000000000000000000000000000000000
310
00000000000000000000000000000000000000000000000000000000000000000000000000000000000000000000000000000000000000000000000000000000000000000000000000000000000000000000000000000000000000000000000000000000000000000000000000000000000000000000000000000000000000
310
00000000000000000000070700000000000000000000000000000000000007000000000000000000000000000000000000000000000000000000000000000000000000000000000000000000000000000000000000000000000000000000000000000000000000000000000000000000000000000000000000000000000000
310
00000000000000000000000000000000000000000000000000000000000000000000000000000000000000000000000000000000000000000000000000000707000000000000000000000000000000000000000700000000000000000000000000000000000000000000000000000000000000000000000000000000000000
310
00000000000000000000000000000000000000000000000000000000000000000000000000000000000000000000000000000000000000000000000000000000000000000000000000000000000000000000000000000000000000000000000000000000000000000000000000000000000000070000000000000000000000
310
00000000000000000007000000000000000000000000000000000000000000000000000000000000000000000000000000000000000000000000000000000000000000000000000000000000000000000000000000000000000000000000000000000000000000000000000000000000000000000000000000000000000000
310
00000000000000000000000000000000000000000000000000000000000000000000000000000000000700000000000000000000000000000000000000000700000000000000000000000000000000000000000000000000000000000000000000000000000000000000000000000000000000000000000000000000000000
310
00000000000000000000000000000000000000000000000000000000000000000000000000000000000000000000000000000000000000000000000000000000000000000000000000000000000000000000000000000000000000000000070000000000000000000000000000000000000007000000000000000000000000
310
00000000000000000000000000000000000000000000000000000000000000000000000000000000000000000000000000000000000000000000000000000000000000000000000000000000000000000000000000000000000000000000000000000000000000000000000000000000000000000000000000000000000000
310
00000000000000000000000000000000000000000700000000000000000000000000000000000000070000000000000000000000000000000000000000000000000000000000000000000000000000000000000000000000000000000000000000000000000000000000000000000000000000000000000000000000000000
310
00000000000000000000000000000000000000000000000000000000000000000000000000000000000000000000000000000000000000000000000000000000000000000000000000070000000000000000000000000000000000000007000000000000000000000000000000000000000000000000000000000000000000
310
00000000000000000000000000000000000000000000000000000000000000000000000000000000000000000000000000000000000000000000000000000000000000000000000000000000000000000000000000000000000000000000000000000000000000000000000000000000000000000000000000000000000007
310
00000000000000000000000000000000000000070000000000000000000000000000000000000000000000000000000000000000000000000000000000000000000000000000000000000000000000000000000000000000000000000000000000000000000000000000000000000000000000000000000000000000000000
310
00000000000000000000000000000000000000000000000000000000000000000000000000000000000000000000000000000000070000000000000000000000000000000000000007000000000000000000000000000000000000000000000000000000000000000000000000000000000000000000000000000000000000
310
00000000000000000000000000000000000000000000000000000000000000000000000000000000000000000000000000000000000000000000000000000000000000000000000000000000000000000000000000000000000000000000000000000000000000000007000000000000000000000000000000000000000700
310
00000000000000000000000000000000000000000000000000000000000000000000000000000000000000000000000000000000000000000000000000000000000000000000000000000000000000000000000000000000000000000000000000000000000000000000000000000000000000000000000000000000000000
310
00000000000000000000000000000000000000000000000000000000000000070000000000000000000000000000000000000007000000000000000000000000000000000000000000000000000000000000000000000000000000000000000000000000000000000000000000000000000000000000000000000000000000
310
00000000000000000000000000000000000000000000000000000000000000000000000000000000000000000000000000000000000000000000000000000000000000000000000000000000000000000000000007000000000000000000000000000000000000000700000000000000000000000000000000000000000000
310
00000000000000000000000000000000000000000000000000000000000000000000000000000000000000000000000000000000000000000000000000000000000000000000000000000000000000000000000000000000000000000000000000000000000000000000000000000000000000000000000000000000000000
310
00000000000000000000070000000000000000000000000000000000000007000000000000000000000000000000000000000000000000000000000000000000000000000000000000000000000000000000000000000000000000000000000000000000000000000000000000000000000000000000000000000000000000
310
00000000000000000000000000000000000000000000000000000000000000000000000000000000000000000000000000000000000000000000000000000007000000000000000000000000000000000000000700000000000000000000000000000000000000000000000000000000000000000000000000000000000000
310
00000000000000000000000000000000000000000000000000000000000000000000000000000000000000000000000000000000000000000000000000000000000000000000000000000000000000000000000000000000000000000000000000000000000000000000000000000000000000070000000000000000000000
310
00000000000000000007000000000000000000000000000000000000000000000000000000000000000000000000000000000000000000000000000000000000000000000000000000000000000000000000000000000000000000000000000000000000000000000000000000000000000000000000000000000000000000
310
00000000000000000000000000000000000000000000000000000000000000000000000000000000000700000000000000000000000000000000000000000700000000000000000000000000000000000000000000000000000000000000000000000000000000000000000000000000000000000000000000000000000000
310
00000000000000000000000000000000000000000000000000000000000000000000000000000000000000000000000000000000000000000000000000000000000000000000000000000000000000000000000000000000000000000000070000000000000000000000000000000000000000070000000000000000000000
310
00000000000000000000000000000000000000000000000000000000000000000000000000000000000000000000000000000000000000000000000000000000000000000000000000000000000000000000000000000000000000000000000000000000000000000000000000000000000000000000000000000000000000
310
00000000000000000000000000000000000000000700000000070707070707070707070700000000000700000000000000000000000000000000000000000000000000000000000000000000000000000000000000000000000000000000000000000000000000000000000000000000000000000000000000000000000000
310
00000000000000000000000000000000000000000000000000000000000000000000000000000000000000000000000000000000000000000000000000000000000000000000000000070000000707000000000000000000000707000000070000000000000000000000000000000000000000000000000000000000000000
310
00000000000000000000000000000000000000000000000000000000000000000000000000000000000000000000000000000000000000000000000000000000000000000000000000000000000000000000000000000000000000000000000000000000000000000000000000000000000000000000000000000000000007
310
00070700000000000000000000000000000700000700000000000000000000000000000000000000000000000000000000000000000000000000000000000000000000000000000000000000000000000000000000000000000000000000000000000000000000000000000000000000000000000000000000000000000000
310
00000000000000000000000000000000000000000000000000000000000000000000000000000000000000000000000000000000070007000000000000000000000000000000070707000000000000000000000000000000000000000000000000000000000000000000000000000000000000000000000000000000000000
310
00000000000000000000000000000000000000000000000000000000000000000000000000000000000000000000000000000000000000000000000000000000000000000000000000000000000000000000000000000000000000000000000000000000000000000007070000000000000000000000000000000000000700
310
00000000000000000000000000000000000000000000000000000000000000000000000000000000000000000000000000000000000000000000000000000000000000000000000000000000000000000000000000000000000000000000000000000000000000000000000000000000000000000000000000000000000000
310
00000000000000000000000000000000000000000000000000000000000000070000000000000000000000000000000000000007000000000000000000000000000000000000000000000000000000000000000000000000000000000000000000000000000000000000000000000000000000000000000000000000000000
310
00000000000000000000000000000000000000000000000000000000000000000000000000000000000000000000000000000000000000000000000000000000000000000000000000000000000000000000000007000000000000000000000000000000000000000700000000000000000000000000000000000000000000
310
00000000000000000000000000000000000000000000000000000000000000000000000000000000000000000000000000000000000000000000000000000000000000000000000000000000000000000000000000000000000000000000000000000000000000000000000000000000000000000000000000000000000000
310
00000000000000000000070000000000000000000000000000000000000007000000000000000000000000000000000000000000000000000000000000000000000000000000000000000000000000000000000000000000000000000000000000000000000000000000000000000000000000000000000000000000000000
310
00000000000000000000000000000000000000000000000000000000000000000000000000000000000000000000000000000000000000000000000000000007000000000000000000000000000000000000000700000000000000000000000000000000000000000000000000000000000000000000000000000000000000
310
00000000000000000000000000000000000000000000000000000000000000000000000000000000000000000000000000000000000000000000000000000000000000000000000000000000000000000000000000000000000000000000000000000000000000000000000000000000000000000700000000000000000000
310
00000000000000000007000000000000000000000000000000000000000000000000000000000000000000000000000000000000000000000000000000000000000000000000000000000000000000000000000000000000000000000000000000000000000000000000000000000000000000000000000000000000000000
310
00000000000000000000000000000000000000000000000000000000000000000000000000000000000007000000000000000000000000000000000000000700000000000000000000000000000000000000000000000000000000000000000000000000000000000000000000000000000000000000000000000000000000
310
00000000000000000000000000000000000000000000000000000000000000000000000000000000000000000000000000000000000000000000000000000000000000000000000000000000000000000000000000000000000000000000000700000000000000000000000000000000000000070000000000000000000000
310
00000000000000000000000000000000000000000000000000000000000000000000000000000000000000000000000000000000000000000000000000000000000000000000000000000000000000000000000000000000000000000000000000000000000000000000000000000000000000000000000000000000000000
310
00000000000000000000000000000000000000000700000000000000000000000000000000000000000007000000000000000000000000000000000000000000000000000000000000000000000000000000000000000000000000000000000000000000000000000000000000000000000000000000000000000000000000
310
00000000000000000000000000000000000000000000000000000000000000000000000000000000000000000000000000000000000000000000000000000000000000000000000000070000000000000000000000000000000000000000000700000000000000000000000000000000000000000000000000000000000000
310
00000000000000000000000000000000000000000000000000000000000000000000000000000000000000000000000000000000000000000000000000000000000000000000000000000000000000000000000000000000000000000000000000000000000000000000000000000000000000000000000000000000000007
310
00000000000000000000000000000000000000000007000000000000000000000000000000000000000000000000000000000000000000000000000000000000000000000000000000000000000000000000000000000000000000000000000000000000000000000000000000000000000000000000000000000000000000
310
00000000000000000000000000000000000000000000000000000000000000000000000000000000000000000000000000000000070000000000000000000000000000000000000000000700000000000000000000000000000000000000000000000000000000000000000000000000000000000000000000000000000000
310
00000000000000000000000000000000000000000000000000000000000000000000000000000000000000000000000000000000000000000000000000000000000000000000000000000000000000000000000000000000000000000000000000000000000000000007000000000000000000000000000000000000000000
310
07000000000000000000000000000000000000000000000000000000000000000000000000000000000000000000000000000000000000000000000000000000000000000000000000000000000000000000000000000000000000000000000000000000000000000000000000000000000000000000000000000000000000
310
00000000000000000000000000000000000000000000000000000000000000070000000000000000000000000000000000000000000700000000000000000000000000000000000000000000000000000000000000000000000000000000000000000000000000000000000000000000000000000000000000000000000000
310
00000000000000000000000000000000000000000000000000000000000000000000000000000000000000000000000000000000000000000000000000000000000000000000000000000000000000000000000007000000000000000000000000000000000000000000070000000000000000000000000000000000000000
310
00000000000000000000000000000000000000000000000000000000000000000000000000000000000000000000000000000000000000000000000000000000000000000000000000000000000000000000000000000000000000000000000000000000000000000000000000000000000000000000000000000000000000
310
00000000000000000000070000000000000000000000000000000000000000000007000000000000000000000000000000000000000000000000000000000000000000000000000000000000000000000000000000000000000000000000000000000000000000000000000000000000000000000000000000000000000000
310
00000000000000000000000000000000000000000000000000000000000000000000000000000000000000000000000000000000000000000000000000000007000000000000000000000000000000000000000000000700000000000000000000000000000000000000000000000000000000000000000000000000000000
310
00000000000000000000000000000000000000000000000000000000000000000000000000000000000000000000000000000000000000000000000000000000000000000000000000000000000000000000000000000000000000000000000000000000000000000000000000000000000000000700000000000000000000
310
00000000000000000000000007000000000000000000000000000000000000000000000000000000000000000000000000000000000000000000000000000000000000000000000000000000000000000000000000000000000000000000000000000000000000000000000000000000000000000000000000000000000000
310
00000000000000000000000000000000000000000000000000000000000000000000000000000000000007000000000000000000000000000000000000000000000700000000000000000000000000000000000000000000000000000000000000000000000000000000000000000000000000000000000000000000000000
310
00000000000000000000000000000000000000000000000000000000000000000000000000000000000000000000000000000000000000000000000000000000000000000000000000000000000000000000000000000000000000000000000700000000000000000000000000000000000000000000070000000000000000
310
00000000000000000000000000000000000000000000000000000000000000000000000000000000000000000000000000000000000000000000000000000000000000000000000000000000000000000000000000000000000000000000000000000000000000000000000000000000000000000000000000000000000000
310
00000000000000000000000000000000000000000007000000000000000000000000000000000000000000000700000000000000000000000000000000000000000000000000000000000000000000000000000000000000000000000000000000000000000000000000000000000000000000000000000000000000000000
310
00000000000000000000000000000000000000000000000000000000000000000000000000000000000000000000000000000000000000000000000000000000000000000000000000000700000000000000000000000000000000000000000000070000000000000000000000000000000000000000000000000000000000
310
00000000000000000000000000000000000000000000000000000000000000000000000000000000000000000000000000000000000000000000000000000000000000000000000000000000000000000000000000000000000000000000000000000000000000000000000000000000000000000000000000000000000000
310
07000000000000000000000000000000000000000000000700000000000000000000000000000000000000000000000000000000000000000000000000000000000000000000000000000000000000000000000000000000000000000000000000000000000000000000000000000000000000000000000000000000000000
310
00000000000000000000000000000000000000000000000000000000000000000000000000000000000000000000000000000000000700000000000000000000000000000000000000000000000700000000000000000000000000000000000000000000000000000000000000000000000000000000000000000000000000
310
00000000000000000000000000000000000000000000000000000000000000000000000000000000000000000000000000000000000000000000000000000000000000000000000000000000000000000000000000000000000000000000000000000000000000000000070000000000000000000000000000000000000000
310
00000007000000000000000000000000000000000000000000000000000000000000000000000000000000000000000000000000000000000000000000000000000000000000000000000000000000000000000000000000000000000000000000000000000000000000000000000000000000000000000000000000000000
310
00000000000000000000000000000000000000000000000000000000000000000700000000000000000000000000000000000000000000000700000000000000000000000000000000000000000000000000000000000000000000000000000000000000000000000000000000000000000000000000000000000000000000
310
00000000000000000000000000000000000000000000000000000000000000000000000000000000000000000000000000000000000000000000000000000000000000000000000000000000000000000000000000070000000000000000000000000000000000000000000000070000000000000000000000000000000000
310
00000000000000000000000000000000000000000000000000000000000000000000000000000000000000000000000000000000000000000000000000000000000000000000000000000000000000000000000000000000000000000000000000000000000000000000000000000000000000000000000000000000000000
310
00000000000000000000000700000000000000000000000000000000000000000000000700000000000000000000000000000000000000000000000000000000000000000000000000000000000000000000000000000000000000000000000000000000000000000000000000000000000000000000000000000000000000
310
00000000000000000000000000000000000000000000000000000000000000000000000000000000000000000000000000000000000000000000000000000000070000000000000000000000000000000000000000000000000700000000000000000000000000000000000000000000000000000000000000000000000000
310
00000000000000000000000000000000000000000000000000000000000000000000000000000000000000000000000000000000000000000000000000000000000000000000000000000000000000000000000000000000000000000000000000000000000000000000000000000000000000000007000000000000000000
310
00000000000000000000000000000007000000000000000000000000000000000000000000000000000000000000000000000000000000000000000000000000000000000000000000000000000000000000000000000000000000000000000000000000000000000000000000000000000000000000000000000000000000
310
00000000000000000000000000000000000000000000000000000000000000000000000000000000000000070000000000000000000000000000000000000000000000000007000000000000000000000000000000000000000000000000000000000000000000000000000000000000000000000000000000000000000000
310
00000000000000000000000000000000000000000000000000000000000000000000000000000000000000000000000000000000000000000000000000000000000000000000000000000000000000000000000000000000000000000000000007000000000000000000000000000000070707070707070000000700000000
310
00000000000000000000000000000000000000000000000000000000000000000000000000000000000000000000000000000000000000000000000000000000000000000000000000000000000000000000000000000000000000000000000000000000000000000000000000000000000000000000000000000000000000
310
00000000000000000000000000000000000000000000070000000000000000000000000707070000000000000007070000000000000000000000000000000000000000000000000000000000000000000000000000000000000000000000000000000000000000000000000000000000000000000000000000000000000000
310
00000000000000000000000000000000000000000000000000000000000000000000000000000000000000000000000000000000000000000000000000000000000000000000000000000007000000000000000000000007000000000000000000000000070700000000000000000000000000000000000000000000000000
310
00000000000000000000000000000000000000000000000000000000000000000000000000000000000000000000000000000000000000000000000000000000000000000000000000000000000000000000000000000000000000000000000000000000000000000000000000000000000000000000000000000000000000
310
00070000000000000000000007000000000000000000000000000007070000000000000000000000000000000000000000000000000000000000000000000000000000000000000000000000000000000000000000000000000000000000000000000000000000000000000000000000000000000000000000000000000000
310
00000000000000000000000000000000000000000000000000000000000000000000000000000000000000000000000000000000000007000000000000000000070000000000000000000000000000000007000000000000000000000000000000000000000000000000000000000000000000000000000000000000000000
310
00000000000000000000000000000000000000000000000000000000000000000000000000000000000000000000000000000000000000000000000000000000000000000000000000000000000000000000000000000000000000000000000000000000000000000000000700000000000000000000000000000000000707
310
07070707070700070000000000000000000000000000000000000000000000000000000000000000000000000000000000000000000000000000000000000000000000000000000000000000000000000000000000000000000000000000000000000000000000000000000000000000000000000000000000000000000000
310
00000000000000000000000000000000000000000000000000000000000000000007000000000000000700000000000000070700070707070707070707070000000000000000000000000000000000000000000000000000000000000000000000000000000000000000000000000000000000000000000000000000000000
310
00000000000000000000000000000000000000000000000000000000000000000000000000000000000000000000000000000000000000000000000000000000000000000000000000000000000000000000000000000707000000000000070000000000000007070700000000000000070707070000000000000000000000
310
00000000000000000000000000000000000000000000000000000000000000000000000000000000000000000000000000000000000000000000000000000000000000000000000000000000000000000000000000000000000000000000000000000000000000000000000000000000000000000000000000000000000000
310
00000000000000000000000700070000000000070000000000000707070000000000000000000000070700000000000000000000000000000000000000000000000000000000000000000000000000000000000000000000000000000000000000000000000000000000000000000000000000000000000000000000000000
310
00000000000000000000000000000000000000000000000000000000000000000000000000000000000000000000000000000000000000000000000000000000070007000000000000000000000007000700000000000000000000000007070700000000000000000000000000000000000000000000000000000000000000
310
00000000000000000000000000000000000000000000000000000000000000000000000000000000000000000000000000000000000000000000000000000000000000000000000000000000000000000000000000000000000000000000000000000000000000000000000000000000000000000007000700000000070000
310
00000007000700000000000000000000000000000700070000000000000000000000000000000000000000000000000000000000000000000000000000000000000000000000000000000000000000000000000000000000000000000000000000000000000000000000000000000000000000000000000000000000000000
310
00000000000000000000000000000000000000000000000000000000000000000000000000000000000000070000070000000700000000000707000000000000000000000000000000000707000000000000000000000000000000000000000000000000000000000000000000000000000000000000000000000000000000
310
00000000000000000000000000000000000000000000000000000000000000000000000000000000000000000000000000000000000000000000000000000000000000000000000000000000000000000000000000000000000000000000000007000007000000070000000007000700000000000000000000000000000000
310
07070000000000000000000000000000000000000000000000000000000000000000000000000000000000000000000000000000000000000000000000000000000000000000000000000000000000000000000000000000000000000000000000000000000000000000000000000000000000000000000000000000000000
310
00000000000000000000000000000000000000000000070000070000000700000000070700000000000000000000000000000000000707000000000000000000000000000000000000000000000000000000000000000000000000000000000000000000000000000000000000000000000000000000000000000000000000
310
00000000000000000000000000000000000000000000000000000000000000000000000000000000000000000000000000000000000000000000000000000000000000000000000000000007000000070000070000000700070000000000000000000000000000000000000000000000000000000000000000000000000000
310
00000000000000000000000000000000000000000000000000000000000000000000000000000000000000000000000000000000000000000000000000000000000000000000000000000000000000000000000000000000000000000000000000000000000000000000000000000000000000000000000000000000000000
310
00070000000700000700000007000700000000000000000000000000000000000707000000000000000000000000000000000000000000000000000000000000000000000000000000000000000000000000000000000000000000000000000000000000000000000000000000000000000000000000000000000000000000
310
00000000000000000000000000000000000000000000000000000000000000000000000000000000000000000000000000000000000007000000000700070000000707000000000000000000000000000000000000070700000000000000000000000000000000000000000000000000000000000000000000000000000000
310
00000000000000000000000000000000000000000000000000000000000000000000000000000000000000000000000000000000000000000000000000000000000000000000000000000000000000000000000000000000000000000000000000000000000000000000000007000000070007000000070700000000000000
310
00000000000000000000000707000000000000000000000000000000000000000000000000000000000000000000000000000000000000000000000000000000000000000000000000000000000000000000000000000000000000000000000000000000000000000000000000000000000000000000000000000000000000
310
00000000000000000000000000000000000000000000000000000000000000000000070000000007070000000707070000000000000000000000000000000000070000000000000000000000000000000000000000000000000000000000000000000000000000000000000000000000000000000000000000000000000000
310
00000000000000000000000000000000000000000000000000000000000000000000000000000000000000000000000000000000000000000000000000000000000000000000000000000000000000000000000000000007000000000007070000070007000000000000000000000000000000000707000000000000000000
310
00000000000000000000000000000000000000000000000000000000000000000000000000000000000000000000000000000000000000000000000000000000000000000000000000000000000000000000000000000000000000000000000000000000000000000000000000000000000000000000000000000000000000
310
00000000000000000000000000000700000000000700000007070000000000000000000000000000000707000000000000000000000000000000000000000000000000000000000000000000000000000000000000000000000000000000000000000000000000000000000000000000000000000000000000000000000000
310
00000000000000000000000000000000000000000000000000000000000000000000000000000000000000000000000000000000000000000000000000000000000000000700000000000707000707000000000000000000000000000000070700000000000000000000000000000000000000000000000000000000000000
310
00000000000000000000000000000000000000000000000000000000000000000000000000000000000000000000000000000000000000000000000000000000000000000000000000000000000000000000000000000000000000000000000000000000000000000000000000000000000000000000000000000700000000
310
00000707000700000000000000000000000000070700000000000000000000000000000000000000000000000000000000000000000000000000000000000000000000000000000000000000000000000000000000000000000000000000000000000000000000000000000000000000000000000000000000000000000000
310
00000000000000000000000000000000000000000000000000000000000000000000000000000000000000000000000000070000000000000707070707000000000000000000000707000000000000000000000000000000000000000000000000000000000000000000000000000000000000000000000000000000000000
310
00000000000000000000000000000000000000000000000000000000000000000000000000000000000000000000000000000000000000000000000000000000000000000000000000000000000000000000000000000000000000000000000000000000000000070000000000000007070707000000000000070707070000
310
00000000000000000000000000000000000000000000000000000000000000000000000000000000000000000000000000000000000000000000000000000000000000000000000000000000000000000000000000000000000000000000000000000000000000000000000000000000000000000000000000000000000000
310
00000000000000000000000000000000000000000000000000000000000007070700000000000707070707070707070707000000000000000000000000000000000000000000000000000000000000000000000000000000000000000000000000000000000000000000000000000000000000000000000000000000000000
310
00000000000000000000000000000000000000000000000000000000000000000000000000000000000000000000000000000000000000000000000000000000000000000000000000000000000000000000000000000707070707070707070707070707000000000000000000000000000000000000000000000000000000
310
00000000000000000000000000000000000000000000000000000000000000000000000000000000000000000000000000000000000000000000000000000000000000000000000000000000000000000000000000000000000000000000000000000000000000000000000000000000000000000000000000000000000000
310
000000000000000000000000000000000000000000000000000000000000000000000000000000000000000000000000000000000000000000000000000000000000000000000000000000000000000000000000000000000000000000000000000000000000000000000000
  0
ENDSEC
  0
EOF
