  0
SECTION
  2
HEADER
  9
$ACADVER
  1
AC1015
  9
$ACADMAINTVER
 70
     6
  9
$DWGCODEPAGE
  3
ANSI_1252
  9
$INSBASE
 10
0.0
 20
0.0
 30
0.0
  9
$EXTMIN
 10
0.0
 20
0.001995
 30
0.0
  9
$EXTMAX
 10
127.0
 20
69.998005
 30
0.0
  9
$LIMMIN
 10
0.0
 20
0.0
  9
$LIMMAX
 10
12.0
 20
9.0
  9
$ORTHOMODE
 70
     0
  9
$REGENMODE
 70
     1
  9
$FILLMODE
 70
     1
  9
$QTEXTMODE
 70
     0
  9
$MIRRTEXT
 70
     1
  9
$LTSCALE
 40
1.0
  9
$ATTMODE
 70
     1
  9
$TEXTSIZE
 40
0.2
  9
$TRACEWID
 40
0.05
  9
$TEXTSTYLE
  7
Standard
  9
$CLAYER
  8
0
  9
$CELTYPE
  6
ByBlock
  9
$CECOLOR
 62
   256
  9
$CELTSCALE
 40
1.0
  9
$DISPSILH
 70
     0
  9
$DIMSCALE
 40
1.0
  9
$DIMASZ
 40
0.18
  9
$DIMEXO
 40
0.0625
  9
$DIMDLI
 40
0.38
  9
$DIMRND
 40
0.0
  9
$DIMDLE
 40
0.0
  9
$DIMEXE
 40
0.18
  9
$DIMTP
 40
0.0
  9
$DIMTM
 40
0.0
  9
$DIMTXT
 40
0.18
  9
$DIMCEN
 40
0.09
  9
$DIMTSZ
 40
0.0
  9
$DIMTOL
 70
     0
  9
$DIMLIM
 70
     0
  9
$DIMTIH
 70
     1
  9
$DIMTOH
 70
     1
  9
$DIMSE1
 70
     0
  9
$DIMSE2
 70
     0
  9
$DIMTAD
 70
     0
  9
$DIMZIN
 70
     0
  9
$DIMBLK
  1

  9
$DIMASO
 70
     1
  9
$DIMSHO
 70
     1
  9
$DIMPOST
  1

  9
$DIMAPOST
  1

  9
$DIMALT
 70
     0
  9
$DIMALTD
 70
     2
  9
$DIMALTF
 40
25.4
  9
$DIMLFAC
 40
1.0
  9
$DIMTOFL
 70
     0
  9
$DIMTVP
 40
0.0
  9
$DIMTIX
 70
     0
  9
$DIMSOXD
 70
     0
  9
$DIMSAH
 70
     0
  9
$DIMBLK1
  1

  9
$DIMBLK2
  1

  9
$DIMSTYLE
  2
Standard
  9
$DIMCLRD
 70
     0
  9
$DIMCLRE
 70
     0
  9
$DIMCLRT
 70
     0
  9
$DIMTFAC
 40
1.0
  9
$DIMGAP
 40
0.09
  9
$DIMJUST
 70
     0
  9
$DIMSD1
 70
     0
  9
$DIMSD2
 70
     0
  9
$DIMTOLJ
 70
     1
  9
$DIMTZIN
 70
     0
  9
$DIMALTZ
 70
     0
  9
$DIMALTTZ
 70
     0
  9
$DIMUPT
 70
     0
  9
$DIMDEC
 70
     4
  9
$DIMTDEC
 70
     4
  9
$DIMALTU
 70
     2
  9
$DIMALTTD
 70
     2
  9
$DIMTXSTY
  7
Standard
  9
$DIMAUNIT
 70
     0
  9
$DIMADEC
 70
     0
  9
$DIMALTRND
 40
0.0
  9
$DIMAZIN
 70
     0
  9
$DIMDSEP
 70
    46
  9
$DIMATFIT
 70
     3
  9
$DIMFRAC
 70
     0
  9
$DIMLDRBLK
  1

  9
$DIMLUNIT
 70
     2
  9
$DIMLWD
 70
    -2
  9
$DIMLWE
 70
    -2
  9
$DIMTMOVE
 70
     2
  9
$LUNITS
 70
     2
  9
$LUPREC
 70
     4
  9
$SKETCHINC
 40
0.1
  9
$FILLETRAD
 40
0.5
  9
$AUNITS
 70
     0
  9
$AUPREC
 70
     0
  9
$MENU
  1
.
  9
$ELEVATION
 40
0.0
  9
$PELEVATION
 40
0.0
  9
$THICKNESS
 40
0.0
  9
$LIMCHECK
 70
     0
  9
$CHAMFERA
 40
0.5
  9
$CHAMFERB
 40
0.5
  9
$CHAMFERC
 40
1.0
  9
$CHAMFERD
 40
0.0
  9
$SKPOLY
 70
     0
  9
$TDCREATE
 40
2456184.032094178
  9
$TDUCREATE
 40
2456183.948760845
  9
$TDUPDATE
 40
2456184.034442454
  9
$TDUUPDATE
 40
2456183.95110912
  9
$TDINDWG
 40
0.0023481019
  9
$TDUSRTIMER
 40
0.0023481019
  9
$USRTIMER
 70
     1
  9
$ANGBASE
 50
0.0
  9
$ANGDIR
 70
     0
  9
$PDMODE
 70
     0
  9
$PDSIZE
 40
0.0
  9
$PLINEWID
 40
0.0
  9
$SPLFRAME
 70
     0
  9
$SPLINETYPE
 70
     6
  9
$SPLINESEGS
 70
     8
  9
$HANDSEED
  5
40F
  9
$SURFTAB1
 70
     6
  9
$SURFTAB2
 70
     6
  9
$SURFTYPE
 70
     6
  9
$SURFU
 70
     6
  9
$SURFV
 70
     6
  9
$UCSBASE
  2

  9
$UCSNAME
  2

  9
$UCSORG
 10
0.0
 20
0.0
 30
0.0
  9
$UCSXDIR
 10
1.0
 20
0.0
 30
0.0
  9
$UCSYDIR
 10
0.0
 20
1.0
 30
0.0
  9
$UCSORTHOREF
  2

  9
$UCSORTHOVIEW
 70
     0
  9
$UCSORGTOP
 10
0.0
 20
0.0
 30
0.0
  9
$UCSORGBOTTOM
 10
0.0
 20
0.0
 30
0.0
  9
$UCSORGLEFT
 10
0.0
 20
0.0
 30
0.0
  9
$UCSORGRIGHT
 10
0.0
 20
0.0
 30
0.0
  9
$UCSORGFRONT
 10
0.0
 20
0.0
 30
0.0
  9
$UCSORGBACK
 10
0.0
 20
0.0
 30
0.0
  9
$PUCSBASE
  2

  9
$PUCSNAME
  2

  9
$PUCSORG
 10
0.0
 20
0.0
 30
0.0
  9
$PUCSXDIR
 10
1.0
 20
0.0
 30
0.0
  9
$PUCSYDIR
 10
0.0
 20
1.0
 30
0.0
  9
$PUCSORTHOREF
  2

  9
$PUCSORTHOVIEW
 70
     0
  9
$PUCSORGTOP
 10
0.0
 20
0.0
 30
0.0
  9
$PUCSORGBOTTOM
 10
0.0
 20
0.0
 30
0.0
  9
$PUCSORGLEFT
 10
0.0
 20
0.0
 30
0.0
  9
$PUCSORGRIGHT
 10
0.0
 20
0.0
 30
0.0
  9
$PUCSORGFRONT
 10
0.0
 20
0.0
 30
0.0
  9
$PUCSORGBACK
 10
0.0
 20
0.0
 30
0.0
  9
$USERI1
 70
     0
  9
$USERI2
 70
     0
  9
$USERI3
 70
     0
  9
$USERI4
 70
     0
  9
$USERI5
 70
     0
  9
$USERR1
 40
0.0
  9
$USERR2
 40
0.0
  9
$USERR3
 40
0.0
  9
$USERR4
 40
0.0
  9
$USERR5
 40
0.0
  9
$WORLDVIEW
 70
     1
  9
$SHADEDGE
 70
     3
  9
$SHADEDIF
 70
    70
  9
$TILEMODE
 70
     1
  9
$MAXACTVP
 70
    64
  9
$PINSBASE
 10
0.0
 20
0.0
 30
0.0
  9
$PLIMCHECK
 70
     0
  9
$PEXTMIN
 10
1.000000000000E+20
 20
1.000000000000E+20
 30
1.000000000000E+20
  9
$PEXTMAX
 10
-1.000000000000E+20
 20
-1.000000000000E+20
 30
-1.000000000000E+20
  9
$PLIMMIN
 10
0.0
 20
0.0
  9
$PLIMMAX
 10
12.0
 20
9.0
  9
$UNITMODE
 70
     0
  9
$VISRETAIN
 70
     1
  9
$PLINEGEN
 70
     0
  9
$PSLTSCALE
 70
     1
  9
$TREEDEPTH
 70
  3020
  9
$CMLSTYLE
  2
Standard
  9
$CMLJUST
 70
     0
  9
$CMLSCALE
 40
1.0
  9
$PROXYGRAPHICS
 70
     1
  9
$MEASUREMENT
 70
     0
  9
$CELWEIGHT
370
    -1
  9
$ENDCAPS
280
     0
  9
$JOINSTYLE
280
     0
  9
$LWDISPLAY
290
     0
  9
$INSUNITS
 70
     0
  9
$HYPERLINKBASE
  1

  9
$STYLESHEET
  1

  9
$XEDIT
290
     1
  9
$CEPSNTYPE
380
     0
  9
$PSTYLEMODE
290
     1
  9
$FINGERPRINTGUID
  2
{AFE64FED-95F6-4787-B3CD-8B7190D77251}
  9
$VERSIONGUID
  2
{FAEB1C32-E019-11D5-929B-00C0DF256EC4}
  9
$EXTNAMES
290
     1
  9
$PSVPSCALE
 40
0.0
  9
$OLESTARTUP
290
     0
  0
ENDSEC
  0
SECTION
  2
CLASSES
  0
CLASS
  1
ACDBDICTIONARYWDFLT
  2
AcDbDictionaryWithDefault
  3
ObjectDBX Classes
 90
        0
280
     0
281
     0
  0
CLASS
  1
SCALE
  2
AcDbScale
  3
ObjectDBX Classes
 90
     1153
280
     0
281
     0
  0
CLASS
  1
DICTIONARYVAR
  2
AcDbDictionaryVar
  3
ObjectDBX Classes
 90
        0
280
     0
281
     0
  0
CLASS
  1
ACDBPLACEHOLDER
  2
AcDbPlaceHolder
  3
ObjectDBX Classes
 90
        0
280
     0
281
     0
  0
CLASS
  1
LAYOUT
  2
AcDbLayout
  3
ObjectDBX Classes
 90
        0
280
     0
281
     0
  0
ENDSEC
  0
SECTION
  2
TABLES
  0
TABLE
  2
VPORT
  5
8
330
0
100
AcDbSymbolTable
 70
     1
  0
VPORT
  5
3E2
330
8
100
AcDbSymbolTableRecord
100
AcDbViewportTableRecord
  2
*Active
 70
     0
 10
0.0
 20
0.0
 11
1.0
 21
1.0
 12
63.5
 22
34.9990025
 13
0.0
 23
0.0
 14
0.5
 24
0.5
 15
0.5
 25
0.5
 16
0.0
 26
0.0
 36
1.0
 17
0.0
 27
0.0
 37
0.0
 40
71.3979651
 41
1.863448275862
 42
50.0
 43
0.0
 44
0.0
 50
0.0
 51
0.0
 71
    16
 72
   100
 73
     1
 74
     3
 75
     0
 76
     0
 77
     0
 78
     0
281
     0
 65
     1
110
0.0
120
0.0
130
0.0
111
1.0
121
0.0
131
0.0
112
0.0
122
1.0
132
0.0
 79
     0
146
0.0
  0
ENDTAB
  0
TABLE
  2
LTYPE
  5
5
330
0
100
AcDbSymbolTable
 70
     1
  0
LTYPE
  5
14
330
5
100
AcDbSymbolTableRecord
100
AcDbLinetypeTableRecord
  2
ByBlock
 70
     0
  3

 72
    65
 73
     0
 40
0.0
  0
LTYPE
  5
15
330
5
100
AcDbSymbolTableRecord
100
AcDbLinetypeTableRecord
  2
ByLayer
 70
     0
  3

 72
    65
 73
     0
 40
0.0
  0
LTYPE
  5
16
330
5
100
AcDbSymbolTableRecord
100
AcDbLinetypeTableRecord
  2
Continuous
 70
     0
  3
Solid line
 72
    65
 73
     0
 40
0.0
  0
ENDTAB
  0
TABLE
  2
LAYER
  5
2
330
0
100
AcDbSymbolTable
 70
     1
  0
LAYER
  5
10
330
2
100
AcDbSymbolTableRecord
100
AcDbLayerTableRecord
  2
0
 70
     0
 62
     7
  6
Continuous
370
    -3
390
F
  0
ENDTAB
  0
TABLE
  2
STYLE
  5
3
330
0
100
AcDbSymbolTable
 70
     1
  0
STYLE
  5
11
330
3
100
AcDbSymbolTableRecord
100
AcDbTextStyleTableRecord
  2
Standard
 70
     0
 40
0.0
 41
1.0
 50
0.0
 71
     0
 42
0.2
  3
txt
  4

  0
ENDTAB
  0
TABLE
  2
VIEW
  5
6
330
0
100
AcDbSymbolTable
 70
     0
  0
ENDTAB
  0
TABLE
  2
UCS
  5
7
330
0
100
AcDbSymbolTable
 70
     0
  0
ENDTAB
  0
TABLE
  2
APPID
  5
9
330
0
100
AcDbSymbolTable
 70
     1
  0
APPID
  5
12
330
9
100
AcDbSymbolTableRecord
100
AcDbRegAppTableRecord
  2
ACAD
 70
     0
  0
ENDTAB
  0
TABLE
  2
DIMSTYLE
  5
A
330
0
100
AcDbSymbolTable
 70
     1
100
AcDbDimStyleTable
  0
DIMSTYLE
105
20
330
A
100
AcDbSymbolTableRecord
100
AcDbDimStyleTableRecord
  2
Standard
 70
     0
340
11
  0
ENDTAB
  0
TABLE
  2
BLOCK_RECORD
  5
1
330
0
100
AcDbSymbolTable
 70
     0
  0
BLOCK_RECORD
  5
1D
330
1
100
AcDbSymbolTableRecord
100
AcDbBlockTableRecord
  2
*Model_Space
340
1E
  0
BLOCK_RECORD
  5
1B
330
1
100
AcDbSymbolTableRecord
100
AcDbBlockTableRecord
  2
*Paper_Space
340
1C
  0
ENDTAB
  0
ENDSEC
  0
SECTION
  2
BLOCKS
  0
BLOCK
  5
3E5
330
1D
100
AcDbEntity
  8
0
100
AcDbBlockBegin
  2
*Model_Space
 70
     0
 10
0.0
 20
0.0
 30
0.0
  3
*Model_Space
  1
*Model_Space
  0
ENDBLK
  5
3E6
330
1D
100
AcDbEntity
  8
0
100
AcDbBlockEnd
  0
BLOCK
  5
3E3
330
1B
100
AcDbEntity
 67
     1
  8
0
100
AcDbBlockBegin
  2
*Paper_Space
 70
     0
 10
0.0
 20
0.0
 30
0.0
  3
*Paper_Space
  1
*Paper_Space
  0
ENDBLK
  5
3E4
330
1B
100
AcDbEntity
 67
     1
  8
0
100
AcDbBlockEnd
  0
ENDSEC
  0
SECTION
  2
ENTITIES
  0
LINE
  5
21
330
1D
100
AcDbEntity
  8
0
100
AcDbLine
 10
5.0
 20
21.958505
 30
0.0
 11
15.0
 21
21.958505
 31
0.0
  0
LINE
  5
22
330
1D
100
AcDbEntity
  8
0
100
AcDbLine
 10
5.0
 20
21.958505
 30
0.0
 11
5.0
 21
22.174505
 31
0.0
  0
LINE
  5
23
330
1D
100
AcDbEntity
  8
0
100
AcDbLine
 10
15.0
 20
21.958505
 30
0.0
 11
15.0
 21
22.174505
 31
0.0
  0
LINE
  5
24
330
1D
100
AcDbEntity
  8
0
100
AcDbLine
 10
5.0
 20
22.174505
 30
0.0
 11
5.0
 21
21.958505
 31
0.0
  0
LINE
  5
25
330
1D
100
AcDbEntity
  8
0
100
AcDbLine
 10
5.0
 20
22.174505
 30
0.0
 11
5.0
 21
22.750505
 31
0.0
  0
LINE
  5
26
330
1D
100
AcDbEntity
  8
0
100
AcDbLine
 10
15.0
 20
22.174505
 30
0.0
 11
15.0
 21
22.750505
 31
0.0
  0
LINE
  5
27
330
1D
100
AcDbEntity
  8
0
100
AcDbLine
 10
15.0
 20
22.174505
 30
0.0
 11
15.0
 21
21.958505
 31
0.0
  0
LINE
  5
28
330
1D
100
AcDbEntity
  8
0
100
AcDbLine
 10
5.0
 20
22.750505
 30
0.0
 11
5.0
 21
22.174505
 31
0.0
  0
LINE
  5
29
330
1D
100
AcDbEntity
  8
0
100
AcDbLine
 10
5.0
 20
22.750505
 30
0.0
 11
5.0
 21
23.710505
 31
0.0
  0
LINE
  5
2A
330
1D
100
AcDbEntity
  8
0
100
AcDbLine
 10
5.0
 20
22.750505
 30
0.0
 11
5.0
 21
22.958505
 31
0.0
  0
LINE
  5
2B
330
1D
100
AcDbEntity
  8
0
100
AcDbLine
 10
15.0
 20
22.750505
 30
0.0
 11
15.0
 21
23.710505
 31
0.0
  0
LINE
  5
2C
330
1D
100
AcDbEntity
  8
0
100
AcDbLine
 10
15.0
 20
22.750505
 30
0.0
 11
15.0
 21
22.174505
 31
0.0
  0
LINE
  5
2D
330
1D
100
AcDbEntity
  8
0
100
AcDbLine
 10
17.0
 20
21.958505
 30
0.0
 11
19.159602120718
 21
21.958505
 31
0.0
  0
LINE
  5
2E
330
1D
100
AcDbEntity
  8
0
100
AcDbLine
 10
17.0
 20
21.958505
 30
0.0
 11
17.0
 21
22.174505
 31
0.0
  0
LINE
  5
2F
330
1D
100
AcDbEntity
  8
0
100
AcDbLine
 10
17.0
 20
21.958505
 30
0.0
 11
19.159602120718
 21
21.958505
 31
0.0
  0
LINE
  5
30
330
1D
100
AcDbEntity
  8
0
100
AcDbLine
 10
17.0
 20
22.174505
 30
0.0
 11
17.0
 21
21.958505
 31
0.0
  0
LINE
  5
31
330
1D
100
AcDbEntity
  8
0
100
AcDbLine
 10
17.0
 20
22.174505
 30
0.0
 11
17.0
 21
22.750505
 31
0.0
  0
LINE
  5
32
330
1D
100
AcDbEntity
  8
0
100
AcDbLine
 10
5.0
 20
22.815705
 30
0.0
 11
5.0
 21
23.000805
 31
0.0
  0
LINE
  5
33
330
1D
100
AcDbEntity
  8
0
100
AcDbLine
 10
5.0
 20
22.815705
 30
0.0
 11
5.0
 21
22.958505
 31
0.0
  0
LINE
  5
34
330
1D
100
AcDbEntity
  8
0
100
AcDbLine
 10
0.0
 20
22.958505
 30
0.0
 11
5.0
 21
22.958505
 31
0.0
  0
LINE
  5
35
330
1D
100
AcDbEntity
  8
0
100
AcDbLine
 10
0.0
 20
22.958505
 30
0.0
 11
0.0
 21
23.138505
 31
0.0
  0
LINE
  5
36
330
1D
100
AcDbEntity
  8
0
100
AcDbLine
 10
0.0
 20
22.958505
 30
0.0
 11
5.0
 21
22.958505
 31
0.0
  0
LINE
  5
37
330
1D
100
AcDbEntity
  8
0
100
AcDbLine
 10
0.0
 20
23.138505
 30
0.0
 11
0.0
 21
23.618505
 31
0.0
  0
LINE
  5
38
330
1D
100
AcDbEntity
  8
0
100
AcDbLine
 10
5.0
 20
22.958505
 30
0.0
 11
5.0
 21
22.750505
 31
0.0
  0
LINE
  5
39
330
1D
100
AcDbEntity
  8
0
100
AcDbLine
 10
5.0
 20
22.958505
 30
0.0
 11
5.0
 21
22.815705
 31
0.0
  0
LINE
  5
3A
330
1D
100
AcDbEntity
  8
0
100
AcDbLine
 10
15.0
 20
22.958505
 30
0.0
 11
17.0
 21
22.958505
 31
0.0
  0
LINE
  5
3B
330
1D
100
AcDbEntity
  8
0
100
AcDbLine
 10
5.0
 20
23.000805
 30
0.0
 11
5.0
 21
23.494505
 31
0.0
  0
LINE
  5
3C
330
1D
100
AcDbEntity
  8
0
100
AcDbLine
 10
5.0
 20
23.000805
 30
0.0
 11
5.0
 21
22.815705
 31
0.0
  0
LINE
  5
3D
330
1D
100
AcDbEntity
  8
0
100
AcDbLine
 10
5.0
 20
23.494505
 30
0.0
 11
5.0
 21
24.317405
 31
0.0
  0
LINE
  5
3E
330
1D
100
AcDbEntity
  8
0
100
AcDbLine
 10
5.0
 20
23.494505
 30
0.0
 11
5.0
 21
23.000805
 31
0.0
  0
LINE
  5
3F
330
1D
100
AcDbEntity
  8
0
100
AcDbLine
 10
17.0
 20
22.958505
 30
0.0
 11
17.0
 21
22.750505
 31
0.0
  0
LINE
  5
40
330
1D
100
AcDbEntity
  8
0
100
AcDbLine
 10
17.0
 20
22.958505
 30
0.0
 11
17.0
 21
22.815705
 31
0.0
  0
LINE
  5
41
330
1D
100
AcDbEntity
  8
0
100
AcDbLine
 10
17.0
 20
22.815705
 30
0.0
 11
17.0
 21
23.000805
 31
0.0
  0
LINE
  5
42
330
1D
100
AcDbEntity
  8
0
100
AcDbLine
 10
17.0
 20
22.815705
 30
0.0
 11
17.0
 21
22.958505
 31
0.0
  0
LINE
  5
43
330
1D
100
AcDbEntity
  8
0
100
AcDbLine
 10
17.0
 20
23.000805
 30
0.0
 11
17.0
 21
23.494505
 31
0.0
  0
LINE
  5
44
330
1D
100
AcDbEntity
  8
0
100
AcDbLine
 10
17.0
 20
23.000805
 30
0.0
 11
17.0
 21
22.815705
 31
0.0
  0
LINE
  5
45
330
1D
100
AcDbEntity
  8
0
100
AcDbLine
 10
0.0
 20
23.672805
 30
0.0
 11
0.0
 21
23.827105
 31
0.0
  0
LINE
  5
46
330
1D
100
AcDbEntity
  8
0
100
AcDbLine
 10
0.0
 20
23.618505
 30
0.0
 11
0.0
 21
24.418505
 31
0.0
  0
LINE
  5
47
330
1D
100
AcDbEntity
  8
0
100
AcDbLine
 10
0.0
 20
23.618505
 30
0.0
 11
0.0
 21
23.827105
 31
0.0
  0
LINE
  5
48
330
1D
100
AcDbEntity
  8
0
100
AcDbLine
 10
0.0
 20
23.827105
 30
0.0
 11
0.0
 21
24.418505
 31
0.0
  0
LINE
  5
49
330
1D
100
AcDbEntity
  8
0
100
AcDbLine
 10
0.0
 20
23.827105
 30
0.0
 11
0.0
 21
24.238505
 31
0.0
  0
LINE
  5
4A
330
1D
100
AcDbEntity
  8
0
100
AcDbLine
 10
0.0
 20
24.238505
 30
0.0
 11
0.0
 21
24.924205
 31
0.0
  0
LINE
  5
4B
330
1D
100
AcDbEntity
  8
0
100
AcDbLine
 10
0.0
 20
24.924205
 30
0.0
 11
0.0
 21
25.478505
 31
0.0
  0
LINE
  5
4C
330
1D
100
AcDbEntity
  8
0
100
AcDbLine
 10
0.0
 20
24.924205
 30
0.0
 11
0.0
 21
25.478505
 31
0.0
  0
LINE
  5
4D
330
1D
100
AcDbEntity
  8
0
100
AcDbLine
 10
0.0
 20
24.418505
 30
0.0
 11
0.0
 21
25.478505
 31
0.0
  0
LINE
  5
4E
330
1D
100
AcDbEntity
  8
0
100
AcDbLine
 10
5.0
 20
24.317405
 30
0.0
 11
5.0
 21
25.407705
 31
0.0
  0
LINE
  5
4F
330
1D
100
AcDbEntity
  8
0
100
AcDbLine
 10
5.0
 20
24.317405
 30
0.0
 11
5.0
 21
23.494505
 31
0.0
  0
LINE
  5
50
330
1D
100
AcDbEntity
  8
0
100
AcDbLine
 10
5.0
 20
23.710505
 30
0.0
 11
5.0
 21
22.750505
 31
0.0
  0
LINE
  5
51
330
1D
100
AcDbEntity
  8
0
100
AcDbLine
 10
5.0
 20
23.710505
 30
0.0
 11
5.0
 21
24.982505
 31
0.0
  0
LINE
  5
52
330
1D
100
AcDbEntity
  8
0
100
AcDbLine
 10
15.0
 20
23.710505
 30
0.0
 11
15.0
 21
24.982505
 31
0.0
  0
LINE
  5
53
330
1D
100
AcDbEntity
  8
0
100
AcDbLine
 10
15.0
 20
23.710505
 30
0.0
 11
15.0
 21
22.750505
 31
0.0
  0
LINE
  5
54
330
1D
100
AcDbEntity
  8
0
100
AcDbLine
 10
5.0
 20
24.982505
 30
0.0
 11
5.0
 21
23.710505
 31
0.0
  0
LINE
  5
55
330
1D
100
AcDbEntity
  8
0
100
AcDbLine
 10
5.0
 20
24.982505
 30
0.0
 11
5.0
 21
26.422505
 31
0.0
  0
LINE
  5
56
330
1D
100
AcDbEntity
  8
0
100
AcDbLine
 10
15.0
 20
24.982505
 30
0.0
 11
15.0
 21
26.422505
 31
0.0
  0
LINE
  5
57
330
1D
100
AcDbEntity
  8
0
100
AcDbLine
 10
15.0
 20
24.982505
 30
0.0
 11
15.0
 21
23.710505
 31
0.0
  0
LINE
  5
58
330
1D
100
AcDbEntity
  8
0
100
AcDbLine
 10
17.0
 20
23.494505
 30
0.0
 11
17.0
 21
24.317405
 31
0.0
  0
LINE
  5
59
330
1D
100
AcDbEntity
  8
0
100
AcDbLine
 10
17.0
 20
23.494505
 30
0.0
 11
17.0
 21
23.000805
 31
0.0
  0
LINE
  5
5A
330
1D
100
AcDbEntity
  8
0
100
AcDbLine
 10
17.0
 20
24.317405
 30
0.0
 11
17.0
 21
25.407705
 31
0.0
  0
LINE
  5
5B
330
1D
100
AcDbEntity
  8
0
100
AcDbLine
 10
17.0
 20
24.317405
 30
0.0
 11
17.0
 21
23.494505
 31
0.0
  0
LINE
  5
5C
330
1D
100
AcDbEntity
  8
0
100
AcDbLine
 10
17.0
 20
22.750505
 30
0.0
 11
17.0
 21
22.174505
 31
0.0
  0
LINE
  5
5D
330
1D
100
AcDbEntity
  8
0
100
AcDbLine
 10
17.0
 20
22.750505
 30
0.0
 11
17.0
 21
23.710505
 31
0.0
  0
LINE
  5
5E
330
1D
100
AcDbEntity
  8
0
100
AcDbLine
 10
17.0
 20
22.750505
 30
0.0
 11
17.0
 21
22.958505
 31
0.0
  0
LINE
  5
5F
330
1D
100
AcDbEntity
  8
0
100
AcDbLine
 10
17.0
 20
23.710505
 30
0.0
 11
17.0
 21
22.750505
 31
0.0
  0
LINE
  5
60
330
1D
100
AcDbEntity
  8
0
100
AcDbLine
 10
17.0
 20
23.710505
 30
0.0
 11
17.0
 21
24.982505
 31
0.0
  0
LINE
  5
61
330
1D
100
AcDbEntity
  8
0
100
AcDbLine
 10
5.0
 20
25.407705
 30
0.0
 11
5.0
 21
26.642005
 31
0.0
  0
LINE
  5
62
330
1D
100
AcDbEntity
  8
0
100
AcDbLine
 10
5.0
 20
25.407705
 30
0.0
 11
5.0
 21
24.317405
 31
0.0
  0
LINE
  5
63
330
1D
100
AcDbEntity
  8
0
100
AcDbLine
 10
0.0
 20
25.478505
 30
0.0
 11
0.0
 21
25.832805
 31
0.0
  0
LINE
  5
64
330
1D
100
AcDbEntity
  8
0
100
AcDbLine
 10
0.0
 20
25.832805
 30
0.0
 11
0.0
 21
26.678505
 31
0.0
  0
LINE
  5
65
330
1D
100
AcDbEntity
  8
0
100
AcDbLine
 10
0.0
 20
25.832805
 30
0.0
 11
0.0
 21
26.678505
 31
0.0
  0
LINE
  5
66
330
1D
100
AcDbEntity
  8
0
100
AcDbLine
 10
0.0
 20
25.478505
 30
0.0
 11
0.0
 21
26.678505
 31
0.0
  0
LINE
  5
67
330
1D
100
AcDbEntity
  8
0
100
AcDbLine
 10
0.0
 20
26.861405
 30
0.0
 11
0.0
 21
27.958505
 31
0.0
  0
LINE
  5
68
330
1D
100
AcDbEntity
  8
0
100
AcDbLine
 10
0.0
 20
26.678505
 30
0.0
 11
0.0
 21
27.958505
 31
0.0
  0
LINE
  5
69
330
1D
100
AcDbEntity
  8
0
100
AcDbLine
 10
0.0
 20
27.958505
 30
0.0
 11
0.0
 21
29.055705
 31
0.0
  0
LINE
  5
6A
330
1D
100
AcDbEntity
  8
0
100
AcDbLine
 10
0.0
 20
27.958505
 30
0.0
 11
0.0
 21
29.238505
 31
0.0
  0
LINE
  5
6B
330
1D
100
AcDbEntity
  8
0
100
AcDbLine
 10
5.0
 20
26.642005
 30
0.0
 11
5.0
 21
27.958505
 31
0.0
  0
LINE
  5
6C
330
1D
100
AcDbEntity
  8
0
100
AcDbLine
 10
5.0
 20
26.642005
 30
0.0
 11
5.0
 21
25.407705
 31
0.0
  0
LINE
  5
6D
330
1D
100
AcDbEntity
  8
0
100
AcDbLine
 10
5.0
 20
26.422505
 30
0.0
 11
5.0
 21
24.982505
 31
0.0
  0
LINE
  5
6E
330
1D
100
AcDbEntity
  8
0
100
AcDbLine
 10
5.0
 20
26.422505
 30
0.0
 11
5.0
 21
27.958505
 31
0.0
  0
LINE
  5
6F
330
1D
100
AcDbEntity
  8
0
100
AcDbLine
 10
15.0
 20
26.422505
 30
0.0
 11
15.0
 21
27.958505
 31
0.0
  0
LINE
  5
70
330
1D
100
AcDbEntity
  8
0
100
AcDbLine
 10
15.0
 20
26.422505
 30
0.0
 11
15.0
 21
24.982505
 31
0.0
  0
LINE
  5
71
330
1D
100
AcDbEntity
  8
0
100
AcDbLine
 10
15.0
 20
27.958505
 30
0.0
 11
15.0
 21
29.494505
 31
0.0
  0
LINE
  5
72
330
1D
100
AcDbEntity
  8
0
100
AcDbLine
 10
15.0
 20
27.958505
 30
0.0
 11
15.0
 21
26.422505
 31
0.0
  0
LINE
  5
73
330
1D
100
AcDbEntity
  8
0
100
AcDbLine
 10
5.0
 20
27.958505
 30
0.0
 11
5.0
 21
29.494505
 31
0.0
  0
LINE
  5
74
330
1D
100
AcDbEntity
  8
0
100
AcDbLine
 10
5.0
 20
27.958505
 30
0.0
 11
5.0
 21
29.275105
 31
0.0
  0
LINE
  5
75
330
1D
100
AcDbEntity
  8
0
100
AcDbLine
 10
5.0
 20
27.958505
 30
0.0
 11
5.0
 21
26.422505
 31
0.0
  0
LINE
  5
76
330
1D
100
AcDbEntity
  8
0
100
AcDbLine
 10
5.0
 20
27.958505
 30
0.0
 11
5.0
 21
26.642005
 31
0.0
  0
LINE
  5
77
330
1D
100
AcDbEntity
  8
0
100
AcDbLine
 10
17.0
 20
25.407705
 30
0.0
 11
17.0
 21
26.642005
 31
0.0
  0
LINE
  5
78
330
1D
100
AcDbEntity
  8
0
100
AcDbLine
 10
17.0
 20
25.407705
 30
0.0
 11
17.0
 21
24.317405
 31
0.0
  0
LINE
  5
79
330
1D
100
AcDbEntity
  8
0
100
AcDbLine
 10
17.0
 20
26.642005
 30
0.0
 11
17.0
 21
27.958505
 31
0.0
  0
LINE
  5
7A
330
1D
100
AcDbEntity
  8
0
100
AcDbLine
 10
17.0
 20
26.642005
 30
0.0
 11
17.0
 21
25.407705
 31
0.0
  0
LINE
  5
7B
330
1D
100
AcDbEntity
  8
0
100
AcDbLine
 10
17.0
 20
24.982505
 30
0.0
 11
17.0
 21
23.710505
 31
0.0
  0
LINE
  5
7C
330
1D
100
AcDbEntity
  8
0
100
AcDbLine
 10
17.0
 20
24.982505
 30
0.0
 11
17.0
 21
26.422505
 31
0.0
  0
LINE
  5
7D
330
1D
100
AcDbEntity
  8
0
100
AcDbLine
 10
17.0
 20
26.422505
 30
0.0
 11
17.0
 21
27.958505
 31
0.0
  0
LINE
  5
7E
330
1D
100
AcDbEntity
  8
0
100
AcDbLine
 10
17.0
 20
26.422505
 30
0.0
 11
17.0
 21
24.982505
 31
0.0
  0
LINE
  5
7F
330
1D
100
AcDbEntity
  8
0
100
AcDbLine
 10
0.0
 20
29.055705
 30
0.0
 11
0.0
 21
30.084205
 31
0.0
  0
LINE
  5
80
330
1D
100
AcDbEntity
  8
0
100
AcDbLine
 10
0.0
 20
29.238505
 30
0.0
 11
0.0
 21
30.084205
 31
0.0
  0
LINE
  5
81
330
1D
100
AcDbEntity
  8
0
100
AcDbLine
 10
0.0
 20
29.238505
 30
0.0
 11
0.0
 21
30.438505
 31
0.0
  0
LINE
  5
82
330
1D
100
AcDbEntity
  8
0
100
AcDbLine
 10
0.0
 20
30.438505
 30
0.0
 11
0.0
 21
31.498505
 31
0.0
  0
LINE
  5
83
330
1D
100
AcDbEntity
  8
0
100
AcDbLine
 10
0.0
 20
30.084205
 30
0.0
 11
0.0
 21
30.992805
 31
0.0
  0
LINE
  5
84
330
1D
100
AcDbEntity
  8
0
100
AcDbLine
 10
5.0
 20
29.494505
 30
0.0
 11
5.0
 21
30.934505
 31
0.0
  0
LINE
  5
85
330
1D
100
AcDbEntity
  8
0
100
AcDbLine
 10
5.0
 20
29.494505
 30
0.0
 11
5.0
 21
27.958505
 31
0.0
  0
LINE
  5
86
330
1D
100
AcDbEntity
  8
0
100
AcDbLine
 10
15.0
 20
29.494505
 30
0.0
 11
15.0
 21
27.958505
 31
0.0
  0
LINE
  5
87
330
1D
100
AcDbEntity
  8
0
100
AcDbLine
 10
15.0
 20
29.494505
 30
0.0
 11
15.0
 21
30.934505
 31
0.0
  0
LINE
  5
88
330
1D
100
AcDbEntity
  8
0
100
AcDbLine
 10
5.0
 20
30.509405
 30
0.0
 11
5.0
 21
29.275105
 31
0.0
  0
LINE
  5
89
330
1D
100
AcDbEntity
  8
0
100
AcDbLine
 10
5.0
 20
30.509405
 30
0.0
 11
5.0
 21
31.599705
 31
0.0
  0
LINE
  5
8A
330
1D
100
AcDbEntity
  8
0
100
AcDbLine
 10
5.0
 20
29.275105
 30
0.0
 11
5.0
 21
27.958505
 31
0.0
  0
LINE
  5
8B
330
1D
100
AcDbEntity
  8
0
100
AcDbLine
 10
5.0
 20
29.275105
 30
0.0
 11
5.0
 21
30.509405
 31
0.0
  0
LINE
  5
8C
330
1D
100
AcDbEntity
  8
0
100
AcDbLine
 10
17.0
 20
29.494505
 30
0.0
 11
17.0
 21
30.934505
 31
0.0
  0
LINE
  5
8D
330
1D
100
AcDbEntity
  8
0
100
AcDbLine
 10
17.0
 20
29.494505
 30
0.0
 11
17.0
 21
27.958505
 31
0.0
  0
LINE
  5
8E
330
1D
100
AcDbEntity
  8
0
100
AcDbLine
 10
15.0
 20
30.934505
 30
0.0
 11
15.0
 21
29.494505
 31
0.0
  0
LINE
  5
8F
330
1D
100
AcDbEntity
  8
0
100
AcDbLine
 10
15.0
 20
30.934505
 30
0.0
 11
15.0
 21
32.206505
 31
0.0
  0
LINE
  5
90
330
1D
100
AcDbEntity
  8
0
100
AcDbLine
 10
5.0
 20
30.934505
 30
0.0
 11
5.0
 21
32.206505
 31
0.0
  0
LINE
  5
91
330
1D
100
AcDbEntity
  8
0
100
AcDbLine
 10
5.0
 20
30.934505
 30
0.0
 11
5.0
 21
29.494505
 31
0.0
  0
LINE
  5
92
330
1D
100
AcDbEntity
  8
0
100
AcDbLine
 10
0.0
 20
30.992805
 30
0.0
 11
0.0
 21
31.678505
 31
0.0
  0
LINE
  5
93
330
1D
100
AcDbEntity
  8
0
100
AcDbLine
 10
0.0
 20
30.992805
 30
0.0
 11
0.0
 21
31.498505
 31
0.0
  0
LINE
  5
94
330
1D
100
AcDbEntity
  8
0
100
AcDbLine
 10
0.0
 20
31.678505
 30
0.0
 11
0.0
 21
32.089905
 31
0.0
  0
LINE
  5
95
330
1D
100
AcDbEntity
  8
0
100
AcDbLine
 10
0.0
 20
31.498505
 30
0.0
 11
0.0
 21
32.298505
 31
0.0
  0
LINE
  5
96
330
1D
100
AcDbEntity
  8
0
100
AcDbLine
 10
5.0
 20
32.206505
 30
0.0
 11
5.0
 21
33.166505
 31
0.0
  0
LINE
  5
97
330
1D
100
AcDbEntity
  8
0
100
AcDbLine
 10
5.0
 20
32.206505
 30
0.0
 11
5.0
 21
30.934505
 31
0.0
  0
LINE
  5
98
330
1D
100
AcDbEntity
  8
0
100
AcDbLine
 10
15.0
 20
32.206505
 30
0.0
 11
15.0
 21
30.934505
 31
0.0
  0
LINE
  5
99
330
1D
100
AcDbEntity
  8
0
100
AcDbLine
 10
15.0
 20
32.206505
 30
0.0
 11
15.0
 21
33.166505
 31
0.0
  0
LINE
  5
9A
330
1D
100
AcDbEntity
  8
0
100
AcDbLine
 10
5.0
 20
31.599705
 30
0.0
 11
5.0
 21
30.509405
 31
0.0
  0
LINE
  5
9B
330
1D
100
AcDbEntity
  8
0
100
AcDbLine
 10
5.0
 20
31.599705
 30
0.0
 11
5.0
 21
32.422505
 31
0.0
  0
LINE
  5
9C
330
1D
100
AcDbEntity
  8
0
100
AcDbLine
 10
0.0
 20
32.778505
 30
0.0
 11
0.0
 21
32.958505
 31
0.0
  0
LINE
  5
9D
330
1D
100
AcDbEntity
  8
0
100
AcDbLine
 10
0.0
 20
32.298505
 30
0.0
 11
0.0
 21
32.778505
 31
0.0
  0
LINE
  5
9E
330
1D
100
AcDbEntity
  8
0
100
AcDbLine
 10
0.0
 20
32.958505
 30
0.0
 11
5.0
 21
32.958505
 31
0.0
  0
LINE
  5
9F
330
1D
100
AcDbEntity
  8
0
100
AcDbLine
 10
0.0
 20
32.958505
 30
0.0
 11
5.0
 21
32.958505
 31
0.0
  0
LINE
  5
A0
330
1D
100
AcDbEntity
  8
0
100
AcDbLine
 10
5.0
 20
32.916205
 30
0.0
 11
5.0
 21
32.422505
 31
0.0
  0
LINE
  5
A1
330
1D
100
AcDbEntity
  8
0
100
AcDbLine
 10
5.0
 20
32.916205
 30
0.0
 11
5.0
 21
33.101405
 31
0.0
  0
LINE
  5
A2
330
1D
100
AcDbEntity
  8
0
100
AcDbLine
 10
15.0
 20
32.958505
 30
0.0
 11
17.0
 21
32.958505
 31
0.0
  0
LINE
  5
A3
330
1D
100
AcDbEntity
  8
0
100
AcDbLine
 10
15.0
 20
32.958505
 30
0.0
 11
17.0
 21
32.958505
 31
0.0
  0
LINE
  5
A4
330
1D
100
AcDbEntity
  8
0
100
AcDbLine
 10
5.0
 20
32.422505
 30
0.0
 11
5.0
 21
31.599705
 31
0.0
  0
LINE
  5
A5
330
1D
100
AcDbEntity
  8
0
100
AcDbLine
 10
5.0
 20
32.422505
 30
0.0
 11
5.0
 21
32.916205
 31
0.0
  0
LINE
  5
A6
330
1D
100
AcDbEntity
  8
0
100
AcDbLine
 10
5.0
 20
33.101405
 30
0.0
 11
5.0
 21
32.958505
 31
0.0
  0
LINE
  5
A7
330
1D
100
AcDbEntity
  8
0
100
AcDbLine
 10
5.0
 20
33.101405
 30
0.0
 11
5.0
 21
32.916205
 31
0.0
  0
LINE
  5
A8
330
1D
100
AcDbEntity
  8
0
100
AcDbLine
 10
15.0
 20
33.166505
 30
0.0
 11
15.0
 21
32.206505
 31
0.0
  0
LINE
  5
A9
330
1D
100
AcDbEntity
  8
0
100
AcDbLine
 10
15.0
 20
33.166505
 30
0.0
 11
15.0
 21
33.742505
 31
0.0
  0
LINE
  5
AA
330
1D
100
AcDbEntity
  8
0
100
AcDbLine
 10
5.0
 20
33.166505
 30
0.0
 11
5.0
 21
33.742505
 31
0.0
  0
LINE
  5
AB
330
1D
100
AcDbEntity
  8
0
100
AcDbLine
 10
5.0
 20
33.166505
 30
0.0
 11
5.0
 21
32.958505
 31
0.0
  0
LINE
  5
AC
330
1D
100
AcDbEntity
  8
0
100
AcDbLine
 10
5.0
 20
33.166505
 30
0.0
 11
5.0
 21
32.206505
 31
0.0
  0
LINE
  5
AD
330
1D
100
AcDbEntity
  8
0
100
AcDbLine
 10
5.0
 20
32.958505
 30
0.0
 11
5.0
 21
33.166505
 31
0.0
  0
LINE
  5
AE
330
1D
100
AcDbEntity
  8
0
100
AcDbLine
 10
5.0
 20
32.958505
 30
0.0
 11
5.0
 21
33.101405
 31
0.0
  0
LINE
  5
AF
330
1D
100
AcDbEntity
  8
0
100
AcDbLine
 10
17.0
 20
32.916205
 30
0.0
 11
17.0
 21
32.422505
 31
0.0
  0
LINE
  5
B0
330
1D
100
AcDbEntity
  8
0
100
AcDbLine
 10
17.0
 20
32.916205
 30
0.0
 11
17.0
 21
33.101405
 31
0.0
  0
LINE
  5
B1
330
1D
100
AcDbEntity
  8
0
100
AcDbLine
 10
17.0
 20
32.206505
 30
0.0
 11
17.0
 21
33.166505
 31
0.0
  0
LINE
  5
B2
330
1D
100
AcDbEntity
  8
0
100
AcDbLine
 10
17.0
 20
32.206505
 30
0.0
 11
17.0
 21
30.934505
 31
0.0
  0
LINE
  5
B3
330
1D
100
AcDbEntity
  8
0
100
AcDbLine
 10
17.0
 20
32.422505
 30
0.0
 11
17.0
 21
31.599705
 31
0.0
  0
LINE
  5
B4
330
1D
100
AcDbEntity
  8
0
100
AcDbLine
 10
17.0
 20
32.422505
 30
0.0
 11
17.0
 21
32.916205
 31
0.0
  0
LINE
  5
B5
330
1D
100
AcDbEntity
  8
0
100
AcDbLine
 10
17.0
 20
30.934505
 30
0.0
 11
17.0
 21
32.206505
 31
0.0
  0
LINE
  5
B6
330
1D
100
AcDbEntity
  8
0
100
AcDbLine
 10
17.0
 20
30.934505
 30
0.0
 11
17.0
 21
29.494505
 31
0.0
  0
LINE
  5
B7
330
1D
100
AcDbEntity
  8
0
100
AcDbLine
 10
17.0
 20
31.599705
 30
0.0
 11
17.0
 21
30.509405
 31
0.0
  0
LINE
  5
B8
330
1D
100
AcDbEntity
  8
0
100
AcDbLine
 10
17.0
 20
31.599705
 30
0.0
 11
17.0
 21
32.422505
 31
0.0
  0
LINE
  5
B9
330
1D
100
AcDbEntity
  8
0
100
AcDbLine
 10
17.0
 20
30.509405
 30
0.0
 11
17.0
 21
29.275105
 31
0.0
  0
LINE
  5
BA
330
1D
100
AcDbEntity
  8
0
100
AcDbLine
 10
17.0
 20
30.509405
 30
0.0
 11
17.0
 21
31.599705
 31
0.0
  0
LINE
  5
BB
330
1D
100
AcDbEntity
  8
0
100
AcDbLine
 10
17.0
 20
29.275105
 30
0.0
 11
17.0
 21
27.958505
 31
0.0
  0
LINE
  5
BC
330
1D
100
AcDbEntity
  8
0
100
AcDbLine
 10
17.0
 20
29.275105
 30
0.0
 11
17.0
 21
30.509405
 31
0.0
  0
LINE
  5
BD
330
1D
100
AcDbEntity
  8
0
100
AcDbLine
 10
17.0
 20
27.958505
 30
0.0
 11
17.0
 21
29.494505
 31
0.0
  0
LINE
  5
BE
330
1D
100
AcDbEntity
  8
0
100
AcDbLine
 10
17.0
 20
27.958505
 30
0.0
 11
17.0
 21
29.275105
 31
0.0
  0
LINE
  5
BF
330
1D
100
AcDbEntity
  8
0
100
AcDbLine
 10
17.0
 20
33.101405
 30
0.0
 11
17.0
 21
32.958505
 31
0.0
  0
LINE
  5
C0
330
1D
100
AcDbEntity
  8
0
100
AcDbLine
 10
17.0
 20
33.101405
 30
0.0
 11
17.0
 21
32.916205
 31
0.0
  0
LINE
  5
C1
330
1D
100
AcDbEntity
  8
0
100
AcDbLine
 10
15.0
 20
33.742505
 30
0.0
 11
15.0
 21
33.166505
 31
0.0
  0
LINE
  5
C2
330
1D
100
AcDbEntity
  8
0
100
AcDbLine
 10
15.0
 20
33.742505
 30
0.0
 11
15.0
 21
33.958505
 31
0.0
  0
LINE
  5
C3
330
1D
100
AcDbEntity
  8
0
100
AcDbLine
 10
5.0
 20
33.742505
 30
0.0
 11
5.0
 21
33.958505
 31
0.0
  0
LINE
  5
C4
330
1D
100
AcDbEntity
  8
0
100
AcDbLine
 10
5.0
 20
33.742505
 30
0.0
 11
5.0
 21
33.166505
 31
0.0
  0
LINE
  5
C5
330
1D
100
AcDbEntity
  8
0
100
AcDbLine
 10
15.0
 20
33.958505
 30
0.0
 11
15.0
 21
33.742505
 31
0.0
  0
LINE
  5
C6
330
1D
100
AcDbEntity
  8
0
100
AcDbLine
 10
5.0
 20
35.958505
 30
0.0
 11
15.0
 21
35.958505
 31
0.0
  0
LINE
  5
C7
330
1D
100
AcDbEntity
  8
0
100
AcDbLine
 10
5.0
 20
35.958505
 30
0.0
 11
15.0
 21
35.958505
 31
0.0
  0
LINE
  5
C8
330
1D
100
AcDbEntity
  8
0
100
AcDbLine
 10
5.0
 20
35.958505
 30
0.0
 11
5.0
 21
36.174505
 31
0.0
  0
LINE
  5
C9
330
1D
100
AcDbEntity
  8
0
100
AcDbLine
 10
5.0
 20
36.174505
 30
0.0
 11
5.0
 21
35.958505
 31
0.0
  0
LINE
  5
CA
330
1D
100
AcDbEntity
  8
0
100
AcDbLine
 10
5.0
 20
36.174505
 30
0.0
 11
5.0
 21
36.750505
 31
0.0
  0
LINE
  5
CB
330
1D
100
AcDbEntity
  8
0
100
AcDbLine
 10
15.0
 20
35.958505
 30
0.0
 11
15.0
 21
36.174505
 31
0.0
  0
LINE
  5
CC
330
1D
100
AcDbEntity
  8
0
100
AcDbLine
 10
15.0
 20
36.174505
 30
0.0
 11
15.0
 21
36.750505
 31
0.0
  0
LINE
  5
CD
330
1D
100
AcDbEntity
  8
0
100
AcDbLine
 10
15.0
 20
36.174505
 30
0.0
 11
15.0
 21
35.958505
 31
0.0
  0
LINE
  5
CE
330
1D
100
AcDbEntity
  8
0
100
AcDbLine
 10
5.0
 20
36.750505
 30
0.0
 11
5.0
 21
36.174505
 31
0.0
  0
LINE
  5
CF
330
1D
100
AcDbEntity
  8
0
100
AcDbLine
 10
5.0
 20
36.750505
 30
0.0
 11
5.0
 21
37.710505
 31
0.0
  0
LINE
  5
D0
330
1D
100
AcDbEntity
  8
0
100
AcDbLine
 10
5.0
 20
36.750505
 30
0.0
 11
5.0
 21
36.958505
 31
0.0
  0
LINE
  5
D1
330
1D
100
AcDbEntity
  8
0
100
AcDbLine
 10
0.0
 20
36.958505
 30
0.0
 11
5.0
 21
36.958505
 31
0.0
  0
LINE
  5
D2
330
1D
100
AcDbEntity
  8
0
100
AcDbLine
 10
0.0
 20
36.958505
 30
0.0
 11
0.0
 21
37.138505
 31
0.0
  0
LINE
  5
D3
330
1D
100
AcDbEntity
  8
0
100
AcDbLine
 10
0.0
 20
36.958505
 30
0.0
 11
5.0
 21
36.958505
 31
0.0
  0
LINE
  5
D4
330
1D
100
AcDbEntity
  8
0
100
AcDbLine
 10
0.0
 20
37.138505
 30
0.0
 11
0.0
 21
37.618505
 31
0.0
  0
LINE
  5
D5
330
1D
100
AcDbEntity
  8
0
100
AcDbLine
 10
5.0
 20
36.958505
 30
0.0
 11
5.0
 21
36.750505
 31
0.0
  0
LINE
  5
D6
330
1D
100
AcDbEntity
  8
0
100
AcDbLine
 10
5.0
 20
36.958505
 30
0.0
 11
5.0
 21
36.815705
 31
0.0
  0
LINE
  5
D7
330
1D
100
AcDbEntity
  8
0
100
AcDbLine
 10
5.0
 20
36.815705
 30
0.0
 11
5.0
 21
37.000805
 31
0.0
  0
LINE
  5
D8
330
1D
100
AcDbEntity
  8
0
100
AcDbLine
 10
5.0
 20
36.815705
 30
0.0
 11
5.0
 21
36.958505
 31
0.0
  0
LINE
  5
D9
330
1D
100
AcDbEntity
  8
0
100
AcDbLine
 10
15.0
 20
36.958505
 30
0.0
 11
17.0
 21
36.958505
 31
0.0
  0
LINE
  5
DA
330
1D
100
AcDbEntity
  8
0
100
AcDbLine
 10
5.0
 20
37.000805
 30
0.0
 11
5.0
 21
37.494505
 31
0.0
  0
LINE
  5
DB
330
1D
100
AcDbEntity
  8
0
100
AcDbLine
 10
5.0
 20
37.000805
 30
0.0
 11
5.0
 21
36.815705
 31
0.0
  0
LINE
  5
DC
330
1D
100
AcDbEntity
  8
0
100
AcDbLine
 10
15.0
 20
36.750505
 30
0.0
 11
15.0
 21
37.710505
 31
0.0
  0
LINE
  5
DD
330
1D
100
AcDbEntity
  8
0
100
AcDbLine
 10
15.0
 20
36.750505
 30
0.0
 11
15.0
 21
36.174505
 31
0.0
  0
LINE
  5
DE
330
1D
100
AcDbEntity
  8
0
100
AcDbLine
 10
17.0
 20
35.958505
 30
0.0
 11
19.137961052892
 21
35.958505
 31
0.0
  0
LINE
  5
DF
330
1D
100
AcDbEntity
  8
0
100
AcDbLine
 10
5.0
 20
33.958505
 30
0.0
 11
15.0
 21
33.958505
 31
0.0
  0
LINE
  5
E0
330
1D
100
AcDbEntity
  8
0
100
AcDbLine
 10
5.0
 20
33.958505
 30
0.0
 11
5.0
 21
33.742505
 31
0.0
  0
LINE
  5
E1
330
1D
100
AcDbEntity
  8
0
100
AcDbLine
 10
17.0
 20
35.958505
 30
0.0
 11
19.137961052892
 21
35.958505
 31
0.0
  0
LINE
  5
E2
330
1D
100
AcDbEntity
  8
0
100
AcDbLine
 10
17.0
 20
35.958505
 30
0.0
 11
17.0
 21
36.174505
 31
0.0
  0
LINE
  5
E3
330
1D
100
AcDbEntity
  8
0
100
AcDbLine
 10
17.0
 20
36.174505
 30
0.0
 11
17.0
 21
35.958505
 31
0.0
  0
LINE
  5
E4
330
1D
100
AcDbEntity
  8
0
100
AcDbLine
 10
17.0
 20
36.174505
 30
0.0
 11
17.0
 21
36.750505
 31
0.0
  0
LINE
  5
E5
330
1D
100
AcDbEntity
  8
0
100
AcDbLine
 10
17.0
 20
36.958505
 30
0.0
 11
17.0
 21
36.750505
 31
0.0
  0
LINE
  5
E6
330
1D
100
AcDbEntity
  8
0
100
AcDbLine
 10
17.0
 20
36.958505
 30
0.0
 11
17.0
 21
36.815705
 31
0.0
  0
LINE
  5
E7
330
1D
100
AcDbEntity
  8
0
100
AcDbLine
 10
17.0
 20
36.815705
 30
0.0
 11
17.0
 21
37.000805
 31
0.0
  0
LINE
  5
E8
330
1D
100
AcDbEntity
  8
0
100
AcDbLine
 10
17.0
 20
36.815705
 30
0.0
 11
17.0
 21
36.958505
 31
0.0
  0
LINE
  5
E9
330
1D
100
AcDbEntity
  8
0
100
AcDbLine
 10
17.0
 20
37.000805
 30
0.0
 11
17.0
 21
37.494505
 31
0.0
  0
LINE
  5
EA
330
1D
100
AcDbEntity
  8
0
100
AcDbLine
 10
17.0
 20
37.000805
 30
0.0
 11
17.0
 21
36.815705
 31
0.0
  0
LINE
  5
EB
330
1D
100
AcDbEntity
  8
0
100
AcDbLine
 10
17.0
 20
36.750505
 30
0.0
 11
17.0
 21
36.174505
 31
0.0
  0
LINE
  5
EC
330
1D
100
AcDbEntity
  8
0
100
AcDbLine
 10
17.0
 20
36.750505
 30
0.0
 11
17.0
 21
37.710505
 31
0.0
  0
LINE
  5
ED
330
1D
100
AcDbEntity
  8
0
100
AcDbLine
 10
17.0
 20
36.750505
 30
0.0
 11
17.0
 21
36.958505
 31
0.0
  0
LINE
  5
EE
330
1D
100
AcDbEntity
  8
0
100
AcDbLine
 10
17.0
 20
33.958505
 30
0.0
 11
19.140806816025
 21
33.958505
 31
0.0
  0
LINE
  5
EF
330
1D
100
AcDbEntity
  8
0
100
AcDbLine
 10
17.0
 20
33.742505
 30
0.0
 11
17.0
 21
33.958505
 31
0.0
  0
LINE
  5
F0
330
1D
100
AcDbEntity
  8
0
100
AcDbLine
 10
17.0
 20
33.742505
 30
0.0
 11
17.0
 21
33.166505
 31
0.0
  0
LINE
  5
F1
330
1D
100
AcDbEntity
  8
0
100
AcDbLine
 10
17.0
 20
33.958505
 30
0.0
 11
19.140806816025
 21
33.958505
 31
0.0
  0
LINE
  5
F2
330
1D
100
AcDbEntity
  8
0
100
AcDbLine
 10
17.0
 20
33.958505
 30
0.0
 11
17.0
 21
33.742505
 31
0.0
  0
LINE
  5
F3
330
1D
100
AcDbEntity
  8
0
100
AcDbLine
 10
17.0
 20
33.166505
 30
0.0
 11
17.0
 21
33.742505
 31
0.0
  0
LINE
  5
F4
330
1D
100
AcDbEntity
  8
0
100
AcDbLine
 10
17.0
 20
33.166505
 30
0.0
 11
17.0
 21
32.958505
 31
0.0
  0
LINE
  5
F5
330
1D
100
AcDbEntity
  8
0
100
AcDbLine
 10
17.0
 20
33.166505
 30
0.0
 11
17.0
 21
32.206505
 31
0.0
  0
LINE
  5
F6
330
1D
100
AcDbEntity
  8
0
100
AcDbLine
 10
17.0
 20
32.958505
 30
0.0
 11
17.0
 21
33.166505
 31
0.0
  0
LINE
  5
F7
330
1D
100
AcDbEntity
  8
0
100
AcDbLine
 10
17.0
 20
32.958505
 30
0.0
 11
17.0
 21
33.101405
 31
0.0
  0
LINE
  5
F8
330
1D
100
AcDbEntity
  8
0
100
AcDbLine
 10
0.0
 20
37.672805
 30
0.0
 11
0.0
 21
37.827105
 31
0.0
  0
LINE
  5
F9
330
1D
100
AcDbEntity
  8
0
100
AcDbLine
 10
0.0
 20
37.618505
 30
0.0
 11
0.0
 21
38.418505
 31
0.0
  0
LINE
  5
FA
330
1D
100
AcDbEntity
  8
0
100
AcDbLine
 10
0.0
 20
37.618505
 30
0.0
 11
0.0
 21
37.672805
 31
0.0
  0
LINE
  5
FB
330
1D
100
AcDbEntity
  8
0
100
AcDbLine
 10
5.0
 20
37.494505
 30
0.0
 11
5.0
 21
38.317405
 31
0.0
  0
LINE
  5
FC
330
1D
100
AcDbEntity
  8
0
100
AcDbLine
 10
5.0
 20
37.494505
 30
0.0
 11
5.0
 21
37.000805
 31
0.0
  0
LINE
  5
FD
330
1D
100
AcDbEntity
  8
0
100
AcDbLine
 10
5.0
 20
37.710505
 30
0.0
 11
5.0
 21
36.750505
 31
0.0
  0
LINE
  5
FE
330
1D
100
AcDbEntity
  8
0
100
AcDbLine
 10
5.0
 20
37.710505
 30
0.0
 11
5.0
 21
38.982505
 31
0.0
  0
LINE
  5
FF
330
1D
100
AcDbEntity
  8
0
100
AcDbLine
 10
15.0
 20
37.710505
 30
0.0
 11
15.0
 21
38.982505
 31
0.0
  0
LINE
  5
100
330
1D
100
AcDbEntity
  8
0
100
AcDbLine
 10
15.0
 20
37.710505
 30
0.0
 11
15.0
 21
36.750505
 31
0.0
  0
LINE
  5
101
330
1D
100
AcDbEntity
  8
0
100
AcDbLine
 10
17.0
 20
37.494505
 30
0.0
 11
17.0
 21
38.317405
 31
0.0
  0
LINE
  5
102
330
1D
100
AcDbEntity
  8
0
100
AcDbLine
 10
17.0
 20
37.494505
 30
0.0
 11
17.0
 21
37.000805
 31
0.0
  0
LINE
  5
103
330
1D
100
AcDbEntity
  8
0
100
AcDbLine
 10
0.0
 20
37.827105
 30
0.0
 11
0.0
 21
38.418505
 31
0.0
  0
LINE
  5
104
330
1D
100
AcDbEntity
  8
0
100
AcDbLine
 10
0.0
 20
37.827105
 30
0.0
 11
0.0
 21
38.238505
 31
0.0
  0
LINE
  5
105
330
1D
100
AcDbEntity
  8
0
100
AcDbLine
 10
0.0
 20
38.238505
 30
0.0
 11
0.0
 21
38.418505
 31
0.0
  0
LINE
  5
106
330
1D
100
AcDbEntity
  8
0
100
AcDbLine
 10
5.0
 20
38.317405
 30
0.0
 11
5.0
 21
39.407705
 31
0.0
  0
LINE
  5
107
330
1D
100
AcDbEntity
  8
0
100
AcDbLine
 10
5.0
 20
38.317405
 30
0.0
 11
5.0
 21
37.494505
 31
0.0
  0
LINE
  5
108
330
1D
100
AcDbEntity
  8
0
100
AcDbLine
 10
0.0
 20
38.418505
 30
0.0
 11
0.0
 21
39.478505
 31
0.0
  0
LINE
  5
109
330
1D
100
AcDbEntity
  8
0
100
AcDbLine
 10
0.0
 20
39.478505
 30
0.0
 11
0.0
 21
40.678505
 31
0.0
  0
LINE
  5
10A
330
1D
100
AcDbEntity
  8
0
100
AcDbLine
 10
5.0
 20
39.407705
 30
0.0
 11
5.0
 21
40.642005
 31
0.0
  0
LINE
  5
10B
330
1D
100
AcDbEntity
  8
0
100
AcDbLine
 10
5.0
 20
39.407705
 30
0.0
 11
5.0
 21
38.317405
 31
0.0
  0
LINE
  5
10C
330
1D
100
AcDbEntity
  8
0
100
AcDbLine
 10
5.0
 20
38.982505
 30
0.0
 11
5.0
 21
37.710505
 31
0.0
  0
LINE
  5
10D
330
1D
100
AcDbEntity
  8
0
100
AcDbLine
 10
5.0
 20
38.982505
 30
0.0
 11
5.0
 21
40.422505
 31
0.0
  0
LINE
  5
10E
330
1D
100
AcDbEntity
  8
0
100
AcDbLine
 10
15.0
 20
38.982505
 30
0.0
 11
15.0
 21
40.422505
 31
0.0
  0
LINE
  5
10F
330
1D
100
AcDbEntity
  8
0
100
AcDbLine
 10
15.0
 20
38.982505
 30
0.0
 11
15.0
 21
37.710505
 31
0.0
  0
LINE
  5
110
330
1D
100
AcDbEntity
  8
0
100
AcDbLine
 10
17.0
 20
38.317405
 30
0.0
 11
17.0
 21
39.407705
 31
0.0
  0
LINE
  5
111
330
1D
100
AcDbEntity
  8
0
100
AcDbLine
 10
17.0
 20
38.317405
 30
0.0
 11
17.0
 21
37.494505
 31
0.0
  0
LINE
  5
112
330
1D
100
AcDbEntity
  8
0
100
AcDbLine
 10
17.0
 20
39.407705
 30
0.0
 11
17.0
 21
40.642005
 31
0.0
  0
LINE
  5
113
330
1D
100
AcDbEntity
  8
0
100
AcDbLine
 10
17.0
 20
39.407705
 30
0.0
 11
17.0
 21
38.317405
 31
0.0
  0
LINE
  5
114
330
1D
100
AcDbEntity
  8
0
100
AcDbLine
 10
17.0
 20
37.710505
 30
0.0
 11
17.0
 21
36.750505
 31
0.0
  0
LINE
  5
115
330
1D
100
AcDbEntity
  8
0
100
AcDbLine
 10
17.0
 20
37.710505
 30
0.0
 11
17.0
 21
38.982505
 31
0.0
  0
LINE
  5
116
330
1D
100
AcDbEntity
  8
0
100
AcDbLine
 10
17.0
 20
38.982505
 30
0.0
 11
17.0
 21
37.710505
 31
0.0
  0
LINE
  5
117
330
1D
100
AcDbEntity
  8
0
100
AcDbLine
 10
17.0
 20
38.982505
 30
0.0
 11
17.0
 21
40.422505
 31
0.0
  0
LINE
  5
118
330
1D
100
AcDbEntity
  8
0
100
AcDbLine
 10
0.0
 20
39.832805
 30
0.0
 11
0.0
 21
40.861405
 31
0.0
  0
LINE
  5
119
330
1D
100
AcDbEntity
  8
0
100
AcDbLine
 10
5.0
 20
40.422505
 30
0.0
 11
5.0
 21
38.982505
 31
0.0
  0
LINE
  5
11A
330
1D
100
AcDbEntity
  8
0
100
AcDbLine
 10
5.0
 20
40.422505
 30
0.0
 11
5.0
 21
41.958505
 31
0.0
  0
LINE
  5
11B
330
1D
100
AcDbEntity
  8
0
100
AcDbLine
 10
15.0
 20
40.422505
 30
0.0
 11
15.0
 21
41.958505
 31
0.0
  0
LINE
  5
11C
330
1D
100
AcDbEntity
  8
0
100
AcDbLine
 10
15.0
 20
40.422505
 30
0.0
 11
15.0
 21
38.982505
 31
0.0
  0
LINE
  5
11D
330
1D
100
AcDbEntity
  8
0
100
AcDbLine
 10
0.0
 20
40.861405
 30
0.0
 11
0.0
 21
41.958505
 31
0.0
  0
LINE
  5
11E
330
1D
100
AcDbEntity
  8
0
100
AcDbLine
 10
0.0
 20
40.678505
 30
0.0
 11
0.0
 21
41.958505
 31
0.0
  0
LINE
  5
11F
330
1D
100
AcDbEntity
  8
0
100
AcDbLine
 10
0.0
 20
40.678505
 30
0.0
 11
0.0
 21
40.861405
 31
0.0
  0
LINE
  5
120
330
1D
100
AcDbEntity
  8
0
100
AcDbLine
 10
0.0
 20
41.958505
 30
0.0
 11
0.0
 21
43.055705
 31
0.0
  0
LINE
  5
121
330
1D
100
AcDbEntity
  8
0
100
AcDbLine
 10
0.0
 20
41.958505
 30
0.0
 11
0.0
 21
43.238505
 31
0.0
  0
LINE
  5
122
330
1D
100
AcDbEntity
  8
0
100
AcDbLine
 10
5.0
 20
40.642005
 30
0.0
 11
5.0
 21
41.958505
 31
0.0
  0
LINE
  5
123
330
1D
100
AcDbEntity
  8
0
100
AcDbLine
 10
5.0
 20
40.642005
 30
0.0
 11
5.0
 21
39.407705
 31
0.0
  0
LINE
  5
124
330
1D
100
AcDbEntity
  8
0
100
AcDbLine
 10
15.0
 20
41.958505
 30
0.0
 11
15.0
 21
43.494505
 31
0.0
  0
LINE
  5
125
330
1D
100
AcDbEntity
  8
0
100
AcDbLine
 10
5.0
 20
41.958505
 30
0.0
 11
5.0
 21
43.494505
 31
0.0
  0
LINE
  5
126
330
1D
100
AcDbEntity
  8
0
100
AcDbLine
 10
5.0
 20
41.958505
 30
0.0
 11
5.0
 21
43.275105
 31
0.0
  0
LINE
  5
127
330
1D
100
AcDbEntity
  8
0
100
AcDbLine
 10
5.0
 20
41.958505
 30
0.0
 11
5.0
 21
40.422505
 31
0.0
  0
LINE
  5
128
330
1D
100
AcDbEntity
  8
0
100
AcDbLine
 10
5.0
 20
41.958505
 30
0.0
 11
5.0
 21
40.642005
 31
0.0
  0
LINE
  5
129
330
1D
100
AcDbEntity
  8
0
100
AcDbLine
 10
17.0
 20
40.642005
 30
0.0
 11
17.0
 21
41.958505
 31
0.0
  0
LINE
  5
12A
330
1D
100
AcDbEntity
  8
0
100
AcDbLine
 10
17.0
 20
40.642005
 30
0.0
 11
17.0
 21
39.407705
 31
0.0
  0
LINE
  5
12B
330
1D
100
AcDbEntity
  8
0
100
AcDbLine
 10
17.0
 20
40.422505
 30
0.0
 11
17.0
 21
38.982505
 31
0.0
  0
LINE
  5
12C
330
1D
100
AcDbEntity
  8
0
100
AcDbLine
 10
17.0
 20
40.422505
 30
0.0
 11
17.0
 21
41.958505
 31
0.0
  0
LINE
  5
12D
330
1D
100
AcDbEntity
  8
0
100
AcDbLine
 10
17.0
 20
41.958505
 30
0.0
 11
17.0
 21
43.494505
 31
0.0
  0
LINE
  5
12E
330
1D
100
AcDbEntity
  8
0
100
AcDbLine
 10
17.0
 20
41.958505
 30
0.0
 11
17.0
 21
43.275105
 31
0.0
  0
LINE
  5
12F
330
1D
100
AcDbEntity
  8
0
100
AcDbLine
 10
17.0
 20
41.958505
 30
0.0
 11
17.0
 21
40.422505
 31
0.0
  0
LINE
  5
130
330
1D
100
AcDbEntity
  8
0
100
AcDbLine
 10
17.0
 20
41.958505
 30
0.0
 11
17.0
 21
40.642005
 31
0.0
  0
LINE
  5
131
330
1D
100
AcDbEntity
  8
0
100
AcDbLine
 10
19.129
 20
42.054905
 30
0.0
 11
19.1325
 21
39.743205
 31
0.0
  0
LINE
  5
132
330
1D
100
AcDbEntity
  8
0
100
AcDbLine
 10
19.1314
 20
39.976305
 30
0.0
 11
19.1349
 21
37.704605
 31
0.0
  0
LINE
  5
133
330
1D
100
AcDbEntity
  8
0
100
AcDbLine
 10
19.1325
 20
39.743205
 30
0.0
 11
19.136
 21
37.356505
 31
0.0
  0
LINE
  5
134
330
1D
100
AcDbEntity
  8
0
100
AcDbLine
 10
19.1349
 20
37.704605
 30
0.0
 11
19.137702999667
 21
36.142466590407
 31
0.0
  0
LINE
  5
135
330
1D
100
AcDbEntity
  8
0
100
AcDbLine
 10
19.136
 20
37.356505
 30
0.0
 11
19.1394
 21
34.932705
 31
0.0
  0
LINE
  5
136
330
1D
100
AcDbEntity
  8
0
100
AcDbLine
 10
19.137530795082
 20
35.958505
 30
0.0
 11
19.1397
 21
34.501605
 31
0.0
  0
LINE
  5
137
330
1D
100
AcDbEntity
  8
0
100
AcDbLine
 10
0.0
 20
43.055705
 30
0.0
 11
0.0
 21
43.238505
 31
0.0
  0
LINE
  5
138
330
1D
100
AcDbEntity
  8
0
100
AcDbLine
 10
0.0
 20
43.238505
 30
0.0
 11
0.0
 21
44.084205
 31
0.0
  0
LINE
  5
139
330
1D
100
AcDbEntity
  8
0
100
AcDbLine
 10
0.0
 20
43.238505
 30
0.0
 11
0.0
 21
44.438505
 31
0.0
  0
LINE
  5
13A
330
1D
100
AcDbEntity
  8
0
100
AcDbLine
 10
0.0
 20
44.084205
 30
0.0
 11
0.0
 21
44.992805
 31
0.0
  0
LINE
  5
13B
330
1D
100
AcDbEntity
  8
0
100
AcDbLine
 10
0.0
 20
44.438505
 30
0.0
 11
0.0
 21
45.498505
 31
0.0
  0
LINE
  5
13C
330
1D
100
AcDbEntity
  8
0
100
AcDbLine
 10
5.0
 20
43.494505
 30
0.0
 11
5.0
 21
44.934505
 31
0.0
  0
LINE
  5
13D
330
1D
100
AcDbEntity
  8
0
100
AcDbLine
 10
5.0
 20
43.494505
 30
0.0
 11
5.0
 21
41.958505
 31
0.0
  0
LINE
  5
13E
330
1D
100
AcDbEntity
  8
0
100
AcDbLine
 10
15.0
 20
43.494505
 30
0.0
 11
15.0
 21
41.958505
 31
0.0
  0
LINE
  5
13F
330
1D
100
AcDbEntity
  8
0
100
AcDbLine
 10
15.0
 20
43.494505
 30
0.0
 11
15.0
 21
44.934505
 31
0.0
  0
LINE
  5
140
330
1D
100
AcDbEntity
  8
0
100
AcDbLine
 10
5.0
 20
44.509405
 30
0.0
 11
5.0
 21
43.275105
 31
0.0
  0
LINE
  5
141
330
1D
100
AcDbEntity
  8
0
100
AcDbLine
 10
5.0
 20
44.509405
 30
0.0
 11
5.0
 21
45.599705
 31
0.0
  0
LINE
  5
142
330
1D
100
AcDbEntity
  8
0
100
AcDbLine
 10
5.0
 20
43.275105
 30
0.0
 11
5.0
 21
41.958505
 31
0.0
  0
LINE
  5
143
330
1D
100
AcDbEntity
  8
0
100
AcDbLine
 10
5.0
 20
43.275105
 30
0.0
 11
5.0
 21
44.509405
 31
0.0
  0
LINE
  5
144
330
1D
100
AcDbEntity
  8
0
100
AcDbLine
 10
17.0
 20
43.494505
 30
0.0
 11
17.0
 21
44.934505
 31
0.0
  0
LINE
  5
145
330
1D
100
AcDbEntity
  8
0
100
AcDbLine
 10
17.0
 20
43.494505
 30
0.0
 11
17.0
 21
41.958505
 31
0.0
  0
LINE
  5
146
330
1D
100
AcDbEntity
  8
0
100
AcDbLine
 10
15.0
 20
44.934505
 30
0.0
 11
15.0
 21
43.494505
 31
0.0
  0
LINE
  5
147
330
1D
100
AcDbEntity
  8
0
100
AcDbLine
 10
15.0
 20
44.934505
 30
0.0
 11
15.0
 21
46.206505
 31
0.0
  0
LINE
  5
148
330
1D
100
AcDbEntity
  8
0
100
AcDbLine
 10
5.0
 20
44.934505
 30
0.0
 11
5.0
 21
46.206505
 31
0.0
  0
LINE
  5
149
330
1D
100
AcDbEntity
  8
0
100
AcDbLine
 10
5.0
 20
44.934505
 30
0.0
 11
5.0
 21
43.494505
 31
0.0
  0
LINE
  5
14A
330
1D
100
AcDbEntity
  8
0
100
AcDbLine
 10
0.0
 20
44.992805
 30
0.0
 11
0.0
 21
45.678505
 31
0.0
  0
LINE
  5
14B
330
1D
100
AcDbEntity
  8
0
100
AcDbLine
 10
0.0
 20
45.678505
 30
0.0
 11
0.0
 21
46.089905
 31
0.0
  0
LINE
  5
14C
330
1D
100
AcDbEntity
  8
0
100
AcDbLine
 10
0.0
 20
45.498505
 30
0.0
 11
0.0
 21
46.089905
 31
0.0
  0
LINE
  5
14D
330
1D
100
AcDbEntity
  8
0
100
AcDbLine
 10
0.0
 20
45.498505
 30
0.0
 11
0.0
 21
46.298505
 31
0.0
  0
LINE
  5
14E
330
1D
100
AcDbEntity
  8
0
100
AcDbLine
 10
5.0
 20
45.599705
 30
0.0
 11
5.0
 21
44.509405
 31
0.0
  0
LINE
  5
14F
330
1D
100
AcDbEntity
  8
0
100
AcDbLine
 10
5.0
 20
45.599705
 30
0.0
 11
5.0
 21
46.422505
 31
0.0
  0
LINE
  5
150
330
1D
100
AcDbEntity
  8
0
100
AcDbLine
 10
17.0
 20
44.934505
 30
0.0
 11
17.0
 21
46.206505
 31
0.0
  0
LINE
  5
151
330
1D
100
AcDbEntity
  8
0
100
AcDbLine
 10
17.0
 20
44.934505
 30
0.0
 11
17.0
 21
43.494505
 31
0.0
  0
LINE
  5
152
330
1D
100
AcDbEntity
  8
0
100
AcDbLine
 10
17.0
 20
45.599705
 30
0.0
 11
17.0
 21
44.509405
 31
0.0
  0
LINE
  5
153
330
1D
100
AcDbEntity
  8
0
100
AcDbLine
 10
17.0
 20
45.599705
 30
0.0
 11
17.0
 21
46.422505
 31
0.0
  0
LINE
  5
154
330
1D
100
AcDbEntity
  8
0
100
AcDbLine
 10
17.0
 20
44.509405
 30
0.0
 11
17.0
 21
43.275105
 31
0.0
  0
LINE
  5
155
330
1D
100
AcDbEntity
  8
0
100
AcDbLine
 10
17.0
 20
44.509405
 30
0.0
 11
17.0
 21
45.599705
 31
0.0
  0
LINE
  5
156
330
1D
100
AcDbEntity
  8
0
100
AcDbLine
 10
17.0
 20
43.275105
 30
0.0
 11
17.0
 21
41.958505
 31
0.0
  0
LINE
  5
157
330
1D
100
AcDbEntity
  8
0
100
AcDbLine
 10
17.0
 20
43.275105
 30
0.0
 11
17.0
 21
44.509405
 31
0.0
  0
LINE
  5
158
330
1D
100
AcDbEntity
  8
0
100
AcDbLine
 10
0.0
 20
46.089905
 30
0.0
 11
0.0
 21
46.244205
 31
0.0
  0
LINE
  5
159
330
1D
100
AcDbEntity
  8
0
100
AcDbLine
 10
15.0
 20
46.206505
 30
0.0
 11
15.0
 21
44.934505
 31
0.0
  0
LINE
  5
15A
330
1D
100
AcDbEntity
  8
0
100
AcDbLine
 10
15.0
 20
46.206505
 30
0.0
 11
15.0
 21
47.166505
 31
0.0
  0
LINE
  5
15B
330
1D
100
AcDbEntity
  8
0
100
AcDbLine
 10
5.0
 20
46.206505
 30
0.0
 11
5.0
 21
47.166505
 31
0.0
  0
LINE
  5
15C
330
1D
100
AcDbEntity
  8
0
100
AcDbLine
 10
5.0
 20
46.206505
 30
0.0
 11
5.0
 21
44.934505
 31
0.0
  0
LINE
  5
15D
330
1D
100
AcDbEntity
  8
0
100
AcDbLine
 10
0.0
 20
46.778505
 30
0.0
 11
0.0
 21
46.958505
 31
0.0
  0
LINE
  5
15E
330
1D
100
AcDbEntity
  8
0
100
AcDbLine
 10
0.0
 20
46.298505
 30
0.0
 11
0.0
 21
46.778505
 31
0.0
  0
LINE
  5
15F
330
1D
100
AcDbEntity
  8
0
100
AcDbLine
 10
0.0
 20
46.244205
 30
0.0
 11
0.0
 21
46.298505
 31
0.0
  0
LINE
  5
160
330
1D
100
AcDbEntity
  8
0
100
AcDbLine
 10
0.0
 20
46.958505
 30
0.0
 11
5.0
 21
46.958505
 31
0.0
  0
LINE
  5
161
330
1D
100
AcDbEntity
  8
0
100
AcDbLine
 10
0.0
 20
46.958505
 30
0.0
 11
5.0
 21
46.958505
 31
0.0
  0
LINE
  5
162
330
1D
100
AcDbEntity
  8
0
100
AcDbLine
 10
5.0
 20
46.916205
 30
0.0
 11
5.0
 21
46.422505
 31
0.0
  0
LINE
  5
163
330
1D
100
AcDbEntity
  8
0
100
AcDbLine
 10
5.0
 20
46.916205
 30
0.0
 11
5.0
 21
47.101405
 31
0.0
  0
LINE
  5
164
330
1D
100
AcDbEntity
  8
0
100
AcDbLine
 10
15.0
 20
46.958505
 30
0.0
 11
17.0
 21
46.958505
 31
0.0
  0
LINE
  5
165
330
1D
100
AcDbEntity
  8
0
100
AcDbLine
 10
5.0
 20
46.422505
 30
0.0
 11
5.0
 21
45.599705
 31
0.0
  0
LINE
  5
166
330
1D
100
AcDbEntity
  8
0
100
AcDbLine
 10
5.0
 20
46.422505
 30
0.0
 11
5.0
 21
46.916205
 31
0.0
  0
LINE
  5
167
330
1D
100
AcDbEntity
  8
0
100
AcDbLine
 10
5.0
 20
46.958505
 30
0.0
 11
5.0
 21
47.166505
 31
0.0
  0
LINE
  5
168
330
1D
100
AcDbEntity
  8
0
100
AcDbLine
 10
5.0
 20
46.958505
 30
0.0
 11
5.0
 21
47.101405
 31
0.0
  0
LINE
  5
169
330
1D
100
AcDbEntity
  8
0
100
AcDbLine
 10
17.0
 20
46.916205
 30
0.0
 11
17.0
 21
46.422505
 31
0.0
  0
LINE
  5
16A
330
1D
100
AcDbEntity
  8
0
100
AcDbLine
 10
17.0
 20
46.916205
 30
0.0
 11
17.0
 21
47.101405
 31
0.0
  0
LINE
  5
16B
330
1D
100
AcDbEntity
  8
0
100
AcDbLine
 10
17.0
 20
46.206505
 30
0.0
 11
17.0
 21
47.166505
 31
0.0
  0
LINE
  5
16C
330
1D
100
AcDbEntity
  8
0
100
AcDbLine
 10
17.0
 20
46.206505
 30
0.0
 11
17.0
 21
44.934505
 31
0.0
  0
LINE
  5
16D
330
1D
100
AcDbEntity
  8
0
100
AcDbLine
 10
17.0
 20
46.422505
 30
0.0
 11
17.0
 21
45.599705
 31
0.0
  0
LINE
  5
16E
330
1D
100
AcDbEntity
  8
0
100
AcDbLine
 10
17.0
 20
46.422505
 30
0.0
 11
17.0
 21
46.916205
 31
0.0
  0
LINE
  5
16F
330
1D
100
AcDbEntity
  8
0
100
AcDbLine
 10
5.0
 20
47.101405
 30
0.0
 11
5.0
 21
46.958505
 31
0.0
  0
LINE
  5
170
330
1D
100
AcDbEntity
  8
0
100
AcDbLine
 10
5.0
 20
47.101405
 30
0.0
 11
5.0
 21
46.916205
 31
0.0
  0
LINE
  5
171
330
1D
100
AcDbEntity
  8
0
100
AcDbLine
 10
15.0
 20
47.166505
 30
0.0
 11
15.0
 21
46.206505
 31
0.0
  0
LINE
  5
172
330
1D
100
AcDbEntity
  8
0
100
AcDbLine
 10
15.0
 20
47.166505
 30
0.0
 11
15.0
 21
47.742505
 31
0.0
  0
LINE
  5
173
330
1D
100
AcDbEntity
  8
0
100
AcDbLine
 10
5.0
 20
47.742505
 30
0.0
 11
5.0
 21
47.958505
 31
0.0
  0
LINE
  5
174
330
1D
100
AcDbEntity
  8
0
100
AcDbLine
 10
5.0
 20
47.742505
 30
0.0
 11
5.0
 21
47.166505
 31
0.0
  0
LINE
  5
175
330
1D
100
AcDbEntity
  8
0
100
AcDbLine
 10
5.0
 20
47.958505
 30
0.0
 11
15.0
 21
47.958505
 31
0.0
  0
LINE
  5
176
330
1D
100
AcDbEntity
  8
0
100
AcDbLine
 10
15.0
 20
47.958505
 30
0.0
 11
15.0
 21
47.742505
 31
0.0
  0
LINE
  5
177
330
1D
100
AcDbEntity
  8
0
100
AcDbLine
 10
15.0
 20
47.742505
 30
0.0
 11
15.0
 21
47.166505
 31
0.0
  0
LINE
  5
178
330
1D
100
AcDbEntity
  8
0
100
AcDbLine
 10
15.0
 20
47.742505
 30
0.0
 11
15.0
 21
47.958505
 31
0.0
  0
LINE
  5
179
330
1D
100
AcDbEntity
  8
0
100
AcDbLine
 10
5.0
 20
47.958505
 30
0.0
 11
15.0
 21
47.958505
 31
0.0
  0
LINE
  5
17A
330
1D
100
AcDbEntity
  8
0
100
AcDbLine
 10
5.0
 20
47.958505
 30
0.0
 11
5.0
 21
47.742505
 31
0.0
  0
LINE
  5
17B
330
1D
100
AcDbEntity
  8
0
100
AcDbLine
 10
5.0
 20
47.166505
 30
0.0
 11
5.0
 21
47.742505
 31
0.0
  0
LINE
  5
17C
330
1D
100
AcDbEntity
  8
0
100
AcDbLine
 10
5.0
 20
47.166505
 30
0.0
 11
5.0
 21
46.958505
 31
0.0
  0
LINE
  5
17D
330
1D
100
AcDbEntity
  8
0
100
AcDbLine
 10
5.0
 20
47.166505
 30
0.0
 11
5.0
 21
46.206505
 31
0.0
  0
LINE
  5
17E
330
1D
100
AcDbEntity
  8
0
100
AcDbLine
 10
17.0
 20
47.958505
 30
0.0
 11
19.119323025698
 21
47.958505
 31
0.0
  0
LINE
  5
17F
330
1D
100
AcDbEntity
  8
0
100
AcDbLine
 10
17.0
 20
47.101405
 30
0.0
 11
17.0
 21
46.958505
 31
0.0
  0
LINE
  5
180
330
1D
100
AcDbEntity
  8
0
100
AcDbLine
 10
17.0
 20
47.101405
 30
0.0
 11
17.0
 21
46.916205
 31
0.0
  0
LINE
  5
181
330
1D
100
AcDbEntity
  8
0
100
AcDbLine
 10
17.0
 20
47.742505
 30
0.0
 11
17.0
 21
47.958505
 31
0.0
  0
LINE
  5
182
330
1D
100
AcDbEntity
  8
0
100
AcDbLine
 10
17.0
 20
47.742505
 30
0.0
 11
17.0
 21
47.166505
 31
0.0
  0
LINE
  5
183
330
1D
100
AcDbEntity
  8
0
100
AcDbLine
 10
17.0
 20
47.958505
 30
0.0
 11
19.119323025698
 21
47.958505
 31
0.0
  0
LINE
  5
184
330
1D
100
AcDbEntity
  8
0
100
AcDbLine
 10
17.0
 20
47.958505
 30
0.0
 11
17.0
 21
47.742505
 31
0.0
  0
LINE
  5
185
330
1D
100
AcDbEntity
  8
0
100
AcDbLine
 10
17.0
 20
47.166505
 30
0.0
 11
17.0
 21
47.742505
 31
0.0
  0
LINE
  5
186
330
1D
100
AcDbEntity
  8
0
100
AcDbLine
 10
17.0
 20
47.166505
 30
0.0
 11
17.0
 21
46.958505
 31
0.0
  0
LINE
  5
187
330
1D
100
AcDbEntity
  8
0
100
AcDbLine
 10
17.0
 20
47.166505
 30
0.0
 11
17.0
 21
46.206505
 31
0.0
  0
LINE
  5
188
330
1D
100
AcDbEntity
  8
0
100
AcDbLine
 10
17.0
 20
46.958505
 30
0.0
 11
17.0
 21
47.166505
 31
0.0
  0
LINE
  5
189
330
1D
100
AcDbEntity
  8
0
100
AcDbLine
 10
17.0
 20
46.958505
 30
0.0
 11
17.0
 21
47.101405
 31
0.0
  0
LINE
  5
18A
330
1D
100
AcDbEntity
  8
0
100
AcDbLine
 10
19.1188
 20
48.096705
 30
0.0
 11
19.119089839988
 21
47.958505
 31
0.0
  0
LINE
  5
18B
330
1D
100
AcDbEntity
  8
0
100
AcDbLine
 10
19.1202
 20
47.316505
 30
0.0
 11
19.121845888391
 21
46.416447885228
 31
0.0
  0
LINE
  5
18C
330
1D
100
AcDbEntity
  8
0
100
AcDbLine
 10
19.118684864983
 20
48.425678527991
 30
0.0
 11
19.1202
 21
47.316505
 31
0.0
  0
LINE
  5
18D
330
1D
100
AcDbEntity
  8
0
100
AcDbLine
 10
19.1159
 20
49.926305
 30
0.0
 11
19.116613039181
 21
49.850463559831
 31
0.0
  0
LINE
  5
18E
330
1D
100
AcDbEntity
  8
0
100
AcDbLine
 10
19.1159
 20
49.926305
 30
0.0
 11
19.1165
 21
49.674205
 31
0.0
  0
LINE
  5
18F
330
1D
100
AcDbEntity
  8
0
100
AcDbLine
 10
19.1115
 20
53.149305
 30
0.0
 11
19.1133
 21
52.126005
 31
0.0
  0
LINE
  5
190
330
1D
100
AcDbEntity
  8
0
100
AcDbLine
 10
19.1116
 20
53.148305
 30
0.0
 11
19.1133
 21
52.126005
 31
0.0
  0
LINE
  5
191
330
1D
100
AcDbEntity
  8
0
100
AcDbLine
 10
19.1133
 20
52.126005
 30
0.0
 11
19.1159
 21
50.385405
 31
0.0
  0
LINE
  5
192
330
1D
100
AcDbEntity
  8
0
100
AcDbLine
 10
19.1133
 20
52.126005
 30
0.0
 11
20.6117
 21
53.085505
 31
0.0
  0
LINE
  5
193
330
1D
100
AcDbEntity
  8
0
100
AcDbLine
 10
19.1176
 20
49.059005
 30
0.0
 11
19.1188
 21
48.096705
 31
0.0
  0
LINE
  5
194
330
1D
100
AcDbEntity
  8
0
100
AcDbLine
 10
19.1165
 20
49.674205
 30
0.0
 11
19.1176
 21
49.059005
 31
0.0
  0
LINE
  5
195
330
1D
100
AcDbEntity
  8
0
100
AcDbLine
 10
19.1159
 20
50.385405
 30
0.0
 11
19.1181
 21
48.734905
 31
0.0
  0
LINE
  5
196
330
1D
100
AcDbEntity
  8
0
100
AcDbLine
 10
19.1181
 20
48.734905
 30
0.0
 11
19.1209
 21
47.254505
 31
0.0
  0
LINE
  5
197
330
1D
100
AcDbEntity
  8
0
100
AcDbLine
 10
19.1209
 20
47.254505
 30
0.0
 11
19.1223
 21
46.014105
 31
0.0
  0
LINE
  5
198
330
1D
100
AcDbEntity
  8
0
100
AcDbLine
 10
19.1223
 20
46.014105
 30
0.0
 11
19.1239
 21
45.073805
 31
0.0
  0
LINE
  5
199
330
1D
100
AcDbEntity
  8
0
100
AcDbLine
 10
19.1245
 20
44.478605
 30
0.0
 11
19.1253
 21
44.257605
 31
0.0
  0
LINE
  5
19A
330
1D
100
AcDbEntity
  8
0
100
AcDbLine
 10
19.1239
 20
45.073805
 30
0.0
 11
19.1245
 21
44.478605
 31
0.0
  0
LINE
  5
19B
330
1D
100
AcDbEntity
  8
0
100
AcDbLine
 10
19.1094
 20
54.491705
 30
0.0
 11
19.1094
 21
54.340605
 31
0.0
  0
LINE
  5
19C
330
1D
100
AcDbEntity
  8
0
100
AcDbLine
 10
19.1094
 20
54.491705
 30
0.0
 11
20.6084
 21
55.313205
 31
0.0
  0
LINE
  5
19D
330
1D
100
AcDbEntity
  8
0
100
AcDbLine
 10
19.1094
 20
54.340605
 30
0.0
 11
19.1101
 21
53.891505
 31
0.0
  0
LINE
  5
19E
330
1D
100
AcDbEntity
  8
0
100
AcDbLine
 10
19.1094
 20
54.340605
 30
0.0
 11
19.1094
 21
54.491705
 31
0.0
  0
LINE
  5
19F
330
1D
100
AcDbEntity
  8
0
100
AcDbLine
 10
19.1101
 20
53.891505
 30
0.0
 11
19.1115
 21
53.149305
 31
0.0
  0
LINE
  5
1A0
330
1D
100
AcDbEntity
  8
0
100
AcDbLine
 10
19.1101
 20
53.891505
 30
0.0
 11
19.1116
 21
53.148305
 31
0.0
  0
LINE
  5
1A1
330
1D
100
AcDbEntity
  8
0
100
AcDbLine
 10
19.125695310063
 20
44.022267304054
 30
0.0
 11
19.1282
 21
42.123905
 31
0.0
  0
LINE
  5
1A2
330
1D
100
AcDbEntity
  8
0
100
AcDbLine
 10
19.1253
 20
44.257605
 30
0.0
 11
19.129
 21
42.054905
 31
0.0
  0
LINE
  5
1A3
330
1D
100
AcDbEntity
  8
0
100
AcDbLine
 10
19.1253
 20
44.257605
 30
0.0
 11
19.3244
 21
44.256805
 31
0.0
  0
LINE
  5
1A4
330
1D
100
AcDbEntity
  8
0
100
AcDbLine
 10
19.1282
 20
42.123905
 30
0.0
 11
19.1314
 21
39.976305
 31
0.0
  0
LINE
  5
1A5
330
1D
100
AcDbEntity
  8
0
100
AcDbLine
 10
57.19
 20
2.440655
 30
0.0
 11
57.1916
 21
1.424355
 31
0.0
  0
LINE
  5
1A6
330
1D
100
AcDbEntity
  8
0
100
AcDbLine
 10
57.1926
 20
0.775155
 30
0.0
 11
57.1928
 21
0.501065
 31
0.0
  0
LINE
  5
1A7
330
1D
100
AcDbEntity
  8
0
100
AcDbLine
 10
57.192
 20
0.605085
 30
0.0
 11
57.1928
 21
0.501065
 31
0.0
  0
LINE
  5
1A8
330
1D
100
AcDbEntity
  8
0
100
AcDbLine
 10
57.1928
 20
0.501065
 30
0.0
 11
57.693
 21
0.001995
 31
0.0
  0
LINE
  5
1A9
330
1D
100
AcDbEntity
  8
0
100
AcDbLine
 10
57.1916
 20
1.424355
 30
0.0
 11
57.1926
 21
0.775155
 31
0.0
  0
LINE
  5
1AA
330
1D
100
AcDbEntity
  8
0
100
AcDbLine
 10
57.1915
 20
1.085235
 30
0.0
 11
57.192
 21
0.605085
 31
0.0
  0
LINE
  5
1AB
330
1D
100
AcDbEntity
  8
0
100
AcDbLine
 10
57.1902
 20
1.937495
 30
0.0
 11
57.1915
 21
1.085235
 31
0.0
  0
LINE
  5
1AC
330
1D
100
AcDbEntity
  8
0
100
AcDbLine
 10
57.1852
 20
5.528595
 30
0.0
 11
57.1871
 21
3.813055
 31
0.0
  0
LINE
  5
1AD
330
1D
100
AcDbEntity
  8
0
100
AcDbLine
 10
57.1829
 20
6.608905
 30
0.0
 11
57.185545423168
 21
5.216706967307
 31
0.0
  0
LINE
  5
1AE
330
1D
100
AcDbEntity
  8
0
100
AcDbLine
 10
57.1829
 20
6.608905
 30
0.0
 11
57.185545423168
 21
5.216706967307
 31
0.0
  0
LINE
  5
1AF
330
1D
100
AcDbEntity
  8
0
100
AcDbLine
 10
57.188265645159
 20
3.261423477033
 30
0.0
 11
57.1884
 21
3.150865
 31
0.0
  0
LINE
  5
1B0
330
1D
100
AcDbEntity
  8
0
100
AcDbLine
 10
57.1871
 20
3.813055
 30
0.0
 11
57.19
 21
2.440655
 31
0.0
  0
LINE
  5
1B1
330
1D
100
AcDbEntity
  8
0
100
AcDbLine
 10
57.1884
 20
3.150865
 30
0.0
 11
57.1902
 21
1.937495
 31
0.0
  0
LINE
  5
1B2
330
1D
100
AcDbEntity
  8
0
100
AcDbLine
 10
57.688
 20
3.363015
 30
0.0
 11
57.6905
 21
1.969595
 31
0.0
  0
LINE
  5
1B3
330
1D
100
AcDbEntity
  8
0
100
AcDbLine
 10
57.6905
 20
1.969595
 30
0.0
 11
57.6915
 21
0.938275
 31
0.0
  0
LINE
  5
1B4
330
1D
100
AcDbEntity
  8
0
100
AcDbLine
 10
57.6915
 20
0.938275
 30
0.0
 11
57.6927
 21
0.280085
 31
0.0
  0
LINE
  5
1B5
330
1D
100
AcDbEntity
  8
0
100
AcDbLine
 10
57.693
 20
0.001995
 30
0.0
 11
62.6935
 21
0.009895
 31
0.0
  0
LINE
  5
1B6
330
1D
100
AcDbEntity
  8
0
100
AcDbLine
 10
62.6935
 20
0.009895
 30
0.0
 11
63.1926
 21
0.511125
 31
0.0
  0
LINE
  5
1B7
330
1D
100
AcDbEntity
  8
0
100
AcDbLine
 10
62.6933
 20
0.286985
 30
0.0
 11
62.6935
 21
0.009895
 31
0.0
  0
LINE
  5
1B8
330
1D
100
AcDbEntity
  8
0
100
AcDbLine
 10
62.692
 20
0.946175
 30
0.0
 11
62.6933
 21
0.286985
 31
0.0
  0
LINE
  5
1B9
330
1D
100
AcDbEntity
  8
0
100
AcDbLine
 10
62.69
 20
1.977475
 30
0.0
 11
62.692
 21
0.946175
 31
0.0
  0
LINE
  5
1BA
330
1D
100
AcDbEntity
  8
0
100
AcDbLine
 10
57.6927
 20
0.280085
 30
0.0
 11
57.693
 21
0.001995
 31
0.0
  0
LINE
  5
1BB
330
1D
100
AcDbEntity
  8
0
100
AcDbLine
 10
62.6886
 20
3.369915
 30
0.0
 11
62.69
 21
1.977475
 31
0.0
  0
LINE
  5
1BC
330
1D
100
AcDbEntity
  8
0
100
AcDbLine
 10
62.686
 20
5.109445
 30
0.0
 11
62.6886
 21
3.369915
 31
0.0
  0
LINE
  5
1BD
330
1D
100
AcDbEntity
  8
0
100
AcDbLine
 10
57.6855
 20
5.102545
 30
0.0
 11
57.688
 21
3.363015
 31
0.0
  0
LINE
  5
1BE
330
1D
100
AcDbEntity
  8
0
100
AcDbLine
 10
57.180334297459
 20
8.63095349882
 30
0.0
 11
57.1829
 21
6.608905
 31
0.0
  0
LINE
  5
1BF
330
1D
100
AcDbEntity
  8
0
100
AcDbLine
 10
57.1786
 20
9.904905
 30
0.0
 11
57.1818
 21
7.567205
 31
0.0
  0
LINE
  5
1C0
330
1D
100
AcDbEntity
  8
0
100
AcDbLine
 10
62.6819
 20
7.177045
 30
0.0
 11
62.686
 21
5.109445
 31
0.0
  0
LINE
  5
1C1
330
1D
100
AcDbEntity
  8
0
100
AcDbLine
 10
62.6788
 20
9.549805
 30
0.0
 11
62.6819
 21
7.177045
 31
0.0
  0
LINE
  5
1C2
330
1D
100
AcDbEntity
  8
0
100
AcDbLine
 10
57.6783
 20
9.541905
 30
0.0
 11
57.6824
 21
7.169175
 31
0.0
  0
LINE
  5
1C3
330
1D
100
AcDbEntity
  8
0
100
AcDbLine
 10
57.1818
 20
7.567205
 30
0.0
 11
57.1852
 21
5.528595
 31
0.0
  0
LINE
  5
1C4
330
1D
100
AcDbEntity
  8
0
100
AcDbLine
 10
57.6824
 20
7.169175
 30
0.0
 11
57.6855
 21
5.102545
 31
0.0
  0
LINE
  5
1C5
330
1D
100
AcDbEntity
  8
0
100
AcDbLine
 10
57.180334297459
 20
8.63095349882
 30
0.0
 11
57.1829
 21
6.608905
 31
0.0
  0
LINE
  5
1C6
330
1D
100
AcDbEntity
  8
0
100
AcDbLine
 10
57.1041
 20
14.316505
 30
0.0
 11
57.1714
 21
14.113205
 31
0.0
  0
LINE
  5
1C7
330
1D
100
AcDbEntity
  8
0
100
AcDbLine
 10
57.1707
 20
14.486305
 30
0.0
 11
57.1714
 21
14.113205
 31
0.0
  0
LINE
  5
1C8
330
1D
100
AcDbEntity
  8
0
100
AcDbLine
 10
57.173419205516
 20
12.973402155982
 30
0.0
 11
57.1759
 21
11.308305
 31
0.0
  0
LINE
  5
1C9
330
1D
100
AcDbEntity
  8
0
100
AcDbLine
 10
56.6712
 20
14.613205
 30
0.0
 11
56.9213
 21
14.498805
 31
0.0
  0
LINE
  5
1CA
330
1D
100
AcDbEntity
  8
0
100
AcDbLine
 10
20.6713
 20
14.557905
 30
0.0
 11
56.6712
 21
14.613205
 31
0.0
  0
LINE
  5
1CB
330
1D
100
AcDbEntity
  8
0
100
AcDbLine
 10
53.0
 20
15.236905
 30
0.0
 11
53.3
 21
15.128905
 31
0.0
  0
LINE
  5
1CC
330
1D
100
AcDbEntity
  8
0
100
AcDbLine
 10
53.0
 20
15.236905
 30
0.0
 11
53.0
 21
15.398905
 31
0.0
  0
LINE
  5
1CD
330
1D
100
AcDbEntity
  8
0
100
AcDbLine
 10
53.3
 20
15.128905
 30
0.0
 11
57.169725952864
 21
15.128905
 31
0.0
  0
LINE
  5
1CE
330
1D
100
AcDbEntity
  8
0
100
AcDbLine
 10
56.9201
 20
15.077905
 30
0.0
 11
56.9205
 21
14.643805
 31
0.0
  0
LINE
  5
1CF
330
1D
100
AcDbEntity
  8
0
100
AcDbLine
 10
56.9205
 20
14.643805
 30
0.0
 11
56.9213
 21
14.498805
 31
0.0
  0
LINE
  5
1D0
330
1D
100
AcDbEntity
  8
0
100
AcDbLine
 10
56.9213
 20
14.498805
 30
0.0
 11
57.1041
 21
14.316505
 31
0.0
  0
LINE
  5
1D1
330
1D
100
AcDbEntity
  8
0
100
AcDbLine
 10
57.1742
 20
12.517705
 30
0.0
 11
57.1786
 21
9.904905
 31
0.0
  0
LINE
  5
1D2
330
1D
100
AcDbEntity
  8
0
100
AcDbLine
 10
63.174
 20
12.526805
 30
0.0
 11
63.1784
 21
9.914005
 31
0.0
  0
LINE
  5
1D3
330
1D
100
AcDbEntity
  8
0
100
AcDbLine
 10
62.6744
 20
12.200605
 30
0.0
 11
62.6788
 21
9.549805
 31
0.0
  0
LINE
  5
1D4
330
1D
100
AcDbEntity
  8
0
100
AcDbLine
 10
57.6749
 20
12.192705
 30
0.0
 11
57.6783
 21
9.541905
 31
0.0
  0
LINE
  5
1D5
330
1D
100
AcDbEntity
  8
0
100
AcDbLine
 10
63.173002433318
 20
13.323271073895
 30
0.0
 11
63.1742
 21
12.673805
 31
0.0
  0
LINE
  5
1D6
330
1D
100
AcDbEntity
  8
0
100
AcDbLine
 10
63.1734
 20
13.084905
 30
0.0
 11
63.174202506855
 21
12.409320939479
 31
0.0
  0
LINE
  5
1D7
330
1D
100
AcDbEntity
  8
0
100
AcDbLine
 10
63.1734
 20
13.084905
 30
0.0
 11
63.174202506855
 21
12.409320939479
 31
0.0
  0
LINE
  5
1D8
330
1D
100
AcDbEntity
  8
0
100
AcDbLine
 10
63.173883928452
 20
12.614158003161
 30
0.0
 11
63.174258823529
 21
12.373110882353
 31
0.0
  0
LINE
  5
1D9
330
1D
100
AcDbEntity
  8
0
100
AcDbLine
 10
63.172703652428
 20
13.502408891051
 30
0.0
 11
63.1734
 21
13.084905
 31
0.0
  0
LINE
  5
1DA
330
1D
100
AcDbEntity
  8
0
100
AcDbLine
 10
63.173002433318
 20
13.323271073895
 30
0.0
 11
63.1742
 21
12.673805
 31
0.0
  0
LINE
  5
1DB
330
1D
100
AcDbEntity
  8
0
100
AcDbLine
 10
63.173883928452
 20
12.614158003161
 30
0.0
 11
63.174258823529
 21
12.373110882353
 31
0.0
  0
LINE
  5
1DC
330
1D
100
AcDbEntity
  8
0
100
AcDbLine
 10
62.6705
 20
15.100505
 30
0.0
 11
62.6744
 21
12.200605
 31
0.0
  0
LINE
  5
1DD
330
1D
100
AcDbEntity
  8
0
100
AcDbLine
 10
57.6699
 20
15.093605
 30
0.0
 11
57.6749
 21
12.192705
 31
0.0
  0
LINE
  5
1DE
330
1D
100
AcDbEntity
  8
0
100
AcDbLine
 10
63.173985247219
 20
12.592219248599
 30
0.0
 11
63.174554744369
 21
12.321307345376
 31
0.0
  0
LINE
  5
1DF
330
1D
100
AcDbEntity
  8
0
100
AcDbLine
 10
63.173985247219
 20
12.592219248599
 30
0.0
 11
63.174554744369
 21
12.321307345376
 31
0.0
  0
LINE
  5
1E0
330
1D
100
AcDbEntity
  8
0
100
AcDbLine
 10
57.173419205516
 20
12.973402155982
 30
0.0
 11
57.1759
 21
11.308305
 31
0.0
  0
LINE
  5
1E1
330
1D
100
AcDbEntity
  8
0
100
AcDbLine
 10
57.1759
 20
11.308305
 30
0.0
 11
57.179300310715
 21
9.290220590879
 31
0.0
  0
LINE
  5
1E2
330
1D
100
AcDbEntity
  8
0
100
AcDbLine
 10
57.1759
 20
11.308305
 30
0.0
 11
57.179300310715
 21
9.290220590879
 31
0.0
  0
LINE
  5
1E3
330
1D
100
AcDbEntity
  8
0
100
AcDbLine
 10
63.180520853367
 20
8.364628827785
 30
0.0
 11
63.183
 21
6.987095
 31
0.0
  0
LINE
  5
1E4
330
1D
100
AcDbEntity
  8
0
100
AcDbLine
 10
63.180520853367
 20
8.364628827785
 30
0.0
 11
63.183
 21
6.987095
 31
0.0
  0
LINE
  5
1E5
330
1D
100
AcDbEntity
  8
0
100
AcDbLine
 10
63.183
 20
6.987095
 30
0.0
 11
63.183761350791
 21
6.280338136595
 31
0.0
  0
LINE
  5
1E6
330
1D
100
AcDbEntity
  8
0
100
AcDbLine
 10
63.1816
 20
7.576265
 30
0.0
 11
63.185
 21
5.537655
 31
0.0
  0
LINE
  5
1E7
330
1D
100
AcDbEntity
  8
0
100
AcDbLine
 10
63.178248438067
 20
10.004005231561
 30
0.0
 11
90.6784
 21
10.046905
 31
0.0
  0
LINE
  5
1E8
330
1D
100
AcDbEntity
  8
0
100
AcDbLine
 10
63.1742
 20
12.673805
 30
0.0
 11
63.174864660856
 21
12.013353662377
 31
0.0
  0
LINE
  5
1E9
330
1D
100
AcDbEntity
  8
0
100
AcDbLine
 10
63.179670723172
 20
8.985686128693
 30
0.0
 11
63.1802
 21
8.813605
 31
0.0
  0
LINE
  5
1EA
330
1D
100
AcDbEntity
  8
0
100
AcDbLine
 10
63.179670723172
 20
8.985686128693
 30
0.0
 11
63.1802
 21
8.813605
 31
0.0
  0
LINE
  5
1EB
330
1D
100
AcDbEntity
  8
0
100
AcDbLine
 10
63.1791
 20
9.543905
 30
0.0
 11
63.179204642787
 21
9.326178240858
 31
0.0
  0
LINE
  5
1EC
330
1D
100
AcDbEntity
  8
0
100
AcDbLine
 10
63.178548370746
 20
9.805613679132
 30
0.0
 11
63.1791
 21
9.543905
 31
0.0
  0
LINE
  5
1ED
330
1D
100
AcDbEntity
  8
0
100
AcDbLine
 10
63.1784
 20
9.914005
 30
0.0
 11
63.1816
 21
7.576265
 31
0.0
  0
LINE
  5
1EE
330
1D
100
AcDbEntity
  8
0
100
AcDbLine
 10
63.180020267301
 20
8.730328849643
 30
0.0
 11
63.1802
 21
8.813605
 31
0.0
  0
LINE
  5
1EF
330
1D
100
AcDbEntity
  8
0
100
AcDbLine
 10
63.174024329002
 20
12.573627900127
 30
0.0
 11
63.174372149032
 21
12.305816138667
 31
0.0
  0
LINE
  5
1F0
330
1D
100
AcDbEntity
  8
0
100
AcDbLine
 10
63.174024329002
 20
12.573627900127
 30
0.0
 11
63.174372149032
 21
12.305816138667
 31
0.0
  0
LINE
  5
1F1
330
1D
100
AcDbEntity
  8
0
100
AcDbLine
 10
63.1926
 20
0.511125
 30
0.0
 11
63.1929
 21
0.614175
 31
0.0
  0
LINE
  5
1F2
330
1D
100
AcDbEntity
  8
0
100
AcDbLine
 10
63.186103048997
 20
4.885521022394
 30
0.0
 11
63.1864
 21
4.756425
 31
0.0
  0
LINE
  5
1F3
330
1D
100
AcDbEntity
  8
0
100
AcDbLine
 10
63.186103048997
 20
4.885521022394
 30
0.0
 11
63.1864
 21
4.756425
 31
0.0
  0
LINE
  5
1F4
330
1D
100
AcDbEntity
  8
0
100
AcDbLine
 10
63.1864
 20
4.756425
 30
0.0
 11
63.1877
 21
3.982195
 31
0.0
  0
LINE
  5
1F5
330
1D
100
AcDbEntity
  8
0
100
AcDbLine
 10
63.1879
 20
3.823145
 30
0.0
 11
63.1898
 21
2.449715
 31
0.0
  0
LINE
  5
1F6
330
1D
100
AcDbEntity
  8
0
100
AcDbLine
 10
63.185
 20
5.537655
 30
0.0
 11
63.1879
 21
3.823145
 31
0.0
  0
LINE
  5
1F7
330
1D
100
AcDbEntity
  8
0
100
AcDbLine
 10
63.1898
 20
2.449715
 30
0.0
 11
63.1914
 21
1.433415
 31
0.0
  0
LINE
  5
1F8
330
1D
100
AcDbEntity
  8
0
100
AcDbLine
 10
63.1914
 20
1.433415
 30
0.0
 11
63.1924
 21
0.784215
 31
0.0
  0
LINE
  5
1F9
330
1D
100
AcDbEntity
  8
0
100
AcDbLine
 10
90.6784
 20
10.046905
 30
0.0
 11
91.1775
 21
10.544105
 31
0.0
  0
LINE
  5
1FA
330
1D
100
AcDbEntity
  8
0
100
AcDbLine
 10
90.6779
 20
10.177905
 30
0.0
 11
90.6784
 21
10.046905
 31
0.0
  0
LINE
  5
1FB
330
1D
100
AcDbEntity
  8
0
100
AcDbLine
 10
90.677
 20
10.673105
 30
0.0
 11
90.6779
 21
10.177905
 31
0.0
  0
LINE
  5
1FC
330
1D
100
AcDbEntity
  8
0
100
AcDbLine
 10
91.1749
 20
12.288605
 30
0.0
 11
91.176
 21
11.329405
 31
0.0
  0
LINE
  5
1FD
330
1D
100
AcDbEntity
  8
0
100
AcDbLine
 10
91.176
 20
11.329405
 30
0.0
 11
91.1773
 21
10.745205
 31
0.0
  0
LINE
  5
1FE
330
1D
100
AcDbEntity
  8
0
100
AcDbLine
 10
90.6757
 20
11.523305
 30
0.0
 11
90.677
 21
10.673105
 31
0.0
  0
LINE
  5
1FF
330
1D
100
AcDbEntity
  8
0
100
AcDbLine
 10
91.17
 20
15.261505
 30
0.0
 11
91.1724
 21
13.605005
 31
0.0
  0
LINE
  5
200
330
1D
100
AcDbEntity
  8
0
100
AcDbLine
 10
91.1724
 20
13.605005
 30
0.0
 11
91.1749
 21
12.288605
 31
0.0
  0
LINE
  5
201
330
1D
100
AcDbEntity
  8
0
100
AcDbLine
 10
91.173
 20
13.543005
 30
0.0
 11
91.173386249696
 21
13.085685360181
 31
0.0
  0
LINE
  5
202
330
1D
100
AcDbEntity
  8
0
100
AcDbLine
 10
91.17053830469
 20
14.889962617248
 30
0.0
 11
91.173
 21
13.543005
 31
0.0
  0
LINE
  5
203
330
1D
100
AcDbEntity
  8
0
100
AcDbLine
 10
90.6735
 20
12.715705
 30
0.0
 11
90.6757
 21
11.523305
 31
0.0
  0
LINE
  5
204
330
1D
100
AcDbEntity
  8
0
100
AcDbLine
 10
90.6717
 20
14.234105
 30
0.0
 11
90.6735
 21
12.715705
 31
0.0
  0
LINE
  5
205
330
1D
100
AcDbEntity
  8
0
100
AcDbLine
 10
91.1773
 20
10.745205
 30
0.0
 11
91.1775
 21
10.544105
 31
0.0
  0
LINE
  5
206
330
1D
100
AcDbEntity
  8
0
100
AcDbLine
 10
63.1924
 20
0.784215
 30
0.0
 11
63.1929
 21
0.614175
 31
0.0
  0
LINE
  5
207
330
1D
100
AcDbEntity
  8
0
100
AcDbLine
 10
63.1924
 20
0.784215
 30
0.0
 11
63.1926
 21
0.511125
 31
0.0
  0
LINE
  5
208
330
1D
100
AcDbEntity
  8
0
100
AcDbLine
 10
63.192418775079
 20
0.75857856811
 30
0.0
 11
63.1929
 21
0.614175
 31
0.0
  0
LINE
  5
209
330
1D
100
AcDbEntity
  8
0
100
AcDbLine
 10
63.1834
 20
6.629985
 30
0.0
 11
63.185610345187
 21
5.176812611758
 31
0.0
  0
LINE
  5
20A
330
1D
100
AcDbEntity
  8
0
100
AcDbLine
 10
63.1834
 20
6.629985
 30
0.0
 11
63.185610345187
 21
5.176812611758
 31
0.0
  0
LINE
  5
20B
330
1D
100
AcDbEntity
  8
0
100
AcDbLine
 10
19.1672
 20
16.717205
 30
0.0
 11
19.1687
 21
15.974005
 31
0.0
  0
LINE
  5
20C
330
1D
100
AcDbEntity
  8
0
100
AcDbLine
 10
19.1665
 20
17.739605
 30
0.0
 11
19.1672
 21
16.717205
 31
0.0
  0
LINE
  5
20D
330
1D
100
AcDbEntity
  8
0
100
AcDbLine
 10
19.1665
 20
17.739605
 30
0.0
 11
19.365
 21
17.608705
 31
0.0
  0
LINE
  5
20E
330
1D
100
AcDbEntity
  8
0
100
AcDbLine
 10
19.1629
 20
19.480105
 30
0.0
 11
19.1665
 21
17.739605
 31
0.0
  0
LINE
  5
20F
330
1D
100
AcDbEntity
  8
0
100
AcDbLine
 10
19.1602
 20
21.377605
 30
0.0
 11
19.1612
 21
20.539405
 31
0.0
  0
LINE
  5
210
330
1D
100
AcDbEntity
  8
0
100
AcDbLine
 10
19.159406556258
 20
21.958505
 30
0.0
 11
19.1602
 21
21.377605
 31
0.0
  0
LINE
  5
211
330
1D
100
AcDbEntity
  8
0
100
AcDbLine
 10
19.155
 20
24.635605
 30
0.0
 11
19.1573
 21
23.056105
 31
0.0
  0
LINE
  5
212
330
1D
100
AcDbEntity
  8
0
100
AcDbLine
 10
19.154128990711
 20
25.434146316057
 30
0.0
 11
19.155
 21
24.635605
 31
0.0
  0
LINE
  5
213
330
1D
100
AcDbEntity
  8
0
100
AcDbLine
 10
19.1397
 20
34.501605
 30
0.0
 11
19.140697705814
 21
33.958505
 31
0.0
  0
LINE
  5
214
330
1D
100
AcDbEntity
  8
0
100
AcDbLine
 10
19.14524218134
 20
31.238531317049
 30
0.0
 11
19.146
 21
30.709505
 31
0.0
  0
LINE
  5
215
330
1D
100
AcDbEntity
  8
0
100
AcDbLine
 10
19.1429
 20
32.509005
 30
0.0
 11
19.1473
 21
30.122305
 31
0.0
  0
LINE
  5
216
330
1D
100
AcDbEntity
  8
0
100
AcDbLine
 10
19.146
 20
30.709505
 30
0.0
 11
19.1495
 21
28.509805
 31
0.0
  0
LINE
  5
217
330
1D
100
AcDbEntity
  8
0
100
AcDbLine
 10
19.1473
 20
30.122305
 30
0.0
 11
19.1509
 21
27.810605
 31
0.0
  0
LINE
  5
218
330
1D
100
AcDbEntity
  8
0
100
AcDbLine
 10
19.1495
 20
28.509805
 30
0.0
 11
19.151343058543
 21
27.435249210836
 31
0.0
  0
LINE
  5
219
330
1D
100
AcDbEntity
  8
0
100
AcDbLine
 10
19.1509
 20
27.810605
 30
0.0
 11
19.1535
 21
25.607905
 31
0.0
  0
LINE
  5
21A
330
1D
100
AcDbEntity
  8
0
100
AcDbLine
 10
19.1535
 20
25.607905
 30
0.0
 11
19.1543
 21
25.386905
 31
0.0
  0
LINE
  5
21B
330
1D
100
AcDbEntity
  8
0
100
AcDbLine
 10
19.1535
 20
25.607905
 30
0.0
 11
20.6541
 21
25.568205
 31
0.0
  0
LINE
  5
21C
330
1D
100
AcDbEntity
  8
0
100
AcDbLine
 10
19.1543
 20
25.386905
 30
0.0
 11
19.1549
 21
24.791705
 31
0.0
  0
LINE
  5
21D
330
1D
100
AcDbEntity
  8
0
100
AcDbLine
 10
19.1549
 20
24.791705
 30
0.0
 11
19.1565
 21
23.851405
 31
0.0
  0
LINE
  5
21E
330
1D
100
AcDbEntity
  8
0
100
AcDbLine
 10
19.1573
 20
23.056105
 30
0.0
 11
19.159927359883
 21
21.803438193452
 31
0.0
  0
LINE
  5
21F
330
1D
100
AcDbEntity
  8
0
100
AcDbLine
 10
19.1565
 20
23.851405
 30
0.0
 11
19.159
 21
22.611005
 31
0.0
  0
LINE
  5
220
330
1D
100
AcDbEntity
  8
0
100
AcDbLine
 10
19.159
 20
22.611005
 30
0.0
 11
19.1607
 21
21.130605
 31
0.0
  0
LINE
  5
221
330
1D
100
AcDbEntity
  8
0
100
AcDbLine
 10
19.1612
 20
20.539405
 30
0.0
 11
19.161682023853
 21
20.393863922801
 31
0.0
  0
LINE
  5
222
330
1D
100
AcDbEntity
  8
0
100
AcDbLine
 10
19.1607
 20
21.130605
 30
0.0
 11
19.1629
 21
19.480105
 31
0.0
  0
LINE
  5
223
330
1D
100
AcDbEntity
  8
0
100
AcDbLine
 10
19.161682023853
 20
20.393863922801
 30
0.0
 11
19.1629
 21
19.480105
 31
0.0
  0
LINE
  5
224
330
1D
100
AcDbEntity
  8
0
100
AcDbLine
 10
20.6541
 20
25.568205
 30
0.0
 11
56.654
 21
25.623605
 31
0.0
  0
LINE
  5
225
330
1D
100
AcDbEntity
  8
0
100
AcDbLine
 10
19.365
 20
17.608705
 30
0.0
 11
20.667
 21
16.784505
 31
0.0
  0
LINE
  5
226
330
1D
100
AcDbEntity
  8
0
100
AcDbLine
 10
53.0
 20
16.532905
 30
0.0
 11
53.0
 21
15.830905
 31
0.0
  0
LINE
  5
227
330
1D
100
AcDbEntity
  8
0
100
AcDbLine
 10
53.0
 20
16.532905
 30
0.0
 11
53.0
 21
17.450905
 31
0.0
  0
LINE
  5
228
330
1D
100
AcDbEntity
  8
0
100
AcDbLine
 10
53.0
 20
15.830905
 30
0.0
 11
53.0
 21
15.398905
 31
0.0
  0
LINE
  5
229
330
1D
100
AcDbEntity
  8
0
100
AcDbLine
 10
53.0
 20
15.830905
 30
0.0
 11
53.0
 21
16.532905
 31
0.0
  0
LINE
  5
22A
330
1D
100
AcDbEntity
  8
0
100
AcDbLine
 10
53.0
 20
15.398905
 30
0.0
 11
53.0
 21
15.236905
 31
0.0
  0
LINE
  5
22B
330
1D
100
AcDbEntity
  8
0
100
AcDbLine
 10
53.0
 20
15.398905
 30
0.0
 11
53.0
 21
15.830905
 31
0.0
  0
LINE
  5
22C
330
1D
100
AcDbEntity
  8
0
100
AcDbLine
 10
20.667
 20
16.784505
 30
0.0
 11
53.0
 21
16.834262032658
 31
0.0
  0
LINE
  5
22D
330
1D
100
AcDbEntity
  8
0
100
AcDbLine
 10
53.0
 20
20.762905
 30
0.0
 11
53.0
 21
19.628905
 31
0.0
  0
LINE
  5
22E
330
1D
100
AcDbEntity
  8
0
100
AcDbLine
 10
53.0
 20
20.762905
 30
0.0
 11
53.0
 21
21.806905
 31
0.0
  0
LINE
  5
22F
330
1D
100
AcDbEntity
  8
0
100
AcDbLine
 10
53.0
 20
21.806905
 30
0.0
 11
53.0
 21
20.762905
 31
0.0
  0
LINE
  5
230
330
1D
100
AcDbEntity
  8
0
100
AcDbLine
 10
53.0
 20
21.806905
 30
0.0
 11
53.0
 21
22.724905
 31
0.0
  0
LINE
  5
231
330
1D
100
AcDbEntity
  8
0
100
AcDbLine
 10
53.0
 20
22.724905
 30
0.0
 11
53.0
 21
21.806905
 31
0.0
  0
LINE
  5
232
330
1D
100
AcDbEntity
  8
0
100
AcDbLine
 10
53.0
 20
22.724905
 30
0.0
 11
53.0
 21
23.426905
 31
0.0
  0
LINE
  5
233
330
1D
100
AcDbEntity
  8
0
100
AcDbLine
 10
53.0
 20
23.426905
 30
0.0
 11
53.0
 21
22.724905
 31
0.0
  0
LINE
  5
234
330
1D
100
AcDbEntity
  8
0
100
AcDbLine
 10
53.0
 20
23.426905
 30
0.0
 11
53.0
 21
23.858905
 31
0.0
  0
LINE
  5
235
330
1D
100
AcDbEntity
  8
0
100
AcDbLine
 10
53.0
 20
23.858905
 30
0.0
 11
53.0
 21
23.426905
 31
0.0
  0
LINE
  5
236
330
1D
100
AcDbEntity
  8
0
100
AcDbLine
 10
53.0
 20
23.858905
 30
0.0
 11
53.0
 21
24.020905
 31
0.0
  0
LINE
  5
237
330
1D
100
AcDbEntity
  8
0
100
AcDbLine
 10
53.0
 20
24.020905
 30
0.0
 11
53.0
 21
23.858905
 31
0.0
  0
LINE
  5
238
330
1D
100
AcDbEntity
  8
0
100
AcDbLine
 10
53.0
 20
24.020905
 30
0.0
 11
53.3
 21
24.128905
 31
0.0
  0
LINE
  5
239
330
1D
100
AcDbEntity
  8
0
100
AcDbLine
 10
53.0
 20
19.628905
 30
0.0
 11
53.0
 21
18.494905
 31
0.0
  0
LINE
  5
23A
330
1D
100
AcDbEntity
  8
0
100
AcDbLine
 10
53.0
 20
19.628905
 30
0.0
 11
53.0
 21
20.762905
 31
0.0
  0
LINE
  5
23B
330
1D
100
AcDbEntity
  8
0
100
AcDbLine
 10
53.0
 20
18.494905
 30
0.0
 11
53.0
 21
17.450905
 31
0.0
  0
LINE
  5
23C
330
1D
100
AcDbEntity
  8
0
100
AcDbLine
 10
53.0
 20
18.494905
 30
0.0
 11
53.0
 21
19.628905
 31
0.0
  0
LINE
  5
23D
330
1D
100
AcDbEntity
  8
0
100
AcDbLine
 10
53.3
 20
24.128905
 30
0.0
 11
57.156067468392
 21
24.128905
 31
0.0
  0
LINE
  5
23E
330
1D
100
AcDbEntity
  8
0
100
AcDbLine
 10
53.0
 20
17.450905
 30
0.0
 11
53.0
 21
16.532905
 31
0.0
  0
LINE
  5
23F
330
1D
100
AcDbEntity
  8
0
100
AcDbLine
 10
53.0
 20
17.450905
 30
0.0
 11
53.0
 21
18.494905
 31
0.0
  0
LINE
  5
240
330
1D
100
AcDbEntity
  8
0
100
AcDbLine
 10
56.654
 20
25.623605
 30
0.0
 11
56.8782
 21
25.618405
 31
0.0
  0
LINE
  5
241
330
1D
100
AcDbEntity
  8
0
100
AcDbLine
 10
56.8782
 20
25.618405
 30
0.0
 11
57.0577
 21
25.599105
 31
0.0
  0
LINE
  5
242
330
1D
100
AcDbEntity
  8
0
100
AcDbLine
 10
57.0577
 20
25.599105
 30
0.0
 11
57.153864189127
 21
25.552670578459
 31
0.0
  0
LINE
  5
244
330
1D
100
AcDbEntity
  8
0
100
AcDbLine
 10
57.1323
 20
39.406805
 30
0.0
 11
57.1386
 21
35.804705
 31
0.0
  0
LINE
  5
248
330
1D
100
AcDbEntity
  8
0
100
AcDbLine
 10
20.667
 20
16.784505
 30
0.0
 11
53.0
 21
16.834262032658
 31
0.0
  0
LINE
  5
249
330
1D
100
AcDbEntity
  8
0
100
AcDbLine
 10
20.6541
 20
25.568205
 30
0.0
 11
56.654
 21
25.623605
 31
0.0
  0
LINE
  5
24A
330
1D
100
AcDbEntity
  8
0
100
AcDbLine
 10
19.3244
 20
44.256805
 30
0.0
 11
20.6247
 21
44.301805
 31
0.0
  0
LINE
  5
24B
330
1D
100
AcDbEntity
  8
0
100
AcDbLine
 10
57.029
 20
44.383805
 30
0.0
 11
57.1248
 21
44.430305
 31
0.0
  0
LINE
  5
24C
330
1D
100
AcDbEntity
  8
0
100
AcDbLine
 10
56.8484
 20
44.364105
 30
0.0
 11
57.029
 21
44.383805
 31
0.0
  0
LINE
  5
24D
330
1D
100
AcDbEntity
  8
0
100
AcDbLine
 10
56.6246
 20
44.357205
 30
0.0
 11
56.8484
 21
44.364105
 31
0.0
  0
LINE
  5
24E
330
1D
100
AcDbEntity
  8
0
100
AcDbLine
 10
57.1248
 20
44.430305
 30
0.0
 11
57.126904995572
 21
43.199026112675
 31
0.0
  0
LINE
  5
24F
330
1D
100
AcDbEntity
  8
0
100
AcDbLine
 10
20.6247
 20
44.301805
 30
0.0
 11
56.6246
 21
44.357205
 31
0.0
  0
LINE
  5
250
330
1D
100
AcDbEntity
  8
0
100
AcDbLine
 10
20.6247
 20
44.301805
 30
0.0
 11
56.6246
 21
44.357205
 31
0.0
  0
LINE
  5
251
330
1D
100
AcDbEntity
  8
0
100
AcDbLine
 10
57.1273
 20
42.958905
 30
0.0
 11
57.1323
 21
39.406805
 31
0.0
  0
LINE
  5
252
330
1D
100
AcDbEntity
  8
0
100
AcDbLine
 10
57.1546
 20
25.107505
 30
0.0
 11
57.1597
 21
21.706505
 31
0.0
  0
LINE
  5
253
330
1D
100
AcDbEntity
  8
0
100
AcDbLine
 10
57.6545
 20
24.964505
 30
0.0
 11
57.6599
 21
21.514505
 31
0.0
  0
LINE
  5
254
330
1D
100
AcDbEntity
  8
0
100
AcDbLine
 10
57.1597
 20
21.706505
 30
0.0
 11
57.1649
 21
18.451505
 31
0.0
  0
LINE
  5
255
330
1D
100
AcDbEntity
  8
0
100
AcDbLine
 10
57.6599
 20
21.514505
 30
0.0
 11
57.6653
 21
18.212505
 31
0.0
  0
LINE
  5
256
330
1D
100
AcDbEntity
  8
0
100
AcDbLine
 10
57.1649
 20
18.451505
 30
0.0
 11
57.1693
 21
15.377505
 31
0.0
  0
LINE
  5
257
330
1D
100
AcDbEntity
  8
0
100
AcDbLine
 10
62.6648
 20
18.220405
 30
0.0
 11
62.6705
 21
15.100505
 31
0.0
  0
LINE
  5
258
330
1D
100
AcDbEntity
  8
0
100
AcDbLine
 10
62.6604
 20
21.522405
 30
0.0
 11
62.6648
 21
18.220405
 31
0.0
  0
LINE
  5
259
330
1D
100
AcDbEntity
  8
0
100
AcDbLine
 10
62.6551
 20
24.972405
 30
0.0
 11
62.6604
 21
21.522405
 31
0.0
  0
LINE
  5
25A
330
1D
100
AcDbEntity
  8
0
100
AcDbLine
 10
57.6653
 20
18.212505
 30
0.0
 11
57.6699
 21
15.093605
 31
0.0
  0
LINE
  5
25B
330
1D
100
AcDbEntity
  8
0
100
AcDbLine
 10
57.1693
 20
15.377505
 30
0.0
 11
57.1742
 21
12.517705
 31
0.0
  0
LINE
  5
25C
330
1D
100
AcDbEntity
  8
0
100
AcDbLine
 10
57.1549
 20
24.752405
 30
0.0
 11
57.155800546786
 21
24.128905
 31
0.0
  0
LINE
  5
25D
330
1D
100
AcDbEntity
  8
0
100
AcDbLine
 10
57.1496
 20
28.126405
 30
0.0
 11
57.14990430839
 21
27.948398424051
 31
0.0
  0
LINE
  5
25E
330
1D
100
AcDbEntity
  8
0
100
AcDbLine
 10
57.1496
 20
28.126405
 30
0.0
 11
57.14990430839
 21
27.948398424051
 31
0.0
  0
LINE
  5
25F
330
1D
100
AcDbEntity
  8
0
100
AcDbLine
 10
57.6275
 20
43.075005
 30
0.0
 11
57.6328
 21
39.470905
 31
0.0
  0
LINE
  5
260
330
1D
100
AcDbEntity
  8
0
100
AcDbLine
 10
57.6328
 20
39.470905
 30
0.0
 11
57.6384
 21
35.817805
 31
0.0
  0
LINE
  5
261
330
1D
100
AcDbEntity
  8
0
100
AcDbLine
 10
57.1386
 20
35.804705
 30
0.0
 11
57.1441
 21
32.196605
 31
0.0
  0
LINE
  5
262
330
1D
100
AcDbEntity
  8
0
100
AcDbLine
 10
57.6384
 20
35.817805
 30
0.0
 11
57.6443
 21
32.156705
 31
0.0
  0
LINE
  5
263
330
1D
100
AcDbEntity
  8
0
100
AcDbLine
 10
57.1441
 20
32.196605
 30
0.0
 11
57.1488
 21
28.616505
 31
0.0
  0
LINE
  5
264
330
1D
100
AcDbEntity
  8
0
100
AcDbLine
 10
57.6443
 20
32.156705
 30
0.0
 11
57.6494
 21
28.524605
 31
0.0
  0
LINE
  5
265
330
1D
100
AcDbEntity
  8
0
100
AcDbLine
 10
57.1488
 20
28.616505
 30
0.0
 11
57.1546
 21
25.107505
 31
0.0
  0
LINE
  5
266
330
1D
100
AcDbEntity
  8
0
100
AcDbLine
 10
62.6499
 20
28.532505
 30
0.0
 11
62.6551
 21
24.972405
 31
0.0
  0
LINE
  5
267
330
1D
100
AcDbEntity
  8
0
100
AcDbLine
 10
62.6438
 20
32.164605
 30
0.0
 11
62.6499
 21
28.532505
 31
0.0
  0
LINE
  5
268
330
1D
100
AcDbEntity
  8
0
100
AcDbLine
 10
62.6379
 20
35.825705
 30
0.0
 11
62.6438
 21
32.164605
 31
0.0
  0
LINE
  5
269
330
1D
100
AcDbEntity
  8
0
100
AcDbLine
 10
62.6323
 20
39.478805
 30
0.0
 11
62.6379
 21
35.825705
 31
0.0
  0
LINE
  5
26A
330
1D
100
AcDbEntity
  8
0
100
AcDbLine
 10
62.627
 20
43.082905
 30
0.0
 11
62.6323
 21
39.478805
 31
0.0
  0
LINE
  5
26B
330
1D
100
AcDbEntity
  8
0
100
AcDbLine
 10
57.6494
 20
28.524605
 30
0.0
 11
57.6545
 21
24.964505
 31
0.0
  0
LINE
  5
26C
330
1D
100
AcDbEntity
  8
0
100
AcDbLine
 10
57.154517340191
 20
25.157514184418
 30
0.0
 11
57.1549
 21
24.752405
 31
0.0
  0
LINE
  5
26D
330
1D
100
AcDbEntity
  8
0
100
AcDbLine
 10
57.133681957981
 20
38.616654072297
 30
0.0
 11
57.1373
 21
36.388905
 31
0.0
  0
LINE
  5
26E
330
1D
100
AcDbEntity
  8
0
100
AcDbLine
 10
53.0
 20
51.567605
 30
0.0
 11
53.0
 21
50.433605
 31
0.0
  0
LINE
  5
26F
330
1D
100
AcDbEntity
  8
0
100
AcDbLine
 10
53.0
 20
51.567605
 30
0.0
 11
53.0
 21
52.611605
 31
0.0
  0
LINE
  5
270
330
1D
100
AcDbEntity
  8
0
100
AcDbLine
 10
53.0
 20
52.611605
 30
0.0
 11
53.0
 21
51.567605
 31
0.0
  0
LINE
  5
271
330
1D
100
AcDbEntity
  8
0
100
AcDbLine
 10
53.0
 20
52.611605
 30
0.0
 11
53.0
 21
53.529605
 31
0.0
  0
LINE
  5
272
330
1D
100
AcDbEntity
  8
0
100
AcDbLine
 10
53.0
 20
50.433605
 30
0.0
 11
53.0
 21
49.299605
 31
0.0
  0
LINE
  5
273
330
1D
100
AcDbEntity
  8
0
100
AcDbLine
 10
53.0
 20
50.433605
 30
0.0
 11
53.0
 21
51.567605
 31
0.0
  0
LINE
  5
274
330
1D
100
AcDbEntity
  8
0
100
AcDbLine
 10
53.0
 20
49.299605
 30
0.0
 11
53.0
 21
48.255605
 31
0.0
  0
LINE
  5
275
330
1D
100
AcDbEntity
  8
0
100
AcDbLine
 10
53.0
 20
49.299605
 30
0.0
 11
53.0
 21
50.433605
 31
0.0
  0
LINE
  5
276
330
1D
100
AcDbEntity
  8
0
100
AcDbLine
 10
53.0
 20
48.255605
 30
0.0
 11
53.0
 21
47.337605
 31
0.0
  0
LINE
  5
277
330
1D
100
AcDbEntity
  8
0
100
AcDbLine
 10
53.0
 20
48.255605
 30
0.0
 11
53.0
 21
49.299605
 31
0.0
  0
LINE
  5
278
330
1D
100
AcDbEntity
  8
0
100
AcDbLine
 10
53.0
 20
47.337605
 30
0.0
 11
53.0
 21
46.635605
 31
0.0
  0
LINE
  5
279
330
1D
100
AcDbEntity
  8
0
100
AcDbLine
 10
53.0
 20
47.337605
 30
0.0
 11
53.0
 21
48.255605
 31
0.0
  0
LINE
  5
27A
330
1D
100
AcDbEntity
  8
0
100
AcDbLine
 10
53.0
 20
46.635605
 30
0.0
 11
53.0
 21
46.203605
 31
0.0
  0
LINE
  5
27B
330
1D
100
AcDbEntity
  8
0
100
AcDbLine
 10
53.0
 20
46.635605
 30
0.0
 11
53.0
 21
47.337605
 31
0.0
  0
LINE
  5
27C
330
1D
100
AcDbEntity
  8
0
100
AcDbLine
 10
53.0
 20
46.203605
 30
0.0
 11
53.0
 21
46.041605
 31
0.0
  0
LINE
  5
27D
330
1D
100
AcDbEntity
  8
0
100
AcDbLine
 10
53.0
 20
46.203605
 30
0.0
 11
53.0
 21
46.635605
 31
0.0
  0
LINE
  5
27E
330
1D
100
AcDbEntity
  8
0
100
AcDbLine
 10
53.0
 20
46.041605
 30
0.0
 11
53.3
 21
45.933605
 31
0.0
  0
LINE
  5
27F
330
1D
100
AcDbEntity
  8
0
100
AcDbLine
 10
53.0
 20
46.041605
 30
0.0
 11
53.0
 21
46.203605
 31
0.0
  0
LINE
  5
280
330
1D
100
AcDbEntity
  8
0
100
AcDbLine
 10
53.3
 20
45.933605
 30
0.0
 11
57.122406554113
 21
45.933605
 31
0.0
  0
LINE
  5
281
330
1D
100
AcDbEntity
  8
0
100
AcDbLine
 10
53.0
 20
53.529605
 30
0.0
 11
53.0
 21
52.611605
 31
0.0
  0
LINE
  5
282
330
1D
100
AcDbEntity
  8
0
100
AcDbLine
 10
53.0
 20
53.529605
 30
0.0
 11
53.0
 21
54.231605
 31
0.0
  0
LINE
  5
283
330
1D
100
AcDbEntity
  8
0
100
AcDbLine
 10
53.0
 20
54.231605
 30
0.0
 11
53.0
 21
53.529605
 31
0.0
  0
LINE
  5
284
330
1D
100
AcDbEntity
  8
0
100
AcDbLine
 10
53.0
 20
54.231605
 30
0.0
 11
53.0
 21
54.663605
 31
0.0
  0
LINE
  5
285
330
1D
100
AcDbEntity
  8
0
100
AcDbLine
 10
53.0
 20
54.663605
 30
0.0
 11
53.0
 21
54.231605
 31
0.0
  0
LINE
  5
286
330
1D
100
AcDbEntity
  8
0
100
AcDbLine
 10
53.0
 20
54.663605
 30
0.0
 11
53.0
 21
54.825605
 31
0.0
  0
LINE
  5
287
330
1D
100
AcDbEntity
  8
0
100
AcDbLine
 10
53.0
 20
54.825605
 30
0.0
 11
53.0
 21
54.663605
 31
0.0
  0
LINE
  5
288
330
1D
100
AcDbEntity
  8
0
100
AcDbLine
 10
53.0
 20
54.825605
 30
0.0
 11
53.3
 21
54.933605
 31
0.0
  0
LINE
  5
289
330
1D
100
AcDbEntity
  8
0
100
AcDbLine
 10
53.3
 20
54.933605
 30
0.0
 11
57.108659230434
 21
54.933605
 31
0.0
  0
LINE
  5
28A
330
1D
100
AcDbEntity
  8
0
100
AcDbLine
 10
56.6083
 20
55.368605
 30
0.0
 11
56.8574
 21
55.483105
 31
0.0
  0
LINE
  5
28B
330
1D
100
AcDbEntity
  8
0
100
AcDbLine
 10
20.6084
 20
55.313205
 30
0.0
 11
56.6083
 21
55.368605
 31
0.0
  0
LINE
  5
28C
330
1D
100
AcDbEntity
  8
0
100
AcDbLine
 10
56.8574
 20
55.483105
 30
0.0
 11
56.8582
 21
55.338105
 31
0.0
  0
LINE
  5
28D
330
1D
100
AcDbEntity
  8
0
100
AcDbLine
 10
56.8574
 20
55.483105
 30
0.0
 11
57.0407
 21
55.666005
 31
0.0
  0
LINE
  5
28E
330
1D
100
AcDbEntity
  8
0
100
AcDbLine
 10
57.0407
 20
55.666005
 30
0.0
 11
57.107090485613
 21
55.868859287375
 31
0.0
  0
LINE
  5
28F
330
1D
100
AcDbEntity
  8
0
100
AcDbLine
 10
57.0959
 20
63.373105
 30
0.0
 11
57.0987
 21
61.167405
 31
0.0
  0
LINE
  5
290
330
1D
100
AcDbEntity
  8
0
100
AcDbLine
 10
57.0936
 20
64.454405
 30
0.0
 11
57.097
 21
62.415805
 31
0.0
  0
LINE
  5
291
330
1D
100
AcDbEntity
  8
0
100
AcDbLine
 10
56.8582
 20
55.338105
 30
0.0
 11
56.858572725178
 21
54.933605
 31
0.0
  0
LINE
  5
292
330
1D
100
AcDbEntity
  8
0
100
AcDbLine
 10
20.6117
 20
53.085505
 30
0.0
 11
53.0
 21
53.13534713345
 31
0.0
  0
LINE
  5
293
330
1D
100
AcDbEntity
  8
0
100
AcDbLine
 10
57.0987
 20
61.167405
 30
0.0
 11
57.1029
 21
58.674605
 31
0.0
  0
LINE
  5
294
330
1D
100
AcDbEntity
  8
0
100
AcDbLine
 10
57.1029
 20
58.674605
 30
0.0
 11
57.107
 21
55.922805
 31
0.0
  0
LINE
  5
295
330
1D
100
AcDbEntity
  8
0
100
AcDbLine
 10
57.107
 20
55.922805
 30
0.0
 11
57.112
 21
52.941905
 31
0.0
  0
LINE
  5
296
330
1D
100
AcDbEntity
  8
0
100
AcDbLine
 10
57.112
 20
52.941905
 30
0.0
 11
57.1162
 21
49.762905
 31
0.0
  0
LINE
  5
297
330
1D
100
AcDbEntity
  8
0
100
AcDbLine
 10
57.097
 20
62.415805
 30
0.0
 11
57.097392702271
 21
62.197228785838
 31
0.0
  0
LINE
  5
298
330
1D
100
AcDbEntity
  8
0
100
AcDbLine
 10
57.0923
 20
65.267605
 30
0.0
 11
57.0959
 21
63.373105
 31
0.0
  0
LINE
  5
299
330
1D
100
AcDbEntity
  8
0
100
AcDbLine
 10
57.093256823509
 20
64.764076628489
 30
0.0
 11
57.0936
 21
64.454405
 31
0.0
  0
LINE
  5
29A
330
1D
100
AcDbEntity
  8
0
100
AcDbLine
 10
57.6114
 20
53.202105
 30
0.0
 11
57.6167
 21
49.979105
 31
0.0
  0
LINE
  5
29B
330
1D
100
AcDbEntity
  8
0
100
AcDbLine
 10
62.622
 20
46.598005
 30
0.0
 11
62.627
 21
43.082905
 31
0.0
  0
LINE
  5
29C
330
1D
100
AcDbEntity
  8
0
100
AcDbLine
 10
62.6163
 20
49.986005
 30
0.0
 11
62.622
 21
46.598005
 31
0.0
  0
LINE
  5
29D
330
1D
100
AcDbEntity
  8
0
100
AcDbLine
 10
62.6109
 20
53.210005
 30
0.0
 11
62.6163
 21
49.986005
 31
0.0
  0
LINE
  5
29E
330
1D
100
AcDbEntity
  8
0
100
AcDbLine
 10
57.6167
 20
49.979105
 30
0.0
 11
57.6214
 21
46.590105
 31
0.0
  0
LINE
  5
29F
330
1D
100
AcDbEntity
  8
0
100
AcDbLine
 10
57.6214
 20
46.590105
 30
0.0
 11
57.6275
 21
43.075005
 31
0.0
  0
LINE
  5
2A0
330
1D
100
AcDbEntity
  8
0
100
AcDbLine
 10
57.1216
 20
46.423905
 30
0.0
 11
57.1273
 21
42.958905
 31
0.0
  0
LINE
  5
2A1
330
1D
100
AcDbEntity
  8
0
100
AcDbLine
 10
57.5953
 20
63.785305
 30
0.0
 11
57.5989
 21
61.547605
 31
0.0
  0
LINE
  5
2A2
330
1D
100
AcDbEntity
  8
0
100
AcDbLine
 10
57.5989
 20
61.547605
 30
0.0
 11
57.6021
 21
59.018805
 31
0.0
  0
LINE
  5
2A3
330
1D
100
AcDbEntity
  8
0
100
AcDbLine
 10
57.6021
 20
59.018805
 30
0.0
 11
57.6072
 21
56.227005
 31
0.0
  0
LINE
  5
2A4
330
1D
100
AcDbEntity
  8
0
100
AcDbLine
 10
62.6067
 20
56.234905
 30
0.0
 11
62.6109
 21
53.210005
 31
0.0
  0
LINE
  5
2A5
330
1D
100
AcDbEntity
  8
0
100
AcDbLine
 10
62.6026
 20
59.026705
 30
0.0
 11
62.6067
 21
56.234905
 31
0.0
  0
LINE
  5
2A6
330
1D
100
AcDbEntity
  8
0
100
AcDbLine
 10
62.5984
 20
61.555505
 30
0.0
 11
62.6026
 21
59.026705
 31
0.0
  0
LINE
  5
2A7
330
1D
100
AcDbEntity
  8
0
100
AcDbLine
 10
63.0932
 20
65.276705
 30
0.0
 11
63.0958
 21
63.382105
 31
0.0
  0
LINE
  5
2A8
330
1D
100
AcDbEntity
  8
0
100
AcDbLine
 10
62.5948
 20
63.793205
 30
0.0
 11
62.5984
 21
61.555505
 31
0.0
  0
LINE
  5
2A9
330
1D
100
AcDbEntity
  8
0
100
AcDbLine
 10
57.6072
 20
56.227005
 30
0.0
 11
57.6114
 21
53.202105
 31
0.0
  0
LINE
  5
2AA
330
1D
100
AcDbEntity
  8
0
100
AcDbLine
 10
57.1162
 20
49.762905
 30
0.0
 11
57.1216
 21
46.423905
 31
0.0
  0
LINE
  5
2AB
330
1D
100
AcDbEntity
  8
0
100
AcDbLine
 10
63.1673
 20
17.214205
 30
0.0
 11
63.168316699132
 21
16.439164734506
 31
0.0
  0
LINE
  5
2AC
330
1D
100
AcDbEntity
  8
0
100
AcDbLine
 10
90.6691
 20
16.055705
 30
0.0
 11
90.6717
 21
14.234105
 31
0.0
  0
LINE
  5
2AD
330
1D
100
AcDbEntity
  8
0
100
AcDbLine
 10
90.6651
 20
18.155305
 30
0.0
 11
90.6691
 21
16.055705
 31
0.0
  0
LINE
  5
2AE
330
1D
100
AcDbEntity
  8
0
100
AcDbLine
 10
63.1658
 20
18.112505
 30
0.0
 11
63.166355380527
 21
17.710773368626
 31
0.0
  0
LINE
  5
2AF
330
1D
100
AcDbEntity
  8
0
100
AcDbLine
 10
63.1702
 20
15.386605
 30
0.0
 11
63.174
 21
12.526805
 31
0.0
  0
LINE
  5
2B0
330
1D
100
AcDbEntity
  8
0
100
AcDbLine
 10
63.1647
 20
18.460505
 30
0.0
 11
63.1702
 21
15.386605
 31
0.0
  0
LINE
  5
2B1
330
1D
100
AcDbEntity
  8
0
100
AcDbLine
 10
63.1603
 20
21.417405
 30
0.0
 11
63.164020730494
 21
18.885701585037
 31
0.0
  0
LINE
  5
2B2
330
1D
100
AcDbEntity
  8
0
100
AcDbLine
 10
63.1595
 20
21.715505
 30
0.0
 11
63.1647
 21
18.460505
 31
0.0
  0
LINE
  5
2B3
330
1D
100
AcDbEntity
  8
0
100
AcDbLine
 10
63.1544
 20
25.116605
 30
0.0
 11
63.1595
 21
21.715505
 31
0.0
  0
LINE
  5
2B4
330
1D
100
AcDbEntity
  8
0
100
AcDbLine
 10
63.1496
 20
28.625605
 30
0.0
 11
63.1544
 21
25.116605
 31
0.0
  0
LINE
  5
2B5
330
1D
100
AcDbEntity
  8
0
100
AcDbLine
 10
63.143451125112
 20
32.500256701185
 30
0.0
 11
63.1452
 21
31.391505
 31
0.0
  0
LINE
  5
2B6
330
1D
100
AcDbEntity
  8
0
100
AcDbLine
 10
63.1384
 20
35.814805
 30
0.0
 11
63.1439
 21
32.205705
 31
0.0
  0
LINE
  5
2B7
330
1D
100
AcDbEntity
  8
0
100
AcDbLine
 10
63.1295
 20
41.387505
 30
0.0
 11
63.1348
 21
38.014505
 31
0.0
  0
LINE
  5
2B8
330
1D
100
AcDbEntity
  8
0
100
AcDbLine
 10
63.128273005311
 20
42.150788300194
 30
0.0
 11
63.1295
 21
41.387505
 31
0.0
  0
LINE
  5
2B9
330
1D
100
AcDbEntity
  8
0
100
AcDbLine
 10
63.128273005311
 20
42.150788300194
 30
0.0
 11
63.1295
 21
41.387505
 31
0.0
  0
LINE
  5
2BA
330
1D
100
AcDbEntity
  8
0
100
AcDbLine
 10
63.1271
 20
42.968005
 30
0.0
 11
63.1322
 21
39.414905
 31
0.0
  0
LINE
  5
2BB
330
1D
100
AcDbEntity
  8
0
100
AcDbLine
 10
63.1261
 20
43.925305
 30
0.0
 11
63.128738317029
 21
41.861329293484
 31
0.0
  0
LINE
  5
2BC
330
1D
100
AcDbEntity
  8
0
100
AcDbLine
 10
63.1348
 20
38.014505
 30
0.0
 11
63.136262611943
 21
37.055903506894
 31
0.0
  0
LINE
  5
2BD
330
1D
100
AcDbEntity
  8
0
100
AcDbLine
 10
63.1322
 20
39.414905
 30
0.0
 11
63.1384
 21
35.814805
 31
0.0
  0
LINE
  5
2BE
330
1D
100
AcDbEntity
  8
0
100
AcDbLine
 10
63.13181673274
 20
39.913101314719
 30
0.0
 11
63.1357
 21
37.600305
 31
0.0
  0
LINE
  5
2BF
330
1D
100
AcDbEntity
  8
0
100
AcDbLine
 10
63.1357
 20
37.600305
 30
0.0
 11
63.136830125006
 21
36.726370639867
 31
0.0
  0
LINE
  5
2C0
330
1D
100
AcDbEntity
  8
0
100
AcDbLine
 10
63.1439
 20
32.205705
 30
0.0
 11
63.1496
 21
28.625605
 31
0.0
  0
LINE
  5
2C1
330
1D
100
AcDbEntity
  8
0
100
AcDbLine
 10
63.143451125112
 20
32.500256701185
 30
0.0
 11
63.1452
 21
31.391505
 31
0.0
  0
LINE
  5
2C2
330
1D
100
AcDbEntity
  8
0
100
AcDbLine
 10
63.153779753198
 20
25.870609614172
 30
0.0
 11
63.154
 21
25.746805
 31
0.0
  0
LINE
  5
2C3
330
1D
100
AcDbEntity
  8
0
100
AcDbLine
 10
63.15312011199
 20
26.052256464054
 30
0.0
 11
63.1557
 21
24.570405
 31
0.0
  0
LINE
  5
2C4
330
1D
100
AcDbEntity
  8
0
100
AcDbLine
 10
63.153779753198
 20
25.870609614172
 30
0.0
 11
63.154
 21
25.746805
 31
0.0
  0
LINE
  5
2C5
330
1D
100
AcDbEntity
  8
0
100
AcDbLine
 10
63.151417860838
 20
27.29667298329
 30
0.0
 11
63.1548
 21
25.254605
 31
0.0
  0
LINE
  5
2C6
330
1D
100
AcDbEntity
  8
0
100
AcDbLine
 10
63.1557
 20
24.570405
 30
0.0
 11
63.1603
 21
21.417405
 31
0.0
  0
LINE
  5
2C7
330
1D
100
AcDbEntity
  8
0
100
AcDbLine
 10
63.1548
 20
25.254605
 30
0.0
 11
63.1592
 21
22.376705
 31
0.0
  0
LINE
  5
2C8
330
1D
100
AcDbEntity
  8
0
100
AcDbLine
 10
63.1592
 20
22.376705
 30
0.0
 11
63.161094646354
 21
20.876702336391
 31
0.0
  0
LINE
  5
2C9
330
1D
100
AcDbEntity
  8
0
100
AcDbLine
 10
90.6617
 20
20.500005
 30
0.0
 11
90.6651
 21
18.155305
 31
0.0
  0
LINE
  5
2CA
330
1D
100
AcDbEntity
  8
0
100
AcDbLine
 10
90.6578
 20
23.057805
 30
0.0
 11
90.6617
 21
20.500005
 31
0.0
  0
LINE
  5
2CB
330
1D
100
AcDbEntity
  8
0
100
AcDbLine
 10
90.6533
 20
25.789605
 30
0.0
 11
90.6578
 21
23.057805
 31
0.0
  0
LINE
  5
2CC
330
1D
100
AcDbEntity
  8
0
100
AcDbLine
 10
90.6492
 20
28.656505
 30
0.0
 11
90.6533
 21
25.789605
 31
0.0
  0
LINE
  5
2CD
330
1D
100
AcDbEntity
  8
0
100
AcDbLine
 10
90.6447
 20
31.616405
 30
0.0
 11
90.6492
 21
28.656505
 31
0.0
  0
LINE
  5
2CE
330
1D
100
AcDbEntity
  8
0
100
AcDbLine
 10
90.6399
 20
34.626305
 30
0.0
 11
90.6447
 21
31.616405
 31
0.0
  0
LINE
  5
2CF
330
1D
100
AcDbEntity
  8
0
100
AcDbLine
 10
90.635
 20
37.642205
 30
0.0
 11
90.6399
 21
34.626305
 31
0.0
  0
LINE
  5
2D0
330
1D
100
AcDbEntity
  8
0
100
AcDbLine
 10
90.631
 20
40.620105
 30
0.0
 11
90.635
 21
37.642205
 31
0.0
  0
LINE
  5
2D1
330
1D
100
AcDbEntity
  8
0
100
AcDbLine
 10
90.6262
 20
43.517005
 30
0.0
 11
90.631
 21
40.620105
 31
0.0
  0
LINE
  5
2D2
330
1D
100
AcDbEntity
  8
0
100
AcDbLine
 10
63.16283086534
 20
19.69532369504
 30
0.0
 11
63.1658
 21
18.112505
 31
0.0
  0
LINE
  5
2D3
330
1D
100
AcDbEntity
  8
0
100
AcDbLine
 10
63.163682428248
 20
19.115893197491
 30
0.0
 11
63.1673
 21
17.214205
 31
0.0
  0
LINE
  5
2D4
330
1D
100
AcDbEntity
  8
0
100
AcDbLine
 10
91.1508
 20
27.534205
 30
0.0
 11
91.1557
 21
24.671405
 31
0.0
  0
LINE
  5
2D5
330
1D
100
AcDbEntity
  8
0
100
AcDbLine
 10
91.158021084371
 20
22.977766193026
 30
0.0
 11
91.1592
 21
22.206605
 31
0.0
  0
LINE
  5
2D6
330
1D
100
AcDbEntity
  8
0
100
AcDbLine
 10
91.159184424772
 20
22.128905
 30
0.0
 11
126.4
 21
22.128905
 31
0.0
  0
LINE
  5
2D7
330
1D
100
AcDbEntity
  8
0
100
AcDbLine
 10
91.1594
 20
21.971605
 30
0.0
 11
91.1637
 21
19.476805
 31
0.0
  0
LINE
  5
2D8
330
1D
100
AcDbEntity
  8
0
100
AcDbLine
 10
91.1665
 20
17.229105
 30
0.0
 11
91.17
 21
15.261505
 31
0.0
  0
LINE
  5
2D9
330
1D
100
AcDbEntity
  8
0
100
AcDbLine
 10
91.1666
 20
17.530205
 30
0.0
 11
91.1674
 21
17.121105
 31
0.0
  0
LINE
  5
2DA
330
1D
100
AcDbEntity
  8
0
100
AcDbLine
 10
91.1637
 20
19.476805
 30
0.0
 11
91.1665
 21
17.229105
 31
0.0
  0
LINE
  5
2DB
330
1D
100
AcDbEntity
  8
0
100
AcDbLine
 10
91.16543587703
 20
18.083329713831
 30
0.0
 11
91.1666
 21
17.530205
 31
0.0
  0
LINE
  5
2DC
330
1D
100
AcDbEntity
  8
0
100
AcDbLine
 10
91.1631
 20
19.957005
 30
0.0
 11
91.163490662292
 21
19.598259817061
 31
0.0
  0
LINE
  5
2DD
330
1D
100
AcDbEntity
  8
0
100
AcDbLine
 10
91.162272454417
 20
20.305047028155
 30
0.0
 11
91.1631
 21
19.957005
 31
0.0
  0
LINE
  5
2DE
330
1D
100
AcDbEntity
  8
0
100
AcDbLine
 10
91.1606
 20
21.581505
 30
0.0
 11
91.160840461805
 21
21.135869160344
 31
0.0
  0
LINE
  5
2DF
330
1D
100
AcDbEntity
  8
0
100
AcDbLine
 10
91.15927099321
 20
22.065738117029
 30
0.0
 11
91.1606
 21
21.581505
 31
0.0
  0
LINE
  5
2E0
330
1D
100
AcDbEntity
  8
0
100
AcDbLine
 10
91.1592
 20
22.206605
 30
0.0
 11
91.159333276158
 21
22.128905
 31
0.0
  0
LINE
  5
2E2
330
1D
100
AcDbEntity
  8
0
100
AcDbLine
 10
91.167500592525
 20
17.089405
 30
0.0
 11
126.4
 21
17.089405
 31
0.0
  0
LINE
  5
2E5
330
1D
100
AcDbEntity
  8
0
100
AcDbLine
 10
126.4
 20
17.089405
 30
0.0
 11
127.0
 21
17.188905
 31
0.0
  0
LINE
  5
2E6
330
1D
100
AcDbEntity
  8
0
100
AcDbLine
 10
127.0
 20
18.998905
 30
0.0
 11
127.0
 21
19.628905
 31
0.0
  0
LINE
  5
2E7
330
1D
100
AcDbEntity
  8
0
100
AcDbLine
 10
127.0
 20
18.998905
 30
0.0
 11
127.0
 21
18.418905
 31
0.0
  0
LINE
  5
2E8
330
1D
100
AcDbEntity
  8
0
100
AcDbLine
 10
127.0
 20
18.418905
 30
0.0
 11
127.0
 21
18.998905
 31
0.0
  0
LINE
  5
2E9
330
1D
100
AcDbEntity
  8
0
100
AcDbLine
 10
127.0
 20
18.418905
 30
0.0
 11
127.0
 21
17.908905
 31
0.0
  0
LINE
  5
2EA
330
1D
100
AcDbEntity
  8
0
100
AcDbLine
 10
127.0
 20
17.908905
 30
0.0
 11
127.0
 21
18.418905
 31
0.0
  0
LINE
  5
2EB
330
1D
100
AcDbEntity
  8
0
100
AcDbLine
 10
127.0
 20
17.908905
 30
0.0
 11
127.0
 21
17.518905
 31
0.0
  0
LINE
  5
2EC
330
1D
100
AcDbEntity
  8
0
100
AcDbLine
 10
127.0
 20
17.518905
 30
0.0
 11
127.0
 21
17.908905
 31
0.0
  0
LINE
  5
2ED
330
1D
100
AcDbEntity
  8
0
100
AcDbLine
 10
127.0
 20
17.518905
 30
0.0
 11
127.0
 21
17.278905
 31
0.0
  0
LINE
  5
2EE
330
1D
100
AcDbEntity
  8
0
100
AcDbLine
 10
127.0
 20
17.278905
 30
0.0
 11
127.0
 21
17.518905
 31
0.0
  0
LINE
  5
2EF
330
1D
100
AcDbEntity
  8
0
100
AcDbLine
 10
127.0
 20
17.278905
 30
0.0
 11
127.0
 21
17.188905
 31
0.0
  0
LINE
  5
2F0
330
1D
100
AcDbEntity
  8
0
100
AcDbLine
 10
127.0
 20
19.628905
 30
0.0
 11
127.0
 21
20.258905
 31
0.0
  0
LINE
  5
2F1
330
1D
100
AcDbEntity
  8
0
100
AcDbLine
 10
127.0
 20
19.628905
 30
0.0
 11
127.0
 21
18.998905
 31
0.0
  0
LINE
  5
2F2
330
1D
100
AcDbEntity
  8
0
100
AcDbLine
 10
127.0
 20
20.258905
 30
0.0
 11
127.0
 21
20.838905
 31
0.0
  0
LINE
  5
2F3
330
1D
100
AcDbEntity
  8
0
100
AcDbLine
 10
127.0
 20
20.258905
 30
0.0
 11
127.0
 21
19.628905
 31
0.0
  0
LINE
  5
2F4
330
1D
100
AcDbEntity
  8
0
100
AcDbLine
 10
127.0
 20
20.838905
 30
0.0
 11
127.0
 21
21.348905
 31
0.0
  0
LINE
  5
2F5
330
1D
100
AcDbEntity
  8
0
100
AcDbLine
 10
127.0
 20
20.838905
 30
0.0
 11
127.0
 21
20.258905
 31
0.0
  0
LINE
  5
2F6
330
1D
100
AcDbEntity
  8
0
100
AcDbLine
 10
127.0
 20
21.348905
 30
0.0
 11
127.0
 21
21.738905
 31
0.0
  0
LINE
  5
2F7
330
1D
100
AcDbEntity
  8
0
100
AcDbLine
 10
127.0
 20
21.348905
 30
0.0
 11
127.0
 21
20.838905
 31
0.0
  0
LINE
  5
2F8
330
1D
100
AcDbEntity
  8
0
100
AcDbLine
 10
127.0
 20
22.068905
 30
0.0
 11
127.0
 21
21.978905
 31
0.0
  0
LINE
  5
2F9
330
1D
100
AcDbEntity
  8
0
100
AcDbLine
 10
127.0
 20
21.738905
 30
0.0
 11
127.0
 21
21.978905
 31
0.0
  0
LINE
  5
2FA
330
1D
100
AcDbEntity
  8
0
100
AcDbLine
 10
127.0
 20
21.738905
 30
0.0
 11
127.0
 21
21.348905
 31
0.0
  0
LINE
  5
2FB
330
1D
100
AcDbEntity
  8
0
100
AcDbLine
 10
127.0
 20
21.978905
 30
0.0
 11
127.0
 21
22.068905
 31
0.0
  0
LINE
  5
2FC
330
1D
100
AcDbEntity
  8
0
100
AcDbLine
 10
127.0
 20
21.978905
 30
0.0
 11
127.0
 21
21.738905
 31
0.0
  0
LINE
  5
2FD
330
1D
100
AcDbEntity
  8
0
100
AcDbLine
 10
126.4
 20
22.128905
 30
0.0
 11
127.0
 21
22.068905
 31
0.0
  0
LINE
  5
2FE
330
1D
100
AcDbEntity
  8
0
100
AcDbLine
 10
127.0
 20
17.188905
 30
0.0
 11
127.0
 21
17.278905
 31
0.0
  0
LINE
  5
2FF
330
1D
100
AcDbEntity
  8
0
100
AcDbLine
 10
105.0
 20
22.174505
 30
0.0
 11
105.0
 21
22.750505
 31
0.0
  0
LINE
  5
300
330
1D
100
AcDbEntity
  8
0
100
AcDbLine
 10
91.1674
 20
17.121105
 30
0.0
 11
91.17
 21
15.261505
 31
0.0
  0
LINE
  5
301
330
1D
100
AcDbEntity
  8
0
100
AcDbLine
 10
91.167
 20
17.020105
 30
0.0
 11
91.1674
 21
17.121105
 31
0.0
  0
LINE
  5
302
330
1D
100
AcDbEntity
  8
0
100
AcDbLine
 10
91.158185948085
 20
22.857469151432
 30
0.0
 11
91.1592
 21
22.206605
 31
0.0
  0
LINE
  5
303
330
1D
100
AcDbEntity
  8
0
100
AcDbLine
 10
105.0
 20
22.750505
 30
0.0
 11
105.0
 21
23.710505
 31
0.0
  0
LINE
  5
304
330
1D
100
AcDbEntity
  8
0
100
AcDbLine
 10
105.0
 20
22.750505
 30
0.0
 11
105.0
 21
22.174505
 31
0.0
  0
LINE
  5
305
330
1D
100
AcDbEntity
  8
0
100
AcDbLine
 10
105.0
 20
23.710505
 30
0.0
 11
105.0
 21
24.982505
 31
0.0
  0
LINE
  5
306
330
1D
100
AcDbEntity
  8
0
100
AcDbLine
 10
105.0
 20
23.710505
 30
0.0
 11
105.0
 21
22.750505
 31
0.0
  0
LINE
  5
307
330
1D
100
AcDbEntity
  8
0
100
AcDbLine
 10
91.158185948085
 20
22.857469151432
 30
0.0
 11
91.1592
 21
22.206605
 31
0.0
  0
LINE
  5
308
330
1D
100
AcDbEntity
  8
0
100
AcDbLine
 10
91.158021084371
 20
22.977766193026
 30
0.0
 11
91.1592
 21
22.206605
 31
0.0
  0
LINE
  5
309
330
1D
100
AcDbEntity
  8
0
100
AcDbLine
 10
105.0
 20
24.982505
 30
0.0
 11
105.0
 21
26.422505
 31
0.0
  0
LINE
  5
30A
330
1D
100
AcDbEntity
  8
0
100
AcDbLine
 10
105.0
 20
24.982505
 30
0.0
 11
105.0
 21
23.710505
 31
0.0
  0
LINE
  5
30B
330
1D
100
AcDbEntity
  8
0
100
AcDbLine
 10
105.0
 20
26.422505
 30
0.0
 11
105.0
 21
27.958505
 31
0.0
  0
LINE
  5
30C
330
1D
100
AcDbEntity
  8
0
100
AcDbLine
 10
105.0
 20
26.422505
 30
0.0
 11
105.0
 21
24.982505
 31
0.0
  0
LINE
  5
30D
330
1D
100
AcDbEntity
  8
0
100
AcDbLine
 10
105.0
 20
27.958505
 30
0.0
 11
105.0
 21
29.494505
 31
0.0
  0
LINE
  5
30E
330
1D
100
AcDbEntity
  8
0
100
AcDbLine
 10
105.0
 20
27.958505
 30
0.0
 11
105.0
 21
26.422505
 31
0.0
  0
LINE
  5
30F
330
1D
100
AcDbEntity
  8
0
100
AcDbLine
 10
91.1557
 20
24.671405
 30
0.0
 11
91.1594
 21
21.971605
 31
0.0
  0
LINE
  5
310
330
1D
100
AcDbEntity
  8
0
100
AcDbLine
 10
91.1559
 20
24.586405
 30
0.0
 11
91.156338844044
 21
24.20525604015
 31
0.0
  0
LINE
  5
311
330
1D
100
AcDbEntity
  8
0
100
AcDbLine
 10
91.1532
 20
26.332905
 30
0.0
 11
91.1559
 21
24.586405
 31
0.0
  0
LINE
  5
312
330
1D
100
AcDbEntity
  8
0
100
AcDbLine
 10
91.141406573664
 20
33.958505
 30
0.0
 11
105.0
 21
33.958505
 31
0.0
  0
LINE
  5
313
330
1D
100
AcDbEntity
  8
0
100
AcDbLine
 10
91.1418
 20
33.570105
 30
0.0
 11
91.1467
 21
30.517205
 31
0.0
  0
LINE
  5
314
330
1D
100
AcDbEntity
  8
0
100
AcDbLine
 10
91.148524858544
 20
29.189509137658
 30
0.0
 11
91.153190742498
 21
26.137425892972
 31
0.0
  0
LINE
  5
315
330
1D
100
AcDbEntity
  8
0
100
AcDbLine
 10
91.1467
 20
30.517205
 30
0.0
 11
91.1508
 21
27.534205
 31
0.0
  0
LINE
  5
316
330
1D
100
AcDbEntity
  8
0
100
AcDbLine
 10
91.13833016281
 20
35.958505
 30
0.0
 11
105.0
 21
35.958505
 31
0.0
  0
LINE
  5
317
330
1D
100
AcDbEntity
  8
0
100
AcDbLine
 10
91.1372
 20
36.647005
 30
0.0
 11
91.1418
 21
33.570105
 31
0.0
  0
LINE
  5
318
330
1D
100
AcDbEntity
  8
0
100
AcDbLine
 10
91.140559164601
 20
34.400089008449
 30
0.0
 11
91.142389299196
 21
33.202947548087
 31
0.0
  0
LINE
  5
319
330
1D
100
AcDbEntity
  8
0
100
AcDbLine
 10
91.138418248294
 20
35.958505
 30
0.0
 11
91.140119045986
 21
34.795537333364
 31
0.0
  0
LINE
  5
31A
330
1D
100
AcDbEntity
  8
0
100
AcDbLine
 10
91.140559164601
 20
34.400089008449
 30
0.0
 11
91.142389299196
 21
33.202947548087
 31
0.0
  0
LINE
  5
31B
330
1D
100
AcDbEntity
  8
0
100
AcDbLine
 10
105.0
 20
35.958505
 30
0.0
 11
105.0
 21
36.174505
 31
0.0
  0
LINE
  5
31C
330
1D
100
AcDbEntity
  8
0
100
AcDbLine
 10
105.0
 20
36.174505
 30
0.0
 11
105.0
 21
36.750505
 31
0.0
  0
LINE
  5
31D
330
1D
100
AcDbEntity
  8
0
100
AcDbLine
 10
105.0
 20
36.174505
 30
0.0
 11
105.0
 21
35.958505
 31
0.0
  0
LINE
  5
31E
330
1D
100
AcDbEntity
  8
0
100
AcDbLine
 10
105.0
 20
36.750505
 30
0.0
 11
105.0
 21
37.710505
 31
0.0
  0
LINE
  5
31F
330
1D
100
AcDbEntity
  8
0
100
AcDbLine
 10
105.0
 20
36.750505
 30
0.0
 11
105.0
 21
36.174505
 31
0.0
  0
LINE
  5
320
330
1D
100
AcDbEntity
  8
0
100
AcDbLine
 10
105.0
 20
37.710505
 30
0.0
 11
105.0
 21
38.982505
 31
0.0
  0
LINE
  5
321
330
1D
100
AcDbEntity
  8
0
100
AcDbLine
 10
105.0
 20
37.710505
 30
0.0
 11
105.0
 21
36.750505
 31
0.0
  0
LINE
  5
322
330
1D
100
AcDbEntity
  8
0
100
AcDbLine
 10
105.0
 20
33.958505
 30
0.0
 11
105.0
 21
33.742505
 31
0.0
  0
LINE
  5
323
330
1D
100
AcDbEntity
  8
0
100
AcDbLine
 10
105.0
 20
33.742505
 30
0.0
 11
105.0
 21
33.166505
 31
0.0
  0
LINE
  5
324
330
1D
100
AcDbEntity
  8
0
100
AcDbLine
 10
105.0
 20
33.742505
 30
0.0
 11
105.0
 21
33.958505
 31
0.0
  0
LINE
  5
325
330
1D
100
AcDbEntity
  8
0
100
AcDbLine
 10
105.0
 20
33.166505
 30
0.0
 11
105.0
 21
32.206505
 31
0.0
  0
LINE
  5
326
330
1D
100
AcDbEntity
  8
0
100
AcDbLine
 10
105.0
 20
33.166505
 30
0.0
 11
105.0
 21
33.742505
 31
0.0
  0
LINE
  5
327
330
1D
100
AcDbEntity
  8
0
100
AcDbLine
 10
105.0
 20
32.206505
 30
0.0
 11
105.0
 21
30.934505
 31
0.0
  0
LINE
  5
328
330
1D
100
AcDbEntity
  8
0
100
AcDbLine
 10
105.0
 20
32.206505
 30
0.0
 11
105.0
 21
33.166505
 31
0.0
  0
LINE
  5
329
330
1D
100
AcDbEntity
  8
0
100
AcDbLine
 10
105.0
 20
30.934505
 30
0.0
 11
105.0
 21
29.494505
 31
0.0
  0
LINE
  5
32A
330
1D
100
AcDbEntity
  8
0
100
AcDbLine
 10
105.0
 20
30.934505
 30
0.0
 11
105.0
 21
32.206505
 31
0.0
  0
LINE
  5
32B
330
1D
100
AcDbEntity
  8
0
100
AcDbLine
 10
105.0
 20
29.494505
 30
0.0
 11
105.0
 21
27.958505
 31
0.0
  0
LINE
  5
32C
330
1D
100
AcDbEntity
  8
0
100
AcDbLine
 10
105.0
 20
29.494505
 30
0.0
 11
105.0
 21
30.934505
 31
0.0
  0
LINE
  5
32D
330
1D
100
AcDbEntity
  8
0
100
AcDbLine
 10
91.15005453803
 20
28.076574037871
 30
0.0
 11
91.151909338313
 21
26.88607975074
 31
0.0
  0
LINE
  5
32E
330
1D
100
AcDbEntity
  8
0
100
AcDbLine
 10
91.15005453803
 20
28.076574037871
 30
0.0
 11
91.151909338313
 21
26.88607975074
 31
0.0
  0
LINE
  5
32F
330
1D
100
AcDbEntity
  8
0
100
AcDbLine
 10
91.148524858544
 20
29.189509137658
 30
0.0
 11
91.153190742498
 21
26.137425892972
 31
0.0
  0
LINE
  5
330
330
1D
100
AcDbEntity
  8
0
100
AcDbLine
 10
91.150166613608
 20
27.99503222152
 30
0.0
 11
91.1532
 21
26.332905
 31
0.0
  0
LINE
  5
331
330
1D
100
AcDbEntity
  8
0
100
AcDbLine
 10
91.1363
 20
37.370205
 30
0.0
 11
91.137208399773
 21
36.641386464924
 31
0.0
  0
LINE
  5
332
330
1D
100
AcDbEntity
  8
0
100
AcDbLine
 10
105.0
 20
38.982505
 30
0.0
 11
105.0
 21
40.422505
 31
0.0
  0
LINE
  5
333
330
1D
100
AcDbEntity
  8
0
100
AcDbLine
 10
105.0
 20
38.982505
 30
0.0
 11
105.0
 21
37.710505
 31
0.0
  0
LINE
  5
334
330
1D
100
AcDbEntity
  8
0
100
AcDbLine
 10
105.0
 20
40.422505
 30
0.0
 11
105.0
 21
41.958505
 31
0.0
  0
LINE
  5
335
330
1D
100
AcDbEntity
  8
0
100
AcDbLine
 10
105.0
 20
40.422505
 30
0.0
 11
105.0
 21
38.982505
 31
0.0
  0
LINE
  5
336
330
1D
100
AcDbEntity
  8
0
100
AcDbLine
 10
105.0
 20
41.958505
 30
0.0
 11
105.0
 21
43.494505
 31
0.0
  0
LINE
  5
337
330
1D
100
AcDbEntity
  8
0
100
AcDbLine
 10
105.0
 20
41.958505
 30
0.0
 11
105.0
 21
40.422505
 31
0.0
  0
LINE
  5
338
330
1D
100
AcDbEntity
  8
0
100
AcDbLine
 10
105.0
 20
43.494505
 30
0.0
 11
105.0
 21
41.958505
 31
0.0
  0
LINE
  5
339
330
1D
100
AcDbEntity
  8
0
100
AcDbLine
 10
105.0
 20
43.494505
 30
0.0
 11
105.0
 21
44.934505
 31
0.0
  0
LINE
  5
33A
330
1D
100
AcDbEntity
  8
0
100
AcDbLine
 10
91.1323
 20
39.698905
 30
0.0
 11
91.1372
 21
36.647005
 31
0.0
  0
LINE
  5
33B
330
1D
100
AcDbEntity
  8
0
100
AcDbLine
 10
91.1274
 20
42.676805
 30
0.0
 11
91.1323
 21
39.698905
 31
0.0
  0
LINE
  5
33C
330
1D
100
AcDbEntity
  8
0
100
AcDbLine
 10
91.134604520492
 20
38.263564981473
 30
0.0
 11
91.1363
 21
37.370205
 31
0.0
  0
LINE
  5
33D
330
1D
100
AcDbEntity
  8
0
100
AcDbLine
 10
91.1262
 20
43.754205
 30
0.0
 11
91.128511367059
 21
42.001388680352
 31
0.0
  0
LINE
  5
33E
330
1D
100
AcDbEntity
  8
0
100
AcDbLine
 10
63.103
 20
58.751705
 30
0.0
 11
63.1062
 21
56.375005
 31
0.0
  0
LINE
  5
33F
330
1D
100
AcDbEntity
  8
0
100
AcDbLine
 10
63.1027
 20
58.683705
 30
0.0
 11
63.1068
 21
55.931905
 31
0.0
  0
LINE
  5
340
330
1D
100
AcDbEntity
  8
0
100
AcDbLine
 10
90.6216
 20
46.290805
 30
0.0
 11
90.6262
 21
43.517005
 31
0.0
  0
LINE
  5
341
330
1D
100
AcDbEntity
  8
0
100
AcDbLine
 10
63.1214
 20
46.433005
 30
0.0
 11
63.1271
 21
42.968005
 31
0.0
  0
LINE
  5
342
330
1D
100
AcDbEntity
  8
0
100
AcDbLine
 10
63.1199
 20
47.868405
 30
0.0
 11
63.123849975529
 21
44.943677770594
 31
0.0
  0
LINE
  5
343
330
1D
100
AcDbEntity
  8
0
100
AcDbLine
 10
63.1199
 20
47.868405
 30
0.0
 11
63.123849975529
 21
44.943677770594
 31
0.0
  0
LINE
  5
344
330
1D
100
AcDbEntity
  8
0
100
AcDbLine
 10
63.118396963703
 20
48.71258255306
 30
0.0
 11
63.1199
 21
47.868405
 31
0.0
  0
LINE
  5
345
330
1D
100
AcDbEntity
  8
0
100
AcDbLine
 10
63.117
 20
49.773005
 30
0.0
 11
63.1214
 21
46.433005
 31
0.0
  0
LINE
  5
346
330
1D
100
AcDbEntity
  8
0
100
AcDbLine
 10
63.1109
 20
53.748205
 30
0.0
 11
63.112275781724
 21
52.660229169492
 31
0.0
  0
LINE
  5
347
330
1D
100
AcDbEntity
  8
0
100
AcDbLine
 10
63.1118
 20
52.951005
 30
0.0
 11
63.117
 21
49.773005
 31
0.0
  0
LINE
  5
348
330
1D
100
AcDbEntity
  8
0
100
AcDbLine
 10
63.106232375264
 20
56.495022963126
 30
0.0
 11
63.106646190596
 21
56.125631924019
 31
0.0
  0
LINE
  5
349
330
1D
100
AcDbEntity
  8
0
100
AcDbLine
 10
63.1062
 20
56.375005
 30
0.0
 11
63.1109
 21
53.748205
 31
0.0
  0
LINE
  5
34A
330
1D
100
AcDbEntity
  8
0
100
AcDbLine
 10
63.1068
 20
55.931905
 30
0.0
 11
63.1118
 21
52.951005
 31
0.0
  0
LINE
  5
34B
330
1D
100
AcDbEntity
  8
0
100
AcDbLine
 10
63.1084
 20
55.335705
 30
0.0
 11
63.109982263283
 21
54.26112219327
 31
0.0
  0
LINE
  5
34C
330
1D
100
AcDbEntity
  8
0
100
AcDbLine
 10
63.1084
 20
55.335705
 30
0.0
 11
63.109982263283
 21
54.26112219327
 31
0.0
  0
LINE
  5
34D
330
1D
100
AcDbEntity
  8
0
100
AcDbLine
 10
63.111823903155
 20
53.017577252389
 30
0.0
 11
63.1133
 21
52.129705
 31
0.0
  0
LINE
  5
34E
330
1D
100
AcDbEntity
  8
0
100
AcDbLine
 10
63.1133
 20
52.129705
 30
0.0
 11
63.11400878325
 21
51.601098621322
 31
0.0
  0
LINE
  5
34F
330
1D
100
AcDbEntity
  8
0
100
AcDbLine
 10
90.6183
 20
48.899605
 30
0.0
 11
90.6216
 21
46.290805
 31
0.0
  0
LINE
  5
350
330
1D
100
AcDbEntity
  8
0
100
AcDbLine
 10
90.6143
 20
51.306305
 30
0.0
 11
90.6183
 21
48.899605
 31
0.0
  0
LINE
  5
351
330
1D
100
AcDbEntity
  8
0
100
AcDbLine
 10
90.6115
 20
53.477005
 30
0.0
 11
90.6143
 21
51.306305
 31
0.0
  0
LINE
  5
352
330
1D
100
AcDbEntity
  8
0
100
AcDbLine
 10
90.6077
 20
55.377605
 30
0.0
 11
90.6115
 21
53.477005
 31
0.0
  0
LINE
  5
353
330
1D
100
AcDbEntity
  8
0
100
AcDbLine
 10
90.6057
 20
56.983105
 30
0.0
 11
90.6077
 21
55.377605
 31
0.0
  0
LINE
  5
354
330
1D
100
AcDbEntity
  8
0
100
AcDbLine
 10
90.6041
 20
58.267505
 30
0.0
 11
90.6057
 21
56.983105
 31
0.0
  0
LINE
  5
355
330
1D
100
AcDbEntity
  8
0
100
AcDbLine
 10
90.6023
 20
59.213705
 30
0.0
 11
90.6041
 21
58.267505
 31
0.0
  0
LINE
  5
356
330
1D
100
AcDbEntity
  8
0
100
AcDbLine
 10
90.6008
 20
59.806905
 30
0.0
 11
90.6023
 21
59.213705
 31
0.0
  0
LINE
  5
357
330
1D
100
AcDbEntity
  8
0
100
AcDbLine
 10
63.120283793466
 20
47.584228251975
 30
0.0
 11
63.1216
 21
46.846105
 31
0.0
  0
LINE
  5
358
330
1D
100
AcDbEntity
  8
0
100
AcDbLine
 10
63.1216
 20
46.846105
 30
0.0
 11
63.1261
 21
43.925305
 31
0.0
  0
LINE
  5
359
330
1D
100
AcDbEntity
  8
0
100
AcDbLine
 10
63.105539379666
 20
56.865660108493
 30
0.0
 11
63.1084
 21
55.335705
 31
0.0
  0
LINE
  5
35A
330
1D
100
AcDbEntity
  8
0
100
AcDbLine
 10
90.6007
 20
60.040005
 30
0.0
 11
90.6008
 21
59.806905
 31
0.0
  0
LINE
  5
35B
330
1D
100
AcDbEntity
  8
0
100
AcDbLine
 10
90.6007
 20
60.040005
 30
0.0
 11
91.1018
 21
59.543905
 31
0.0
  0
LINE
  5
35C
330
1D
100
AcDbEntity
  8
0
100
AcDbLine
 10
63.1014
 20
59.997105
 30
0.0
 11
90.6007
 21
60.040005
 31
0.0
  0
LINE
  5
35D
330
1D
100
AcDbEntity
  8
0
100
AcDbLine
 10
63.1014
 20
59.997105
 30
0.0
 11
63.101454768135
 21
59.869440476821
 31
0.0
  0
LINE
  5
35E
330
1D
100
AcDbEntity
  8
0
100
AcDbLine
 10
63.1001
 20
60.849405
 30
0.0
 11
63.103
 21
58.751705
 31
0.0
  0
LINE
  5
35F
330
1D
100
AcDbEntity
  8
0
100
AcDbLine
 10
63.0967
 20
62.927005
 30
0.0
 11
63.09705892105
 21
62.670005949907
 31
0.0
  0
LINE
  5
360
330
1D
100
AcDbEntity
  8
0
100
AcDbLine
 10
63.096078003969
 20
63.269387157958
 30
0.0
 11
63.0967
 21
62.927005
 31
0.0
  0
LINE
  5
361
330
1D
100
AcDbEntity
  8
0
100
AcDbLine
 10
63.0971
 20
62.644905
 30
0.0
 11
63.1001
 21
60.849405
 31
0.0
  0
LINE
  5
362
330
1D
100
AcDbEntity
  8
0
100
AcDbLine
 10
63.0995
 20
61.176505
 30
0.0
 11
63.1027
 21
58.683705
 31
0.0
  0
LINE
  5
363
330
1D
100
AcDbEntity
  8
0
100
AcDbLine
 10
63.0958
 20
63.382105
 30
0.0
 11
63.0995
 21
61.176505
 31
0.0
  0
LINE
  5
364
330
1D
100
AcDbEntity
  8
0
100
AcDbLine
 10
91.1174
 20
49.360805
 30
0.0
 11
91.11794172117
 21
48.945738239221
 31
0.0
  0
LINE
  5
365
330
1D
100
AcDbEntity
  8
0
100
AcDbLine
 10
91.116
 20
50.255105
 30
0.0
 11
91.1174
 21
49.360805
 31
0.0
  0
LINE
  5
366
330
1D
100
AcDbEntity
  8
0
100
AcDbLine
 10
91.124020200071
 20
45.218681373055
 30
0.0
 11
91.135615066036
 21
37.634160094829
 31
0.0
  0
LINE
  5
367
330
1D
100
AcDbEntity
  8
0
100
AcDbLine
 10
105.0
 20
44.934505
 30
0.0
 11
105.0
 21
43.494505
 31
0.0
  0
LINE
  5
368
330
1D
100
AcDbEntity
  8
0
100
AcDbLine
 10
105.0
 20
44.934505
 30
0.0
 11
105.0
 21
46.206505
 31
0.0
  0
LINE
  5
369
330
1D
100
AcDbEntity
  8
0
100
AcDbLine
 10
91.124624210293
 20
44.764418001271
 30
0.0
 11
91.131393738518
 21
40.249671544479
 31
0.0
  0
LINE
  5
36A
330
1D
100
AcDbEntity
  8
0
100
AcDbLine
 10
91.124624210293
 20
44.764418001271
 30
0.0
 11
91.131393738518
 21
40.249671544479
 31
0.0
  0
LINE
  5
36B
330
1D
100
AcDbEntity
  8
0
100
AcDbLine
 10
91.1191
 20
48.226505
 30
0.0
 11
91.1236
 21
45.534705
 31
0.0
  0
LINE
  5
36C
330
1D
100
AcDbEntity
  8
0
100
AcDbLine
 10
91.119611308375
 20
47.933605
 30
0.0
 11
126.4
 21
47.933605
 31
0.0
  0
LINE
  5
36D
330
1D
100
AcDbEntity
  8
0
100
AcDbLine
 10
91.119838417773
 20
47.933605
 30
0.0
 11
91.12
 21
47.848405
 31
0.0
  0
LINE
  5
36E
330
1D
100
AcDbEntity
  8
0
100
AcDbLine
 10
91.119604468084
 20
47.92474340264
 30
0.0
 11
91.1197
 21
48.048505
 31
0.0
  0
LINE
  5
36F
330
1D
100
AcDbEntity
  8
0
100
AcDbLine
 10
91.123604610581
 20
45.531237479418
 30
0.0
 11
91.1363
 21
37.370205
 31
0.0
  0
LINE
  5
370
330
1D
100
AcDbEntity
  8
0
100
AcDbLine
 10
91.123604610581
 20
45.531237479418
 30
0.0
 11
91.1363
 21
37.370205
 31
0.0
  0
LINE
  5
373
330
1D
100
AcDbEntity
  8
0
100
AcDbLine
 10
105.0
 20
47.933605
 30
0.0
 11
105.0
 21
47.742505
 31
0.0
  0
LINE
  5
374
330
1D
100
AcDbEntity
  8
0
100
AcDbLine
 10
105.0
 20
47.742505
 30
0.0
 11
105.0
 21
47.166505
 31
0.0
  0
LINE
  5
375
330
1D
100
AcDbEntity
  8
0
100
AcDbLine
 10
105.0
 20
47.742505
 30
0.0
 11
105.0
 21
47.933605
 31
0.0
  0
LINE
  5
376
330
1D
100
AcDbEntity
  8
0
100
AcDbLine
 10
105.0
 20
47.166505
 30
0.0
 11
105.0
 21
46.206505
 31
0.0
  0
LINE
  5
377
330
1D
100
AcDbEntity
  8
0
100
AcDbLine
 10
105.0
 20
47.166505
 30
0.0
 11
105.0
 21
47.742505
 31
0.0
  0
LINE
  5
378
330
1D
100
AcDbEntity
  8
0
100
AcDbLine
 10
126.4
 20
47.933605
 30
0.0
 11
127.0
 21
47.993605
 31
0.0
  0
LINE
  5
379
330
1D
100
AcDbEntity
  8
0
100
AcDbLine
 10
127.0
 20
49.803605
 30
0.0
 11
127.0
 21
50.433605
 31
0.0
  0
LINE
  5
37A
330
1D
100
AcDbEntity
  8
0
100
AcDbLine
 10
127.0
 20
49.803605
 30
0.0
 11
127.0
 21
49.223605
 31
0.0
  0
LINE
  5
37B
330
1D
100
AcDbEntity
  8
0
100
AcDbLine
 10
127.0
 20
49.223605
 30
0.0
 11
127.0
 21
49.803605
 31
0.0
  0
LINE
  5
37C
330
1D
100
AcDbEntity
  8
0
100
AcDbLine
 10
127.0
 20
49.223605
 30
0.0
 11
127.0
 21
48.713605
 31
0.0
  0
LINE
  5
37D
330
1D
100
AcDbEntity
  8
0
100
AcDbLine
 10
127.0
 20
48.713605
 30
0.0
 11
127.0
 21
49.223605
 31
0.0
  0
LINE
  5
37E
330
1D
100
AcDbEntity
  8
0
100
AcDbLine
 10
127.0
 20
48.713605
 30
0.0
 11
127.0
 21
48.323605
 31
0.0
  0
LINE
  5
37F
330
1D
100
AcDbEntity
  8
0
100
AcDbLine
 10
127.0
 20
48.323605
 30
0.0
 11
127.0
 21
48.713605
 31
0.0
  0
LINE
  5
380
330
1D
100
AcDbEntity
  8
0
100
AcDbLine
 10
127.0
 20
48.323605
 30
0.0
 11
127.0
 21
48.083605
 31
0.0
  0
LINE
  5
381
330
1D
100
AcDbEntity
  8
0
100
AcDbLine
 10
127.0
 20
48.083605
 30
0.0
 11
127.0
 21
48.323605
 31
0.0
  0
LINE
  5
382
330
1D
100
AcDbEntity
  8
0
100
AcDbLine
 10
127.0
 20
48.083605
 30
0.0
 11
127.0
 21
47.993605
 31
0.0
  0
LINE
  5
383
330
1D
100
AcDbEntity
  8
0
100
AcDbLine
 10
127.0
 20
50.433605
 30
0.0
 11
127.0
 21
51.063605
 31
0.0
  0
LINE
  5
384
330
1D
100
AcDbEntity
  8
0
100
AcDbLine
 10
127.0
 20
50.433605
 30
0.0
 11
127.0
 21
49.803605
 31
0.0
  0
LINE
  5
385
330
1D
100
AcDbEntity
  8
0
100
AcDbLine
 10
127.0
 20
47.993605
 30
0.0
 11
127.0
 21
48.083605
 31
0.0
  0
LINE
  5
387
330
1D
100
AcDbEntity
  8
0
100
AcDbLine
 10
105.0
 20
46.206505
 30
0.0
 11
105.0
 21
44.934505
 31
0.0
  0
LINE
  5
388
330
1D
100
AcDbEntity
  8
0
100
AcDbLine
 10
105.0
 20
46.206505
 30
0.0
 11
105.0
 21
47.166505
 31
0.0
  0
LINE
  5
389
330
1D
100
AcDbEntity
  8
0
100
AcDbLine
 10
91.1236
 20
45.534705
 30
0.0
 11
91.1274
 21
42.676805
 31
0.0
  0
LINE
  5
38A
330
1D
100
AcDbEntity
  8
0
100
AcDbLine
 10
91.12
 20
47.848405
 30
0.0
 11
91.122864354772
 21
45.974751627597
 31
0.0
  0
LINE
  5
38B
330
1D
100
AcDbEntity
  8
0
100
AcDbLine
 10
91.12
 20
47.848405
 30
0.0
 11
91.122331254704
 21
46.293640241981
 31
0.0
  0
LINE
  5
38C
330
1D
100
AcDbEntity
  8
0
100
AcDbLine
 10
91.12
 20
47.848405
 30
0.0
 11
91.122864354772
 21
45.974751627597
 31
0.0
  0
LINE
  5
38D
330
1D
100
AcDbEntity
  8
0
100
AcDbLine
 10
91.12
 20
47.848405
 30
0.0
 11
91.123588721012
 21
45.541451839752
 31
0.0
  0
LINE
  5
38E
330
1D
100
AcDbEntity
  8
0
100
AcDbLine
 10
91.12
 20
47.848405
 30
0.0
 11
91.122331254704
 21
46.293640241981
 31
0.0
  0
LINE
  5
38F
330
1D
100
AcDbEntity
  8
0
100
AcDbLine
 10
91.12
 20
47.848405
 30
0.0
 11
91.123588721012
 21
45.541451839752
 31
0.0
  0
LINE
  5
390
330
1D
100
AcDbEntity
  8
0
100
AcDbLine
 10
91.124020200071
 20
45.218681373055
 30
0.0
 11
91.135615066036
 21
37.634160094829
 31
0.0
  0
LINE
  5
391
330
1D
100
AcDbEntity
  8
0
100
AcDbLine
 10
91.118731378406
 20
48.455400578916
 30
0.0
 11
91.1197
 21
48.048505
 31
0.0
  0
LINE
  5
392
330
1D
100
AcDbEntity
  8
0
100
AcDbLine
 10
91.1115
 20
52.947905
 30
0.0
 11
91.1134
 21
51.994605
 31
0.0
  0
LINE
  5
393
330
1D
100
AcDbEntity
  8
0
100
AcDbLine
 10
91.1115
 20
52.947905
 30
0.0
 11
91.1151
 21
50.710305
 31
0.0
  0
LINE
  5
394
330
1D
100
AcDbEntity
  8
0
100
AcDbLine
 10
91.1134
 20
51.994605
 30
0.0
 11
91.1151
 21
51.169405
 31
0.0
  0
LINE
  5
395
330
1D
100
AcDbEntity
  8
0
100
AcDbLine
 10
91.112130227519
 20
52.933605
 30
0.0
 11
126.4
 21
52.933605
 31
0.0
  0
LINE
  5
396
330
1D
100
AcDbEntity
  8
0
100
AcDbLine
 10
91.11238900882
 20
52.395336628934
 30
0.0
 11
91.1134
 21
51.994605
 31
0.0
  0
LINE
  5
397
330
1D
100
AcDbEntity
  8
0
100
AcDbLine
 10
91.11188587152
 20
52.708064412993
 30
0.0
 11
91.1122
 21
52.998005
 31
0.0
  0
LINE
  5
398
330
1D
100
AcDbEntity
  8
0
100
AcDbLine
 10
91.1045
 20
57.799405
 30
0.0
 11
91.104953921839
 21
57.400740579639
 31
0.0
  0
LINE
  5
399
330
1D
100
AcDbEntity
  8
0
100
AcDbLine
 10
91.1083
 20
54.902505
 30
0.0
 11
91.1122
 21
52.998005
 31
0.0
  0
LINE
  5
39A
330
1D
100
AcDbEntity
  8
0
100
AcDbLine
 10
91.1083
 20
54.902505
 30
0.0
 11
91.1115
 21
52.947905
 31
0.0
  0
LINE
  5
39B
330
1D
100
AcDbEntity
  8
0
100
AcDbLine
 10
91.1093
 20
54.826505
 30
0.0
 11
91.110303815056
 21
54.106658069461
 31
0.0
  0
LINE
  5
39C
330
1D
100
AcDbEntity
  8
0
100
AcDbLine
 10
91.1093
 20
54.826505
 30
0.0
 11
91.109824529588
 21
54.405899952007
 31
0.0
  0
LINE
  5
39D
330
1D
100
AcDbEntity
  8
0
100
AcDbLine
 10
91.1093
 20
54.826505
 30
0.0
 11
91.10987234618
 21
54.37604566263
 31
0.0
  0
LINE
  5
39E
330
1D
100
AcDbEntity
  8
0
100
AcDbLine
 10
91.108541013449
 20
55.207263252934
 30
0.0
 11
91.1093
 21
54.826505
 31
0.0
  0
LINE
  5
39F
330
1D
100
AcDbEntity
  8
0
100
AcDbLine
 10
91.1064
 20
56.544005
 30
0.0
 11
91.1083
 21
54.902505
 31
0.0
  0
LINE
  5
3A0
330
1D
100
AcDbEntity
  8
0
100
AcDbLine
 10
91.1021
 20
59.342905
 30
0.0
 11
91.102279770735
 21
58.992232219604
 31
0.0
  0
LINE
  5
3A1
330
1D
100
AcDbEntity
  8
0
100
AcDbLine
 10
91.1018
 20
59.543905
 30
0.0
 11
91.1021
 21
59.342905
 31
0.0
  0
LINE
  5
3A2
330
1D
100
AcDbEntity
  8
0
100
AcDbLine
 10
91.103529583661
 20
58.242238322848
 30
0.0
 11
91.1045
 21
57.799405
 31
0.0
  0
LINE
  5
3A3
330
1D
100
AcDbEntity
  8
0
100
AcDbLine
 10
91.1026
 20
58.789705
 30
0.0
 11
91.1042
 21
57.847405
 31
0.0
  0
LINE
  5
3A4
330
1D
100
AcDbEntity
  8
0
100
AcDbLine
 10
91.1042
 20
57.847405
 30
0.0
 11
91.1064
 21
56.544005
 31
0.0
  0
LINE
  5
3A5
330
1D
100
AcDbEntity
  8
0
100
AcDbLine
 10
91.1116
 20
53.057005
 30
0.0
 11
91.1122
 21
52.998005
 31
0.0
  0
LINE
  5
3A6
330
1D
100
AcDbEntity
  8
0
100
AcDbLine
 10
127.0
 20
51.063605
 30
0.0
 11
127.0
 21
51.643605
 31
0.0
  0
LINE
  5
3A7
330
1D
100
AcDbEntity
  8
0
100
AcDbLine
 10
127.0
 20
51.063605
 30
0.0
 11
127.0
 21
50.433605
 31
0.0
  0
LINE
  5
3A8
330
1D
100
AcDbEntity
  8
0
100
AcDbLine
 10
127.0
 20
51.643605
 30
0.0
 11
127.0
 21
52.153605
 31
0.0
  0
LINE
  5
3A9
330
1D
100
AcDbEntity
  8
0
100
AcDbLine
 10
127.0
 20
51.643605
 30
0.0
 11
127.0
 21
51.063605
 31
0.0
  0
LINE
  5
3AA
330
1D
100
AcDbEntity
  8
0
100
AcDbLine
 10
127.0
 20
52.153605
 30
0.0
 11
127.0
 21
52.543605
 31
0.0
  0
LINE
  5
3AB
330
1D
100
AcDbEntity
  8
0
100
AcDbLine
 10
127.0
 20
52.153605
 30
0.0
 11
127.0
 21
51.643605
 31
0.0
  0
LINE
  5
3AC
330
1D
100
AcDbEntity
  8
0
100
AcDbLine
 10
127.0
 20
52.873605
 30
0.0
 11
127.0
 21
52.783605
 31
0.0
  0
LINE
  5
3AD
330
1D
100
AcDbEntity
  8
0
100
AcDbLine
 10
127.0
 20
52.543605
 30
0.0
 11
127.0
 21
52.783605
 31
0.0
  0
LINE
  5
3AE
330
1D
100
AcDbEntity
  8
0
100
AcDbLine
 10
127.0
 20
52.543605
 30
0.0
 11
127.0
 21
52.153605
 31
0.0
  0
LINE
  5
3AF
330
1D
100
AcDbEntity
  8
0
100
AcDbLine
 10
127.0
 20
52.783605
 30
0.0
 11
127.0
 21
52.873605
 31
0.0
  0
LINE
  5
3B0
330
1D
100
AcDbEntity
  8
0
100
AcDbLine
 10
127.0
 20
52.783605
 30
0.0
 11
127.0
 21
52.543605
 31
0.0
  0
LINE
  5
3B1
330
1D
100
AcDbEntity
  8
0
100
AcDbLine
 10
126.4
 20
52.933605
 30
0.0
 11
127.0
 21
52.873605
 31
0.0
  0
LINE
  5
3B2
330
1D
100
AcDbEntity
  8
0
100
AcDbLine
 10
91.1151
 20
51.169405
 30
0.0
 11
91.116
 21
50.255105
 31
0.0
  0
LINE
  5
3B3
330
1D
100
AcDbEntity
  8
0
100
AcDbLine
 10
91.1151
 20
50.710305
 30
0.0
 11
91.1191
 21
48.226505
 31
0.0
  0
LINE
  5
3B4
330
1D
100
AcDbEntity
  8
0
100
AcDbLine
 10
91.1017
 20
59.358905
 30
0.0
 11
91.1018
 21
59.543905
 31
0.0
  0
LINE
  5
3B5
330
1D
100
AcDbEntity
  8
0
100
AcDbLine
 10
91.1017
 20
59.358905
 30
0.0
 11
91.1026
 21
58.789705
 31
0.0
  0
LINE
  5
3B6
330
1D
100
AcDbEntity
  8
0
100
AcDbLine
 10
91.124837055265
 20
44.60434177841
 30
0.0
 11
91.1262
 21
43.754205
 31
0.0
  0
LINE
  5
3B7
330
1D
100
AcDbEntity
  8
0
100
AcDbLine
 10
63.095314204375
 20
63.736100534905
 30
0.0
 11
63.0971
 21
62.644905
 31
0.0
  0
LINE
  5
3B8
330
1D
100
AcDbEntity
  8
0
100
AcDbLine
 10
63.091
 20
66.466105
 30
0.0
 11
63.091142417145
 21
66.361719706478
 31
0.0
  0
LINE
  5
3B9
330
1D
100
AcDbEntity
  8
0
100
AcDbLine
 10
62.5925
 20
65.714805
 30
0.0
 11
62.5948
 21
63.793205
 31
0.0
  0
LINE
  5
3BA
330
1D
100
AcDbEntity
  8
0
100
AcDbLine
 10
57.592
 20
65.707905
 30
0.0
 11
57.5953
 21
63.785305
 31
0.0
  0
LINE
  5
3BB
330
1D
100
AcDbEntity
  8
0
100
AcDbLine
 10
63.0919
 20
66.013905
 30
0.0
 11
63.092875460387
 21
65.432230467575
 31
0.0
  0
LINE
  5
3BC
330
1D
100
AcDbEntity
  8
0
100
AcDbLine
 10
63.091
 20
66.427105
 30
0.0
 11
63.0919
 21
66.013905
 31
0.0
  0
LINE
  5
3BD
330
1D
100
AcDbEntity
  8
0
100
AcDbLine
 10
57.0904
 20
66.831105
 30
0.0
 11
57.0923
 21
65.267605
 31
0.0
  0
LINE
  5
3BE
330
1D
100
AcDbEntity
  8
0
100
AcDbLine
 10
57.088441631373
 20
68.149321726142
 30
0.0
 11
57.0888
 21
67.542305
 31
0.0
  0
LINE
  5
3BF
330
1D
100
AcDbEntity
  8
0
100
AcDbLine
 10
57.0886
 20
68.045505
 30
0.0
 11
57.0904
 21
66.831105
 31
0.0
  0
LINE
  5
3C0
330
1D
100
AcDbEntity
  8
0
100
AcDbLine
 10
57.0888
 20
67.542305
 30
0.0
 11
57.090533228728
 21
66.721471781145
 31
0.0
  0
LINE
  5
3C1
330
1D
100
AcDbEntity
  8
0
100
AcDbLine
 10
57.5895
 20
67.293305
 30
0.0
 11
57.592
 21
65.707905
 31
0.0
  0
LINE
  5
3C2
330
1D
100
AcDbEntity
  8
0
100
AcDbLine
 10
57.0867
 20
69.377905
 30
0.0
 11
57.0873
 21
68.897705
 31
0.0
  0
LINE
  5
3C3
330
1D
100
AcDbEntity
  8
0
100
AcDbLine
 10
57.0873
 20
68.897705
 30
0.0
 11
57.0886
 21
68.045505
 31
0.0
  0
LINE
  5
3C4
330
1D
100
AcDbEntity
  8
0
100
AcDbLine
 10
57.086
 20
69.481905
 30
0.0
 11
57.086797726942
 21
69.299690871095
 31
0.0
  0
LINE
  5
3C5
330
1D
100
AcDbEntity
  8
0
100
AcDbLine
 10
57.086
 20
69.481905
 30
0.0
 11
57.0867
 21
69.377905
 31
0.0
  0
LINE
  5
3C6
330
1D
100
AcDbEntity
  8
0
100
AcDbLine
 10
57.086
 20
69.481905
 30
0.0
 11
57.5851
 21
69.982105
 31
0.0
  0
LINE
  5
3C7
330
1D
100
AcDbEntity
  8
0
100
AcDbLine
 10
57.5866
 20
69.390005
 30
0.0
 11
57.5882
 21
68.525705
 31
0.0
  0
LINE
  5
3C8
330
1D
100
AcDbEntity
  8
0
100
AcDbLine
 10
57.5882
 20
68.525705
 30
0.0
 11
57.5895
 21
67.293305
 31
0.0
  0
LINE
  5
3C9
330
1D
100
AcDbEntity
  8
0
100
AcDbLine
 10
57.5851
 20
69.982105
 30
0.0
 11
57.5858
 21
69.877105
 31
0.0
  0
LINE
  5
3CA
330
1D
100
AcDbEntity
  8
0
100
AcDbLine
 10
57.5851
 20
69.982105
 30
0.0
 11
62.5854
 21
69.998005
 31
0.0
  0
LINE
  5
3CB
330
1D
100
AcDbEntity
  8
0
100
AcDbLine
 10
57.5858
 20
69.877105
 30
0.0
 11
57.5866
 21
69.390005
 31
0.0
  0
LINE
  5
3CC
330
1D
100
AcDbEntity
  8
0
100
AcDbLine
 10
62.5854
 20
69.998005
 30
0.0
 11
63.0867
 21
69.498005
 31
0.0
  0
LINE
  5
3CD
330
1D
100
AcDbEntity
  8
0
100
AcDbLine
 10
62.5852
 20
69.851005
 30
0.0
 11
62.5866
 21
69.341805
 31
0.0
  0
LINE
  5
3CE
330
1D
100
AcDbEntity
  8
0
100
AcDbLine
 10
62.5852
 20
69.851005
 30
0.0
 11
62.5854
 21
69.998005
 31
0.0
  0
LINE
  5
3CF
330
1D
100
AcDbEntity
  8
0
100
AcDbLine
 10
62.5866
 20
69.341805
 30
0.0
 11
62.5882
 21
68.476605
 31
0.0
  0
LINE
  5
3D0
330
1D
100
AcDbEntity
  8
0
100
AcDbLine
 10
62.5882
 20
68.476605
 30
0.0
 11
62.59
 21
67.263205
 31
0.0
  0
LINE
  5
3D1
330
1D
100
AcDbEntity
  8
0
100
AcDbLine
 10
63.0895
 20
67.748505
 30
0.0
 11
63.091
 21
66.466105
 31
0.0
  0
LINE
  5
3D2
330
1D
100
AcDbEntity
  8
0
100
AcDbLine
 10
63.0865
 20
69.272905
 30
0.0
 11
63.0879
 21
68.687705
 31
0.0
  0
LINE
  5
3D3
330
1D
100
AcDbEntity
  8
0
100
AcDbLine
 10
63.0865
 20
69.272905
 30
0.0
 11
63.0867
 21
69.498005
 31
0.0
  0
LINE
  5
3D4
330
1D
100
AcDbEntity
  8
0
100
AcDbLine
 10
63.0862
 20
69.360905
 30
0.0
 11
63.0873
 21
68.863805
 31
0.0
  0
LINE
  5
3D5
330
1D
100
AcDbEntity
  8
0
100
AcDbLine
 10
63.0862
 20
69.360905
 30
0.0
 11
63.0867
 21
69.498005
 31
0.0
  0
LINE
  5
3D6
330
1D
100
AcDbEntity
  8
0
100
AcDbLine
 10
63.0879
 20
68.687705
 30
0.0
 11
63.0895
 21
67.748505
 31
0.0
  0
LINE
  5
3D7
330
1D
100
AcDbEntity
  8
0
100
AcDbLine
 10
63.0873
 20
68.863805
 30
0.0
 11
63.0886
 21
68.010505
 31
0.0
  0
LINE
  5
3D8
330
1D
100
AcDbEntity
  8
0
100
AcDbLine
 10
63.0886
 20
68.010505
 30
0.0
 11
63.09
 21
66.810205
 31
0.0
  0
LINE
  5
3D9
330
1D
100
AcDbEntity
  8
0
100
AcDbLine
 10
62.59
 20
67.263205
 30
0.0
 11
62.5925
 21
65.714805
 31
0.0
  0
LINE
  5
3DA
330
1D
100
AcDbEntity
  8
0
100
AcDbLine
 10
63.09
 20
66.810205
 30
0.0
 11
63.0932
 21
65.276705
 31
0.0
  0
LINE
  5
3DB
330
1D
100
AcDbEntity
  8
0
100
AcDbLine
 10
63.09
 20
66.810205
 30
0.0
 11
63.0908
 21
66.476105
 31
0.0
  0
LINE
  5
3DC
330
1D
100
AcDbEntity
  8
0
100
AcDbLine
 10
63.092632824637
 20
65.576916031783
 30
0.0
 11
63.0929
 21
65.475805
 31
0.0
  0
LINE
  5
3DD
330
1D
100
AcDbEntity
  8
0
100
AcDbLine
 10
63.0929
 20
65.475805
 30
0.0
 11
63.093043963251
 21
65.351480735788
 31
0.0
  0
LINE
  5
3DE
330
1D
100
AcDbEntity
  8
0
100
AcDbLine
 10
19.1687
 20
15.974005
 30
0.0
 11
19.1695
 21
15.524905
 31
0.0
  0
LINE
  5
3DF
330
1D
100
AcDbEntity
  8
0
100
AcDbLine
 10
19.1694
 20
15.373805
 30
0.0
 11
19.1695
 21
15.524905
 31
0.0
  0
LINE
  5
3E0
330
1D
100
AcDbEntity
  8
0
100
AcDbLine
 10
19.1694
 20
15.373805
 30
0.0
 11
20.6713
 21
14.557905
 31
0.0
  0
LINE
  5
3E1
330
1D
100
AcDbEntity
  8
0
100
AcDbLine
 10
19.1394
 20
34.932705
 30
0.0
 11
19.1429
 21
32.509005
 31
0.0
  0
ENDSEC
  0
SECTION
  2
OBJECTS
  0
DICTIONARY
  5
C
330
0
100
AcDbDictionary
281
     1
  3
ACAD_GROUP
350
D
  3
ACAD_LAYOUT
350
1A
  3
ACAD_MLEADERSTYLE
350
40B
  3
ACAD_MLINESTYLE
350
17
  3
ACAD_PLOTSETTINGS
350
19
  3
ACAD_PLOTSTYLENAME
350
E
  3
ACAD_SCALELIST
350
3E7
  3
AcDbVariableDictionary
350
409
  3
DWGPROPS
350
40E
  0
DICTIONARY
  5
D
102
{ACAD_REACTORS
330
C
102
}
330
C
100
AcDbDictionary
281
     1
  0
DICTIONARY
  5
1A
102
{ACAD_REACTORS
330
C
102
}
330
C
100
AcDbDictionary
281
     1
  3
Layout1
350
1C
  3
Model
350
1E
  0
DICTIONARY
  5
40B
102
{ACAD_REACTORS
330
C
102
}
330
C
100
AcDbDictionary
281
     1
  0
DICTIONARY
  5
17
102
{ACAD_REACTORS
330
C
102
}
330
C
100
AcDbDictionary
281
     1
  3
Standard
350
18
  0
DICTIONARY
  5
19
102
{ACAD_REACTORS
330
C
102
}
330
C
100
AcDbDictionary
281
     1
  0
ACDBDICTIONARYWDFLT
  5
E
102
{ACAD_REACTORS
330
C
102
}
330
C
100
AcDbDictionary
281
     1
  3
Normal
350
F
100
AcDbDictionaryWithDefault
340
F
  0
DICTIONARY
  5
3E7
102
{ACAD_REACTORS
330
C
102
}
330
C
100
AcDbDictionary
281
     1
  3
A0
350
3E8
  3
A1
350
3E9
  3
A2
350
3EA
  3
A3
350
3EB
  3
A4
350
3EC
  3
A5
350
3ED
  3
A6
350
3EE
  3
A7
350
3EF
  3
A8
350
3F0
  3
A9
350
3F1
  3
B0
350
3F2
  3
B1
350
3F3
  3
B2
350
3F4
  3
B3
350
3F5
  3
B4
350
3F6
  3
B5
350
3F7
  3
B6
350
3F8
  3
B7
350
3F9
  3
B8
350
3FA
  3
B9
350
3FB
  3
C0
350
3FC
  3
C1
350
3FD
  3
C2
350
3FE
  3
C3
350
3FF
  3
C4
350
400
  3
C5
350
401
  3
C6
350
402
  3
C7
350
403
  3
C8
350
404
  3
C9
350
405
  3
D0
350
406
  3
D1
350
407
  3
D2
350
408
  0
DICTIONARY
  5
409
102
{ACAD_REACTORS
330
C
102
}
330
C
100
AcDbDictionary
281
     1
  3
CANNOSCALE
350
40C
  0
XRECORD
  5
40E
102
{ACAD_REACTORS
330
C
102
}
330
C
100
AcDbXrecord
280
     1
  1
DWGPROPS COOKIE
  2

  3

  4

  6

  7

  8
MARTIN
  9

300
=
301
=
302
=
303
=
304
=
305
=
306
=
307
=
308
=
309
=
 40
0.0
 41
2456183.948760845
 42
2456183.95110912
  1

 90
        0
  0
LAYOUT
  5
1C
102
{ACAD_REACTORS
330
1A
102
}
330
1A
100
AcDbPlotSettings
  1

  2
none_device
  4

  6

 40
0.0
 41
0.0
 42
0.0
 43
0.0
 44
0.0
 45
0.0
 46
0.0
 47
0.0
 48
0.0
 49
0.0
140
0.0
141
0.0
142
1.0
143
1.0
 70
   688
 72
     0
 73
     0
 74
     5
  7

 75
    16
147
1.0
148
0.0
149
0.0
100
AcDbLayout
  1
Layout1
 70
     1
 71
     1
 10
0.0
 20
0.0
 11
12.0
 21
9.0
 12
0.0
 22
0.0
 32
0.0
 14
1.000000000000E+20
 24
1.000000000000E+20
 34
1.000000000000E+20
 15
-1.000000000000E+20
 25
-1.000000000000E+20
 35
-1.000000000000E+20
146
0.0
 13
0.0
 23
0.0
 33
0.0
 16
1.0
 26
0.0
 36
0.0
 17
0.0
 27
1.0
 37
0.0
 76
     0
330
1B
  0
LAYOUT
  5
1E
102
{ACAD_REACTORS
330
1A
102
}
330
1A
100
AcDbPlotSettings
  1

  2
none_device
  4

  6

 40
0.0
 41
0.0
 42
0.0
 43
0.0
 44
0.0
 45
0.0
 46
0.0
 47
0.0
 48
0.0
 49
0.0
140
0.0
141
0.0
142
1.0
143
1.0
 70
  1712
 72
     0
 73
     0
 74
     0
  7

 75
     0
147
1.0
148
0.0
149
0.0
100
AcDbLayout
  1
Model
 70
     1
 71
     0
 10
0.0
 20
0.0
 11
12.0
 21
9.0
 12
0.0
 22
0.0
 32
0.0
 14
0.0
 24
0.001995
 34
0.0
 15
127.0
 25
69.998005
 35
0.0
146
0.0
 13
0.0
 23
0.0
 33
0.0
 16
1.0
 26
0.0
 36
0.0
 17
0.0
 27
1.0
 37
0.0
 76
     0
330
1D
331
3E2
  0
MLINESTYLE
  5
18
102
{ACAD_REACTORS
330
17
102
}
330
17
100
AcDbMlineStyle
  2
Standard
 70
     0
  3

 62
   256
 51
90.0
 52
90.0
 71
     2
 49
0.5
 62
   256
  6
BYLAYER
 49
-0.5
 62
   256
  6
BYLAYER
  0
ACDBPLACEHOLDER
  5
F
102
{ACAD_REACTORS
330
E
102
}
330
E
  0
SCALE
  5
3E8
102
{ACAD_REACTORS
330
3E7
102
}
330
3E7
100
AcDbScale
 70
     0
300
1:1
140
1.0
141
1.0
290
     1
  0
SCALE
  5
3E9
102
{ACAD_REACTORS
330
3E7
102
}
330
3E7
100
AcDbScale
 70
     0
300
1:2
140
1.0
141
2.0
290
     0
  0
SCALE
  5
3EA
102
{ACAD_REACTORS
330
3E7
102
}
330
3E7
100
AcDbScale
 70
     0
300
1:4
140
1.0
141
4.0
290
     0
  0
SCALE
  5
3EB
102
{ACAD_REACTORS
330
3E7
102
}
330
3E7
100
AcDbScale
 70
     0
300
1:5
140
1.0
141
5.0
290
     0
  0
SCALE
  5
3EC
102
{ACAD_REACTORS
330
3E7
102
}
330
3E7
100
AcDbScale
 70
     0
300
1:8
140
1.0
141
8.0
290
     0
  0
SCALE
  5
3ED
102
{ACAD_REACTORS
330
3E7
102
}
330
3E7
100
AcDbScale
 70
     0
300
1:10
140
1.0
141
10.0
290
     0
  0
SCALE
  5
3EE
102
{ACAD_REACTORS
330
3E7
102
}
330
3E7
100
AcDbScale
 70
     0
300
1:16
140
1.0
141
16.0
290
     0
  0
SCALE
  5
3EF
102
{ACAD_REACTORS
330
3E7
102
}
330
3E7
100
AcDbScale
 70
     0
300
1:20
140
1.0
141
20.0
290
     0
  0
SCALE
  5
3F0
102
{ACAD_REACTORS
330
3E7
102
}
330
3E7
100
AcDbScale
 70
     0
300
1:30
140
1.0
141
30.0
290
     0
  0
SCALE
  5
3F1
102
{ACAD_REACTORS
330
3E7
102
}
330
3E7
100
AcDbScale
 70
     0
300
1:40
140
1.0
141
40.0
290
     0
  0
SCALE
  5
3F2
102
{ACAD_REACTORS
330
3E7
102
}
330
3E7
100
AcDbScale
 70
     0
300
1:50
140
1.0
141
50.0
290
     0
  0
SCALE
  5
3F3
102
{ACAD_REACTORS
330
3E7
102
}
330
3E7
100
AcDbScale
 70
     0
300
1:100
140
1.0
141
100.0
290
     0
  0
SCALE
  5
3F4
102
{ACAD_REACTORS
330
3E7
102
}
330
3E7
100
AcDbScale
 70
     0
300
2:1
140
2.0
141
1.0
290
     0
  0
SCALE
  5
3F5
102
{ACAD_REACTORS
330
3E7
102
}
330
3E7
100
AcDbScale
 70
     0
300
4:1
140
4.0
141
1.0
290
     0
  0
SCALE
  5
3F6
102
{ACAD_REACTORS
330
3E7
102
}
330
3E7
100
AcDbScale
 70
     0
300
8:1
140
8.0
141
1.0
290
     0
  0
SCALE
  5
3F7
102
{ACAD_REACTORS
330
3E7
102
}
330
3E7
100
AcDbScale
 70
     0
300
10:1
140
10.0
141
1.0
290
     0
  0
SCALE
  5
3F8
102
{ACAD_REACTORS
330
3E7
102
}
330
3E7
100
AcDbScale
 70
     0
300
100:1
140
100.0
141
1.0
290
     0
  0
SCALE
  5
3F9
102
{ACAD_REACTORS
330
3E7
102
}
330
3E7
100
AcDbScale
 70
     0
300
1/128" = 1'-0"
140
0.0078125
141
12.0
290
     0
  0
SCALE
  5
3FA
102
{ACAD_REACTORS
330
3E7
102
}
330
3E7
100
AcDbScale
 70
     0
300
1/64" = 1'-0"
140
0.015625
141
12.0
290
     0
  0
SCALE
  5
3FB
102
{ACAD_REACTORS
330
3E7
102
}
330
3E7
100
AcDbScale
 70
     0
300
1/32" = 1'-0"
140
0.03125
141
12.0
290
     0
  0
SCALE
  5
3FC
102
{ACAD_REACTORS
330
3E7
102
}
330
3E7
100
AcDbScale
 70
     0
300
1/16" = 1'-0"
140
0.0625
141
12.0
290
     0
  0
SCALE
  5
3FD
102
{ACAD_REACTORS
330
3E7
102
}
330
3E7
100
AcDbScale
 70
     0
300
3/32" = 1'-0"
140
0.09375
141
12.0
290
     0
  0
SCALE
  5
3FE
102
{ACAD_REACTORS
330
3E7
102
}
330
3E7
100
AcDbScale
 70
     0
300
1/8" = 1'-0"
140
0.125
141
12.0
290
     0
  0
SCALE
  5
3FF
102
{ACAD_REACTORS
330
3E7
102
}
330
3E7
100
AcDbScale
 70
     0
300
3/16" = 1'-0"
140
0.1875
141
12.0
290
     0
  0
SCALE
  5
400
102
{ACAD_REACTORS
330
3E7
102
}
330
3E7
100
AcDbScale
 70
     0
300
1/4" = 1'-0"
140
0.25
141
12.0
290
     0
  0
SCALE
  5
401
102
{ACAD_REACTORS
330
3E7
102
}
330
3E7
100
AcDbScale
 70
     0
300
3/8" = 1'-0"
140
0.375
141
12.0
290
     0
  0
SCALE
  5
402
102
{ACAD_REACTORS
330
3E7
102
}
330
3E7
100
AcDbScale
 70
     0
300
1/2" = 1'-0"
140
0.5
141
12.0
290
     0
  0
SCALE
  5
403
102
{ACAD_REACTORS
330
3E7
102
}
330
3E7
100
AcDbScale
 70
     0
300
3/4" = 1'-0"
140
0.75
141
12.0
290
     0
  0
SCALE
  5
404
102
{ACAD_REACTORS
330
3E7
102
}
330
3E7
100
AcDbScale
 70
     0
300
1" = 1'-0"
140
1.0
141
12.0
290
     0
  0
SCALE
  5
405
102
{ACAD_REACTORS
330
3E7
102
}
330
3E7
100
AcDbScale
 70
     0
300
1-1/2" = 1'-0"
140
1.5
141
12.0
290
     0
  0
SCALE
  5
406
102
{ACAD_REACTORS
330
3E7
102
}
330
3E7
100
AcDbScale
 70
     0
300
3" = 1'-0"
140
3.0
141
12.0
290
     0
  0
SCALE
  5
407
102
{ACAD_REACTORS
330
3E7
102
}
330
3E7
100
AcDbScale
 70
     0
300
6" = 1'-0"
140
6.0
141
12.0
290
     0
  0
SCALE
  5
408
102
{ACAD_REACTORS
330
3E7
102
}
330
3E7
100
AcDbScale
 70
     0
300
1'-0" = 1'-0"
140
12.0
141
12.0
290
     0
  0
DICTIONARYVAR
  5
40C
102
{ACAD_REACTORS
330
409
102
}
330
409
100
DictionaryVariables
280
     0
  1
1:1
  0
ENDSEC
  0
SECTION
  2
THUMBNAILIMAGE
 90
    16364
310
28000000B40000005500000001000800000000000000000000000000000000000000000000000000FFFFFF000000FF0000FFFF0000FF0000FFFF0000FF000000FF00FF000000000080808000C0C0C0000000FF007F7FFF000000A5005252A50000007F003F3F7F0000004C0026264C000000260013132600003FFF007F9FFF
310
000029A5005267A500001F7F003F4F7F0000134C00262F4C000009260013172600007FFF007FBFFF000052A500527CA500003F7F003F5F7F0000264C0026394C0000132600131C260000BFFF007FDFFF00007CA5005291A500005F7F003F6F7F0000394C0026424C00001C26001321260000FFFF007FFFFF0000A5A50052A5
310
A500007F7F003F7F7F00004C4C00264C4C00002626001326260000FFBF007FFFDF0000A57C0052A59100007F5F003F7F6F00004C3900264C420000261C001326210000FF7F007FFFBF0000A5520052A57C00007F3F003F7F5F00004C2600264C39000026130013261C0000FF3F007FFF9F0000A5290052A56700007F1F003F
310
7F4F00004C1300264C2F00002609001326170000FF00007FFF7F0000A5000052A55200007F00003F7F3F00004C0000264C260000260000132613003FFF00009FFF7F0029A5000067A552001F7F00004F7F3F00134C00002F4C260009260000172613007FFF0000BFFF7F0052A500007CA552003F7F00005F7F3F00264C0000
310
394C2600132600001C261300BFFF0000DFFF7F007CA5000091A552005F7F00006F7F3F00394C0000424C26001C26000021261300FFFF0000FFFF7F00A5A50000A5A552007F7F00007F7F3F004C4C00004C4C26002626000026261300FFBF0000FFDF7F00A57C0000A59152007F5F00007F6F3F004C3900004C422600261C00
310
0026211300FF7F0000FFBF7F00A5520000A57C52007F3F00007F5F3F004C2600004C39260026130000261C1300FF3F0000FF9F7F00A5290000A56752007F1F00007F4F3F004C1300004C2F26002609000026171300FF000000FF7F7F00A5000000A55252007F0000007F3F3F004C0000004C2626002600000026131300FF00
310
3F00FF7F9F00A5002900A55267007F001F007F3F4F004C0013004C262F002600090026131700FF007F00FF7FBF00A5005200A5527C007F003F007F3F5F004C0026004C2639002600130026131C00FF00BF00FF7FDF00A5007C00A55291007F005F007F3F6F004C0039004C26420026001C0026132100FF00FF00FF7FFF00A5
310
00A500A552A5007F007F007F3F7F004C004C004C264C002600260026132600BF00FF00DF7FFF007C00A5009152A5005F007F006F3F7F0039004C0042264C001C002600211326007F00FF00BF7FFF005200A5007C52A5003F007F005F3F7F0026004C0039264C00130026001C1326003F00FF009F7FFF002900A5006752A500
310
1F007F004F3F7F0013004C002F264C000900260017132600000000002D2D2D005B5B5B0089898900B7B7B700B3B3B30000000000000000000000000000000000000000000000000000000000000000000000000000000000000000000000000000000000000000000000000000000000000000000000000000000000000000
310
00000007070707070707070700000000000000000000000000000000000000000000000000000000000000000000000000000000000000000000000000000000000000000000000000000000000000000000000000000000000000000000000000000000000000000000000000000000000000000000000000000000000000
310
00000000000000000000000000000000000000000000000000000000000000000000000000000000000000000000000000000000000000000707000000000007070000000000000000000000000000000000000000000000000000000000000000000000000000000000000000000000000000000000000000000000000000
310
00000000000000000000000000000000000000000000000000000000000000000000000000000000000000000000000000000000000000000000000000000000000000000000000000000000000000000000000000000000000000000000000000000000000000000000000000070700000000000707000000000000000000
310
00000000000000000000000000000000000000000000000000000000000000000000000000000000000000000000000000000000000000000000000000000000000000000000000000000000000000000000000000000000000000000000000000000000000000000000000000000000000000000000000000000000000000
310
00000000000000000000000000000000000000000000000000000000000000000000000707000000000007070000000000000000000000000000000000000000000000000000000000000000000000000000000000000000000000000000000000000000000000000000000000000000000000000000000000000000000000
310
00000000000000000000000000000000000000000000000000000000000000000000000000000000000000000000000000000000000000000000000000000000000000000000000000000000000000000000000000000000070700000000000707000000000000000000000000000000000000000000000000000000000000
310
00000000000000000000000000000000000000000000000000000000000000000000000000000000000000000000000000000000000000000000000000000000000000000000000000000000000000000000000000000000000000000000000000000000000000000000000000000000000000000000000000000000000000
310
00000000000000000000000000000707000000000007070000000000000000000000000000000000000000000000000000000000000000000000000000000000000000000000000000000000000000000000000000000000000000000000000000000000000000000000000000000000000000000000000000000000000000
310
00000000000000000000000000000000000000000000000000000000000000000000000000000000000000000000000000000000000000000000000000000000000000070700000000000707000000000000000000000000000000000000000000000000000000000000000000000000000000000000000000000000000000
310
00000000000000000000000000000000000000000000000000000000000000000000000000000000000000000000000000000000000000000000000000000000000000000000000000000000000000000000000000000000000000000000000000000000000000000000000000000000000000000000000007070000000000
310
07070000000000000000000000000000000000000000000000000000000000000000000000000000000000000000000000000000000000000000000000000000000000000000000000000000000000000000000000000000000000000000000000000000000000000000000000000000000000000000000000000000000000
310
00000000000000000000000000000000000000000000000000000000000000000000000000000000000000000000070700000000000707000000000000000000000000000000000000000000000000000000000000000000000000000000000000000000000000000000000000000000000000000000000000000000000000
310
00000000000000000000000000000000000000000000000000000000000000000000000000000000000000000000000000000000000000000000000000000000000000000000000000000000000000000000000000000000000000000000000000000007070000000000070700000000000000000000000000000000000000
310
00000000000000000000000000000000000000000000000000000000000000000000000000000000000000000000000000000000000000000000000000000000000000000000000000000000000000000000000000000000000000000000000000000000000000000000000000000000000000000000000000000000000000
310
00000000000000000000000000000000000000000000000000070700000000000707000000000000000000000000000000000000000000000000000000000000000000000000000000000000000000000000000000000000000000000000000000000000000000000000000000000000000000000000000000000000000000
310
00000000000000000000000000000000000000000000000000000000000000000000000000000000000000000000000000000000000000000000000000000000000000000000000000000000000007070000000000070700000000000000000000000000000000000000000000000000000000000000000000000000000000
310
00000000000000000000000000000000000000000000000000000000000000000000000000000000000000000000000000000000000000000000000000000000000000000000000000000000000000000000000000000000000000000000000000000000000000000000000000000000000000000000000000000000000000
310
00000000070700000000000707070707070707070707070707070707070707070707070707070707070707070700000000000000000000000000000000000000000000000000000000000000000000000000000000000000000000000000000000000000000000000000000000000000000000000000000000000000000000
310
00000000000000000000000000000000000000000000000000000000000000000000000000000000000000000000000000000000000000000007070000000000070700000000000000000000000000000000000000000000000000000000000000070700000000000000000000000000000000000000000000000000000000
310
00000000000000000000000000000000000000000000000000000000000000000000000000000000000000000000000000000000000000000000000000000000000000000000000000000000000000000000000000000000000000000000000000000000000000000000000000000707000000000007070000000000000000
310
00000000000000000000000000000000000000000000000707000000000000000000000000000000000000000000000000000000000000000000000000000000000000000000000000000000000000000000000000000000000000000000000000000000000000000000000000000000000000000000000000000000000000
310
00000000000000000000000000000000000000000000000000000000000000000000000007070000000000070700000000000000000000000000000000000000000000000000000000000000070700000000000000000000000000000000000000000000000000000000000000000000000000000000000000000000000000
310
00000000000000000000000000000000000000000000000000000000000000000000000000000000000000000000000000000000000000000000000000000000000000000000000000000000000000000000000000000000000707000000000007070000000000000000000000000000000000000000000000000000000000
310
00000707000000000000000000000000000000000000000000000000000000000000000000000000000000000000000000000000000000000000000000000000000000000000000000000000000000000000000000000000000000000000000000000007070707070707070707070707070707070707070707070707070707
310
07070707070707070707070707070707070000000000070700000000000000000000000000000000000000000000000000000000000000070700000000000000000000000000000000000000000000000000000000000000000000000000000000000000000000000000000000000000000000000000000000000000000000
310
00000000000000000000000000000000000000000000000707000000000000000000000000000000000000000000000000000000000000000000000000000007070707070707000000000007070000000000000000000000000000000000000000000000000000000000000007070000000000000000000000000000000000
310
00000000000000000000000000000000000000000000000000000000000000000000000000000000000000000000000000000000000000000000000000000000000000000000000000000000070000000000000000000000000000000000000000000000000000000000000000000000000000000700000000070700000000
310
00070700000000000000000000000000000000000000000000000000000000000000070700000000000000000000000000000000000000000000000000000000000000000000000000000000000000000000000000000000000000000000000000000000000000000000000000000000000000000000000000000000000000
310
00000700070707070707070707070707070707070707070707070707070707070707070707070707070707000000000707000000000007070000000000000000000000000000000000000000000000000000000000000007070707070707070707070707070707070707070707070707070707070707070707070707070707
310
07070707070000000000000000000000000000000000000000000000000000000000000000000000000000000000000000000000000000070700000000000000000000000000000000000000000000000000000000000000000000000000000700000000070700000000000707000000000000000000000000000000000000
310
00000000000000000000000000070700000000000000000000000000000000000000000000000000000000000000000000000000000000000007000000000000000000000000000000000000000000000000000000000000000000000000000000000000000000000000000007000000000000000000000000000000000000
310
00000000000000000000000000000000000000000007000000000707000000000007070000000000000000000000000000000000000000000000000000000000000007070000000000000000000000000000000000000000000000000000000000000000000000000000000000000700000000000000000000000000000000
310
00000000000000000000000000000000000000000000000000000000000000000000070000000000000000000000000000000000000000000000000000000000000000000000000000000700000000070700000000000707000000000000000000000000000000000000000000000000000000000000000707000000000000
310
00000000000000000000000000000000000000000000000000000000000000000000000007000000000000000000000000000000000000000000000000000000000000000000000000000000000000000000000000000007000000000000000000000000000000000000000000000000000000000000000000000000000000
310
07000000000707000000000007070000000000000000000000000000000000000000000000000000000000000007070000000000000000000000000000000000000000000000000000000000000000000000000000000000000700000000000000000000000000000000000000000000000000000000000000000000000000
310
00000000000000000000000000070000000000000000000000000000000000000000000000000000000000000000000000000000000700000000070700000000000707000000000000000000000000000000000000000000000000000000000000000707000000000000000000000000000000000000000000000000000000
310
00000000000000000000000000000007000000000000000000000000000000000000000000000000000000000000000000070707070707070707070707070000070707000000000000000000000000000000000000000000000000000000000000000000000000000000070000000007070000000000070700000000000000
310
00000000000000000000000000000000000000000000000007070707070707070707070707070707070707070707070707070707070707070707070707070707070707070700000000000000000000000000000000000000000000000000000007070707070707000000000000000000000007070707000700000000000000
310
00000000000000000000000000000000000000000000000000000000000000000700000000070700000000000707000000000000000000000000000000000000000000000000000000000000000707000000000000000000000000000000070000000000000000000000000000000000000000000000000000000000000000
310
00000000000000000000000000000000000000000000070000000000070000000000000000000000070000070007000000000000000000000000000000000000000000000000000000000000000000000000000000070000000007070000000000070700000000000000000000000000000000000000000000000000000000
310
00000007070000000000000000000000000000000700000000000000000000000000000000000000000000000000000000000000000000000000000000000000000000000000000000000007000000000007000000000000000000000007000007000700000000000000000000000000000000000000000000000000000000
310
00000000000000000000000007070707070700000000000707000000000000000000000000000000000000000000000000000000000000000707000000000000000000000000000000070000000000000000000000000000000000000000000000000000000000000000000000000000000000000000000000000000000000
310
00070000000000070000000000000000000000070000070007070707070707070707070707070707070707070707070707070707070707070707070707070707070707070707070000000000070700000000000000000000000000000000000000000000000000000000000000070700000000000000000000000000000007
310
00000000000000000000000000000000000000000000000000000000000000000000000000000000000000000000000000000000000007000000000007000000000000000000000007000007000700000000000000000000000000000000000000000000000000000000000000000000000000000000000000000707000000
310
00000707000000000000000000000000000000000000000000000000000000000000000707000000000000000000000000000000070000000000000000000000000000000000000000000000000000000000000000000000000000000000000000000000000000000000000700000000000700000000000000000000000700
310
00070007000000000000000000000000000000000000000000000000000000000000000000000000000000000000000007070000000000070700000000000000000000000000000000000000000000000000000000000000070700000000000000000000000000000007000000000000000000000000000000000000000000
310
00000000000000000000000000000000000000000000000000000000000000000007000000000007000000000000000000000007000007000700000000000000000000000000000000000000000000000000000000000000000000000000000000000000000707000000000007070000000000000000000000000000000000
310
00000000000000000000000000000707000000000000000000000000000000070000000000000000000000000000000000000000000000000000000000000000000000000000000000000000000000000000000000000700000000000700000000000000000000000700000700070000000000000000000000000000000000
310
00000000000000000000000000000000000000000000000000000007070000000000070700000000000000000000000000000000000000000000000000000000000000070700000000000000000000000000000007000000000000000000000000000000000000000000000000000000000000000000000000000000000000
310
00000000000000000000000007000000000007000000000000000000000007000007000700000000000000000000000000000000000000000000000000000000000000000000000000000000000000000707000000000007070000000000000000000000000000000000000000000000000000000000000007070000000000
310
00000000000000000000070000000000000000000000000000000000000000000000000000000000000000000000000000000000000000000000000000000000000700000000000700000000000000000000000700000700070000000000000000000000000000000000000000000000000000000000000000000000000000
310
00000000000007070000000000070700000000000000000000000000000000000000000000000000000000000000070700000000000000000000000000000007000000000000000000000000000000000000000000000000000000000000000000000000000000000000000000000000000000000000070000000000070000
310
00000000000000000007000007000700000000000000000000000000000000000000000000000000000000000000000000000000000000000000000707000000000007070000000000000000000000000000000000000000000000000000000000000007070000000000000000000000000000000700000000000000000000
310
00000000000000000000000000000000000000000000000000000000000000000000000000000000000000000700000000000700000000000000000000000700000700070000000000000000000000000000000000000000000000000000000000000000000000000000000000000000070700000000000707000000000000
310
00000000000000000000000000000000000000000000000000070700000000000000000000000000000007000000000000000000000000000000000000000000000000000000000000000000000000000000000000000000000000000000000000070707070707070000000000000000000000070707070007000000000000
310
00000000000000000000000000000000000000000000000000000000000000000000000000000707000000000007070000000000000000000000000000000000000000000000000000000000000007070000000000000000000000000000000700000000000000000000000000000000000000000000000000000000000000
310
00000000000000000000000000000000000000000000000000000000000707070707070707070707070700000707070000000000000000000000000000000000000000000000000000000000000000000000000000000000000000070700000000000707000000000000000000000000000000000000000000000000000000
310
00000000070707070707070707070707070707070707000000000000000000000000000000000000000000000000000000000000000000000000000000000000000000000000000000000000000000000000000000000000000000000000000000000007000000000000000000000000000000000000000000000000000000
310
00000000000000000000000000000000000707000000000007070000000000000000000000000000000000000000000000000000000000000007070000000000000000000000000000000000000000000000000000000000000000000000000000000000000000000000000000000000000000000000000000000000000000
310
00000000000000000000000000000000000000000000000000070000000000000000000000000000000000000000000000000000000000000000000000000000000000000000070700000000000707000000000000000000000000000000000000000000000000000000000000000707000000000000000000000000000000
310
00000000000000000000000000000000000000000000000000000000000000000000000000000000000000000000000000000000000000000000000000070707070707070707070707070000070707000000000000000000000000000000000000000000000000000000000000000000000000000000000000000007070000
310
00000007070000000000000000000000000000000000000000000000000000000000000007070707070707070707070707070707070700000000000000000000000000000000000000000000000000000000000000000000000000000000000000000000000000000000000007070707070707000000000000000000000007
310
07070700070000000000000000000000000000000000000000000000000000000000000000000000000000000000000000070700000000000707000000000000000000000000000000000000000000000000000000000000000707000000000000000000000000000000070000000000000000000000000000000000000000
310
00000000000000000000000000000000000000000000000000000000000000000000070000000000070000000000000000000000070000070007000000000000000000000000000000000000000000000000000000000000000000000000000000000000000007070000000000070700000000000000000000000000000000
310
00000000000000000000000000000007070000000000000000000000000000000700000000000000000000000000000000000000000000000000000000000000000000000000000000000000000000000000000000000007000000000007000000000000000000000007000007000700000000000000000000000000000000
310
00000000000000000000000000000000000000000000000000000000070700000000000707000000000000000000000000000000000000000000000000000000000000000707000000000000000000000000000000070000000000000000000000000000000000000000000000000000000000000000000000000000000000
310
00000000000000000000000000070000000000070000000000000000000000070000070007000000000000000000000000000000000000000000000000000000000000000000000000000000000000000007070000000000070700000000000000000000000000000000000000000000000000000000000000070700000000
310
00000000000000000000000700000000000000000000000000000000000000000000000000000000000000000000000000000000000000000000000000000000000007000000000007000000000000000000000007000007000700000000000000000000000000000000000000000000000000000000000000000000000000
310
00000000000000070700000000000707000000000000000000000000000000000000000000000000000000000000000707000000000000000000000000000000070000000000000000000000000000000000000000000000000000000000000000000000000000000000000000000000000000000000000700000000000700
310
00000000000000000000070000070007000000000000000000000000000000000000000000000000000000000000000000000000000000000000000007070000000000070700000000000000000000000000000000000000000000000000000000000000070700000000000000000000000000000007000000000000000000
310
00000000000000000000000000000000000000000000000000000000000000000000000000000000000000000007000000000007000000000000000000000007000007000700000000000000000000000000000000000000000000000000000000000000000000000000000000000000000707000000000007070000000000
310
00000000000000000000000000000000000000000000000000000707000000000000000000000000000000070000000000000000000000000000000000000000000000000000000000000000000000000000000000000000000000000000000000000700000000000700000000000000000000000700000700070000000000
310
00000000000000000000000000000000000000000000000000000000000000000000000000000007070000000000070700000000000000000000000000000000000000000000000000000000000000070700000000000000000000000000000007000000000000000000000000000000000000000000000000000000000000
310
00000000000000000000000000000000000000000000000007000000000007000000000000000000000007000007000700000000000000000000000000000000000000000000000000000000000000000000000000000000000000000707000000000007070000000000000000000000000000000000000000000000000000
310
00000000000707000000000000000000000000000000070000000000000000000000000000000000000000000000000000000000000000000000000000000000000000000000000000000000000700000000000700000000000000000000000700000700070707070707070707070707070707070707070707070707070707
310
07070707070707070707070707070707070707070000000000070700000000000000000000000000000000000000000000000000000000000000070700000000000000000000000000000007000000000000000000000000000000000000000000000000000000000000000000000000000000000000000000000000000000
310
00000007000000000007000000000000000000000007000007000700000000000000000000000000000000000000000000000000000000000000000000000000000000000000000707000000000007070000000000000000000000000000000000000000000000000000000000000007070000000000000000000000000000
310
00070000000000000000000000000000000000000000000000000000000000000000000000000000000000000000000000000000000000000700000000000700000000000000000000000700000700070000000000000000000000000000000000000000000000000000000000000000000000000000000707070707070700
310
00000000070700000000000000000000000000000000000000000000000000000000000000070700000000000000000000000000000007000000000000000000000000000000000000000000000000000000000000000000000000000000000000000000000000000000000000070707070707070000000000000000000000
310
07070707000700000000000000000000000000000000000000000000000000000000000000000000000000000007000000000707000000000007070000000000000000000000000000000000000000000000000000000000000007070000000000000000000000000000000700000000000000000000000000000000000000
310
00000000000000000000000000000000000000000000000000000000000000000000000000000000000707070707070707070707070700000707070000000000000000000000000000000000000000000000000000000000000000000000000000000700000000070700000000000707000000000000000000000000000000
310
00000000000000000000000000000000070707070707070707070707070707070707070707070707070707070707070707070707070707070707070707000000000000000000000000000000000000000000000000000000000000000000000000000000000000000000000000000007000000000000000000000000000000
310
00000000000000000000000000000000000000000000000007000000000707000000000007070000000000000000000000000000000000000000000000000000000000000007070000000000000000000000000000000000000000000000000000000000000000000000000000000000000700000000000000000000000000
310
00000000000000000000000000000000000000000000000000000000000000000000000000070000000000000000000000000000000000000000000000000000000000000000000000000000000700000000070700000000000707000000000000000000000000000000000000000000000000000000000000000707000000
310
00000000000000000000000000000000000000000000000000000000000000000000000000000007000000000000000000000000000000000000000000000000000000000000000000000000000000000000000000000000000007000000000000000000000000000000000000000000000000000000000000000000000000
310
00000007000000000707000000000007070000000000000000000000000000000000000000000000000000000000000007070000000000000000000000000000000000000000000000000000000000000000000000000000000000000700000000000000000000000000000000000000000000000000000000000000000000
310
00000000000000000000000000000000070000000000000000000000000000000000000000000000000000000000000000000000000000000700000000070700000000000707000000000000000000000000000000000000000000000000000000000000000707000000000000000000000000000000000000000000000000
310
00000000000000000000000000000000000007000000000000000000000000000000000000000000000000000000000000000000000000000000000000000000000000000007000000000000000000000000000000000000000000000000000000000000000000000000000000070000000007070000000000070700000000
310
00000000000000000000000000000000000000000000000000000007070000000000000000000000000000000000000000000000000000000000000000000000000000000000000700000000000000000000000000000000000000000000000000000000000000000000000000000000000000000000000000000707070707
310
07070707070707070707070707070707070707070707070707070707070707070707070700000000070700000000000707000000000000000000000000000000000000000000000000000000000000000707070707070707070707070707070707070707070707070707070707070707070707070707070707070707070000
310
00000000000000000000000000000000000000000000000000000000000000000000000000000000000000000000000007000000000000000000000000000000000000000000000000000000000000000000000000000000070000000007070000000000070700000000000000000000000000000000000000000000000000
310
00000000000007070000000000000000000000000000000000000000000000000000000000000000000000000000000000000000000000000000000000000000000000000000000000000000000000000000000000000000000000000000000000000000000700000000000000000000000000000000000000000000000000
310
00000000000000000000000000000707070707070700000000000707000000000000000000000000000000000000000000000000000000000000000707000000000000000000000000000000000000000000000000000000000000000000000000000000000000000000000000000000000000000000000000000000000000
310
00000000000000000000000000000000000000000000000000000000070707070707070707070707070707070707070707070707070707070707070707070707070707070707070707070000000000070700000000000000000000000000000000000000000000000000000000000000070700000000000000000000000000
310
00000000000000000000000000000000000000000000000000000000000000000000000000000000000000000000000000000000000000000000000000000000000000000000000000000000000000000000000000000000000000000000000000000000000000000000000000000000000000000000000000000000000707
310
00000000000707000000000000000000000000000000000000000000000000000000000000000707000000000000000000000000000000000000000000000000000000000000000000000000000000000000000000000000000000000000000000000000000000000000000000000000000000000000000000000000000000
310
00000000000000000000000000000000000000000000000000000000000000000000000000000000000000000000000000000007070000000000070700000000000000000000000000000000000000000000000000000000000000070700000000000000000000000000000000000000000000000000000000000000000000
310
00000000000000000000000000000000000000000000000000000000000000000000000000000000000000000000000000000000000000000000000000000000000000000000000000000000000000000000000000000000000000000000000000000000000000000707000000000007070000000000000000000000000000
310
00000000000000000000000000000000000707000000000000000000000000000000000000000000000000000000000000000000000000000000000000000000000000000000000000000000000000000000000000000000000000000000000000000000000000000000000000000000000000000000000000000000000000
310
00000000000000000000000000000000000000000000000000000000000007070000000000070700000000000000000000000000000000000000000000000000000000000000070700000000000000000000000000000000000000000000000000000000000000000000000000000000000000000000000000000000000000
310
00000000000000000000000000000000000000000000000000000000000000000000000000000000000000000000000000000000000000000000000000000000000000000000000000000000000000000000000707000000000007070707070707070707070707070707070707070707070707070707070707070707070000
310
00000000000000000000000000000000000000000000000000000000000000000000000000000000000000000000000000000000000000000000000000000000000000000000000000000000000000000000000000000000000000000000000000000000000000000000000000000000000000000000000000000000000000
310
00000000000000000007070000000000070700000000000000000000000000000000000000000000000000000000000000000000000000000000000000000000000000000000000000000000000000000000000000000000000000000000000000000000000000000000000000000000000000000000000000000000000000
310
00000000000000000000000000000000000000000000000000000000000000000000000000000000000000000000000000000000000000000000000000000707000000000007070000000000000000000000000000000000000000000000000000000000000000000000000000000000000000000000000000000000000000
310
00000000000000000000000000000000000000000000000000000000000000000000000000000000000000000000000000000000000000000000000000000000000000000000000000000000000000000000000000000000000000000000000000000000000000000000000000000000000000070700000000000707000000
310
00000000000000000000000000000000000000000000000000000000000000000000000000000000000000000000000000000000000000000000000000000000000000000000000000000000000000000000000000000000000000000000000000000000000000000000000000000000000000000000000000000000000000
310
00000000000000000000000000000000000000000000000000000000000000000000000000000000000707000000000007070000000000000000000000000000000000000000000000000000000000000000000000000000000000000000000000000000000000000000000000000000000000000000000000000000000000
310
00000000000000000000000000000000000000000000000000000000000000000000000000000000000000000000000000000000000000000000000000000000000000000000000000000000000000000000000000000000000000000000070700000000000707000000000000000000000000000000000000000000000000
310
00000000000000000000000000000000000000000000000000000000000000000000000000000000000000000000000000000000000000000000000000000000000000000000000000000000000000000000000000000000000000000000000000000000000000000000000000000000000000000000000000000000000000
310
00000000000000000000000000000000000000000707000000000007070000000000000000000000000000000000000000000000000000000000000000000000000000000000000000000000000000000000000000000000000000000000000000000000000000000000000000000000000000000000000000000000000000
310
00000000000000000000000000000000000000000000000000000000000000000000000000000000000000000000000000000000000000000000000000000000000000000000000000070700000000000707000000000000000000000000000000000000000000000000000000000000000000000000000000000000000000
310
00000000000000000000000000000000000000000000000000000000000000000000000000000000000000000000000000000000000000000000000000000000000000000000000000000000000000000000000000000000000000000000000000000000000000000000000000000000000000000000000000000000000007
310
07000000000007070000000000000000000000000000000000000000000000000000000000000000000000000000000000000000000000000000000000000000000000000000000000000000000000000000000000000000000000000000000000000000000000000000000000000000000000000000000000000000000000
310
00000000000000000000000000000000000000000000000000000000000000000000000000000000000000000000000000000000070700000000000707000000000000000000000000000000000000000000000000000000000000000000000000000000000000000000000000000000000000000000000000000000000000
310
00000000000000000000000000000000000000000000000000000000000000000000000000000000000000000000000000000000000000000000000000000000000000000000000000000000000000000000000000000000000000000000000000000000000000000007070000000000070700000000000000000000000000
310
00000000000000000000000000000000000000000000000000000000000000000000000000000000000000000000000000000000000000000000000000000000000000000000000000000000000000000000000000000000000000000000000000000000000000000000000000000000000000000000000000000000000000
310
00000000000000000000000000000000000000000000000000000000000000070700000000000707000000000000000000000000000000000000000000000000000000000000000000000000000000000000000000000000000000000000000000000000000000000000000000000000000000000000000000000000000000
310
00000000000000000000000000000000000000000000000000000000000000000000000000000000000000000000000000000000000000000000000000000000000000000000000000000000000000000000000007070707070707070000000000000000000000000000000000000000000000000000000000000000000000
310
00000000000000000000000000000000000000000000000000000000000000000000000000000000000000000000000000000000000000000000000000000000000000000000000000000000000000000000000000000000000000000000000000000000000000000000000000000000000000000000000000000000000000
310
000000000000000000000000000000000000000000000000000000000000000000000000000000000000000000000000000000000000000000000000000000000000000000000000000000000000000000000000000000000000000000000000000000000000000000000000
  0
ENDSEC
  0
EOF
