  0
SECTION
  2
HEADER
  9
$ACADVER
  1
AC1015
  9
$ACADMAINTVER
 70
     6
  9
$DWGCODEPAGE
  3
ANSI_1252
  9
$INSBASE
 10
0.0
 20
0.0
 30
0.0
  9
$EXTMIN
 10
0.01
 20
-0.011538760003
 30
0.0
  9
$EXTMAX
 10
69.99
 20
70.011538760003
 30
0.0
  9
$LIMMIN
 10
0.0
 20
0.0
  9
$LIMMAX
 10
12.0
 20
9.0
  9
$ORTHOMODE
 70
     0
  9
$REGENMODE
 70
     1
  9
$FILLMODE
 70
     1
  9
$QTEXTMODE
 70
     0
  9
$MIRRTEXT
 70
     1
  9
$LTSCALE
 40
1.0
  9
$ATTMODE
 70
     1
  9
$TEXTSIZE
 40
0.2
  9
$TRACEWID
 40
0.05
  9
$TEXTSTYLE
  7
Standard
  9
$CLAYER
  8
0
  9
$CELTYPE
  6
ByBlock
  9
$CECOLOR
 62
   256
  9
$CELTSCALE
 40
1.0
  9
$DISPSILH
 70
     0
  9
$DIMSCALE
 40
1.0
  9
$DIMASZ
 40
0.18
  9
$DIMEXO
 40
0.0625
  9
$DIMDLI
 40
0.38
  9
$DIMRND
 40
0.0
  9
$DIMDLE
 40
0.0
  9
$DIMEXE
 40
0.18
  9
$DIMTP
 40
0.0
  9
$DIMTM
 40
0.0
  9
$DIMTXT
 40
0.18
  9
$DIMCEN
 40
0.09
  9
$DIMTSZ
 40
0.0
  9
$DIMTOL
 70
     0
  9
$DIMLIM
 70
     0
  9
$DIMTIH
 70
     1
  9
$DIMTOH
 70
     1
  9
$DIMSE1
 70
     0
  9
$DIMSE2
 70
     0
  9
$DIMTAD
 70
     0
  9
$DIMZIN
 70
     0
  9
$DIMBLK
  1

  9
$DIMASO
 70
     1
  9
$DIMSHO
 70
     1
  9
$DIMPOST
  1

  9
$DIMAPOST
  1

  9
$DIMALT
 70
     0
  9
$DIMALTD
 70
     2
  9
$DIMALTF
 40
25.4
  9
$DIMLFAC
 40
1.0
  9
$DIMTOFL
 70
     0
  9
$DIMTVP
 40
0.0
  9
$DIMTIX
 70
     0
  9
$DIMSOXD
 70
     0
  9
$DIMSAH
 70
     0
  9
$DIMBLK1
  1

  9
$DIMBLK2
  1

  9
$DIMSTYLE
  2
Standard
  9
$DIMCLRD
 70
     0
  9
$DIMCLRE
 70
     0
  9
$DIMCLRT
 70
     0
  9
$DIMTFAC
 40
1.0
  9
$DIMGAP
 40
0.09
  9
$DIMJUST
 70
     0
  9
$DIMSD1
 70
     0
  9
$DIMSD2
 70
     0
  9
$DIMTOLJ
 70
     1
  9
$DIMTZIN
 70
     0
  9
$DIMALTZ
 70
     0
  9
$DIMALTTZ
 70
     0
  9
$DIMUPT
 70
     0
  9
$DIMDEC
 70
     4
  9
$DIMTDEC
 70
     4
  9
$DIMALTU
 70
     2
  9
$DIMALTTD
 70
     2
  9
$DIMTXSTY
  7
Standard
  9
$DIMAUNIT
 70
     0
  9
$DIMADEC
 70
     0
  9
$DIMALTRND
 40
0.0
  9
$DIMAZIN
 70
     0
  9
$DIMDSEP
 70
    46
  9
$DIMATFIT
 70
     3
  9
$DIMFRAC
 70
     0
  9
$DIMLDRBLK
  1

  9
$DIMLUNIT
 70
     2
  9
$DIMLWD
 70
    -2
  9
$DIMLWE
 70
    -2
  9
$DIMTMOVE
 70
     2
  9
$LUNITS
 70
     2
  9
$LUPREC
 70
     4
  9
$SKETCHINC
 40
0.1
  9
$FILLETRAD
 40
0.5
  9
$AUNITS
 70
     0
  9
$AUPREC
 70
     0
  9
$MENU
  1
.
  9
$ELEVATION
 40
0.0
  9
$PELEVATION
 40
0.0
  9
$THICKNESS
 40
0.0
  9
$LIMCHECK
 70
     0
  9
$CHAMFERA
 40
0.5
  9
$CHAMFERB
 40
0.5
  9
$CHAMFERC
 40
1.0
  9
$CHAMFERD
 40
0.0
  9
$SKPOLY
 70
     0
  9
$TDCREATE
 40
2456184.032092014
  9
$TDUCREATE
 40
2456183.94875868
  9
$TDUPDATE
 40
2456184.038199861
  9
$TDUUPDATE
 40
2456183.954866528
  9
$TDINDWG
 40
0.0061076852
  9
$TDUSRTIMER
 40
0.0061076852
  9
$USRTIMER
 70
     1
  9
$ANGBASE
 50
0.0
  9
$ANGDIR
 70
     0
  9
$PDMODE
 70
     0
  9
$PDSIZE
 40
0.0
  9
$PLINEWID
 40
0.0
  9
$SPLFRAME
 70
     0
  9
$SPLINETYPE
 70
     6
  9
$SPLINESEGS
 70
     8
  9
$HANDSEED
  5
59F
  9
$SURFTAB1
 70
     6
  9
$SURFTAB2
 70
     6
  9
$SURFTYPE
 70
     6
  9
$SURFU
 70
     6
  9
$SURFV
 70
     6
  9
$UCSBASE
  2

  9
$UCSNAME
  2

  9
$UCSORG
 10
0.0
 20
0.0
 30
0.0
  9
$UCSXDIR
 10
1.0
 20
0.0
 30
0.0
  9
$UCSYDIR
 10
0.0
 20
1.0
 30
0.0
  9
$UCSORTHOREF
  2

  9
$UCSORTHOVIEW
 70
     0
  9
$UCSORGTOP
 10
0.0
 20
0.0
 30
0.0
  9
$UCSORGBOTTOM
 10
0.0
 20
0.0
 30
0.0
  9
$UCSORGLEFT
 10
0.0
 20
0.0
 30
0.0
  9
$UCSORGRIGHT
 10
0.0
 20
0.0
 30
0.0
  9
$UCSORGFRONT
 10
0.0
 20
0.0
 30
0.0
  9
$UCSORGBACK
 10
0.0
 20
0.0
 30
0.0
  9
$PUCSBASE
  2

  9
$PUCSNAME
  2

  9
$PUCSORG
 10
0.0
 20
0.0
 30
0.0
  9
$PUCSXDIR
 10
1.0
 20
0.0
 30
0.0
  9
$PUCSYDIR
 10
0.0
 20
1.0
 30
0.0
  9
$PUCSORTHOREF
  2

  9
$PUCSORTHOVIEW
 70
     0
  9
$PUCSORGTOP
 10
0.0
 20
0.0
 30
0.0
  9
$PUCSORGBOTTOM
 10
0.0
 20
0.0
 30
0.0
  9
$PUCSORGLEFT
 10
0.0
 20
0.0
 30
0.0
  9
$PUCSORGRIGHT
 10
0.0
 20
0.0
 30
0.0
  9
$PUCSORGFRONT
 10
0.0
 20
0.0
 30
0.0
  9
$PUCSORGBACK
 10
0.0
 20
0.0
 30
0.0
  9
$USERI1
 70
     0
  9
$USERI2
 70
     0
  9
$USERI3
 70
     0
  9
$USERI4
 70
     0
  9
$USERI5
 70
     0
  9
$USERR1
 40
0.0
  9
$USERR2
 40
0.0
  9
$USERR3
 40
0.0
  9
$USERR4
 40
0.0
  9
$USERR5
 40
0.0
  9
$WORLDVIEW
 70
     1
  9
$SHADEDGE
 70
     3
  9
$SHADEDIF
 70
    70
  9
$TILEMODE
 70
     1
  9
$MAXACTVP
 70
    64
  9
$PINSBASE
 10
0.0
 20
0.0
 30
0.0
  9
$PLIMCHECK
 70
     0
  9
$PEXTMIN
 10
1.000000000000E+20
 20
1.000000000000E+20
 30
1.000000000000E+20
  9
$PEXTMAX
 10
-1.000000000000E+20
 20
-1.000000000000E+20
 30
-1.000000000000E+20
  9
$PLIMMIN
 10
0.0
 20
0.0
  9
$PLIMMAX
 10
12.0
 20
9.0
  9
$UNITMODE
 70
     0
  9
$VISRETAIN
 70
     1
  9
$PLINEGEN
 70
     0
  9
$PSLTSCALE
 70
     1
  9
$TREEDEPTH
 70
  3020
  9
$CMLSTYLE
  2
Standard
  9
$CMLJUST
 70
     0
  9
$CMLSCALE
 40
1.0
  9
$PROXYGRAPHICS
 70
     1
  9
$MEASUREMENT
 70
     0
  9
$CELWEIGHT
370
    -1
  9
$ENDCAPS
280
     0
  9
$JOINSTYLE
280
     0
  9
$LWDISPLAY
290
     0
  9
$INSUNITS
 70
     0
  9
$HYPERLINKBASE
  1

  9
$STYLESHEET
  1

  9
$XEDIT
290
     1
  9
$CEPSNTYPE
380
     0
  9
$PSTYLEMODE
290
     1
  9
$FINGERPRINTGUID
  2
{74EB19E9-C72E-4271-BC20-1368C46C69F8}
  9
$VERSIONGUID
  2
{FAEB1C32-E019-11D5-929B-00C0DF256EC4}
  9
$EXTNAMES
290
     1
  9
$PSVPSCALE
 40
0.0
  9
$OLESTARTUP
290
     0
  0
ENDSEC
  0
SECTION
  2
CLASSES
  0
CLASS
  1
ACDBDICTIONARYWDFLT
  2
AcDbDictionaryWithDefault
  3
ObjectDBX Classes
 90
        0
280
     0
281
     0
  0
CLASS
  1
SCALE
  2
AcDbScale
  3
ObjectDBX Classes
 90
     1153
280
     0
281
     0
  0
CLASS
  1
DICTIONARYVAR
  2
AcDbDictionaryVar
  3
ObjectDBX Classes
 90
        0
280
     0
281
     0
  0
CLASS
  1
ACDBPLACEHOLDER
  2
AcDbPlaceHolder
  3
ObjectDBX Classes
 90
        0
280
     0
281
     0
  0
CLASS
  1
LAYOUT
  2
AcDbLayout
  3
ObjectDBX Classes
 90
        0
280
     0
281
     0
  0
ENDSEC
  0
SECTION
  2
TABLES
  0
TABLE
  2
VPORT
  5
8
330
0
100
AcDbSymbolTable
 70
     1
  0
VPORT
  5
3B0
330
8
100
AcDbSymbolTableRecord
100
AcDbViewportTableRecord
  2
*Active
 70
     0
 10
0.0
 20
0.0
 11
1.0
 21
1.0
 12
34.995
 22
35.0
 13
0.0
 23
0.0
 14
0.5
 24
0.5
 15
0.5
 25
0.5
 16
0.0
 26
0.0
 36
1.0
 17
0.0
 27
0.0
 37
0.0
 40
71.423539070406
 41
1.863448275862
 42
50.0
 43
0.0
 44
0.0
 50
0.0
 51
0.0
 71
    16
 72
   100
 73
     1
 74
     3
 75
     0
 76
     0
 77
     0
 78
     0
281
     0
 65
     1
110
0.0
120
0.0
130
0.0
111
1.0
121
0.0
131
0.0
112
0.0
122
1.0
132
0.0
 79
     0
146
0.0
  0
ENDTAB
  0
TABLE
  2
LTYPE
  5
5
330
0
100
AcDbSymbolTable
 70
     1
  0
LTYPE
  5
14
330
5
100
AcDbSymbolTableRecord
100
AcDbLinetypeTableRecord
  2
ByBlock
 70
     0
  3

 72
    65
 73
     0
 40
0.0
  0
LTYPE
  5
15
330
5
100
AcDbSymbolTableRecord
100
AcDbLinetypeTableRecord
  2
ByLayer
 70
     0
  3

 72
    65
 73
     0
 40
0.0
  0
LTYPE
  5
16
330
5
100
AcDbSymbolTableRecord
100
AcDbLinetypeTableRecord
  2
Continuous
 70
     0
  3
Solid line
 72
    65
 73
     0
 40
0.0
  0
ENDTAB
  0
TABLE
  2
LAYER
  5
2
330
0
100
AcDbSymbolTable
 70
     1
  0
LAYER
  5
10
330
2
100
AcDbSymbolTableRecord
100
AcDbLayerTableRecord
  2
0
 70
     0
 62
     7
  6
Continuous
370
    -3
390
F
  0
ENDTAB
  0
TABLE
  2
STYLE
  5
3
330
0
100
AcDbSymbolTable
 70
     1
  0
STYLE
  5
11
330
3
100
AcDbSymbolTableRecord
100
AcDbTextStyleTableRecord
  2
Standard
 70
     0
 40
0.0
 41
1.0
 50
0.0
 71
     0
 42
0.2
  3
txt
  4

  0
ENDTAB
  0
TABLE
  2
VIEW
  5
6
330
0
100
AcDbSymbolTable
 70
     0
  0
ENDTAB
  0
TABLE
  2
UCS
  5
7
330
0
100
AcDbSymbolTable
 70
     0
  0
ENDTAB
  0
TABLE
  2
APPID
  5
9
330
0
100
AcDbSymbolTable
 70
     1
  0
APPID
  5
12
330
9
100
AcDbSymbolTableRecord
100
AcDbRegAppTableRecord
  2
ACAD
 70
     0
  0
ENDTAB
  0
TABLE
  2
DIMSTYLE
  5
A
330
0
100
AcDbSymbolTable
 70
     1
100
AcDbDimStyleTable
  0
DIMSTYLE
105
20
330
A
100
AcDbSymbolTableRecord
100
AcDbDimStyleTableRecord
  2
Standard
 70
     0
340
11
  0
ENDTAB
  0
TABLE
  2
BLOCK_RECORD
  5
1
330
0
100
AcDbSymbolTable
 70
     0
  0
BLOCK_RECORD
  5
1D
330
1
100
AcDbSymbolTableRecord
100
AcDbBlockTableRecord
  2
*Model_Space
340
1E
  0
BLOCK_RECORD
  5
1B
330
1
100
AcDbSymbolTableRecord
100
AcDbBlockTableRecord
  2
*Paper_Space
340
1C
  0
ENDTAB
  0
ENDSEC
  0
SECTION
  2
BLOCKS
  0
BLOCK
  5
3B3
330
1D
100
AcDbEntity
  8
0
100
AcDbBlockBegin
  2
*Model_Space
 70
     0
 10
0.0
 20
0.0
 30
0.0
  3
*Model_Space
  1
*Model_Space
  0
ENDBLK
  5
3B4
330
1D
100
AcDbEntity
  8
0
100
AcDbBlockEnd
  0
BLOCK
  5
3B1
330
1B
100
AcDbEntity
 67
     1
  8
0
100
AcDbBlockBegin
  2
*Paper_Space
 70
     0
 10
0.0
 20
0.0
 30
0.0
  3
*Paper_Space
  1
*Paper_Space
  0
ENDBLK
  5
3B2
330
1B
100
AcDbEntity
 67
     1
  8
0
100
AcDbBlockEnd
  0
ENDSEC
  0
SECTION
  2
ENTITIES
  0
LINE
  5
21
330
1D
100
AcDbEntity
  8
0
100
AcDbLine
 10
1.977
 20
23.394105
 30
0.0
 11
3.371
 21
20.006005
 31
0.0
  0
LINE
  5
22
330
1D
100
AcDbEntity
  8
0
100
AcDbLine
 10
3.371
 20
20.006005
 30
0.0
 11
5.11
 21
16.782105
 31
0.0
  0
LINE
  5
23
330
1D
100
AcDbEntity
  8
0
100
AcDbLine
 10
5.11
 20
16.782105
 30
0.0
 11
7.178
 21
13.757105
 31
0.0
  0
LINE
  5
27
330
1D
100
AcDbEntity
  8
0
100
AcDbLine
 10
12.2
 20
8.436505
 30
0.0
 11
15.101
 21
6.198875
 31
0.0
  0
LINE
  5
28
330
1D
100
AcDbEntity
  8
0
100
AcDbLine
 10
9.55
 20
10.965305
 30
0.0
 11
12.2
 21
8.436505
 31
0.0
  0
LINE
  5
35
330
1D
100
AcDbEntity
  8
0
100
AcDbLine
 10
0.97609058969
 20
26.806516811095
 30
0.0
 11
0.989
 21
26.738005
 31
0.0
  0
LINE
  5
36
330
1D
100
AcDbEntity
  8
0
100
AcDbLine
 10
0.97609058969
 20
26.806516811095
 30
0.0
 11
0.989
 21
26.738005
 31
0.0
  0
LINE
  5
38
330
1D
100
AcDbEntity
  8
0
100
AcDbLine
 10
0.288
 20
30.513205
 30
0.0
 11
0.946
 21
26.909105
 31
0.0
  0
LINE
  5
3B
330
1D
100
AcDbEntity
  8
0
100
AcDbLine
 10
0.01
 20
34.166305
 30
0.0
 11
0.288
 21
30.513205
 31
0.0
  0
LINE
  5
3F
330
1D
100
AcDbEntity
  8
0
100
AcDbLine
 10
0.946
 20
26.909105
 30
0.0
 11
1.977
 21
23.394105
 31
0.0
  0
LINE
  5
43
330
1D
100
AcDbEntity
  8
0
100
AcDbLine
 10
14.581
 20
34.440905
 30
0.0
 11
14.613
 21
33.692705
 31
0.0
  0
LINE
  5
44
330
1D
100
AcDbEntity
  8
0
100
AcDbLine
 10
14.575
 20
34.967805
 30
0.0
 11
14.581
 21
34.440905
 31
0.0
  0
LINE
  5
45
330
1D
100
AcDbEntity
  8
0
100
AcDbLine
 10
14.575
 20
34.967805
 30
0.0
 11
14.583
 21
35.494605
 31
0.0
  0
LINE
  5
46
330
1D
100
AcDbEntity
  8
0
100
AcDbLine
 10
14.575
 20
34.929805
 30
0.0
 11
14.576729893779
 21
34.815891494689
 31
0.0
  0
LINE
  5
49
330
1D
100
AcDbEntity
  8
0
100
AcDbLine
 10
14.576729893779
 20
35.081718505311
 30
0.0
 11
14.581
 21
35.456705
 31
0.0
  0
LINE
  5
4A
330
1D
100
AcDbEntity
  8
0
100
AcDbLine
 10
14.581
 20
35.440805
 30
0.0
 11
14.583
 21
35.511405
 31
0.0
  0
LINE
  5
4B
330
1D
100
AcDbEntity
  8
0
100
AcDbLine
 10
14.577480421687
 20
35.131140768072
 30
0.0
 11
14.581
 21
35.440805
 31
0.0
  0
LINE
  5
4C
330
1D
100
AcDbEntity
  8
0
100
AcDbLine
 10
14.575
 20
34.984705
 30
0.0
 11
14.575
 21
34.912905
 31
0.0
  0
LINE
  5
4D
330
1D
100
AcDbEntity
  8
0
100
AcDbLine
 10
14.575
 20
34.984705
 30
0.0
 11
14.583
 21
35.511405
 31
0.0
  0
LINE
  5
4E
330
1D
100
AcDbEntity
  8
0
100
AcDbLine
 10
14.575
 20
34.912905
 30
0.0
 11
14.577483694628
 21
34.749695216777
 31
0.0
  0
LINE
  5
4F
330
1D
100
AcDbEntity
  8
0
100
AcDbLine
 10
14.575
 20
34.912905
 30
0.0
 11
14.575
 21
34.984705
 31
0.0
  0
LINE
  5
50
330
1D
100
AcDbEntity
  8
0
100
AcDbLine
 10
14.613
 20
33.692705
 30
0.0
 11
14.622
 21
33.545605
 31
0.0
  0
LINE
  5
51
330
1D
100
AcDbEntity
  8
0
100
AcDbLine
 10
14.613
 20
33.692705
 30
0.0
 11
14.618694396151
 21
33.617788100645
 31
0.0
  0
LINE
  5
52
330
1D
100
AcDbEntity
  8
0
100
AcDbLine
 10
14.583
 20
34.387205
 30
0.0
 11
14.599733668342
 21
34.002888417085
 31
0.0
  0
LINE
  5
5A
330
1D
100
AcDbEntity
  8
0
100
AcDbLine
 10
14.661
 20
33.061205
 30
0.0
 11
14.708
 21
32.609005
 31
0.0
  0
LINE
  5
5F
330
1D
100
AcDbEntity
  8
0
100
AcDbLine
 10
14.622
 20
33.545605
 30
0.0
 11
14.661
 21
33.061205
 31
0.0
  0
LINE
  5
60
330
1D
100
AcDbEntity
  8
0
100
AcDbLine
 10
14.634665233849
 20
33.407671767178
 30
0.0
 11
14.661
 21
33.061205
 31
0.0
  0
LINE
  5
87
330
1D
100
AcDbEntity
  8
0
100
AcDbLine
 10
18.22
 20
4.277305
 30
0.0
 11
21.523
 21
2.690825
 31
0.0
  0
LINE
  5
89
330
1D
100
AcDbEntity
  8
0
100
AcDbLine
 10
15.101
 20
6.198875
 30
0.0
 11
18.22
 21
4.277305
 31
0.0
  0
LINE
  5
8A
330
1D
100
AcDbEntity
  8
0
100
AcDbLine
 10
24.973
 20
1.459435
 30
0.0
 11
28.533
 21
0.594185
 31
0.0
  0
LINE
  5
8B
330
1D
100
AcDbEntity
  8
0
100
AcDbLine
 10
21.523
 20
2.690825
 30
0.0
 11
24.973
 21
1.459435
 31
0.0
  0
LINE
  5
8E
330
1D
100
AcDbEntity
  8
0
100
AcDbLine
 10
28.533
 20
0.594185
 30
0.0
 11
32.164
 21
0.107035
 31
0.0
  0
LINE
  5
92
330
1D
100
AcDbEntity
  8
0
100
AcDbLine
 10
30.859
 20
14.934005
 30
0.0
 11
34.007468344828
 21
14.557905
 31
0.0
  0
LINE
  5
93
330
1D
100
AcDbEntity
  8
0
100
AcDbLine
 10
18.4952
 20
15.359405
 30
0.0
 11
19.6292
 21
15.197405
 31
0.0
  0
LINE
  5
94
330
1D
100
AcDbEntity
  8
0
100
AcDbLine
 10
20.7632
 20
15.359405
 30
0.0
 11
21.8072
 21
15.791405
 31
0.0
  0
LINE
  5
95
330
1D
100
AcDbEntity
  8
0
100
AcDbLine
 10
19.6292
 20
15.197405
 30
0.0
 11
20.7632
 21
15.359405
 31
0.0
  0
LINE
  5
9A
330
1D
100
AcDbEntity
  8
0
100
AcDbLine
 10
34.007468344828
 20
14.557905
 30
0.0
 11
34.9999
 21
14.498805
 31
0.0
  0
LINE
  5
9D
330
1D
100
AcDbEntity
  8
0
100
AcDbLine
 10
15.2372
 20
19.589405
 30
0.0
 11
15.3992
 21
20.723405
 31
0.0
  0
LINE
  5
9E
330
1D
100
AcDbEntity
  8
0
100
AcDbLine
 10
15.2372
 20
19.589405
 30
0.0
 11
15.3992
 21
18.455405
 31
0.0
  0
LINE
  5
A0
330
1D
100
AcDbEntity
  8
0
100
AcDbLine
 10
15.3992
 20
18.455405
 30
0.0
 11
15.8312
 21
17.411405
 31
0.0
  0
LINE
  5
A1
330
1D
100
AcDbEntity
  8
0
100
AcDbLine
 10
15.8312
 20
17.411405
 30
0.0
 11
16.5332
 21
16.493405
 31
0.0
  0
LINE
  5
A2
330
1D
100
AcDbEntity
  8
0
100
AcDbLine
 10
15.3992
 20
20.723405
 30
0.0
 11
15.8312
 21
21.767405
 31
0.0
  0
LINE
  5
A3
330
1D
100
AcDbEntity
  8
0
100
AcDbLine
 10
15.8312
 20
21.767405
 30
0.0
 11
16.5332
 21
22.685405
 31
0.0
  0
LINE
  5
A6
330
1D
100
AcDbEntity
  8
0
100
AcDbLine
 10
16.5332
 20
16.493405
 30
0.0
 11
17.4512
 21
15.791405
 31
0.0
  0
LINE
  5
A7
330
1D
100
AcDbEntity
  8
0
100
AcDbLine
 10
17.4512
 20
15.791405
 30
0.0
 11
18.4952
 21
15.359405
 31
0.0
  0
LINE
  5
A8
330
1D
100
AcDbEntity
  8
0
100
AcDbLine
 10
16.5332
 20
22.685405
 30
0.0
 11
17.4512
 21
23.387405
 31
0.0
  0
LINE
  5
A9
330
1D
100
AcDbEntity
  8
0
100
AcDbLine
 10
17.4512
 20
23.387405
 30
0.0
 11
18.4952
 21
23.819405
 31
0.0
  0
LINE
  5
B1
330
1D
100
AcDbEntity
  8
0
100
AcDbLine
 10
17.676
 20
25.609105
 30
0.0
 11
17.807
 21
25.607905
 31
0.0
  0
LINE
  5
B2
330
1D
100
AcDbEntity
  8
0
100
AcDbLine
 10
16.849
 20
25.568205
 30
0.0
 11
17.676
 21
25.609105
 31
0.0
  0
LINE
  5
B3
330
1D
100
AcDbEntity
  8
0
100
AcDbLine
 10
18.4952
 20
23.819405
 30
0.0
 11
19.6292
 21
23.981405
 31
0.0
  0
LINE
  5
B5
330
1D
100
AcDbEntity
  8
0
100
AcDbLine
 10
19.6292
 20
23.981405
 30
0.0
 11
20.7632
 21
23.819405
 31
0.0
  0
LINE
  5
B6
330
1D
100
AcDbEntity
  8
0
100
AcDbLine
 10
21.8072
 20
23.387405
 30
0.0
 11
22.7252
 21
22.685405
 31
0.0
  0
LINE
  5
B7
330
1D
100
AcDbEntity
  8
0
100
AcDbLine
 10
20.7632
 20
23.819405
 30
0.0
 11
21.8072
 21
23.387405
 31
0.0
  0
LINE
  5
BB
330
1D
100
AcDbEntity
  8
0
100
AcDbLine
 10
21.8072
 20
15.791405
 30
0.0
 11
22.7252
 21
16.493405
 31
0.0
  0
LINE
  5
BC
330
1D
100
AcDbEntity
  8
0
100
AcDbLine
 10
23.8592
 20
20.723405
 30
0.0
 11
24.0212
 21
19.589405
 31
0.0
  0
LINE
  5
BD
330
1D
100
AcDbEntity
  8
0
100
AcDbLine
 10
23.4272
 20
21.767405
 30
0.0
 11
23.8592
 21
20.723405
 31
0.0
  0
LINE
  5
C0
330
1D
100
AcDbEntity
  8
0
100
AcDbLine
 10
23.8592
 20
18.455405
 30
0.0
 11
24.0212
 21
19.589405
 31
0.0
  0
LINE
  5
C1
330
1D
100
AcDbEntity
  8
0
100
AcDbLine
 10
23.4272
 20
17.411405
 30
0.0
 11
23.8592
 21
18.455405
 31
0.0
  0
LINE
  5
C2
330
1D
100
AcDbEntity
  8
0
100
AcDbLine
 10
22.7252
 20
16.493405
 30
0.0
 11
23.4272
 21
17.411405
 31
0.0
  0
LINE
  5
C3
330
1D
100
AcDbEntity
  8
0
100
AcDbLine
 10
22.7252
 20
22.685405
 30
0.0
 11
23.4272
 21
21.767405
 31
0.0
  0
LINE
  5
C5
330
1D
100
AcDbEntity
  8
0
100
AcDbLine
 10
23.919
 20
22.611005
 30
0.0
 11
24.859
 21
21.130605
 31
0.0
  0
LINE
  5
C6
330
1D
100
AcDbEntity
  8
0
100
AcDbLine
 10
22.678
 20
23.851405
 30
0.0
 11
23.919
 21
22.611005
 31
0.0
  0
LINE
  5
C7
330
1D
100
AcDbEntity
  8
0
100
AcDbLine
 10
21.198
 20
24.791705
 30
0.0
 11
22.678
 21
23.851405
 31
0.0
  0
LINE
  5
CE
330
1D
100
AcDbEntity
  8
0
100
AcDbLine
 10
25.633
 20
16.784505
 30
0.0
 11
25.675
 21
17.739605
 31
0.0
  0
LINE
  5
D0
330
1D
100
AcDbEntity
  8
0
100
AcDbLine
 10
25.633
 20
16.784505
 30
0.0
 11
28.183
 21
15.681205
 31
0.0
  0
LINE
  5
D2
330
1D
100
AcDbEntity
  8
0
100
AcDbLine
 10
25.454
 20
19.480105
 30
0.0
 11
25.675
 21
17.739605
 31
0.0
  0
LINE
  5
D3
330
1D
100
AcDbEntity
  8
0
100
AcDbLine
 10
26.891
 20
23.146405
 30
0.0
 11
27.685459082251
 21
22.530074927344
 31
0.0
  0
LINE
  5
D5
330
1D
100
AcDbEntity
  8
0
100
AcDbLine
 10
26.536
 20
22.549005
 30
0.0
 11
28.577
 21
21.377605
 31
0.0
  0
LINE
  5
D6
330
1D
100
AcDbEntity
  8
0
100
AcDbLine
 10
24.859
 20
21.130605
 30
0.0
 11
25.454
 21
19.480105
 31
0.0
  0
LINE
  5
D8
330
1D
100
AcDbEntity
  8
0
100
AcDbLine
 10
28.577
 20
21.377605
 30
0.0
 11
30.777
 21
20.539405
 31
0.0
  0
LINE
  5
D9
330
1D
100
AcDbEntity
  8
0
100
AcDbLine
 10
28.183
 20
15.681205
 30
0.0
 11
30.859
 21
14.934005
 31
0.0
  0
LINE
  5
DA
330
1D
100
AcDbEntity
  8
0
100
AcDbLine
 10
27.75
 20
22.486705
 30
0.0
 11
29.858
 21
21.486405
 31
0.0
  0
LINE
  5
DB
330
1D
100
AcDbEntity
  8
0
100
AcDbLine
 10
27.75
 20
22.376005
 30
0.0
 11
29.873
 21
21.370705
 31
0.0
  0
LINE
  5
DC
330
1D
100
AcDbEntity
  8
0
100
AcDbLine
 10
29.858
 20
21.486405
 30
0.0
 11
32.099
 21
20.836205
 31
0.0
  0
LINE
  5
DE
330
1D
100
AcDbEntity
  8
0
100
AcDbLine
 10
30.777
 20
20.539405
 30
0.0
 11
33.081
 21
20.056305
 31
0.0
  0
LINE
  5
DF
330
1D
100
AcDbEntity
  8
0
100
AcDbLine
 10
32.099
 20
20.836205
 30
0.0
 11
34.416
 21
20.555105
 31
0.0
  0
LINE
  5
E0
330
1D
100
AcDbEntity
  8
0
100
AcDbLine
 10
32.129
 20
20.720505
 30
0.0
 11
34.461
 21
20.443505
 31
0.0
  0
LINE
  5
E1
330
1D
100
AcDbEntity
  8
0
100
AcDbLine
 10
29.873
 20
21.370705
 30
0.0
 11
32.129
 21
20.720505
 31
0.0
  0
LINE
  5
E2
330
1D
100
AcDbEntity
  8
0
100
AcDbLine
 10
32.074
 20
22.750505
 30
0.0
 11
33.514
 21
22.174505
 31
0.0
  0
LINE
  5
E3
330
1D
100
AcDbEntity
  8
0
100
AcDbLine
 10
32.074
 20
22.750505
 30
0.0
 11
33.514
 21
22.174505
 31
0.0
  0
LINE
  5
E4
330
1D
100
AcDbEntity
  8
0
100
AcDbLine
 10
27.685459082251
 20
22.530074927343
 30
0.0
 11
27.75
 21
22.486705
 31
0.0
  0
LINE
  5
E7
330
1D
100
AcDbEntity
  8
0
100
AcDbLine
 10
24.703
 20
24.025405
 30
0.0
 11
26.536
 21
22.549005
 31
0.0
  0
LINE
  5
E8
330
1D
100
AcDbEntity
  8
0
100
AcDbLine
 10
25.835
 20
25.123605
 30
0.0
 11
25.981
 21
24.602605
 31
0.0
  0
LINE
  5
EA
330
1D
100
AcDbEntity
  8
0
100
AcDbLine
 10
25.981
 20
24.602605
 30
0.0
 11
26.431
 21
23.710805
 31
0.0
  0
LINE
  5
EC
330
1D
100
AcDbEntity
  8
0
100
AcDbLine
 10
26.431
 20
23.710805
 30
0.0
 11
26.891
 21
23.146405
 31
0.0
  0
LINE
  5
ED
330
1D
100
AcDbEntity
  8
0
100
AcDbLine
 10
30.802
 20
23.710505
 30
0.0
 11
32.074
 21
22.750505
 31
0.0
  0
LINE
  5
EE
330
1D
100
AcDbEntity
  8
0
100
AcDbLine
 10
32.0157
 20
24.924205
 30
0.0
 11
32.9243
 21
24.238505
 31
0.0
  0
LINE
  5
F1
330
1D
100
AcDbEntity
  8
0
100
AcDbLine
 10
30.802
 20
23.710505
 30
0.0
 11
32.074
 21
22.750505
 31
0.0
  0
LINE
  5
F2
330
1D
100
AcDbEntity
  8
0
100
AcDbLine
 10
29.842
 20
24.982505
 30
0.0
 11
30.802
 21
23.710505
 31
0.0
  0
LINE
  5
F3
330
1D
100
AcDbEntity
  8
0
100
AcDbLine
 10
32.9243
 20
24.238505
 30
0.0
 11
33.9529
 21
23.827105
 31
0.0
  0
LINE
  5
F6
330
1D
100
AcDbEntity
  8
0
100
AcDbLine
 10
29.842
 20
24.982505
 30
0.0
 11
30.802
 21
23.710505
 31
0.0
  0
LINE
  5
F8
330
1D
100
AcDbEntity
  8
0
100
AcDbLine
 10
26.105
 20
23.482405
 30
0.0
 11
27.75
 21
22.376005
 31
0.0
  0
LINE
  5
F9
330
1D
100
AcDbEntity
  8
0
100
AcDbLine
 10
24.627
 20
24.801805
 30
0.0
 11
26.105
 21
23.482405
 31
0.0
  0
LINE
  5
FA
330
1D
100
AcDbEntity
  8
0
100
AcDbLine
 10
21.836
 20
27.741605
 30
0.0
 11
23.123
 21
25.771005
 31
0.0
  0
LINE
  5
FB
330
1D
100
AcDbEntity
  8
0
100
AcDbLine
 10
23.123
 20
25.771005
 30
0.0
 11
24.703
 21
24.025405
 31
0.0
  0
LINE
  5
FC
330
1D
100
AcDbEntity
  8
0
100
AcDbLine
 10
31.33
 20
25.832805
 30
0.0
 11
32.0157
 21
24.924205
 31
0.0
  0
LINE
  5
FF
330
1D
100
AcDbEntity
  8
0
100
AcDbLine
 10
29.266
 20
26.422505
 30
0.0
 11
29.842
 21
24.982505
 31
0.0
  0
LINE
  5
100
330
1D
100
AcDbEntity
  8
0
100
AcDbLine
 10
30.9186
 20
26.861405
 30
0.0
 11
31.33
 21
25.832805
 31
0.0
  0
LINE
  5
103
330
1D
100
AcDbEntity
  8
0
100
AcDbLine
 10
29.266
 20
26.422505
 30
0.0
 11
29.842
 21
24.982505
 31
0.0
  0
LINE
  5
104
330
1D
100
AcDbEntity
  8
0
100
AcDbLine
 10
26.066
 20
27.483205
 30
0.0
 11
26.7
 21
28.512505
 31
0.0
  0
LINE
  5
105
330
1D
100
AcDbEntity
  8
0
100
AcDbLine
 10
25.769858901372
 20
26.315292310359
 30
0.0
 11
25.835
 21
25.123605
 31
0.0
  0
LINE
  5
107
330
1D
100
AcDbEntity
  8
0
100
AcDbLine
 10
25.769
 20
26.311905
 30
0.0
 11
26.066
 21
27.483205
 31
0.0
  0
LINE
  5
108
330
1D
100
AcDbEntity
  8
0
100
AcDbLine
 10
23.342
 20
26.311205
 30
0.0
 11
24.627
 21
24.801805
 31
0.0
  0
LINE
  5
109
330
1D
100
AcDbEntity
  8
0
100
AcDbLine
 10
19.547
 20
25.386905
 30
0.0
 11
21.198
 21
24.791705
 31
0.0
  0
LINE
  5
10A
330
1D
100
AcDbEntity
  8
0
100
AcDbLine
 10
17.807
 20
25.607905
 30
0.0
 11
19.547
 21
25.386905
 31
0.0
  0
LINE
  5
10C
330
1D
100
AcDbEntity
  8
0
100
AcDbLine
 10
15.746
 20
28.118005
 30
0.0
 11
16.849
 21
25.568205
 31
0.0
  0
LINE
  5
10E
330
1D
100
AcDbEntity
  8
0
100
AcDbLine
 10
26.7
 20
28.586605
 30
0.0
 11
26.7
 21
28.512505
 31
0.0
  0
LINE
  5
10F
330
1D
100
AcDbEntity
  8
0
100
AcDbLine
 10
25.785
 20
29.984005
 30
0.0
 11
26.7
 21
28.586605
 31
0.0
  0
LINE
  5
110
330
1D
100
AcDbEntity
  8
0
100
AcDbLine
 10
26.7
 20
28.512505
 30
0.0
 11
26.7
 21
28.586605
 31
0.0
  0
LINE
  5
112
330
1D
100
AcDbEntity
  8
0
100
AcDbLine
 10
29.266
 20
29.494505
 30
0.0
 11
29.842
 21
30.934505
 31
0.0
  0
LINE
  5
115
330
1D
100
AcDbEntity
  8
0
100
AcDbLine
 10
30.7643
 20
27.958505
 30
0.0
 11
30.9186
 21
29.055705
 31
0.0
  0
LINE
  5
116
330
1D
100
AcDbEntity
  8
0
100
AcDbLine
 10
30.7643
 20
27.958505
 30
0.0
 11
30.9186
 21
26.861405
 31
0.0
  0
LINE
  5
117
330
1D
100
AcDbEntity
  8
0
100
AcDbLine
 10
30.9186
 20
29.055705
 30
0.0
 11
31.33
 21
30.084205
 31
0.0
  0
LINE
  5
11E
330
1D
100
AcDbEntity
  8
0
100
AcDbLine
 10
29.266
 20
29.494505
 30
0.0
 11
29.842
 21
30.934505
 31
0.0
  0
LINE
  5
11F
330
1D
100
AcDbEntity
  8
0
100
AcDbLine
 10
29.05
 20
27.958505
 30
0.0
 11
29.266
 21
29.494505
 31
0.0
  0
LINE
  5
120
330
1D
100
AcDbEntity
  8
0
100
AcDbLine
 10
29.05
 20
27.958505
 30
0.0
 11
29.266
 21
26.422505
 31
0.0
  0
LINE
  5
121
330
1D
100
AcDbEntity
  8
0
100
AcDbLine
 10
29.05
 20
27.958505
 30
0.0
 11
29.266
 21
26.422505
 31
0.0
  0
LINE
  5
123
330
1D
100
AcDbEntity
  8
0
100
AcDbLine
 10
22.275
 20
27.981705
 30
0.0
 11
23.342
 21
26.311205
 31
0.0
  0
LINE
  5
125
330
1D
100
AcDbEntity
  8
0
100
AcDbLine
 10
31.33
 20
30.084205
 30
0.0
 11
32.0157
 21
30.992805
 31
0.0
  0
LINE
  5
12A
330
1D
100
AcDbEntity
  8
0
100
AcDbLine
 10
21.356
 20
30.026305
 30
0.0
 11
22.275
 21
27.981705
 31
0.0
  0
LINE
  5
12B
330
1D
100
AcDbEntity
  8
0
100
AcDbLine
 10
20.873
 20
29.889205
 30
0.0
 11
21.836
 21
27.741605
 31
0.0
  0
LINE
  5
12E
330
1D
100
AcDbEntity
  8
0
100
AcDbLine
 10
33.9529
 20
23.827105
 30
0.0
 11
35.05
 21
23.672805
 31
0.0
  0
LINE
  5
134
330
1D
100
AcDbEntity
  8
0
100
AcDbLine
 10
33.081
 20
20.056305
 30
0.0
 11
34.569
 21
19.939205
 31
0.0
  0
LINE
  5
1DC
330
1D
100
AcDbEntity
  8
0
100
AcDbLine
 10
14.708
 20
32.609005
 30
0.0
 11
14.737
 21
32.370605
 31
0.0
  0
LINE
  5
1E1
330
1D
100
AcDbEntity
  8
0
100
AcDbLine
 10
14.737
 20
32.370605
 30
0.0
 11
14.999
 21
30.793805
 31
0.0
  0
LINE
  5
1E3
330
1D
100
AcDbEntity
  8
0
100
AcDbLine
 10
20.511151813196
 20
34.466501226033
 30
0.0
 11
20.514394375245
 21
34.367356031199
 31
0.0
  0
LINE
  5
1E4
330
1D
100
AcDbEntity
  8
0
100
AcDbLine
 10
20.509
 20
34.414705
 30
0.0
 11
20.762
 21
32.194005
 31
0.0
  0
LINE
  5
1E5
330
1D
100
AcDbEntity
  8
0
100
AcDbLine
 10
20.509
 20
34.414705
 30
0.0
 11
20.762
 21
32.187005
 31
0.0
  0
LINE
  5
1E7
330
1D
100
AcDbEntity
  8
0
100
AcDbLine
 10
20.258
 20
32.160905
 30
0.0
 11
20.873
 21
29.889205
 31
0.0
  0
LINE
  5
1E8
330
1D
100
AcDbEntity
  8
0
100
AcDbLine
 10
25.082
 20
31.571405
 30
0.0
 11
25.785
 21
29.984005
 31
0.0
  0
LINE
  5
1EE
330
1D
100
AcDbEntity
  8
0
100
AcDbLine
 10
32.0157
 20
30.992805
 30
0.0
 11
32.9243
 21
31.678505
 31
0.0
  0
LINE
  5
1F3
330
1D
100
AcDbEntity
  8
0
100
AcDbLine
 10
33.9529
 20
32.089905
 30
0.0
 11
35.05
 21
32.244205
 31
0.0
  0
LINE
  5
1F4
330
1D
100
AcDbEntity
  8
0
100
AcDbLine
 10
32.9243
 20
31.678505
 30
0.0
 11
33.9529
 21
32.089905
 31
0.0
  0
LINE
  5
1F7
330
1D
100
AcDbEntity
  8
0
100
AcDbLine
 10
29.842
 20
30.934505
 30
0.0
 11
30.802
 21
32.206505
 31
0.0
  0
LINE
  5
1FC
330
1D
100
AcDbEntity
  8
0
100
AcDbLine
 10
30.802
 20
32.206505
 30
0.0
 11
32.074
 21
33.166505
 31
0.0
  0
LINE
  5
210
330
1D
100
AcDbEntity
  8
0
100
AcDbLine
 10
24.649
 20
33.254005
 30
0.0
 11
25.082
 21
31.571405
 31
0.0
  0
LINE
  5
213
330
1D
100
AcDbEntity
  8
0
100
AcDbLine
 10
32.074
 20
33.166505
 30
0.0
 11
33.514
 21
33.742505
 31
0.0
  0
LINE
  5
218
330
1D
100
AcDbEntity
  8
0
100
AcDbLine
 10
33.514
 20
33.742505
 30
0.0
 11
35.05
 21
33.958505
 31
0.0
  0
LINE
  5
21C
330
1D
100
AcDbEntity
  8
0
100
AcDbLine
 10
20.762
 20
32.187005
 30
0.0
 11
21.356
 21
30.026305
 31
0.0
  0
LINE
  5
21E
330
1D
100
AcDbEntity
  8
0
100
AcDbLine
 10
20.006
 20
34.501605
 30
0.0
 11
20.258
 21
32.160905
 31
0.0
  0
LINE
  5
24A
330
1D
100
AcDbEntity
  8
0
100
AcDbLine
 10
24.5
 20
34.984505
 30
0.0
 11
24.649
 21
33.254005
 31
0.0
  0
LINE
  5
3AD
330
1D
100
AcDbEntity
  8
0
100
AcDbLine
 10
20.511440940765
 20
34.473460806416
 30
0.0
 11
20.515119188441
 21
34.360994004858
 31
0.0
  0
LINE
  5
3AF
330
1D
100
AcDbEntity
  8
0
100
AcDbLine
 10
14.999
 20
30.793805
 30
0.0
 11
15.746
 21
28.118005
 31
0.0
  0
LINE
  5
3D7
330
1D
100
AcDbEntity
  8
0
100
AcDbLine
 10
9.55
 20
10.965305
 30
0.0
 11
7.178
 21
13.757105
 31
0.0
  0
LINE
  5
3D9
330
1D
100
AcDbEntity
  8
0
100
AcDbLine
 10
36.0471
 20
23.827105
 30
0.0
 11
35.05
 21
23.672805
 31
0.0
  0
LINE
  5
3DB
330
1D
100
AcDbEntity
  8
0
100
AcDbLine
 10
36.919
 20
20.056305
 30
0.0
 11
34.569
 21
19.939205
 31
0.0
  0
LINE
  5
3DC
330
1D
100
AcDbEntity
  8
0
100
AcDbLine
 10
36.0471
 20
32.089905
 30
0.0
 11
34.95
 21
32.244205
 31
0.0
  0
LINE
  5
3DD
330
1D
100
AcDbEntity
  8
0
100
AcDbLine
 10
36.486
 20
33.742505
 30
0.0
 11
34.95
 21
33.958505
 31
0.0
  0
LINE
  5
3DE
330
1D
100
AcDbEntity
  8
0
100
AcDbLine
 10
55.425
 20
34.967805
 30
0.0
 11
55.417
 21
35.494605
 31
0.0
  0
LINE
  5
3DF
330
1D
100
AcDbEntity
  8
0
100
AcDbLine
 10
55.425
 20
34.984705
 30
0.0
 11
55.417
 21
35.511405
 31
0.0
  0
LINE
  5
3E0
330
1D
100
AcDbEntity
  8
0
100
AcDbLine
 10
54.899
 20
6.198875
 30
0.0
 11
51.78
 21
4.277305
 31
0.0
  0
LINE
  5
3E1
330
1D
100
AcDbEntity
  8
0
100
AcDbLine
 10
52.5488
 20
15.791405
 30
0.0
 11
51.5048
 21
15.359405
 31
0.0
  0
LINE
  5
3E2
330
1D
100
AcDbEntity
  8
0
100
AcDbLine
 10
52.5488
 20
23.387405
 30
0.0
 11
51.5048
 21
23.819405
 31
0.0
  0
LINE
  5
3E3
330
1D
100
AcDbEntity
  8
0
100
AcDbLine
 10
53.151
 20
25.568205
 30
0.0
 11
52.324
 21
25.609105
 31
0.0
  0
LINE
  5
3E4
330
1D
100
AcDbEntity
  8
0
100
AcDbLine
 10
66.629
 20
20.006005
 30
0.0
 11
64.89
 21
16.782105
 31
0.0
  0
LINE
  5
3E5
330
1D
100
AcDbEntity
  8
0
100
AcDbLine
 10
54.6008
 20
18.455405
 30
0.0
 11
54.1688
 21
17.411405
 31
0.0
  0
LINE
  5
3E6
330
1D
100
AcDbEntity
  8
0
100
AcDbLine
 10
64.89
 20
16.782105
 30
0.0
 11
62.822
 21
13.757105
 31
0.0
  0
LINE
  5
3E7
330
1D
100
AcDbEntity
  8
0
100
AcDbLine
 10
57.8
 20
8.436505
 30
0.0
 11
54.899
 21
6.198875
 31
0.0
  0
LINE
  5
3E8
330
1D
100
AcDbEntity
  8
0
100
AcDbLine
 10
60.45
 20
10.965305
 30
0.0
 11
57.8
 21
8.436505
 31
0.0
  0
LINE
  5
3E9
330
1D
100
AcDbEntity
  8
0
100
AcDbLine
 10
54.1688
 20
17.411405
 30
0.0
 11
53.4668
 21
16.493405
 31
0.0
  0
LINE
  5
3EA
330
1D
100
AcDbEntity
  8
0
100
AcDbLine
 10
53.4668
 20
16.493405
 30
0.0
 11
52.5488
 21
15.791405
 31
0.0
  0
LINE
  5
3EB
330
1D
100
AcDbEntity
  8
0
100
AcDbLine
 10
60.45
 20
10.965305
 30
0.0
 11
62.822
 21
13.757105
 31
0.0
  0
LINE
  5
3EC
330
1D
100
AcDbEntity
  8
0
100
AcDbLine
 10
68.023
 20
23.394105
 30
0.0
 11
66.629
 21
20.006005
 31
0.0
  0
LINE
  5
3ED
330
1D
100
AcDbEntity
  8
0
100
AcDbLine
 10
69.02390941031
 20
26.806516811095
 30
0.0
 11
69.011
 21
26.738005
 31
0.0
  0
LINE
  5
3EE
330
1D
100
AcDbEntity
  8
0
100
AcDbLine
 10
69.02390941031
 20
26.806516811095
 30
0.0
 11
69.011
 21
26.738005
 31
0.0
  0
LINE
  5
3EF
330
1D
100
AcDbEntity
  8
0
100
AcDbLine
 10
69.712
 20
30.513205
 30
0.0
 11
69.054
 21
26.909105
 31
0.0
  0
LINE
  5
3F0
330
1D
100
AcDbEntity
  8
0
100
AcDbLine
 10
69.99
 20
34.166305
 30
0.0
 11
69.712
 21
30.513205
 31
0.0
  0
LINE
  5
3F1
330
1D
100
AcDbEntity
  8
0
100
AcDbLine
 10
69.054
 20
26.909105
 30
0.0
 11
68.023
 21
23.394105
 31
0.0
  0
LINE
  5
3F2
330
1D
100
AcDbEntity
  8
0
100
AcDbLine
 10
54.254
 20
28.118005
 30
0.0
 11
53.151
 21
25.568205
 31
0.0
  0
LINE
  5
3F3
330
1D
100
AcDbEntity
  8
0
100
AcDbLine
 10
54.7628
 20
19.589405
 30
0.0
 11
54.6008
 21
20.723405
 31
0.0
  0
LINE
  5
3F4
330
1D
100
AcDbEntity
  8
0
100
AcDbLine
 10
54.7628
 20
19.589405
 30
0.0
 11
54.6008
 21
18.455405
 31
0.0
  0
LINE
  5
3F5
330
1D
100
AcDbEntity
  8
0
100
AcDbLine
 10
54.6008
 20
20.723405
 30
0.0
 11
54.1688
 21
21.767405
 31
0.0
  0
LINE
  5
3F6
330
1D
100
AcDbEntity
  8
0
100
AcDbLine
 10
54.1688
 20
21.767405
 30
0.0
 11
53.4668
 21
22.685405
 31
0.0
  0
LINE
  5
3F7
330
1D
100
AcDbEntity
  8
0
100
AcDbLine
 10
53.4668
 20
22.685405
 30
0.0
 11
52.5488
 21
23.387405
 31
0.0
  0
LINE
  5
3F8
330
1D
100
AcDbEntity
  8
0
100
AcDbLine
 10
55.419
 20
34.440905
 30
0.0
 11
55.387
 21
33.692705
 31
0.0
  0
LINE
  5
3F9
330
1D
100
AcDbEntity
  8
0
100
AcDbLine
 10
55.425
 20
34.967805
 30
0.0
 11
55.419
 21
34.440905
 31
0.0
  0
LINE
  5
3FA
330
1D
100
AcDbEntity
  8
0
100
AcDbLine
 10
55.425
 20
34.929805
 30
0.0
 11
55.423270106222
 21
34.815891494689
 31
0.0
  0
LINE
  5
3FB
330
1D
100
AcDbEntity
  8
0
100
AcDbLine
 10
55.425
 20
34.984705
 30
0.0
 11
55.425
 21
34.912905
 31
0.0
  0
LINE
  5
3FC
330
1D
100
AcDbEntity
  8
0
100
AcDbLine
 10
55.425
 20
34.912905
 30
0.0
 11
55.422516305372
 21
34.749695216777
 31
0.0
  0
LINE
  5
3FD
330
1D
100
AcDbEntity
  8
0
100
AcDbLine
 10
55.425
 20
34.912905
 30
0.0
 11
55.425
 21
34.984705
 31
0.0
  0
LINE
  5
3FE
330
1D
100
AcDbEntity
  8
0
100
AcDbLine
 10
55.387
 20
33.692705
 30
0.0
 11
55.378
 21
33.545605
 31
0.0
  0
LINE
  5
3FF
330
1D
100
AcDbEntity
  8
0
100
AcDbLine
 10
55.387
 20
33.692705
 30
0.0
 11
55.381305603849
 21
33.617788100645
 31
0.0
  0
LINE
  5
400
330
1D
100
AcDbEntity
  8
0
100
AcDbLine
 10
55.417
 20
34.387205
 30
0.0
 11
55.400266331658
 21
34.002888417085
 31
0.0
  0
LINE
  5
401
330
1D
100
AcDbEntity
  8
0
100
AcDbLine
 10
55.339
 20
33.061205
 30
0.0
 11
55.292
 21
32.609005
 31
0.0
  0
LINE
  5
402
330
1D
100
AcDbEntity
  8
0
100
AcDbLine
 10
55.378
 20
33.545605
 30
0.0
 11
55.339
 21
33.061205
 31
0.0
  0
LINE
  5
403
330
1D
100
AcDbEntity
  8
0
100
AcDbLine
 10
55.365334766151
 20
33.407671767178
 30
0.0
 11
55.339
 21
33.061205
 31
0.0
  0
LINE
  5
404
330
1D
100
AcDbEntity
  8
0
100
AcDbLine
 10
55.292
 20
32.609005
 30
0.0
 11
55.263
 21
32.370605
 31
0.0
  0
LINE
  5
405
330
1D
100
AcDbEntity
  8
0
100
AcDbLine
 10
55.263
 20
32.370605
 30
0.0
 11
55.001
 21
30.793805
 31
0.0
  0
LINE
  5
406
330
1D
100
AcDbEntity
  8
0
100
AcDbLine
 10
55.001
 20
30.793805
 30
0.0
 11
54.254
 21
28.118005
 31
0.0
  0
LINE
  5
407
330
1D
100
AcDbEntity
  8
0
100
AcDbLine
 10
46.5728
 20
17.411405
 30
0.0
 11
46.1408
 21
18.455405
 31
0.0
  0
LINE
  5
408
330
1D
100
AcDbEntity
  8
0
100
AcDbLine
 10
44.367
 20
16.784505
 30
0.0
 11
44.325
 21
17.739605
 31
0.0
  0
LINE
  5
409
330
1D
100
AcDbEntity
  8
0
100
AcDbLine
 10
45.027
 20
1.459435
 30
0.0
 11
41.467
 21
0.594185
 31
0.0
  0
LINE
  5
40A
330
1D
100
AcDbEntity
  8
0
100
AcDbLine
 10
44.367
 20
16.784505
 30
0.0
 11
41.817
 21
15.681205
 31
0.0
  0
LINE
  5
40B
330
1D
100
AcDbEntity
  8
0
100
AcDbLine
 10
51.78
 20
4.277305
 30
0.0
 11
48.477
 21
2.690825
 31
0.0
  0
LINE
  5
40C
330
1D
100
AcDbEntity
  8
0
100
AcDbLine
 10
48.477
 20
2.690825
 30
0.0
 11
45.027
 21
1.459435
 31
0.0
  0
LINE
  5
40D
330
1D
100
AcDbEntity
  8
0
100
AcDbLine
 10
51.5048
 20
15.359405
 30
0.0
 11
50.3708
 21
15.197405
 31
0.0
  0
LINE
  5
40E
330
1D
100
AcDbEntity
  8
0
100
AcDbLine
 10
49.2368
 20
15.359405
 30
0.0
 11
48.1928
 21
15.791405
 31
0.0
  0
LINE
  5
40F
330
1D
100
AcDbEntity
  8
0
100
AcDbLine
 10
50.3708
 20
15.197405
 30
0.0
 11
49.2368
 21
15.359405
 31
0.0
  0
LINE
  5
410
330
1D
100
AcDbEntity
  8
0
100
AcDbLine
 10
48.1928
 20
15.791405
 30
0.0
 11
47.2748
 21
16.493405
 31
0.0
  0
LINE
  5
411
330
1D
100
AcDbEntity
  8
0
100
AcDbLine
 10
47.2748
 20
16.493405
 30
0.0
 11
46.5728
 21
17.411405
 31
0.0
  0
LINE
  5
412
330
1D
100
AcDbEntity
  8
0
100
AcDbLine
 10
41.467
 20
0.594185
 30
0.0
 11
37.836
 21
0.107035
 31
0.0
  0
LINE
  5
413
330
1D
100
AcDbEntity
  8
0
100
AcDbLine
 10
35.992531655172
 20
14.557905
 30
0.0
 11
35.0001
 21
14.498805
 31
0.0
  0
LINE
  5
414
330
1D
100
AcDbEntity
  8
0
100
AcDbLine
 10
41.817
 20
15.681205
 30
0.0
 11
39.141
 21
14.934005
 31
0.0
  0
LINE
  5
415
330
1D
100
AcDbEntity
  8
0
100
AcDbLine
 10
39.141
 20
14.934005
 30
0.0
 11
35.992531655172
 21
14.557905
 31
0.0
  0
LINE
  5
416
330
1D
100
AcDbEntity
  8
0
100
AcDbLine
 10
45.297
 20
24.025405
 30
0.0
 11
43.464
 21
22.549005
 31
0.0
  0
LINE
  5
417
330
1D
100
AcDbEntity
  8
0
100
AcDbLine
 10
44.019
 20
24.602605
 30
0.0
 11
43.569
 21
23.710805
 31
0.0
  0
LINE
  5
418
330
1D
100
AcDbEntity
  8
0
100
AcDbLine
 10
43.895
 20
23.482405
 30
0.0
 11
42.25
 21
22.376005
 31
0.0
  0
LINE
  5
419
330
1D
100
AcDbEntity
  8
0
100
AcDbLine
 10
43.934
 20
27.483205
 30
0.0
 11
43.3
 21
28.512505
 31
0.0
  0
LINE
  5
41A
330
1D
100
AcDbEntity
  8
0
100
AcDbLine
 10
44.215
 20
29.984005
 30
0.0
 11
43.3
 21
28.586605
 31
0.0
  0
LINE
  5
41B
330
1D
100
AcDbEntity
  8
0
100
AcDbLine
 10
48.164
 20
27.741605
 30
0.0
 11
46.877
 21
25.771005
 31
0.0
  0
LINE
  5
41C
330
1D
100
AcDbEntity
  8
0
100
AcDbLine
 10
44.230141098628
 20
26.315292310359
 30
0.0
 11
44.165
 21
25.123605
 31
0.0
  0
LINE
  5
41D
330
1D
100
AcDbEntity
  8
0
100
AcDbLine
 10
46.658
 20
26.311205
 30
0.0
 11
45.373
 21
24.801805
 31
0.0
  0
LINE
  5
41E
330
1D
100
AcDbEntity
  8
0
100
AcDbLine
 10
48.1928
 20
23.387405
 30
0.0
 11
47.2748
 21
22.685405
 31
0.0
  0
LINE
  5
41F
330
1D
100
AcDbEntity
  8
0
100
AcDbLine
 10
48.802
 20
24.791705
 30
0.0
 11
47.322
 21
23.851405
 31
0.0
  0
LINE
  5
420
330
1D
100
AcDbEntity
  8
0
100
AcDbLine
 10
52.324
 20
25.609105
 30
0.0
 11
52.193
 21
25.607905
 31
0.0
  0
LINE
  5
421
330
1D
100
AcDbEntity
  8
0
100
AcDbLine
 10
51.5048
 20
23.819405
 30
0.0
 11
50.3708
 21
23.981405
 31
0.0
  0
LINE
  5
422
330
1D
100
AcDbEntity
  8
0
100
AcDbLine
 10
50.3708
 20
23.981405
 30
0.0
 11
49.2368
 21
23.819405
 31
0.0
  0
LINE
  5
423
330
1D
100
AcDbEntity
  8
0
100
AcDbLine
 10
49.2368
 20
23.819405
 30
0.0
 11
48.1928
 21
23.387405
 31
0.0
  0
LINE
  5
424
330
1D
100
AcDbEntity
  8
0
100
AcDbLine
 10
50.453
 20
25.386905
 30
0.0
 11
48.802
 21
24.791705
 31
0.0
  0
LINE
  5
425
330
1D
100
AcDbEntity
  8
0
100
AcDbLine
 10
52.193
 20
25.607905
 30
0.0
 11
50.453
 21
25.386905
 31
0.0
  0
LINE
  5
426
330
1D
100
AcDbEntity
  8
0
100
AcDbLine
 10
46.1408
 20
20.723405
 30
0.0
 11
45.9788
 21
19.589405
 31
0.0
  0
LINE
  5
427
330
1D
100
AcDbEntity
  8
0
100
AcDbLine
 10
46.5728
 20
21.767405
 30
0.0
 11
46.1408
 21
20.723405
 31
0.0
  0
LINE
  5
428
330
1D
100
AcDbEntity
  8
0
100
AcDbLine
 10
46.1408
 20
18.455405
 30
0.0
 11
45.9788
 21
19.589405
 31
0.0
  0
LINE
  5
429
330
1D
100
AcDbEntity
  8
0
100
AcDbLine
 10
47.2748
 20
22.685405
 30
0.0
 11
46.5728
 21
21.767405
 31
0.0
  0
LINE
  5
42A
330
1D
100
AcDbEntity
  8
0
100
AcDbLine
 10
46.081
 20
22.611005
 30
0.0
 11
45.141
 21
21.130605
 31
0.0
  0
LINE
  5
42B
330
1D
100
AcDbEntity
  8
0
100
AcDbLine
 10
47.322
 20
23.851405
 30
0.0
 11
46.081
 21
22.611005
 31
0.0
  0
LINE
  5
42C
330
1D
100
AcDbEntity
  8
0
100
AcDbLine
 10
44.546
 20
19.480105
 30
0.0
 11
44.325
 21
17.739605
 31
0.0
  0
LINE
  5
42D
330
1D
100
AcDbEntity
  8
0
100
AcDbLine
 10
45.141
 20
21.130605
 30
0.0
 11
44.546
 21
19.480105
 31
0.0
  0
LINE
  5
42E
330
1D
100
AcDbEntity
  8
0
100
AcDbLine
 10
44.165
 20
25.123605
 30
0.0
 11
44.019
 21
24.602605
 31
0.0
  0
LINE
  5
42F
330
1D
100
AcDbEntity
  8
0
100
AcDbLine
 10
45.373
 20
24.801805
 30
0.0
 11
43.895
 21
23.482405
 31
0.0
  0
LINE
  5
430
330
1D
100
AcDbEntity
  8
0
100
AcDbLine
 10
46.877
 20
25.771005
 30
0.0
 11
45.297
 21
24.025405
 31
0.0
  0
LINE
  5
431
330
1D
100
AcDbEntity
  8
0
100
AcDbLine
 10
44.231
 20
26.311905
 30
0.0
 11
43.934
 21
27.483205
 31
0.0
  0
LINE
  5
432
330
1D
100
AcDbEntity
  8
0
100
AcDbLine
 10
47.725
 20
27.981705
 30
0.0
 11
46.658
 21
26.311205
 31
0.0
  0
LINE
  5
433
330
1D
100
AcDbEntity
  8
0
100
AcDbLine
 10
48.644
 20
30.026305
 30
0.0
 11
47.725
 21
27.981705
 31
0.0
  0
LINE
  5
434
330
1D
100
AcDbEntity
  8
0
100
AcDbLine
 10
49.127
 20
29.889205
 30
0.0
 11
48.164
 21
27.741605
 31
0.0
  0
LINE
  5
435
330
1D
100
AcDbEntity
  8
0
100
AcDbLine
 10
49.488848186804
 20
34.466501226033
 30
0.0
 11
49.485605624755
 21
34.367356031199
 31
0.0
  0
LINE
  5
436
330
1D
100
AcDbEntity
  8
0
100
AcDbLine
 10
49.491
 20
34.414705
 30
0.0
 11
49.238
 21
32.194005
 31
0.0
  0
LINE
  5
437
330
1D
100
AcDbEntity
  8
0
100
AcDbLine
 10
49.491
 20
34.414705
 30
0.0
 11
49.238
 21
32.187005
 31
0.0
  0
LINE
  5
438
330
1D
100
AcDbEntity
  8
0
100
AcDbLine
 10
49.742
 20
32.160905
 30
0.0
 11
49.127
 21
29.889205
 31
0.0
  0
LINE
  5
439
330
1D
100
AcDbEntity
  8
0
100
AcDbLine
 10
44.918
 20
31.571405
 30
0.0
 11
44.215
 21
29.984005
 31
0.0
  0
LINE
  5
43A
330
1D
100
AcDbEntity
  8
0
100
AcDbLine
 10
45.351
 20
33.254005
 30
0.0
 11
44.918
 21
31.571405
 31
0.0
  0
LINE
  5
43B
330
1D
100
AcDbEntity
  8
0
100
AcDbLine
 10
49.238
 20
32.187005
 30
0.0
 11
48.644
 21
30.026305
 31
0.0
  0
LINE
  5
43C
330
1D
100
AcDbEntity
  8
0
100
AcDbLine
 10
49.994
 20
34.501605
 30
0.0
 11
49.742
 21
32.160905
 31
0.0
  0
LINE
  5
43D
330
1D
100
AcDbEntity
  8
0
100
AcDbLine
 10
45.5
 20
34.984505
 30
0.0
 11
45.351
 21
33.254005
 31
0.0
  0
LINE
  5
43E
330
1D
100
AcDbEntity
  8
0
100
AcDbLine
 10
49.488559059235
 20
34.473460806416
 30
0.0
 11
49.484880811559
 21
34.360994004858
 31
0.0
  0
LINE
  5
43F
330
1D
100
AcDbEntity
  8
0
100
AcDbLine
 10
40.734
 20
26.422505
 30
0.0
 11
40.158
 21
24.982505
 31
0.0
  0
LINE
  5
440
330
1D
100
AcDbEntity
  8
0
100
AcDbLine
 10
39.0814
 20
26.861405
 30
0.0
 11
38.67
 21
25.832805
 31
0.0
  0
LINE
  5
441
330
1D
100
AcDbEntity
  8
0
100
AcDbLine
 10
40.734
 20
26.422505
 30
0.0
 11
40.158
 21
24.982505
 31
0.0
  0
LINE
  5
442
330
1D
100
AcDbEntity
  8
0
100
AcDbLine
 10
41.423
 20
21.377605
 30
0.0
 11
39.223
 21
20.539405
 31
0.0
  0
LINE
  5
443
330
1D
100
AcDbEntity
  8
0
100
AcDbLine
 10
40.142
 20
21.486405
 30
0.0
 11
37.901
 21
20.836205
 31
0.0
  0
LINE
  5
444
330
1D
100
AcDbEntity
  8
0
100
AcDbLine
 10
40.127
 20
21.370705
 30
0.0
 11
37.871
 21
20.720505
 31
0.0
  0
LINE
  5
445
330
1D
100
AcDbEntity
  8
0
100
AcDbLine
 10
40.158
 20
24.982505
 30
0.0
 11
39.198
 21
23.710505
 31
0.0
  0
LINE
  5
446
330
1D
100
AcDbEntity
  8
0
100
AcDbLine
 10
40.158
 20
24.982505
 30
0.0
 11
39.198
 21
23.710505
 31
0.0
  0
LINE
  5
447
330
1D
100
AcDbEntity
  8
0
100
AcDbLine
 10
43.464
 20
22.549005
 30
0.0
 11
41.423
 21
21.377605
 31
0.0
  0
LINE
  5
448
330
1D
100
AcDbEntity
  8
0
100
AcDbLine
 10
42.25
 20
22.486705
 30
0.0
 11
40.142
 21
21.486405
 31
0.0
  0
LINE
  5
449
330
1D
100
AcDbEntity
  8
0
100
AcDbLine
 10
42.25
 20
22.376005
 30
0.0
 11
40.127
 21
21.370705
 31
0.0
  0
LINE
  5
44A
330
1D
100
AcDbEntity
  8
0
100
AcDbLine
 10
42.314540917749
 20
22.530074927343
 30
0.0
 11
42.25
 21
22.486705
 31
0.0
  0
LINE
  5
44B
330
1D
100
AcDbEntity
  8
0
100
AcDbLine
 10
43.569
 20
23.710805
 30
0.0
 11
43.109
 21
23.146405
 31
0.0
  0
LINE
  5
44C
330
1D
100
AcDbEntity
  8
0
100
AcDbLine
 10
43.109
 20
23.146405
 30
0.0
 11
42.314540917749
 21
22.530074927344
 31
0.0
  0
LINE
  5
44D
330
1D
100
AcDbEntity
  8
0
100
AcDbLine
 10
39.223
 20
20.539405
 30
0.0
 11
36.919
 21
20.056305
 31
0.0
  0
LINE
  5
44E
330
1D
100
AcDbEntity
  8
0
100
AcDbLine
 10
37.901
 20
20.836205
 30
0.0
 11
35.584
 21
20.555105
 31
0.0
  0
LINE
  5
44F
330
1D
100
AcDbEntity
  8
0
100
AcDbLine
 10
37.871
 20
20.720505
 30
0.0
 11
35.539
 21
20.443505
 31
0.0
  0
LINE
  5
450
330
1D
100
AcDbEntity
  8
0
100
AcDbLine
 10
37.926
 20
22.750505
 30
0.0
 11
36.486
 21
22.174505
 31
0.0
  0
LINE
  5
451
330
1D
100
AcDbEntity
  8
0
100
AcDbLine
 10
37.926
 20
22.750505
 30
0.0
 11
36.486
 21
22.174505
 31
0.0
  0
LINE
  5
452
330
1D
100
AcDbEntity
  8
0
100
AcDbLine
 10
39.198
 20
23.710505
 30
0.0
 11
37.926
 21
22.750505
 31
0.0
  0
LINE
  5
453
330
1D
100
AcDbEntity
  8
0
100
AcDbLine
 10
37.9843
 20
24.924205
 30
0.0
 11
37.0757
 21
24.238505
 31
0.0
  0
LINE
  5
454
330
1D
100
AcDbEntity
  8
0
100
AcDbLine
 10
39.198
 20
23.710505
 30
0.0
 11
37.926
 21
22.750505
 31
0.0
  0
LINE
  5
455
330
1D
100
AcDbEntity
  8
0
100
AcDbLine
 10
37.0757
 20
24.238505
 30
0.0
 11
36.0471
 21
23.827105
 31
0.0
  0
LINE
  5
456
330
1D
100
AcDbEntity
  8
0
100
AcDbLine
 10
38.67
 20
25.832805
 30
0.0
 11
37.9843
 21
24.924205
 31
0.0
  0
LINE
  5
457
330
1D
100
AcDbEntity
  8
0
100
AcDbLine
 10
40.158
 20
30.934505
 30
0.0
 11
39.198
 21
32.206505
 31
0.0
  0
LINE
  5
458
330
1D
100
AcDbEntity
  8
0
100
AcDbLine
 10
43.3
 20
28.586605
 30
0.0
 11
43.3
 21
28.512505
 31
0.0
  0
LINE
  5
459
330
1D
100
AcDbEntity
  8
0
100
AcDbLine
 10
43.3
 20
28.512505
 30
0.0
 11
43.3
 21
28.586605
 31
0.0
  0
LINE
  5
45A
330
1D
100
AcDbEntity
  8
0
100
AcDbLine
 10
40.734
 20
29.494505
 30
0.0
 11
40.158
 21
30.934505
 31
0.0
  0
LINE
  5
45B
330
1D
100
AcDbEntity
  8
0
100
AcDbLine
 10
40.734
 20
29.494505
 30
0.0
 11
40.158
 21
30.934505
 31
0.0
  0
LINE
  5
45C
330
1D
100
AcDbEntity
  8
0
100
AcDbLine
 10
40.95
 20
27.958505
 30
0.0
 11
40.734
 21
29.494505
 31
0.0
  0
LINE
  5
45D
330
1D
100
AcDbEntity
  8
0
100
AcDbLine
 10
40.95
 20
27.958505
 30
0.0
 11
40.734
 21
26.422505
 31
0.0
  0
LINE
  5
45E
330
1D
100
AcDbEntity
  8
0
100
AcDbLine
 10
40.95
 20
27.958505
 30
0.0
 11
40.734
 21
26.422505
 31
0.0
  0
LINE
  5
45F
330
1D
100
AcDbEntity
  8
0
100
AcDbLine
 10
39.2357
 20
27.958505
 30
0.0
 11
39.0814
 21
29.055705
 31
0.0
  0
LINE
  5
460
330
1D
100
AcDbEntity
  8
0
100
AcDbLine
 10
39.2357
 20
27.958505
 30
0.0
 11
39.0814
 21
26.861405
 31
0.0
  0
LINE
  5
461
330
1D
100
AcDbEntity
  8
0
100
AcDbLine
 10
39.0814
 20
29.055705
 30
0.0
 11
38.67
 21
30.084205
 31
0.0
  0
LINE
  5
462
330
1D
100
AcDbEntity
  8
0
100
AcDbLine
 10
38.67
 20
30.084205
 30
0.0
 11
37.9843
 21
30.992805
 31
0.0
  0
LINE
  5
463
330
1D
100
AcDbEntity
  8
0
100
AcDbLine
 10
37.9843
 20
30.992805
 30
0.0
 11
37.0757
 21
31.678505
 31
0.0
  0
LINE
  5
464
330
1D
100
AcDbEntity
  8
0
100
AcDbLine
 10
37.0757
 20
31.678505
 30
0.0
 11
36.0471
 21
32.089905
 31
0.0
  0
LINE
  5
465
330
1D
100
AcDbEntity
  8
0
100
AcDbLine
 10
39.198
 20
32.206505
 30
0.0
 11
37.926
 21
33.166505
 31
0.0
  0
LINE
  5
466
330
1D
100
AcDbEntity
  8
0
100
AcDbLine
 10
37.926
 20
33.166505
 30
0.0
 11
36.486
 21
33.742505
 31
0.0
  0
LINE
  5
467
330
1D
100
AcDbEntity
  8
0
100
AcDbLine
 10
55.423270106222
 20
35.081718505311
 30
0.0
 11
55.419
 21
35.456705
 31
0.0
  0
LINE
  5
468
330
1D
100
AcDbEntity
  8
0
100
AcDbLine
 10
55.419
 20
35.440805
 30
0.0
 11
55.417
 21
35.511405
 31
0.0
  0
LINE
  5
469
330
1D
100
AcDbEntity
  8
0
100
AcDbLine
 10
55.422519578313
 20
35.131140768072
 30
0.0
 11
55.419
 21
35.440805
 31
0.0
  0
LINE
  5
46A
330
1D
100
AcDbEntity
  8
0
100
AcDbLine
 10
32.164
 20
0.107035
 30
0.0
 11
34.692541486935
 21
-0.011538760003
 31
0.0
  0
LINE
  5
46B
330
1D
100
AcDbEntity
  8
0
100
AcDbLine
 10
34.692541486935
 20
-0.011538760003
 30
0.0
 11
37.836
 21
0.107035
 31
0.0
  0
LINE
  5
46C
330
1D
100
AcDbEntity
  8
0
100
AcDbLine
 10
34.461
 20
20.443505
 30
0.0
 11
35.539
 21
20.443505
 31
0.0
  0
LINE
  5
46D
330
1D
100
AcDbEntity
  8
0
100
AcDbLine
 10
34.416
 20
20.555105
 30
0.0
 11
35.584
 21
20.555105
 31
0.0
  0
LINE
  5
46F
330
1D
100
AcDbEntity
  8
0
100
AcDbLine
 10
32.164
 20
69.892965
 30
0.0
 11
34.692541486935
 21
70.011538760003
 31
0.0
  0
LINE
  5
470
330
1D
100
AcDbEntity
  8
0
100
AcDbLine
 10
34.692541486935
 20
70.011538760003
 30
0.0
 11
37.836
 21
69.892965
 31
0.0
  0
LINE
  5
471
330
1D
100
AcDbEntity
  8
0
100
AcDbLine
 10
33.081
 20
49.943695
 30
0.0
 11
34.569
 21
50.060795
 31
0.0
  0
LINE
  5
472
330
1D
100
AcDbEntity
  8
0
100
AcDbLine
 10
34.461
 20
49.556495
 30
0.0
 11
35.539
 21
49.556495
 31
0.0
  0
LINE
  5
473
330
1D
100
AcDbEntity
  8
0
100
AcDbLine
 10
34.416
 20
49.444895
 30
0.0
 11
35.584
 21
49.444895
 31
0.0
  0
LINE
  5
474
330
1D
100
AcDbEntity
  8
0
100
AcDbLine
 10
36.0471
 20
46.172895
 30
0.0
 11
35.05
 21
46.327195
 31
0.0
  0
LINE
  5
475
330
1D
100
AcDbEntity
  8
0
100
AcDbLine
 10
33.9529
 20
46.172895
 30
0.0
 11
35.05
 21
46.327195
 31
0.0
  0
LINE
  5
476
330
1D
100
AcDbEntity
  8
0
100
AcDbLine
 10
33.9529
 20
37.910095
 30
0.0
 11
35.05
 21
37.755795
 31
0.0
  0
LINE
  5
477
330
1D
100
AcDbEntity
  8
0
100
AcDbLine
 10
33.514
 20
36.257495
 30
0.0
 11
35.05
 21
36.041495
 31
0.0
  0
LINE
  5
478
330
1D
100
AcDbEntity
  8
0
100
AcDbLine
 10
36.486
 20
36.257495
 30
0.0
 11
34.95
 21
36.041495
 31
0.0
  0
LINE
  5
479
330
1D
100
AcDbEntity
  8
0
100
AcDbLine
 10
36.0471
 20
37.910095
 30
0.0
 11
34.95
 21
37.755795
 31
0.0
  0
LINE
  5
47A
330
1D
100
AcDbEntity
  8
0
100
AcDbLine
 10
36.919
 20
49.943695
 30
0.0
 11
34.569
 21
50.060795
 31
0.0
  0
LINE
  5
47B
330
1D
100
AcDbEntity
  8
0
100
AcDbLine
 10
14.575
 20
35.032195
 30
0.0
 11
14.583
 21
34.505395
 31
0.0
  0
LINE
  5
47C
330
1D
100
AcDbEntity
  8
0
100
AcDbLine
 10
14.575
 20
35.015295
 30
0.0
 11
14.583
 21
34.488595
 31
0.0
  0
LINE
  5
47D
330
1D
100
AcDbEntity
  8
0
100
AcDbLine
 10
15.101
 20
63.801125
 30
0.0
 11
18.22
 21
65.722695
 31
0.0
  0
LINE
  5
47E
330
1D
100
AcDbEntity
  8
0
100
AcDbLine
 10
17.4512
 20
54.208595
 30
0.0
 11
18.4952
 21
54.640595
 31
0.0
  0
LINE
  5
47F
330
1D
100
AcDbEntity
  8
0
100
AcDbLine
 10
17.4512
 20
46.612595
 30
0.0
 11
18.4952
 21
46.180595
 31
0.0
  0
LINE
  5
480
330
1D
100
AcDbEntity
  8
0
100
AcDbLine
 10
16.849
 20
44.431795
 30
0.0
 11
17.676
 21
44.390895
 31
0.0
  0
LINE
  5
481
330
1D
100
AcDbEntity
  8
0
100
AcDbLine
 10
3.371
 20
49.993995
 30
0.0
 11
5.11
 21
53.217895
 31
0.0
  0
LINE
  5
482
330
1D
100
AcDbEntity
  8
0
100
AcDbLine
 10
15.3992
 20
51.544595
 30
0.0
 11
15.8312
 21
52.588595
 31
0.0
  0
LINE
  5
483
330
1D
100
AcDbEntity
  8
0
100
AcDbLine
 10
5.11
 20
53.217895
 30
0.0
 11
7.178
 21
56.242895
 31
0.0
  0
LINE
  5
484
330
1D
100
AcDbEntity
  8
0
100
AcDbLine
 10
12.2
 20
61.563495
 30
0.0
 11
15.101
 21
63.801125
 31
0.0
  0
LINE
  5
485
330
1D
100
AcDbEntity
  8
0
100
AcDbLine
 10
9.55
 20
59.034695
 30
0.0
 11
12.2
 21
61.563495
 31
0.0
  0
LINE
  5
486
330
1D
100
AcDbEntity
  8
0
100
AcDbLine
 10
15.8312
 20
52.588595
 30
0.0
 11
16.5332
 21
53.506595
 31
0.0
  0
LINE
  5
487
330
1D
100
AcDbEntity
  8
0
100
AcDbLine
 10
16.5332
 20
53.506595
 30
0.0
 11
17.4512
 21
54.208595
 31
0.0
  0
LINE
  5
488
330
1D
100
AcDbEntity
  8
0
100
AcDbLine
 10
9.55
 20
59.034695
 30
0.0
 11
7.178
 21
56.242895
 31
0.0
  0
LINE
  5
489
330
1D
100
AcDbEntity
  8
0
100
AcDbLine
 10
1.977
 20
46.605895
 30
0.0
 11
3.371
 21
49.993995
 31
0.0
  0
LINE
  5
48A
330
1D
100
AcDbEntity
  8
0
100
AcDbLine
 10
0.97609058969
 20
43.193483188905
 30
0.0
 11
0.989
 21
43.261995
 31
0.0
  0
LINE
  5
48B
330
1D
100
AcDbEntity
  8
0
100
AcDbLine
 10
0.97609058969
 20
43.193483188905
 30
0.0
 11
0.989
 21
43.261995
 31
0.0
  0
LINE
  5
48C
330
1D
100
AcDbEntity
  8
0
100
AcDbLine
 10
0.288
 20
39.486795
 30
0.0
 11
0.946
 21
43.090895
 31
0.0
  0
LINE
  5
48D
330
1D
100
AcDbEntity
  8
0
100
AcDbLine
 10
0.01
 20
35.833695
 30
0.0
 11
0.288
 21
39.486795
 31
0.0
  0
LINE
  5
48E
330
1D
100
AcDbEntity
  8
0
100
AcDbLine
 10
0.946
 20
43.090895
 30
0.0
 11
1.977
 21
46.605895
 31
0.0
  0
LINE
  5
48F
330
1D
100
AcDbEntity
  8
0
100
AcDbLine
 10
15.746
 20
41.881995
 30
0.0
 11
16.849
 21
44.431795
 31
0.0
  0
LINE
  5
490
330
1D
100
AcDbEntity
  8
0
100
AcDbLine
 10
15.2372
 20
50.410595
 30
0.0
 11
15.3992
 21
49.276595
 31
0.0
  0
LINE
  5
491
330
1D
100
AcDbEntity
  8
0
100
AcDbLine
 10
15.2372
 20
50.410595
 30
0.0
 11
15.3992
 21
51.544595
 31
0.0
  0
LINE
  5
492
330
1D
100
AcDbEntity
  8
0
100
AcDbLine
 10
15.3992
 20
49.276595
 30
0.0
 11
15.8312
 21
48.232595
 31
0.0
  0
LINE
  5
493
330
1D
100
AcDbEntity
  8
0
100
AcDbLine
 10
15.8312
 20
48.232595
 30
0.0
 11
16.5332
 21
47.314595
 31
0.0
  0
LINE
  5
494
330
1D
100
AcDbEntity
  8
0
100
AcDbLine
 10
16.5332
 20
47.314595
 30
0.0
 11
17.4512
 21
46.612595
 31
0.0
  0
LINE
  5
495
330
1D
100
AcDbEntity
  8
0
100
AcDbLine
 10
14.581
 20
35.559095
 30
0.0
 11
14.613
 21
36.307295
 31
0.0
  0
LINE
  5
496
330
1D
100
AcDbEntity
  8
0
100
AcDbLine
 10
14.575
 20
35.032195
 30
0.0
 11
14.581
 21
35.559095
 31
0.0
  0
LINE
  5
497
330
1D
100
AcDbEntity
  8
0
100
AcDbLine
 10
14.575
 20
35.070195
 30
0.0
 11
14.576729893779
 21
35.184108505311
 31
0.0
  0
LINE
  5
498
330
1D
100
AcDbEntity
  8
0
100
AcDbLine
 10
14.575
 20
35.015295
 30
0.0
 11
14.575
 21
35.087095
 31
0.0
  0
LINE
  5
499
330
1D
100
AcDbEntity
  8
0
100
AcDbLine
 10
14.575
 20
35.087095
 30
0.0
 11
14.577483694628
 21
35.250304783223
 31
0.0
  0
LINE
  5
49A
330
1D
100
AcDbEntity
  8
0
100
AcDbLine
 10
14.575
 20
35.087095
 30
0.0
 11
14.575
 21
35.015295
 31
0.0
  0
LINE
  5
49B
330
1D
100
AcDbEntity
  8
0
100
AcDbLine
 10
14.613
 20
36.307295
 30
0.0
 11
14.622
 21
36.454395
 31
0.0
  0
LINE
  5
49C
330
1D
100
AcDbEntity
  8
0
100
AcDbLine
 10
14.613
 20
36.307295
 30
0.0
 11
14.618694396151
 21
36.382211899355
 31
0.0
  0
LINE
  5
49D
330
1D
100
AcDbEntity
  8
0
100
AcDbLine
 10
14.583
 20
35.612795
 30
0.0
 11
14.599733668342
 21
35.997111582915
 31
0.0
  0
LINE
  5
49E
330
1D
100
AcDbEntity
  8
0
100
AcDbLine
 10
14.661
 20
36.938795
 30
0.0
 11
14.708
 21
37.390995
 31
0.0
  0
LINE
  5
49F
330
1D
100
AcDbEntity
  8
0
100
AcDbLine
 10
14.622
 20
36.454395
 30
0.0
 11
14.661
 21
36.938795
 31
0.0
  0
LINE
  5
4A0
330
1D
100
AcDbEntity
  8
0
100
AcDbLine
 10
14.634665233849
 20
36.592328232822
 30
0.0
 11
14.661
 21
36.938795
 31
0.0
  0
LINE
  5
4A1
330
1D
100
AcDbEntity
  8
0
100
AcDbLine
 10
14.708
 20
37.390995
 30
0.0
 11
14.737
 21
37.629395
 31
0.0
  0
LINE
  5
4A2
330
1D
100
AcDbEntity
  8
0
100
AcDbLine
 10
14.737
 20
37.629395
 30
0.0
 11
14.999
 21
39.206195
 31
0.0
  0
LINE
  5
4A3
330
1D
100
AcDbEntity
  8
0
100
AcDbLine
 10
14.999
 20
39.206195
 30
0.0
 11
15.746
 21
41.881995
 31
0.0
  0
LINE
  5
4A4
330
1D
100
AcDbEntity
  8
0
100
AcDbLine
 10
23.4272
 20
52.588595
 30
0.0
 11
23.8592
 21
51.544595
 31
0.0
  0
LINE
  5
4A5
330
1D
100
AcDbEntity
  8
0
100
AcDbLine
 10
25.633
 20
53.215495
 30
0.0
 11
25.675
 21
52.260395
 31
0.0
  0
LINE
  5
4A6
330
1D
100
AcDbEntity
  8
0
100
AcDbLine
 10
24.973
 20
68.540565
 30
0.0
 11
28.533
 21
69.405815
 31
0.0
  0
LINE
  5
4A7
330
1D
100
AcDbEntity
  8
0
100
AcDbLine
 10
25.633
 20
53.215495
 30
0.0
 11
28.183
 21
54.318795
 31
0.0
  0
LINE
  5
4A8
330
1D
100
AcDbEntity
  8
0
100
AcDbLine
 10
18.22
 20
65.722695
 30
0.0
 11
21.523
 21
67.309175
 31
0.0
  0
LINE
  5
4A9
330
1D
100
AcDbEntity
  8
0
100
AcDbLine
 10
21.523
 20
67.309175
 30
0.0
 11
24.973
 21
68.540565
 31
0.0
  0
LINE
  5
4AA
330
1D
100
AcDbEntity
  8
0
100
AcDbLine
 10
18.4952
 20
54.640595
 30
0.0
 11
19.6292
 21
54.802595
 31
0.0
  0
LINE
  5
4AB
330
1D
100
AcDbEntity
  8
0
100
AcDbLine
 10
20.7632
 20
54.640595
 30
0.0
 11
21.8072
 21
54.208595
 31
0.0
  0
LINE
  5
4AC
330
1D
100
AcDbEntity
  8
0
100
AcDbLine
 10
19.6292
 20
54.802595
 30
0.0
 11
20.7632
 21
54.640595
 31
0.0
  0
LINE
  5
4AD
330
1D
100
AcDbEntity
  8
0
100
AcDbLine
 10
21.8072
 20
54.208595
 30
0.0
 11
22.7252
 21
53.506595
 31
0.0
  0
LINE
  5
4AE
330
1D
100
AcDbEntity
  8
0
100
AcDbLine
 10
22.7252
 20
53.506595
 30
0.0
 11
23.4272
 21
52.588595
 31
0.0
  0
LINE
  5
4AF
330
1D
100
AcDbEntity
  8
0
100
AcDbLine
 10
28.533
 20
69.405815
 30
0.0
 11
32.164
 21
69.892965
 31
0.0
  0
LINE
  5
4B0
330
1D
100
AcDbEntity
  8
0
100
AcDbLine
 10
34.007468344828
 20
55.442095
 30
0.0
 11
34.9999
 21
55.501195
 31
0.0
  0
LINE
  5
4B1
330
1D
100
AcDbEntity
  8
0
100
AcDbLine
 10
28.183
 20
54.318795
 30
0.0
 11
30.859
 21
55.065995
 31
0.0
  0
LINE
  5
4B2
330
1D
100
AcDbEntity
  8
0
100
AcDbLine
 10
30.859
 20
55.065995
 30
0.0
 11
34.007468344828
 21
55.442095
 31
0.0
  0
LINE
  5
4B3
330
1D
100
AcDbEntity
  8
0
100
AcDbLine
 10
24.703
 20
45.974595
 30
0.0
 11
26.536
 21
47.450995
 31
0.0
  0
LINE
  5
4B4
330
1D
100
AcDbEntity
  8
0
100
AcDbLine
 10
25.981
 20
45.397395
 30
0.0
 11
26.431
 21
46.289195
 31
0.0
  0
LINE
  5
4B5
330
1D
100
AcDbEntity
  8
0
100
AcDbLine
 10
26.105
 20
46.517595
 30
0.0
 11
27.75
 21
47.623995
 31
0.0
  0
LINE
  5
4B6
330
1D
100
AcDbEntity
  8
0
100
AcDbLine
 10
26.066
 20
42.516795
 30
0.0
 11
26.7
 21
41.487495
 31
0.0
  0
LINE
  5
4B7
330
1D
100
AcDbEntity
  8
0
100
AcDbLine
 10
25.785
 20
40.015995
 30
0.0
 11
26.7
 21
41.413395
 31
0.0
  0
LINE
  5
4B8
330
1D
100
AcDbEntity
  8
0
100
AcDbLine
 10
21.836
 20
42.258395
 30
0.0
 11
23.123
 21
44.228995
 31
0.0
  0
LINE
  5
4B9
330
1D
100
AcDbEntity
  8
0
100
AcDbLine
 10
25.769858901372
 20
43.684707689641
 30
0.0
 11
25.835
 21
44.876395
 31
0.0
  0
LINE
  5
4BA
330
1D
100
AcDbEntity
  8
0
100
AcDbLine
 10
23.342
 20
43.688795
 30
0.0
 11
24.627
 21
45.198195
 31
0.0
  0
LINE
  5
4BB
330
1D
100
AcDbEntity
  8
0
100
AcDbLine
 10
21.8072
 20
46.612595
 30
0.0
 11
22.7252
 21
47.314595
 31
0.0
  0
LINE
  5
4BC
330
1D
100
AcDbEntity
  8
0
100
AcDbLine
 10
21.198
 20
45.208295
 30
0.0
 11
22.678
 21
46.148595
 31
0.0
  0
LINE
  5
4BD
330
1D
100
AcDbEntity
  8
0
100
AcDbLine
 10
17.676
 20
44.390895
 30
0.0
 11
17.807
 21
44.392095
 31
0.0
  0
LINE
  5
4BE
330
1D
100
AcDbEntity
  8
0
100
AcDbLine
 10
18.4952
 20
46.180595
 30
0.0
 11
19.6292
 21
46.018595
 31
0.0
  0
LINE
  5
4BF
330
1D
100
AcDbEntity
  8
0
100
AcDbLine
 10
19.6292
 20
46.018595
 30
0.0
 11
20.7632
 21
46.180595
 31
0.0
  0
LINE
  5
4C0
330
1D
100
AcDbEntity
  8
0
100
AcDbLine
 10
20.7632
 20
46.180595
 30
0.0
 11
21.8072
 21
46.612595
 31
0.0
  0
LINE
  5
4C1
330
1D
100
AcDbEntity
  8
0
100
AcDbLine
 10
19.547
 20
44.613095
 30
0.0
 11
21.198
 21
45.208295
 31
0.0
  0
LINE
  5
4C2
330
1D
100
AcDbEntity
  8
0
100
AcDbLine
 10
17.807
 20
44.392095
 30
0.0
 11
19.547
 21
44.613095
 31
0.0
  0
LINE
  5
4C3
330
1D
100
AcDbEntity
  8
0
100
AcDbLine
 10
23.8592
 20
49.276595
 30
0.0
 11
24.0212
 21
50.410595
 31
0.0
  0
LINE
  5
4C4
330
1D
100
AcDbEntity
  8
0
100
AcDbLine
 10
23.4272
 20
48.232595
 30
0.0
 11
23.8592
 21
49.276595
 31
0.0
  0
LINE
  5
4C5
330
1D
100
AcDbEntity
  8
0
100
AcDbLine
 10
23.8592
 20
51.544595
 30
0.0
 11
24.0212
 21
50.410595
 31
0.0
  0
LINE
  5
4C6
330
1D
100
AcDbEntity
  8
0
100
AcDbLine
 10
22.7252
 20
47.314595
 30
0.0
 11
23.4272
 21
48.232595
 31
0.0
  0
LINE
  5
4C7
330
1D
100
AcDbEntity
  8
0
100
AcDbLine
 10
23.919
 20
47.388995
 30
0.0
 11
24.859
 21
48.869395
 31
0.0
  0
LINE
  5
4C8
330
1D
100
AcDbEntity
  8
0
100
AcDbLine
 10
22.678
 20
46.148595
 30
0.0
 11
23.919
 21
47.388995
 31
0.0
  0
LINE
  5
4C9
330
1D
100
AcDbEntity
  8
0
100
AcDbLine
 10
25.454
 20
50.519895
 30
0.0
 11
25.675
 21
52.260395
 31
0.0
  0
LINE
  5
4CA
330
1D
100
AcDbEntity
  8
0
100
AcDbLine
 10
24.859
 20
48.869395
 30
0.0
 11
25.454
 21
50.519895
 31
0.0
  0
LINE
  5
4CB
330
1D
100
AcDbEntity
  8
0
100
AcDbLine
 10
25.835
 20
44.876395
 30
0.0
 11
25.981
 21
45.397395
 31
0.0
  0
LINE
  5
4CC
330
1D
100
AcDbEntity
  8
0
100
AcDbLine
 10
24.627
 20
45.198195
 30
0.0
 11
26.105
 21
46.517595
 31
0.0
  0
LINE
  5
4CD
330
1D
100
AcDbEntity
  8
0
100
AcDbLine
 10
23.123
 20
44.228995
 30
0.0
 11
24.703
 21
45.974595
 31
0.0
  0
LINE
  5
4CE
330
1D
100
AcDbEntity
  8
0
100
AcDbLine
 10
25.769
 20
43.688095
 30
0.0
 11
26.066
 21
42.516795
 31
0.0
  0
LINE
  5
4CF
330
1D
100
AcDbEntity
  8
0
100
AcDbLine
 10
22.275
 20
42.018295
 30
0.0
 11
23.342
 21
43.688795
 31
0.0
  0
LINE
  5
4D0
330
1D
100
AcDbEntity
  8
0
100
AcDbLine
 10
21.356
 20
39.973695
 30
0.0
 11
22.275
 21
42.018295
 31
0.0
  0
LINE
  5
4D1
330
1D
100
AcDbEntity
  8
0
100
AcDbLine
 10
20.873
 20
40.110795
 30
0.0
 11
21.836
 21
42.258395
 31
0.0
  0
LINE
  5
4D2
330
1D
100
AcDbEntity
  8
0
100
AcDbLine
 10
20.511151813196
 20
35.533498773967
 30
0.0
 11
20.514394375245
 21
35.632643968801
 31
0.0
  0
LINE
  5
4D3
330
1D
100
AcDbEntity
  8
0
100
AcDbLine
 10
20.509
 20
35.585295
 30
0.0
 11
20.762
 21
37.805995
 31
0.0
  0
LINE
  5
4D4
330
1D
100
AcDbEntity
  8
0
100
AcDbLine
 10
20.509
 20
35.585295
 30
0.0
 11
20.762
 21
37.812995
 31
0.0
  0
LINE
  5
4D5
330
1D
100
AcDbEntity
  8
0
100
AcDbLine
 10
20.258
 20
37.839095
 30
0.0
 11
20.873
 21
40.110795
 31
0.0
  0
LINE
  5
4D6
330
1D
100
AcDbEntity
  8
0
100
AcDbLine
 10
25.082
 20
38.428595
 30
0.0
 11
25.785
 21
40.015995
 31
0.0
  0
LINE
  5
4D7
330
1D
100
AcDbEntity
  8
0
100
AcDbLine
 10
24.649
 20
36.745995
 30
0.0
 11
25.082
 21
38.428595
 31
0.0
  0
LINE
  5
4D8
330
1D
100
AcDbEntity
  8
0
100
AcDbLine
 10
20.762
 20
37.812995
 30
0.0
 11
21.356
 21
39.973695
 31
0.0
  0
LINE
  5
4D9
330
1D
100
AcDbEntity
  8
0
100
AcDbLine
 10
20.006
 20
35.498395
 30
0.0
 11
20.258
 21
37.839095
 31
0.0
  0
LINE
  5
4DA
330
1D
100
AcDbEntity
  8
0
100
AcDbLine
 10
24.5
 20
35.015495
 30
0.0
 11
24.649
 21
36.745995
 31
0.0
  0
LINE
  5
4DB
330
1D
100
AcDbEntity
  8
0
100
AcDbLine
 10
20.511440940765
 20
35.526539193584
 30
0.0
 11
20.515119188441
 21
35.639005995142
 31
0.0
  0
LINE
  5
4DC
330
1D
100
AcDbEntity
  8
0
100
AcDbLine
 10
29.266
 20
43.577495
 30
0.0
 11
29.842
 21
45.017495
 31
0.0
  0
LINE
  5
4DD
330
1D
100
AcDbEntity
  8
0
100
AcDbLine
 10
30.9186
 20
43.138595
 30
0.0
 11
31.33
 21
44.167195
 31
0.0
  0
LINE
  5
4DE
330
1D
100
AcDbEntity
  8
0
100
AcDbLine
 10
29.266
 20
43.577495
 30
0.0
 11
29.842
 21
45.017495
 31
0.0
  0
LINE
  5
4DF
330
1D
100
AcDbEntity
  8
0
100
AcDbLine
 10
28.577
 20
48.622395
 30
0.0
 11
30.777
 21
49.460595
 31
0.0
  0
LINE
  5
4E0
330
1D
100
AcDbEntity
  8
0
100
AcDbLine
 10
29.858
 20
48.513595
 30
0.0
 11
32.099
 21
49.163795
 31
0.0
  0
LINE
  5
4E1
330
1D
100
AcDbEntity
  8
0
100
AcDbLine
 10
29.873
 20
48.629295
 30
0.0
 11
32.129
 21
49.279495
 31
0.0
  0
LINE
  5
4E2
330
1D
100
AcDbEntity
  8
0
100
AcDbLine
 10
29.842
 20
45.017495
 30
0.0
 11
30.802
 21
46.289495
 31
0.0
  0
LINE
  5
4E3
330
1D
100
AcDbEntity
  8
0
100
AcDbLine
 10
29.842
 20
45.017495
 30
0.0
 11
30.802
 21
46.289495
 31
0.0
  0
LINE
  5
4E4
330
1D
100
AcDbEntity
  8
0
100
AcDbLine
 10
26.536
 20
47.450995
 30
0.0
 11
28.577
 21
48.622395
 31
0.0
  0
LINE
  5
4E5
330
1D
100
AcDbEntity
  8
0
100
AcDbLine
 10
27.75
 20
47.513295
 30
0.0
 11
29.858
 21
48.513595
 31
0.0
  0
LINE
  5
4E6
330
1D
100
AcDbEntity
  8
0
100
AcDbLine
 10
27.75
 20
47.623995
 30
0.0
 11
29.873
 21
48.629295
 31
0.0
  0
LINE
  5
4E7
330
1D
100
AcDbEntity
  8
0
100
AcDbLine
 10
27.685459082251
 20
47.469925072657
 30
0.0
 11
27.75
 21
47.513295
 31
0.0
  0
LINE
  5
4E8
330
1D
100
AcDbEntity
  8
0
100
AcDbLine
 10
26.431
 20
46.289195
 30
0.0
 11
26.891
 21
46.853595
 31
0.0
  0
LINE
  5
4E9
330
1D
100
AcDbEntity
  8
0
100
AcDbLine
 10
26.891
 20
46.853595
 30
0.0
 11
27.685459082251
 21
47.469925072656
 31
0.0
  0
LINE
  5
4EA
330
1D
100
AcDbEntity
  8
0
100
AcDbLine
 10
30.777
 20
49.460595
 30
0.0
 11
33.081
 21
49.943695
 31
0.0
  0
LINE
  5
4EB
330
1D
100
AcDbEntity
  8
0
100
AcDbLine
 10
32.099
 20
49.163795
 30
0.0
 11
34.416
 21
49.444895
 31
0.0
  0
LINE
  5
4EC
330
1D
100
AcDbEntity
  8
0
100
AcDbLine
 10
32.129
 20
49.279495
 30
0.0
 11
34.461
 21
49.556495
 31
0.0
  0
LINE
  5
4ED
330
1D
100
AcDbEntity
  8
0
100
AcDbLine
 10
32.074
 20
47.249495
 30
0.0
 11
33.514
 21
47.825495
 31
0.0
  0
LINE
  5
4EE
330
1D
100
AcDbEntity
  8
0
100
AcDbLine
 10
32.074
 20
47.249495
 30
0.0
 11
33.514
 21
47.825495
 31
0.0
  0
LINE
  5
4EF
330
1D
100
AcDbEntity
  8
0
100
AcDbLine
 10
30.802
 20
46.289495
 30
0.0
 11
32.074
 21
47.249495
 31
0.0
  0
LINE
  5
4F0
330
1D
100
AcDbEntity
  8
0
100
AcDbLine
 10
32.0157
 20
45.075795
 30
0.0
 11
32.9243
 21
45.761495
 31
0.0
  0
LINE
  5
4F1
330
1D
100
AcDbEntity
  8
0
100
AcDbLine
 10
30.802
 20
46.289495
 30
0.0
 11
32.074
 21
47.249495
 31
0.0
  0
LINE
  5
4F2
330
1D
100
AcDbEntity
  8
0
100
AcDbLine
 10
32.9243
 20
45.761495
 30
0.0
 11
33.9529
 21
46.172895
 31
0.0
  0
LINE
  5
4F3
330
1D
100
AcDbEntity
  8
0
100
AcDbLine
 10
31.33
 20
44.167195
 30
0.0
 11
32.0157
 21
45.075795
 31
0.0
  0
LINE
  5
4F4
330
1D
100
AcDbEntity
  8
0
100
AcDbLine
 10
29.842
 20
39.065495
 30
0.0
 11
30.802
 21
37.793495
 31
0.0
  0
LINE
  5
4F5
330
1D
100
AcDbEntity
  8
0
100
AcDbLine
 10
26.7
 20
41.413395
 30
0.0
 11
26.7
 21
41.487495
 31
0.0
  0
LINE
  5
4F6
330
1D
100
AcDbEntity
  8
0
100
AcDbLine
 10
26.7
 20
41.487495
 30
0.0
 11
26.7
 21
41.413395
 31
0.0
  0
LINE
  5
4F7
330
1D
100
AcDbEntity
  8
0
100
AcDbLine
 10
29.266
 20
40.505495
 30
0.0
 11
29.842
 21
39.065495
 31
0.0
  0
LINE
  5
4F8
330
1D
100
AcDbEntity
  8
0
100
AcDbLine
 10
29.266
 20
40.505495
 30
0.0
 11
29.842
 21
39.065495
 31
0.0
  0
LINE
  5
4F9
330
1D
100
AcDbEntity
  8
0
100
AcDbLine
 10
29.05
 20
42.041495
 30
0.0
 11
29.266
 21
40.505495
 31
0.0
  0
LINE
  5
4FA
330
1D
100
AcDbEntity
  8
0
100
AcDbLine
 10
29.05
 20
42.041495
 30
0.0
 11
29.266
 21
43.577495
 31
0.0
  0
LINE
  5
4FB
330
1D
100
AcDbEntity
  8
0
100
AcDbLine
 10
29.05
 20
42.041495
 30
0.0
 11
29.266
 21
43.577495
 31
0.0
  0
LINE
  5
4FC
330
1D
100
AcDbEntity
  8
0
100
AcDbLine
 10
30.7643
 20
42.041495
 30
0.0
 11
30.9186
 21
40.944295
 31
0.0
  0
LINE
  5
4FD
330
1D
100
AcDbEntity
  8
0
100
AcDbLine
 10
30.7643
 20
42.041495
 30
0.0
 11
30.9186
 21
43.138595
 31
0.0
  0
LINE
  5
4FE
330
1D
100
AcDbEntity
  8
0
100
AcDbLine
 10
30.9186
 20
40.944295
 30
0.0
 11
31.33
 21
39.915795
 31
0.0
  0
LINE
  5
4FF
330
1D
100
AcDbEntity
  8
0
100
AcDbLine
 10
31.33
 20
39.915795
 30
0.0
 11
32.0157
 21
39.007195
 31
0.0
  0
LINE
  5
500
330
1D
100
AcDbEntity
  8
0
100
AcDbLine
 10
32.0157
 20
39.007195
 30
0.0
 11
32.9243
 21
38.321495
 31
0.0
  0
LINE
  5
501
330
1D
100
AcDbEntity
  8
0
100
AcDbLine
 10
32.9243
 20
38.321495
 30
0.0
 11
33.9529
 21
37.910095
 31
0.0
  0
LINE
  5
502
330
1D
100
AcDbEntity
  8
0
100
AcDbLine
 10
30.802
 20
37.793495
 30
0.0
 11
32.074
 21
36.833495
 31
0.0
  0
LINE
  5
503
330
1D
100
AcDbEntity
  8
0
100
AcDbLine
 10
32.074
 20
36.833495
 30
0.0
 11
33.514
 21
36.257495
 31
0.0
  0
LINE
  5
504
330
1D
100
AcDbEntity
  8
0
100
AcDbLine
 10
14.576729893779
 20
34.918281494689
 30
0.0
 11
14.581
 21
34.543295
 31
0.0
  0
LINE
  5
505
330
1D
100
AcDbEntity
  8
0
100
AcDbLine
 10
14.581
 20
34.559195
 30
0.0
 11
14.583
 21
34.488595
 31
0.0
  0
LINE
  5
506
330
1D
100
AcDbEntity
  8
0
100
AcDbLine
 10
14.577480421687
 20
34.868859231928
 30
0.0
 11
14.581
 21
34.559195
 31
0.0
  0
LINE
  5
507
330
1D
100
AcDbEntity
  8
0
100
AcDbLine
 10
55.425
 20
35.015295
 30
0.0
 11
55.417
 21
34.488595
 31
0.0
  0
LINE
  5
508
330
1D
100
AcDbEntity
  8
0
100
AcDbLine
 10
55.425
 20
35.032195
 30
0.0
 11
55.417
 21
34.505395
 31
0.0
  0
LINE
  5
509
330
1D
100
AcDbEntity
  8
0
100
AcDbLine
 10
53.151
 20
44.431795
 30
0.0
 11
52.324
 21
44.390895
 31
0.0
  0
LINE
  5
50A
330
1D
100
AcDbEntity
  8
0
100
AcDbLine
 10
52.5488
 20
46.612595
 30
0.0
 11
51.5048
 21
46.180595
 31
0.0
  0
LINE
  5
50B
330
1D
100
AcDbEntity
  8
0
100
AcDbLine
 10
52.5488
 20
54.208595
 30
0.0
 11
51.5048
 21
54.640595
 31
0.0
  0
LINE
  5
50C
330
1D
100
AcDbEntity
  8
0
100
AcDbLine
 10
54.899
 20
63.801125
 30
0.0
 11
51.78
 21
65.722695
 31
0.0
  0
LINE
  5
50D
330
1D
100
AcDbEntity
  8
0
100
AcDbLine
 10
44.367
 20
53.215495
 30
0.0
 11
44.325
 21
52.260395
 31
0.0
  0
LINE
  5
50E
330
1D
100
AcDbEntity
  8
0
100
AcDbLine
 10
46.5728
 20
52.588595
 30
0.0
 11
46.1408
 21
51.544595
 31
0.0
  0
LINE
  5
50F
330
1D
100
AcDbEntity
  8
0
100
AcDbLine
 10
39.141
 20
55.065995
 30
0.0
 11
35.992531655172
 21
55.442095
 31
0.0
  0
LINE
  5
510
330
1D
100
AcDbEntity
  8
0
100
AcDbLine
 10
41.817
 20
54.318795
 30
0.0
 11
39.141
 21
55.065995
 31
0.0
  0
LINE
  5
511
330
1D
100
AcDbEntity
  8
0
100
AcDbLine
 10
35.992531655172
 20
55.442095
 30
0.0
 11
35.0001
 21
55.501195
 31
0.0
  0
LINE
  5
512
330
1D
100
AcDbEntity
  8
0
100
AcDbLine
 10
41.467
 20
69.405815
 30
0.0
 11
37.836
 21
69.892965
 31
0.0
  0
LINE
  5
513
330
1D
100
AcDbEntity
  8
0
100
AcDbLine
 10
47.2748
 20
53.506595
 30
0.0
 11
46.5728
 21
52.588595
 31
0.0
  0
LINE
  5
514
330
1D
100
AcDbEntity
  8
0
100
AcDbLine
 10
48.1928
 20
54.208595
 30
0.0
 11
47.2748
 21
53.506595
 31
0.0
  0
LINE
  5
515
330
1D
100
AcDbEntity
  8
0
100
AcDbLine
 10
50.3708
 20
54.802595
 30
0.0
 11
49.2368
 21
54.640595
 31
0.0
  0
LINE
  5
516
330
1D
100
AcDbEntity
  8
0
100
AcDbLine
 10
49.2368
 20
54.640595
 30
0.0
 11
48.1928
 21
54.208595
 31
0.0
  0
LINE
  5
517
330
1D
100
AcDbEntity
  8
0
100
AcDbLine
 10
51.5048
 20
54.640595
 30
0.0
 11
50.3708
 21
54.802595
 31
0.0
  0
LINE
  5
518
330
1D
100
AcDbEntity
  8
0
100
AcDbLine
 10
48.477
 20
67.309175
 30
0.0
 11
45.027
 21
68.540565
 31
0.0
  0
LINE
  5
519
330
1D
100
AcDbEntity
  8
0
100
AcDbLine
 10
51.78
 20
65.722695
 30
0.0
 11
48.477
 21
67.309175
 31
0.0
  0
LINE
  5
51A
330
1D
100
AcDbEntity
  8
0
100
AcDbLine
 10
44.367
 20
53.215495
 30
0.0
 11
41.817
 21
54.318795
 31
0.0
  0
LINE
  5
51B
330
1D
100
AcDbEntity
  8
0
100
AcDbLine
 10
45.027
 20
68.540565
 30
0.0
 11
41.467
 21
69.405815
 31
0.0
  0
LINE
  5
51C
330
1D
100
AcDbEntity
  8
0
100
AcDbLine
 10
44.215
 20
40.015995
 30
0.0
 11
43.3
 21
41.413395
 31
0.0
  0
LINE
  5
51D
330
1D
100
AcDbEntity
  8
0
100
AcDbLine
 10
43.934
 20
42.516795
 30
0.0
 11
43.3
 21
41.487495
 31
0.0
  0
LINE
  5
51E
330
1D
100
AcDbEntity
  8
0
100
AcDbLine
 10
43.895
 20
46.517595
 30
0.0
 11
42.25
 21
47.623995
 31
0.0
  0
LINE
  5
51F
330
1D
100
AcDbEntity
  8
0
100
AcDbLine
 10
44.019
 20
45.397395
 30
0.0
 11
43.569
 21
46.289195
 31
0.0
  0
LINE
  5
520
330
1D
100
AcDbEntity
  8
0
100
AcDbLine
 10
45.297
 20
45.974595
 30
0.0
 11
43.464
 21
47.450995
 31
0.0
  0
LINE
  5
521
330
1D
100
AcDbEntity
  8
0
100
AcDbLine
 10
40.734
 20
43.577495
 30
0.0
 11
40.158
 21
45.017495
 31
0.0
  0
LINE
  5
522
330
1D
100
AcDbEntity
  8
0
100
AcDbLine
 10
39.0814
 20
43.138595
 30
0.0
 11
38.67
 21
44.167195
 31
0.0
  0
LINE
  5
523
330
1D
100
AcDbEntity
  8
0
100
AcDbLine
 10
40.734
 20
43.577495
 30
0.0
 11
40.158
 21
45.017495
 31
0.0
  0
LINE
  5
524
330
1D
100
AcDbEntity
  8
0
100
AcDbLine
 10
38.67
 20
44.167195
 30
0.0
 11
37.9843
 21
45.075795
 31
0.0
  0
LINE
  5
525
330
1D
100
AcDbEntity
  8
0
100
AcDbLine
 10
37.0757
 20
45.761495
 30
0.0
 11
36.0471
 21
46.172895
 31
0.0
  0
LINE
  5
526
330
1D
100
AcDbEntity
  8
0
100
AcDbLine
 10
39.198
 20
46.289495
 30
0.0
 11
37.926
 21
47.249495
 31
0.0
  0
LINE
  5
527
330
1D
100
AcDbEntity
  8
0
100
AcDbLine
 10
37.9843
 20
45.075795
 30
0.0
 11
37.0757
 21
45.761495
 31
0.0
  0
LINE
  5
528
330
1D
100
AcDbEntity
  8
0
100
AcDbLine
 10
39.198
 20
46.289495
 30
0.0
 11
37.926
 21
47.249495
 31
0.0
  0
LINE
  5
529
330
1D
100
AcDbEntity
  8
0
100
AcDbLine
 10
37.926
 20
47.249495
 30
0.0
 11
36.486
 21
47.825495
 31
0.0
  0
LINE
  5
52A
330
1D
100
AcDbEntity
  8
0
100
AcDbLine
 10
37.926
 20
47.249495
 30
0.0
 11
36.486
 21
47.825495
 31
0.0
  0
LINE
  5
52B
330
1D
100
AcDbEntity
  8
0
100
AcDbLine
 10
37.871
 20
49.279495
 30
0.0
 11
35.539
 21
49.556495
 31
0.0
  0
LINE
  5
52C
330
1D
100
AcDbEntity
  8
0
100
AcDbLine
 10
37.901
 20
49.163795
 30
0.0
 11
35.584
 21
49.444895
 31
0.0
  0
LINE
  5
52D
330
1D
100
AcDbEntity
  8
0
100
AcDbLine
 10
39.223
 20
49.460595
 30
0.0
 11
36.919
 21
49.943695
 31
0.0
  0
LINE
  5
52E
330
1D
100
AcDbEntity
  8
0
100
AcDbLine
 10
43.109
 20
46.853595
 30
0.0
 11
42.314540917749
 21
47.469925072656
 31
0.0
  0
LINE
  5
52F
330
1D
100
AcDbEntity
  8
0
100
AcDbLine
 10
43.569
 20
46.289195
 30
0.0
 11
43.109
 21
46.853595
 31
0.0
  0
LINE
  5
530
330
1D
100
AcDbEntity
  8
0
100
AcDbLine
 10
42.314540917749
 20
47.469925072657
 30
0.0
 11
42.25
 21
47.513295
 31
0.0
  0
LINE
  5
531
330
1D
100
AcDbEntity
  8
0
100
AcDbLine
 10
42.25
 20
47.623995
 30
0.0
 11
40.127
 21
48.629295
 31
0.0
  0
LINE
  5
532
330
1D
100
AcDbEntity
  8
0
100
AcDbLine
 10
42.25
 20
47.513295
 30
0.0
 11
40.142
 21
48.513595
 31
0.0
  0
LINE
  5
533
330
1D
100
AcDbEntity
  8
0
100
AcDbLine
 10
43.464
 20
47.450995
 30
0.0
 11
41.423
 21
48.622395
 31
0.0
  0
LINE
  5
534
330
1D
100
AcDbEntity
  8
0
100
AcDbLine
 10
40.158
 20
45.017495
 30
0.0
 11
39.198
 21
46.289495
 31
0.0
  0
LINE
  5
535
330
1D
100
AcDbEntity
  8
0
100
AcDbLine
 10
40.158
 20
45.017495
 30
0.0
 11
39.198
 21
46.289495
 31
0.0
  0
LINE
  5
536
330
1D
100
AcDbEntity
  8
0
100
AcDbLine
 10
40.127
 20
48.629295
 30
0.0
 11
37.871
 21
49.279495
 31
0.0
  0
LINE
  5
537
330
1D
100
AcDbEntity
  8
0
100
AcDbLine
 10
40.142
 20
48.513595
 30
0.0
 11
37.901
 21
49.163795
 31
0.0
  0
LINE
  5
538
330
1D
100
AcDbEntity
  8
0
100
AcDbLine
 10
41.423
 20
48.622395
 30
0.0
 11
39.223
 21
49.460595
 31
0.0
  0
LINE
  5
539
330
1D
100
AcDbEntity
  8
0
100
AcDbLine
 10
37.926
 20
36.833495
 30
0.0
 11
36.486
 21
36.257495
 31
0.0
  0
LINE
  5
53A
330
1D
100
AcDbEntity
  8
0
100
AcDbLine
 10
39.198
 20
37.793495
 30
0.0
 11
37.926
 21
36.833495
 31
0.0
  0
LINE
  5
53B
330
1D
100
AcDbEntity
  8
0
100
AcDbLine
 10
37.0757
 20
38.321495
 30
0.0
 11
36.0471
 21
37.910095
 31
0.0
  0
LINE
  5
53C
330
1D
100
AcDbEntity
  8
0
100
AcDbLine
 10
37.9843
 20
39.007195
 30
0.0
 11
37.0757
 21
38.321495
 31
0.0
  0
LINE
  5
53D
330
1D
100
AcDbEntity
  8
0
100
AcDbLine
 10
38.67
 20
39.915795
 30
0.0
 11
37.9843
 21
39.007195
 31
0.0
  0
LINE
  5
53E
330
1D
100
AcDbEntity
  8
0
100
AcDbLine
 10
39.0814
 20
40.944295
 30
0.0
 11
38.67
 21
39.915795
 31
0.0
  0
LINE
  5
53F
330
1D
100
AcDbEntity
  8
0
100
AcDbLine
 10
39.2357
 20
42.041495
 30
0.0
 11
39.0814
 21
43.138595
 31
0.0
  0
LINE
  5
540
330
1D
100
AcDbEntity
  8
0
100
AcDbLine
 10
39.2357
 20
42.041495
 30
0.0
 11
39.0814
 21
40.944295
 31
0.0
  0
LINE
  5
541
330
1D
100
AcDbEntity
  8
0
100
AcDbLine
 10
40.95
 20
42.041495
 30
0.0
 11
40.734
 21
43.577495
 31
0.0
  0
LINE
  5
542
330
1D
100
AcDbEntity
  8
0
100
AcDbLine
 10
40.95
 20
42.041495
 30
0.0
 11
40.734
 21
43.577495
 31
0.0
  0
LINE
  5
543
330
1D
100
AcDbEntity
  8
0
100
AcDbLine
 10
40.95
 20
42.041495
 30
0.0
 11
40.734
 21
40.505495
 31
0.0
  0
LINE
  5
544
330
1D
100
AcDbEntity
  8
0
100
AcDbLine
 10
40.734
 20
40.505495
 30
0.0
 11
40.158
 21
39.065495
 31
0.0
  0
LINE
  5
545
330
1D
100
AcDbEntity
  8
0
100
AcDbLine
 10
40.734
 20
40.505495
 30
0.0
 11
40.158
 21
39.065495
 31
0.0
  0
LINE
  5
546
330
1D
100
AcDbEntity
  8
0
100
AcDbLine
 10
43.3
 20
41.487495
 30
0.0
 11
43.3
 21
41.413395
 31
0.0
  0
LINE
  5
547
330
1D
100
AcDbEntity
  8
0
100
AcDbLine
 10
43.3
 20
41.413395
 30
0.0
 11
43.3
 21
41.487495
 31
0.0
  0
LINE
  5
548
330
1D
100
AcDbEntity
  8
0
100
AcDbLine
 10
40.158
 20
39.065495
 30
0.0
 11
39.198
 21
37.793495
 31
0.0
  0
LINE
  5
549
330
1D
100
AcDbEntity
  8
0
100
AcDbLine
 10
46.658
 20
43.688795
 30
0.0
 11
45.373
 21
45.198195
 31
0.0
  0
LINE
  5
54A
330
1D
100
AcDbEntity
  8
0
100
AcDbLine
 10
44.230141098628
 20
43.684707689641
 30
0.0
 11
44.165
 21
44.876395
 31
0.0
  0
LINE
  5
54B
330
1D
100
AcDbEntity
  8
0
100
AcDbLine
 10
48.164
 20
42.258395
 30
0.0
 11
46.877
 21
44.228995
 31
0.0
  0
LINE
  5
54C
330
1D
100
AcDbEntity
  8
0
100
AcDbLine
 10
46.877
 20
44.228995
 30
0.0
 11
45.297
 21
45.974595
 31
0.0
  0
LINE
  5
54D
330
1D
100
AcDbEntity
  8
0
100
AcDbLine
 10
45.373
 20
45.198195
 30
0.0
 11
43.895
 21
46.517595
 31
0.0
  0
LINE
  5
54E
330
1D
100
AcDbEntity
  8
0
100
AcDbLine
 10
44.165
 20
44.876395
 30
0.0
 11
44.019
 21
45.397395
 31
0.0
  0
LINE
  5
54F
330
1D
100
AcDbEntity
  8
0
100
AcDbLine
 10
45.141
 20
48.869395
 30
0.0
 11
44.546
 21
50.519895
 31
0.0
  0
LINE
  5
550
330
1D
100
AcDbEntity
  8
0
100
AcDbLine
 10
44.546
 20
50.519895
 30
0.0
 11
44.325
 21
52.260395
 31
0.0
  0
LINE
  5
551
330
1D
100
AcDbEntity
  8
0
100
AcDbLine
 10
47.322
 20
46.148595
 30
0.0
 11
46.081
 21
47.388995
 31
0.0
  0
LINE
  5
552
330
1D
100
AcDbEntity
  8
0
100
AcDbLine
 10
46.081
 20
47.388995
 30
0.0
 11
45.141
 21
48.869395
 31
0.0
  0
LINE
  5
553
330
1D
100
AcDbEntity
  8
0
100
AcDbLine
 10
47.2748
 20
47.314595
 30
0.0
 11
46.5728
 21
48.232595
 31
0.0
  0
LINE
  5
554
330
1D
100
AcDbEntity
  8
0
100
AcDbLine
 10
46.1408
 20
51.544595
 30
0.0
 11
45.9788
 21
50.410595
 31
0.0
  0
LINE
  5
555
330
1D
100
AcDbEntity
  8
0
100
AcDbLine
 10
46.5728
 20
48.232595
 30
0.0
 11
46.1408
 21
49.276595
 31
0.0
  0
LINE
  5
556
330
1D
100
AcDbEntity
  8
0
100
AcDbLine
 10
46.1408
 20
49.276595
 30
0.0
 11
45.9788
 21
50.410595
 31
0.0
  0
LINE
  5
557
330
1D
100
AcDbEntity
  8
0
100
AcDbLine
 10
52.193
 20
44.392095
 30
0.0
 11
50.453
 21
44.613095
 31
0.0
  0
LINE
  5
558
330
1D
100
AcDbEntity
  8
0
100
AcDbLine
 10
50.453
 20
44.613095
 30
0.0
 11
48.802
 21
45.208295
 31
0.0
  0
LINE
  5
559
330
1D
100
AcDbEntity
  8
0
100
AcDbLine
 10
49.2368
 20
46.180595
 30
0.0
 11
48.1928
 21
46.612595
 31
0.0
  0
LINE
  5
55A
330
1D
100
AcDbEntity
  8
0
100
AcDbLine
 10
50.3708
 20
46.018595
 30
0.0
 11
49.2368
 21
46.180595
 31
0.0
  0
LINE
  5
55B
330
1D
100
AcDbEntity
  8
0
100
AcDbLine
 10
51.5048
 20
46.180595
 30
0.0
 11
50.3708
 21
46.018595
 31
0.0
  0
LINE
  5
55C
330
1D
100
AcDbEntity
  8
0
100
AcDbLine
 10
52.324
 20
44.390895
 30
0.0
 11
52.193
 21
44.392095
 31
0.0
  0
LINE
  5
55D
330
1D
100
AcDbEntity
  8
0
100
AcDbLine
 10
48.802
 20
45.208295
 30
0.0
 11
47.322
 21
46.148595
 31
0.0
  0
LINE
  5
55E
330
1D
100
AcDbEntity
  8
0
100
AcDbLine
 10
48.1928
 20
46.612595
 30
0.0
 11
47.2748
 21
47.314595
 31
0.0
  0
LINE
  5
55F
330
1D
100
AcDbEntity
  8
0
100
AcDbLine
 10
49.488559059235
 20
35.526539193584
 30
0.0
 11
49.484880811559
 21
35.639005995142
 31
0.0
  0
LINE
  5
560
330
1D
100
AcDbEntity
  8
0
100
AcDbLine
 10
45.5
 20
35.015495
 30
0.0
 11
45.351
 21
36.745995
 31
0.0
  0
LINE
  5
561
330
1D
100
AcDbEntity
  8
0
100
AcDbLine
 10
49.994
 20
35.498395
 30
0.0
 11
49.742
 21
37.839095
 31
0.0
  0
LINE
  5
562
330
1D
100
AcDbEntity
  8
0
100
AcDbLine
 10
49.238
 20
37.812995
 30
0.0
 11
48.644
 21
39.973695
 31
0.0
  0
LINE
  5
563
330
1D
100
AcDbEntity
  8
0
100
AcDbLine
 10
45.351
 20
36.745995
 30
0.0
 11
44.918
 21
38.428595
 31
0.0
  0
LINE
  5
564
330
1D
100
AcDbEntity
  8
0
100
AcDbLine
 10
44.918
 20
38.428595
 30
0.0
 11
44.215
 21
40.015995
 31
0.0
  0
LINE
  5
565
330
1D
100
AcDbEntity
  8
0
100
AcDbLine
 10
49.742
 20
37.839095
 30
0.0
 11
49.127
 21
40.110795
 31
0.0
  0
LINE
  5
566
330
1D
100
AcDbEntity
  8
0
100
AcDbLine
 10
49.491
 20
35.585295
 30
0.0
 11
49.238
 21
37.812995
 31
0.0
  0
LINE
  5
567
330
1D
100
AcDbEntity
  8
0
100
AcDbLine
 10
49.491
 20
35.585295
 30
0.0
 11
49.238
 21
37.805995
 31
0.0
  0
LINE
  5
568
330
1D
100
AcDbEntity
  8
0
100
AcDbLine
 10
49.488848186804
 20
35.533498773967
 30
0.0
 11
49.485605624755
 21
35.632643968801
 31
0.0
  0
LINE
  5
569
330
1D
100
AcDbEntity
  8
0
100
AcDbLine
 10
49.127
 20
40.110795
 30
0.0
 11
48.164
 21
42.258395
 31
0.0
  0
LINE
  5
56A
330
1D
100
AcDbEntity
  8
0
100
AcDbLine
 10
48.644
 20
39.973695
 30
0.0
 11
47.725
 21
42.018295
 31
0.0
  0
LINE
  5
56B
330
1D
100
AcDbEntity
  8
0
100
AcDbLine
 10
47.725
 20
42.018295
 30
0.0
 11
46.658
 21
43.688795
 31
0.0
  0
LINE
  5
56C
330
1D
100
AcDbEntity
  8
0
100
AcDbLine
 10
44.231
 20
43.688095
 30
0.0
 11
43.934
 21
42.516795
 31
0.0
  0
LINE
  5
56D
330
1D
100
AcDbEntity
  8
0
100
AcDbLine
 10
54.6008
 20
51.544595
 30
0.0
 11
54.1688
 21
52.588595
 31
0.0
  0
LINE
  5
56E
330
1D
100
AcDbEntity
  8
0
100
AcDbLine
 10
66.629
 20
49.993995
 30
0.0
 11
64.89
 21
53.217895
 31
0.0
  0
LINE
  5
56F
330
1D
100
AcDbEntity
  8
0
100
AcDbLine
 10
60.45
 20
59.034695
 30
0.0
 11
62.822
 21
56.242895
 31
0.0
  0
LINE
  5
570
330
1D
100
AcDbEntity
  8
0
100
AcDbLine
 10
53.4668
 20
53.506595
 30
0.0
 11
52.5488
 21
54.208595
 31
0.0
  0
LINE
  5
571
330
1D
100
AcDbEntity
  8
0
100
AcDbLine
 10
54.1688
 20
52.588595
 30
0.0
 11
53.4668
 21
53.506595
 31
0.0
  0
LINE
  5
572
330
1D
100
AcDbEntity
  8
0
100
AcDbLine
 10
60.45
 20
59.034695
 30
0.0
 11
57.8
 21
61.563495
 31
0.0
  0
LINE
  5
573
330
1D
100
AcDbEntity
  8
0
100
AcDbLine
 10
57.8
 20
61.563495
 30
0.0
 11
54.899
 21
63.801125
 31
0.0
  0
LINE
  5
574
330
1D
100
AcDbEntity
  8
0
100
AcDbLine
 10
64.89
 20
53.217895
 30
0.0
 11
62.822
 21
56.242895
 31
0.0
  0
LINE
  5
575
330
1D
100
AcDbEntity
  8
0
100
AcDbLine
 10
55.001
 20
39.206195
 30
0.0
 11
54.254
 21
41.881995
 31
0.0
  0
LINE
  5
576
330
1D
100
AcDbEntity
  8
0
100
AcDbLine
 10
55.263
 20
37.629395
 30
0.0
 11
55.001
 21
39.206195
 31
0.0
  0
LINE
  5
577
330
1D
100
AcDbEntity
  8
0
100
AcDbLine
 10
55.292
 20
37.390995
 30
0.0
 11
55.263
 21
37.629395
 31
0.0
  0
LINE
  5
578
330
1D
100
AcDbEntity
  8
0
100
AcDbLine
 10
55.365334766151
 20
36.592328232822
 30
0.0
 11
55.339
 21
36.938795
 31
0.0
  0
LINE
  5
579
330
1D
100
AcDbEntity
  8
0
100
AcDbLine
 10
55.378
 20
36.454395
 30
0.0
 11
55.339
 21
36.938795
 31
0.0
  0
LINE
  5
57A
330
1D
100
AcDbEntity
  8
0
100
AcDbLine
 10
55.339
 20
36.938795
 30
0.0
 11
55.292
 21
37.390995
 31
0.0
  0
LINE
  5
57B
330
1D
100
AcDbEntity
  8
0
100
AcDbLine
 10
55.417
 20
35.612795
 30
0.0
 11
55.400266331658
 21
35.997111582915
 31
0.0
  0
LINE
  5
57C
330
1D
100
AcDbEntity
  8
0
100
AcDbLine
 10
55.387
 20
36.307295
 30
0.0
 11
55.381305603849
 21
36.382211899355
 31
0.0
  0
LINE
  5
57D
330
1D
100
AcDbEntity
  8
0
100
AcDbLine
 10
55.387
 20
36.307295
 30
0.0
 11
55.378
 21
36.454395
 31
0.0
  0
LINE
  5
57E
330
1D
100
AcDbEntity
  8
0
100
AcDbLine
 10
55.425
 20
35.087095
 30
0.0
 11
55.425
 21
35.015295
 31
0.0
  0
LINE
  5
57F
330
1D
100
AcDbEntity
  8
0
100
AcDbLine
 10
55.425
 20
35.087095
 30
0.0
 11
55.422516305372
 21
35.250304783223
 31
0.0
  0
LINE
  5
580
330
1D
100
AcDbEntity
  8
0
100
AcDbLine
 10
55.425
 20
35.015295
 30
0.0
 11
55.425
 21
35.087095
 31
0.0
  0
LINE
  5
581
330
1D
100
AcDbEntity
  8
0
100
AcDbLine
 10
55.425
 20
35.070195
 30
0.0
 11
55.423270106222
 21
35.184108505311
 31
0.0
  0
LINE
  5
582
330
1D
100
AcDbEntity
  8
0
100
AcDbLine
 10
55.425
 20
35.032195
 30
0.0
 11
55.419
 21
35.559095
 31
0.0
  0
LINE
  5
583
330
1D
100
AcDbEntity
  8
0
100
AcDbLine
 10
55.419
 20
35.559095
 30
0.0
 11
55.387
 21
36.307295
 31
0.0
  0
LINE
  5
584
330
1D
100
AcDbEntity
  8
0
100
AcDbLine
 10
53.4668
 20
47.314595
 30
0.0
 11
52.5488
 21
46.612595
 31
0.0
  0
LINE
  5
585
330
1D
100
AcDbEntity
  8
0
100
AcDbLine
 10
54.1688
 20
48.232595
 30
0.0
 11
53.4668
 21
47.314595
 31
0.0
  0
LINE
  5
586
330
1D
100
AcDbEntity
  8
0
100
AcDbLine
 10
54.6008
 20
49.276595
 30
0.0
 11
54.1688
 21
48.232595
 31
0.0
  0
LINE
  5
587
330
1D
100
AcDbEntity
  8
0
100
AcDbLine
 10
54.7628
 20
50.410595
 30
0.0
 11
54.6008
 21
51.544595
 31
0.0
  0
LINE
  5
588
330
1D
100
AcDbEntity
  8
0
100
AcDbLine
 10
54.7628
 20
50.410595
 30
0.0
 11
54.6008
 21
49.276595
 31
0.0
  0
LINE
  5
589
330
1D
100
AcDbEntity
  8
0
100
AcDbLine
 10
54.254
 20
41.881995
 30
0.0
 11
53.151
 21
44.431795
 31
0.0
  0
LINE
  5
58A
330
1D
100
AcDbEntity
  8
0
100
AcDbLine
 10
69.054
 20
43.090895
 30
0.0
 11
68.023
 21
46.605895
 31
0.0
  0
LINE
  5
58B
330
1D
100
AcDbEntity
  8
0
100
AcDbLine
 10
69.99
 20
35.833695
 30
0.0
 11
69.712
 21
39.486795
 31
0.0
  0
LINE
  5
58C
330
1D
100
AcDbEntity
  8
0
100
AcDbLine
 10
69.712
 20
39.486795
 30
0.0
 11
69.054
 21
43.090895
 31
0.0
  0
LINE
  5
58D
330
1D
100
AcDbEntity
  8
0
100
AcDbLine
 10
69.02390941031
 20
43.193483188905
 30
0.0
 11
69.011
 21
43.261995
 31
0.0
  0
LINE
  5
58E
330
1D
100
AcDbEntity
  8
0
100
AcDbLine
 10
69.02390941031
 20
43.193483188905
 30
0.0
 11
69.011
 21
43.261995
 31
0.0
  0
LINE
  5
58F
330
1D
100
AcDbEntity
  8
0
100
AcDbLine
 10
68.023
 20
46.605895
 30
0.0
 11
66.629
 21
49.993995
 31
0.0
  0
LINE
  5
590
330
1D
100
AcDbEntity
  8
0
100
AcDbLine
 10
55.422519578313
 20
34.868859231928
 30
0.0
 11
55.419
 21
34.559195
 31
0.0
  0
LINE
  5
591
330
1D
100
AcDbEntity
  8
0
100
AcDbLine
 10
55.419
 20
34.559195
 30
0.0
 11
55.417
 21
34.488595
 31
0.0
  0
LINE
  5
592
330
1D
100
AcDbEntity
  8
0
100
AcDbLine
 10
55.423270106222
 20
34.918281494689
 30
0.0
 11
55.419
 21
34.543295
 31
0.0
  0
LINE
  5
593
330
1D
100
AcDbEntity
  8
0
100
AcDbLine
 10
0.01
 20
34.166305
 30
0.0
 11
0.01
 21
35.833695
 31
0.0
  0
LINE
  5
594
330
1D
100
AcDbEntity
  8
0
100
AcDbLine
 10
20.511440940765
 20
34.473460806416
 30
0.0
 11
20.511440940765
 21
35.526539193584
 31
0.0
  0
LINE
  5
595
330
1D
100
AcDbEntity
  8
0
100
AcDbLine
 10
20.006
 20
35.498395
 30
0.0
 11
20.006
 21
34.501605
 31
0.0
  0
LINE
  5
596
330
1D
100
AcDbEntity
  8
0
100
AcDbLine
 10
49.994
 20
35.498395
 30
0.0
 11
49.994
 21
34.501605
 31
0.0
  0
LINE
  5
597
330
1D
100
AcDbEntity
  8
0
100
AcDbLine
 10
49.488559059235
 20
35.526539193584
 30
0.0
 11
49.488848186804
 21
34.466501226033
 31
0.0
  0
LINE
  5
598
330
1D
100
AcDbEntity
  8
0
100
AcDbLine
 10
69.99
 20
34.166305
 30
0.0
 11
69.99
 21
35.833695
 31
0.0
  0
ENDSEC
  0
SECTION
  2
OBJECTS
  0
DICTIONARY
  5
C
330
0
100
AcDbDictionary
281
     1
  3
ACAD_GROUP
350
D
  3
ACAD_LAYOUT
350
1A
  3
ACAD_MLEADERSTYLE
350
59B
  3
ACAD_MLINESTYLE
350
17
  3
ACAD_PLOTSETTINGS
350
19
  3
ACAD_PLOTSTYLENAME
350
E
  3
ACAD_SCALELIST
350
3B5
  3
AcDbVariableDictionary
350
599
  3
DWGPROPS
350
59E
  0
DICTIONARY
  5
D
102
{ACAD_REACTORS
330
C
102
}
330
C
100
AcDbDictionary
281
     1
  0
DICTIONARY
  5
1A
102
{ACAD_REACTORS
330
C
102
}
330
C
100
AcDbDictionary
281
     1
  3
Layout1
350
1C
  3
Model
350
1E
  0
DICTIONARY
  5
59B
102
{ACAD_REACTORS
330
C
102
}
330
C
100
AcDbDictionary
281
     1
  0
DICTIONARY
  5
17
102
{ACAD_REACTORS
330
C
102
}
330
C
100
AcDbDictionary
281
     1
  3
Standard
350
18
  0
DICTIONARY
  5
19
102
{ACAD_REACTORS
330
C
102
}
330
C
100
AcDbDictionary
281
     1
  0
ACDBDICTIONARYWDFLT
  5
E
102
{ACAD_REACTORS
330
C
102
}
330
C
100
AcDbDictionary
281
     1
  3
Normal
350
F
100
AcDbDictionaryWithDefault
340
F
  0
DICTIONARY
  5
3B5
102
{ACAD_REACTORS
330
C
102
}
330
C
100
AcDbDictionary
281
     1
  3
A0
350
3B6
  3
A1
350
3B7
  3
A2
350
3B8
  3
A3
350
3B9
  3
A4
350
3BA
  3
A5
350
3BB
  3
A6
350
3BC
  3
A7
350
3BD
  3
A8
350
3BE
  3
A9
350
3BF
  3
B0
350
3C0
  3
B1
350
3C1
  3
B2
350
3C2
  3
B3
350
3C3
  3
B4
350
3C4
  3
B5
350
3C5
  3
B6
350
3C6
  3
B7
350
3C7
  3
B8
350
3C8
  3
B9
350
3C9
  3
C0
350
3CA
  3
C1
350
3CB
  3
C2
350
3CC
  3
C3
350
3CD
  3
C4
350
3CE
  3
C5
350
3CF
  3
C6
350
3D0
  3
C7
350
3D1
  3
C8
350
3D2
  3
C9
350
3D3
  3
D0
350
3D4
  3
D1
350
3D5
  3
D2
350
3D6
  0
DICTIONARY
  5
599
102
{ACAD_REACTORS
330
C
102
}
330
C
100
AcDbDictionary
281
     1
  3
CANNOSCALE
350
59C
  0
XRECORD
  5
59E
102
{ACAD_REACTORS
330
C
102
}
330
C
100
AcDbXrecord
280
     1
  1
DWGPROPS COOKIE
  2

  3

  4

  6

  7

  8
MARTIN
  9

300
=
301
=
302
=
303
=
304
=
305
=
306
=
307
=
308
=
309
=
 40
0.0
 41
2456183.94875868
 42
2456183.954866528
  1

 90
        0
  0
LAYOUT
  5
1C
102
{ACAD_REACTORS
330
1A
102
}
330
1A
100
AcDbPlotSettings
  1

  2
none_device
  4

  6

 40
0.0
 41
0.0
 42
0.0
 43
0.0
 44
0.0
 45
0.0
 46
0.0
 47
0.0
 48
0.0
 49
0.0
140
0.0
141
0.0
142
1.0
143
1.0
 70
   688
 72
     0
 73
     0
 74
     5
  7

 75
    16
147
1.0
148
0.0
149
0.0
100
AcDbLayout
  1
Layout1
 70
     1
 71
     1
 10
0.0
 20
0.0
 11
12.0
 21
9.0
 12
0.0
 22
0.0
 32
0.0
 14
1.000000000000E+20
 24
1.000000000000E+20
 34
1.000000000000E+20
 15
-1.000000000000E+20
 25
-1.000000000000E+20
 35
-1.000000000000E+20
146
0.0
 13
0.0
 23
0.0
 33
0.0
 16
1.0
 26
0.0
 36
0.0
 17
0.0
 27
1.0
 37
0.0
 76
     0
330
1B
  0
LAYOUT
  5
1E
102
{ACAD_REACTORS
330
1A
102
}
330
1A
100
AcDbPlotSettings
  1

  2
none_device
  4

  6

 40
0.0
 41
0.0
 42
0.0
 43
0.0
 44
0.0
 45
0.0
 46
0.0
 47
0.0
 48
0.0
 49
0.0
140
0.0
141
0.0
142
1.0
143
1.0
 70
  1712
 72
     0
 73
     0
 74
     0
  7

 75
     0
147
1.0
148
0.0
149
0.0
100
AcDbLayout
  1
Model
 70
     1
 71
     0
 10
0.0
 20
0.0
 11
12.0
 21
9.0
 12
0.0
 22
0.0
 32
0.0
 14
0.01
 24
-0.011538760003
 34
0.0
 15
69.99
 25
70.011538760003
 35
0.0
146
0.0
 13
0.0
 23
0.0
 33
0.0
 16
1.0
 26
0.0
 36
0.0
 17
0.0
 27
1.0
 37
0.0
 76
     0
330
1D
331
3B0
  0
MLINESTYLE
  5
18
102
{ACAD_REACTORS
330
17
102
}
330
17
100
AcDbMlineStyle
  2
Standard
 70
     0
  3

 62
   256
 51
90.0
 52
90.0
 71
     2
 49
0.5
 62
   256
  6
BYLAYER
 49
-0.5
 62
   256
  6
BYLAYER
  0
ACDBPLACEHOLDER
  5
F
102
{ACAD_REACTORS
330
E
102
}
330
E
  0
SCALE
  5
3B6
102
{ACAD_REACTORS
330
3B5
102
}
330
3B5
100
AcDbScale
 70
     0
300
1:1
140
1.0
141
1.0
290
     1
  0
SCALE
  5
3B7
102
{ACAD_REACTORS
330
3B5
102
}
330
3B5
100
AcDbScale
 70
     0
300
1:2
140
1.0
141
2.0
290
     0
  0
SCALE
  5
3B8
102
{ACAD_REACTORS
330
3B5
102
}
330
3B5
100
AcDbScale
 70
     0
300
1:4
140
1.0
141
4.0
290
     0
  0
SCALE
  5
3B9
102
{ACAD_REACTORS
330
3B5
102
}
330
3B5
100
AcDbScale
 70
     0
300
1:5
140
1.0
141
5.0
290
     0
  0
SCALE
  5
3BA
102
{ACAD_REACTORS
330
3B5
102
}
330
3B5
100
AcDbScale
 70
     0
300
1:8
140
1.0
141
8.0
290
     0
  0
SCALE
  5
3BB
102
{ACAD_REACTORS
330
3B5
102
}
330
3B5
100
AcDbScale
 70
     0
300
1:10
140
1.0
141
10.0
290
     0
  0
SCALE
  5
3BC
102
{ACAD_REACTORS
330
3B5
102
}
330
3B5
100
AcDbScale
 70
     0
300
1:16
140
1.0
141
16.0
290
     0
  0
SCALE
  5
3BD
102
{ACAD_REACTORS
330
3B5
102
}
330
3B5
100
AcDbScale
 70
     0
300
1:20
140
1.0
141
20.0
290
     0
  0
SCALE
  5
3BE
102
{ACAD_REACTORS
330
3B5
102
}
330
3B5
100
AcDbScale
 70
     0
300
1:30
140
1.0
141
30.0
290
     0
  0
SCALE
  5
3BF
102
{ACAD_REACTORS
330
3B5
102
}
330
3B5
100
AcDbScale
 70
     0
300
1:40
140
1.0
141
40.0
290
     0
  0
SCALE
  5
3C0
102
{ACAD_REACTORS
330
3B5
102
}
330
3B5
100
AcDbScale
 70
     0
300
1:50
140
1.0
141
50.0
290
     0
  0
SCALE
  5
3C1
102
{ACAD_REACTORS
330
3B5
102
}
330
3B5
100
AcDbScale
 70
     0
300
1:100
140
1.0
141
100.0
290
     0
  0
SCALE
  5
3C2
102
{ACAD_REACTORS
330
3B5
102
}
330
3B5
100
AcDbScale
 70
     0
300
2:1
140
2.0
141
1.0
290
     0
  0
SCALE
  5
3C3
102
{ACAD_REACTORS
330
3B5
102
}
330
3B5
100
AcDbScale
 70
     0
300
4:1
140
4.0
141
1.0
290
     0
  0
SCALE
  5
3C4
102
{ACAD_REACTORS
330
3B5
102
}
330
3B5
100
AcDbScale
 70
     0
300
8:1
140
8.0
141
1.0
290
     0
  0
SCALE
  5
3C5
102
{ACAD_REACTORS
330
3B5
102
}
330
3B5
100
AcDbScale
 70
     0
300
10:1
140
10.0
141
1.0
290
     0
  0
SCALE
  5
3C6
102
{ACAD_REACTORS
330
3B5
102
}
330
3B5
100
AcDbScale
 70
     0
300
100:1
140
100.0
141
1.0
290
     0
  0
SCALE
  5
3C7
102
{ACAD_REACTORS
330
3B5
102
}
330
3B5
100
AcDbScale
 70
     0
300
1/128" = 1'-0"
140
0.0078125
141
12.0
290
     0
  0
SCALE
  5
3C8
102
{ACAD_REACTORS
330
3B5
102
}
330
3B5
100
AcDbScale
 70
     0
300
1/64" = 1'-0"
140
0.015625
141
12.0
290
     0
  0
SCALE
  5
3C9
102
{ACAD_REACTORS
330
3B5
102
}
330
3B5
100
AcDbScale
 70
     0
300
1/32" = 1'-0"
140
0.03125
141
12.0
290
     0
  0
SCALE
  5
3CA
102
{ACAD_REACTORS
330
3B5
102
}
330
3B5
100
AcDbScale
 70
     0
300
1/16" = 1'-0"
140
0.0625
141
12.0
290
     0
  0
SCALE
  5
3CB
102
{ACAD_REACTORS
330
3B5
102
}
330
3B5
100
AcDbScale
 70
     0
300
3/32" = 1'-0"
140
0.09375
141
12.0
290
     0
  0
SCALE
  5
3CC
102
{ACAD_REACTORS
330
3B5
102
}
330
3B5
100
AcDbScale
 70
     0
300
1/8" = 1'-0"
140
0.125
141
12.0
290
     0
  0
SCALE
  5
3CD
102
{ACAD_REACTORS
330
3B5
102
}
330
3B5
100
AcDbScale
 70
     0
300
3/16" = 1'-0"
140
0.1875
141
12.0
290
     0
  0
SCALE
  5
3CE
102
{ACAD_REACTORS
330
3B5
102
}
330
3B5
100
AcDbScale
 70
     0
300
1/4" = 1'-0"
140
0.25
141
12.0
290
     0
  0
SCALE
  5
3CF
102
{ACAD_REACTORS
330
3B5
102
}
330
3B5
100
AcDbScale
 70
     0
300
3/8" = 1'-0"
140
0.375
141
12.0
290
     0
  0
SCALE
  5
3D0
102
{ACAD_REACTORS
330
3B5
102
}
330
3B5
100
AcDbScale
 70
     0
300
1/2" = 1'-0"
140
0.5
141
12.0
290
     0
  0
SCALE
  5
3D1
102
{ACAD_REACTORS
330
3B5
102
}
330
3B5
100
AcDbScale
 70
     0
300
3/4" = 1'-0"
140
0.75
141
12.0
290
     0
  0
SCALE
  5
3D2
102
{ACAD_REACTORS
330
3B5
102
}
330
3B5
100
AcDbScale
 70
     0
300
1" = 1'-0"
140
1.0
141
12.0
290
     0
  0
SCALE
  5
3D3
102
{ACAD_REACTORS
330
3B5
102
}
330
3B5
100
AcDbScale
 70
     0
300
1-1/2" = 1'-0"
140
1.5
141
12.0
290
     0
  0
SCALE
  5
3D4
102
{ACAD_REACTORS
330
3B5
102
}
330
3B5
100
AcDbScale
 70
     0
300
3" = 1'-0"
140
3.0
141
12.0
290
     0
  0
SCALE
  5
3D5
102
{ACAD_REACTORS
330
3B5
102
}
330
3B5
100
AcDbScale
 70
     0
300
6" = 1'-0"
140
6.0
141
12.0
290
     0
  0
SCALE
  5
3D6
102
{ACAD_REACTORS
330
3B5
102
}
330
3B5
100
AcDbScale
 70
     0
300
1'-0" = 1'-0"
140
12.0
141
12.0
290
     0
  0
DICTIONARYVAR
  5
59C
102
{ACAD_REACTORS
330
599
102
}
330
599
100
DictionaryVariables
280
     0
  1
1:1
  0
ENDSEC
  0
SECTION
  2
THUMBNAILIMAGE
 90
    16364
310
28000000B40000005500000001000800000000000000000000000000000000000000000000000000FFFFFF000000FF0000FFFF0000FF0000FFFF0000FF000000FF00FF000000000080808000C0C0C0000000FF007F7FFF000000A5005252A50000007F003F3F7F0000004C0026264C000000260013132600003FFF007F9FFF
310
000029A5005267A500001F7F003F4F7F0000134C00262F4C000009260013172600007FFF007FBFFF000052A500527CA500003F7F003F5F7F0000264C0026394C0000132600131C260000BFFF007FDFFF00007CA5005291A500005F7F003F6F7F0000394C0026424C00001C26001321260000FFFF007FFFFF0000A5A50052A5
310
A500007F7F003F7F7F00004C4C00264C4C00002626001326260000FFBF007FFFDF0000A57C0052A59100007F5F003F7F6F00004C3900264C420000261C001326210000FF7F007FFFBF0000A5520052A57C00007F3F003F7F5F00004C2600264C39000026130013261C0000FF3F007FFF9F0000A5290052A56700007F1F003F
310
7F4F00004C1300264C2F00002609001326170000FF00007FFF7F0000A5000052A55200007F00003F7F3F00004C0000264C260000260000132613003FFF00009FFF7F0029A5000067A552001F7F00004F7F3F00134C00002F4C260009260000172613007FFF0000BFFF7F0052A500007CA552003F7F00005F7F3F00264C0000
310
394C2600132600001C261300BFFF0000DFFF7F007CA5000091A552005F7F00006F7F3F00394C0000424C26001C26000021261300FFFF0000FFFF7F00A5A50000A5A552007F7F00007F7F3F004C4C00004C4C26002626000026261300FFBF0000FFDF7F00A57C0000A59152007F5F00007F6F3F004C3900004C422600261C00
310
0026211300FF7F0000FFBF7F00A5520000A57C52007F3F00007F5F3F004C2600004C39260026130000261C1300FF3F0000FF9F7F00A5290000A56752007F1F00007F4F3F004C1300004C2F26002609000026171300FF000000FF7F7F00A5000000A55252007F0000007F3F3F004C0000004C2626002600000026131300FF00
310
3F00FF7F9F00A5002900A55267007F001F007F3F4F004C0013004C262F002600090026131700FF007F00FF7FBF00A5005200A5527C007F003F007F3F5F004C0026004C2639002600130026131C00FF00BF00FF7FDF00A5007C00A55291007F005F007F3F6F004C0039004C26420026001C0026132100FF00FF00FF7FFF00A5
310
00A500A552A5007F007F007F3F7F004C004C004C264C002600260026132600BF00FF00DF7FFF007C00A5009152A5005F007F006F3F7F0039004C0042264C001C002600211326007F00FF00BF7FFF005200A5007C52A5003F007F005F3F7F0026004C0039264C00130026001C1326003F00FF009F7FFF002900A5006752A500
310
1F007F004F3F7F0013004C002F264C000900260017132600000000002D2D2D005B5B5B0089898900B7B7B700B3B3B30000000000000000000000000000000000000000000000000000000000000000000000000000000000000000000000000000000000000000000000000000000000000000000000000000000000000000
310
00000000000007070707070707070007070000000000000000000000000000000000000000000000000000000000000000000000000000000000000000000000000000000000000000000000000000000000000000000000000000000000000000000000000000000000000000000000000000000000000000000000000000
310
00000000000000000000000000000000000000000000000000000000000000000000000000000000000000000000000000000000000000070707070000000000000000000000070707070000000000000000000000000000000000000000000000000000000000000000000000000000000000000000000000000000000000
310
00000000000000000000000000000000000000000000000000000000000000000000000000000000000000000000000000000000000000000000000000000000000000000000000000000000000000000000000000000000000000000000000000000000000000000707070700000000000000000000000000000000000000
310
07070707000000000000000000000000000000000000000000000000000000000000000000000000000000000000000000000000000000000000000000000000000000000000000000000000000000000000000000000000000000000000000000000000000000000000000000000000000000000000000000000000000000
310
00000000000000000000000000000000000000000000000000000007070700000000000000000000000000000000000000000000000000000007070700000000000000000000000000000000000000000000000000000000000000000000000000000000000000000000000000000000000000000000000000000000000000
310
00000000000000000000000000000000000000000000000000000000000000000000000000000000000000000000000000000000000000000000000000000000000000000000000000000000000007070000000000000000000000000000000000000000000000000000000000000000000707000000000000000000000000
310
00000000000000000000000000000000000000000000000000000000000000000000000000000000000000000000000000000000000000000000000000000000000000000000000000000000000000000000000000000000000000000000000000000000000000000000000000000000000000000000000000000000000000
310
00000707000000000000000000000000000000000000000000000000000000000000000000000000000707000000000000000000000000000000000000000000000000000000000000000000000000000000000000000000000000000000000000000000000000000000000000000000000000000000000000000000000000
310
00000000000000000000000000000000000000000000000000000000000000000000000000000000000000000000000000000000000707000000000000000000000000000000000000000000000000000000000000000000000000000000000007070000000000000000000000000000000000000000000000000000000000
310
00000000000000000000000000000000000000000000000000000000000000000000000000000000000000000000000000000000000000000000000000000000000000000000000000000000000000000000000000000000000000000000000000000000000000000707000000000000000000000000000000000000000000
310
00000000000000000000000000000000000000000000000007070000000000000000000000000000000000000000000000000000000000000000000000000000000000000000000000000000000000000000000000000000000000000000000000000000000000000000000000000000000000000000000000000000000000
310
00000000000000000000000000000000000000000000000000000000000700000000000000000000000000000000000000000000000000000000000000000000000000000000000000000000000000070000000000000000000000000000000000000000000000000000000000000000000000000000000000000000000000
310
00000000000000000000000000000000000000000000000000000000000000000000000000000000000000000000000000000000000000000000000000000000000000000000000000000000000000000007000000000000000000000000000000000000000000000000000000000000000000000000000000000000000000
310
00000000000007000000000000000000000000000000000000000000000000000000000000000000000000000000000000000000000000000000000000000000000000000000000000000000000000000000000000000000000000000000000000000000000000000000000000000000000000000000000000000000000000
310
00000000000007000000000000000000000000000000000000000000000000000000000000000000000000000000000000000000000000000000000007000000000000000000000000000000000000000000000000000000000000000000000000000000000000000000000000000000000000000000000000000000000000
310
00000000000000000000000000000000000000000000000000000000000000000000000000000000000000000000000000000000000000000000070000000000000000000000000000000000000000000000000000000000000000000000000000000000000000000000000000000000000007000000000000000000000000
310
00000000000000000000000000000000000000000000000000000000000000000000000000000000000000000000000000000000000000000000000000000000000000000000000000000000000000000000000000000000000000000000000000000000000000000000000000000700000000000000000000000000000000
310
00000000000000000000000000000000000000000000000000000000000000000000000000000000000700000000000000000000000000000000000000000000000000000000000000000000000000000000000000000000000000000000000000000000000000000000000000000000000000000000000000000000000000
310
00000000000000000000000000000000000000000000000000000000000000000000000700000000000000000000000000000000000000000000000000000000000000000000000000000000000000000000000000000000000000000000000700000000000000000000000000000000000000000000000000000000000000
310
00000000000000000000000000000000000000000000000000000000000000000000000000000000000000000000000000000000000000000000000000000000000000000000000000000000000000000000000000000007000000000000000000000000000000000000000000000000000000000000000000000000000000
310
00000000000000000000000000000000000000000000070000000000000000000000000000000000000000000000000000000000000000000000000000000000000000000000000000000000000000000000000000000000000000000000000000000000000000000000000000000000000000000000000000000000000000
310
00000000000000000000000007000000000000000000000000000000000000000000000000000000000000000000000000000000000000000000000000000000000000000000000000000000070000000000000000000000000000000000000000000000000000000000000000000000000000000000000000000000000000
310
00000000000000000000000000000000000000000000000000000000000000000000000000000000000000000000000000000000000000000000000000000000000000000000000000000000000000000000000000000000000000000000000000000000000000000000000000000000000000000000000000000000000000
310
00000000000000000000000000000000000000000000000000000000000000000000000000000000000000000000000000000000000000000000000000000000000000000000000000000000000000000000000000000000000000000000000000000000000000000000000000000000000000000700000000000000000000
310
00000000000000000000000000000000000000000007070007070000000000000000000000000000000000000000000000000000000000000007000000000000000000000000000000000000000000000000000000000000000000000000000000000000000000000000000000000000000000000000000000000000000000
310
00000000000000000000000000000000000000000000000000000000000000000000000000000000000700000000000000000000000000000707070700000000000000000000070707070000000000070707070000000000000000000007070707000000000000000000000000000700000000000000000000000000000000
310
00000000000000000000000000000000000000000000000000000000000000000000000000000000000000000000000000000000000000000000000000000000000000000000000000000000000000000000000000000000000000000000070000000000000000000000000707000000000707000000000007070700000000
310
00000000000000000007070700000000000707000000000707000000000000000000000000070000000000000000000000000000000000000000000000000000000000000000000000000000000000000000000000000000000000000000000000000000000000000000000000000000000000000000000000000000000000
310
00000000000000000000000000000000000000070000000000000000000000000700000000000000070000000707000000000000000000000000000000000000000707000007000000000000000700000000000000000000000000070000000000000000000000000000000000000000000000000000000000000000000000
310
00000000000000000000000000000000000000000000000000000000000000000000000000000000000000000000000000000000000000000000000000000000000000000000000700000000000000000000000000070000000000000000070000000000000000000000000000000000000000000000000000000700000000
310
00000000070000000000000000000000000700000000000000000000000000000000000000000000000000000000000000000000000000000000000000000000000000000000000000000000000000000000000000000000000000000000000000000000000000000000000000000000000000000000000000000000070000
310
00000000000000000000000700000000000000000007000700000000000000000000000000000000000000000007000700000000000000000007000000000000000000000000000700000000000000000000000000000000000000000000000000000000000000000000000000000000000000000000000000000000000000
310
00000000000000000000000000000000000000000000000000000000000000000000000000000000000000000000000000070000000000000000000000000007000000000000000000000000070000000000000000000000000000000000000000000700000000000000000000000007000000000000000000000000070000
310
00000000000000000000000000000000000000000000000000000000000000000000000000000000000000000000000000000000000000000000000000000000000000000000000000000000000000000000000000000000000000000000000000000000000007000000000000000000000000000700000000000000000000
310
07070000000000070707070707070707070707070000000007000700000000000000000007000000000000000000000000000007000000000000000000000000000000000000000000000000000000000000000000000000000000000000000000000000000000000000000000000000000000000000000000000000000000
310
00000000000000000000000000000000000000000000000000000000070000000000000000000000000000070000000000000000000707000000070707070707070000000707070707070700000007070000000000000000000700000000000000000000000000000700000000000000000000000000000000000000000000
310
00000000000000000000000000000000000000000000000000000000000000000000000000000000000000000000000000000000000000000000000000000000000000000000000000000000000000000700000000000000000000000000000007000000000000000007070000000707070000000000000000000000000007
310
07070000070007000000000000000007000000000000000000000000000007000000000000000000000000000000000000000000000000000000000000000000000000000000000000000000000000000000000000000000000000000000000000000000000000000000000000000000000000000000000000000000000000
310
00000000000007000000000000000000000000000000000700000000000007000700000707000000000007000000000007000000000007070000070007000000000000070000000000000000000000000000000007000000000000000000000000000000000000000000000000000000000000000000000000000000000000
310
00000000000000000000000000000000000000000000000000000000000000000000000000000000000000000000000000000000000000000000000700000000000000000000000000000000000707070707070707000707070000000007070000070007000007070000000007070700070707070707070700000000000000
310
00000000000000000000070000000000000000000000000000000000000000000000000000000000000000000000000000000000000000000000000000000000000000000000000000000000000000000000000000000000000000000000000000000000000000000000000000000007000000000000000000000000000000
310
00000000000000000700000707070000000007000000070000000700000700000000000707070000070000000000000000000000000000000000000000000007000000000000000000000000000000000000000000000000000000000000000000000000000000000000000000000000000000000000000000000000000000
310
00000000000000000000000000000000000000000000000000000000000000000000000000070000000000000000000000000000000000070707070707000000070007000000000700070700000000000707000700000000070007000000070707070707000000000000000000000000000000000007000000000000000000
310
00000000000000000000000000000000000000000000000000000000000000000000000000000000000000000000000000000000000000000000000000000000000000000000000000000000000000000000000000000000000700000000000000000000000000000000000007000000000000000700000700000007000007
310
00000000000000070000070000000700000700000000000000070000000000000000000000000000000000070000000000000000000000000000000000000000000000000000000000000000000000000000000000000000000000000000000000000000000000000000000000000000000000000000000000000000000000
310
00000000000000000000000000000007070000000000000000000000000000000007000000000000000700000007000000070007000000000000000000070007000000070000070700000000000000070000000000000000000000000000000007070000000000000000000000000000000000000000000000000000000000
310
00000000000000000000000000000000000000000000000000000000000000000000000000000000000000000000000000000000000000000000000000000000000000000700000000000000000000000000000000000700000000000007070000000700000007000700000000000000000007000700000007000000070700
310
00000000000700000000000000000000000000000000000700000000000000000000000000000000000000000000000000000000000000000000000000000000000000000000000000000000000000000000000000000000000000000000000000000000000000000000000000000000000000000000000000070000000000
310
00000000000000000000000007000000000007000700000000070000070007000000000000000000070007000007000000000707000000000000070000000000000000000000000000000000070000000000000000000000000000000000000000000000000000000000000000000000000000000000000000000000000000
310
00000000000000000000000000000000000000000000000000000000000000000000000000000000000000000000000700000000000000000000000000000000070000000000000707000000000700000007000700000000000000000700000700000700000000000707000000000000070000000000000000000000000000
310
00000700000000000000000000000000000000000000000000000000000000000000000000000000000000000000000000000000000000000000000000000000000000000000000000000000000000000000000000000000000000000000000000000000070000000000000000000000000000000007000000000000070700
310
00000007000000070000070000000000000007000700000000070000000007070000000000000700000000000000000000000000000000070000000000000000000000000000000000000000000000000000000000000000000000000000000000000000000000000000000000000000000000000000000000000000000000
310
00000000000000000000000000000000000000000000000000000700000000000000000000000000000000070000000000070700000000070000000000070007000000000000000700070000000000070000000700070000000000070000000000000000000000000000000007000000000000000000000000000000000000
310
00000000000000000000000000000000000000000000000000000000000000000000000000000000000000000000000000000000000000000000000000000000000000000000000000000000000000070000000000000000000000000000000007000000000007070000000007000000000000070007070700070707000700
310
00000000000700000000070700000000000700000000000000000000000000000000070000000000000000000000000000000000000000000000000000000000000000000000000000000000000000000000000000000000000000000000000000000000000000000000000000000000000000000000000000000000000000
310
00000000070000000000000000000000000000000000070000000000070700000000070000000000000007070000000000070700000000000000070000000007070000000000070000000000000000000000000000000000070000000000000000000000000000000000000000000000000000000000000000000000000000
310
00000000000000000000000000000000000000000000000000000000000000000000000000000000000000000000000000000000000000000007000000000000000000000000000000000007000000000007070000000007000000000000000000070700070700000000000000000007000000000707000000000007000000
310
00000000000000000000000000000700000000000000000000000000000000000000000000000000000000000000000000000000000000000000000000000000000000000000000000000000000000000000000000000000000000000000000000000000000000000000000000000700000000000000000000000000000000
310
00070000000000070700000000070000000000000000000000000000000000000000000000000700000007070000000000070000000000000000000000000000000000070000000000000000000000000000000000000000000000000000000000000000000000000000000000000000000000000000000000000000000000
310
00000000000000000000000000000000000000000000000000000000000000000000000007000000000000000000000000000000000007000000000007070000000007000000000000000000000000000000000000000000000000070000000707000000000007000000000000000000000000000000000007000000000000
310
00000000000000000000000000000000000000000000000000000000000000000000000000000000000000000000000000000000000000000000000000000000000000000000000000000000000000000000000000000000000700000000000000000000000000000000000700000000000707000000000700000000000000
310
00000707000707000000000000000000070000000007070000000000070000000000000000000000000000000000070000000000000000000000000000000000000000000000000000000000000000000000000000000000000000000000000000000000000000000000000000000000000000000000000000000000000000
310
00000000000000000000000000000007000000000000000000000000000000000007000000000007070000000007000000000000000007000000000007000000000000000007000000000707000000000007000000000000000000000000000000000007000000000000000000000000000000000000000000000000000000
310
00000000000000000000000000000000000000000000000000000000000000000000000000000000000000000000000000000000000000000000000000000000000000000007000000000000000000000000000000000700000000000707000000000700000000000007070007070007070007070000000000000700000000
310
07070000000000070000000000000000000000000000000007000000000000000000000000000000000000000000000000000000000000000000000000000000000000000000000000000000000000000000000000000000000000000000000000000000000000000000000000000000000000000000000000000700000000
310
00000000000000000000000007000000000007070000000007000000000007000707000000000007070007000000000007000000070007000000000007000000000000000000000000000000000700000000000000000000000000000000000000000000000000000000000000000000000000000000000000000000000000
310
00000000000000000000000000000000000000000000000000000000000000000000000000000000000000000000000007000000000000000000000000000000000700000000000007070000000007000000070000070000000000000007000700000000070000000007070000000000000700000000000000000000000000
310
00000007000000000000000000000000000000000000000000000000000000000000000000000000000000000000000000000000000000000000000000000000000000000000000000000000000000000000000000000000000000000000000000000000000700000000000000000000000000000000070000000000000707
310
00000000070000000700070000000000000000070000070000070000000000070700000000000007000000000000000000000000000000000700000000000000000000000000000000000000000000000000000000000000000000000000000000000000000000000000000000000000000000000000000000000000000000
310
00000000000000000000000000000000000000000000000000000007000000000000000000000000000000000007000000000007000700000000070000070007000000000000000000070007000007000000000707000000000000070000000000000000000000000000000000070000000000000000000000000000000000
310
00000000000000000000000000000000000000000000000000000000000000000000000000000000000000000000000000000000000000000000000000000000000000000000000000000000000000000700000000000000000000000000000000000700000000000007070000000700000007000700000000000000000007
310
00070000000700000007070000000000000700000000000000000000000000000000000700000000000000000000000000000000000000000000000000000000000000000000000000000000000000000000000000000000000000000000000000000000000000000000000000000000000000000000000000000000000000
310
00000000000007070000000000000000000000000000000007000000000000000700000007000000070007000000000000000000070007000000070000070700000000000000070000000000000000000000000000000007070000000000000000000000000000000000000000000000000000000000000000000000000000
310
00000000000000000000000000000000000000000000000000000000000000000000000000000000000000000000000000000000000000000000000700000000000000000000000000000000000007000000000000000700000700000007000007000000000000000700000700000007000007000000000000000700000000
310
00000000000000000000000000070000000000000000000000000000000000000000000000000000000000000000000000000000000000000000000000000000000000000000000000000000000000000000000000000000000000000000000000000000000000000000000000000000000700000000000000000000000000
310
00000000070707070700000000070007000000000700070000000000000007000700000000070007000000000707070707000000000000000000000000000000000007000000000000000000000000000000000000000000000000000000000000000000000000000000000000000000000000000000000000000000000000
310
00000000000000000000000000000000000000000000000000000000000000000000000000000007000000000000000000000000000000000000000000000707000007070700000000070000070700000007070007000000000007070700000707000000000000000000000000000000000000000000070000000000000000
310
00000000000000000000000000000000000000000000000000000000000000000000000000000000000000000000000000000000000000000000000000000000000000000000000000000000000000000000000000000000000000000007000000000000000000000000000000000007070707070707000007070700000000
310
07000000070007000000070000000007070700000707070707070700000000000000000000000000000000000700000000000000000000000000000000000000000000000000000000000000000000000000000000000000000000000000000000000000000000000000000000000000000000000000000000000000000000
310
00000000000000000000000000000000000000070000000000000000000000000000000007000000000000070707000707070000000007070000000000070700000000070707000707070000000000000700000000000000000000000000000000070000000000000000000000000000000000000000000000000000000000
310
00000000000000000000000000000000000000000000000000000000000000000000000000000000000000000000000000000000000000000000000000000000000000000000000007000000000000000000000000000000070000000000000000070700000007070700000000000000000000000000070707000007000700
310
00000000000000070000000000000000000000000000070000000000000000000000000000000000000000000000000000000000000000000000000000000000000000000000000000000000000000000000000000000000000000000000000000000000000000000000000000000000000000000000000000000000000007
310
00000000000000000000000000000700000000000000000007070000000707070707070000000000070707070707000000070700000000000000000007000000000000000000000000000007000000000000000000000000000000000000000000000000000000000000000000000000000000000000000000000000000000
310
00000000000000000000000000000000000000000000000000000000000000000000000000000000000000000000000000000000070000000000000000000000000007000000000000000000000707000000000007070707070707070707070707000000000700070000000000000000000700000000000000000000000000
310
00070000000000000000000000000000000000000000000000000000000000000000000000000000000000000000000000000000000000000000000000000000000000000000000000000000000000000000000000000000000000000000000000000000000000000007000000000000000000000000000700000000000000
310
00000000000700000000000000000000000000000000000000000007000000000000000000000000070000000000000000000000000700000000000000000000000000000000000000000000000000000000000000000000000000000000000000000000000000000000000000000000000000000000000000000000000000
310
00000000000000000000000000000000000000000000000000000000000000000700000000000000000000000000070000000000000000000700070000000000000000000000000000000000000000000700070000000000000000000700000000000000000000000000070000000000000000000000000000000000000000
310
00000000000000000000000000000000000000000000000000000000000000000000000000000000000000000000000000000000000000000000000000000000000000000000000000000000000000000000000000070000000000000000000000000007000000000000000007000000000000000000000000000000000000
310
00000000000000000007000000000000000007000000000000000000000000070000000000000000000000000000000000000000000000000000000000000000000000000000000000000000000000000000000000000000000000000000000000000000000000000000000000000000000000000000000000000000000000
310
00000000000000000000000007000000000000000000000000070000000000000007000000070700000000000000000000000000000000000000070700000700000000000000070000000000000000000000000007000000000000000000000000000000000000000000000000000000000000000000000000000000000000
310
00000000000000000000000000000000000000000000000000000000000000000000000000000000000000000000000000000000000000000000000000000000000007000000000000000000000000070700000000070700000000000707070000000000000000000000000007070700000000000707000000000707000000
310
00000000000000000007000000000000000000000000000000000000000000000000000000000000000000000000000000000000000000000000000000000000000000000000000000000000000000000000000000000000000000000000000000000000000000000000000000000000000000000000000700000000000000
310
00000000000000070707070000000000000000000007070700000000000000070707000000000000000000000707070700000000000000000000000000070000000000000000000000000000000000000000000000000000000000000000000000000000000000000000000000000000000000000000000000000000000000
310
00000000000000000000000000000000000000000000000000000000000000000000000000000000000000000000070000000000000000000000000000000000000000000000000000000000000707070007070700000000000000000000000000000000000000000000000000000000000007000000000000000000000000
310
00000000000000000000000000000000000000000000000000000000000000000000000000000000000000000000000000000000000000000000000000000000000000000000000000000000000000000000000000000000000000000000000000000000000000000000000000000000000000000000000000000000000000
310
00000000000000000000000000000000000000000000000000000000000000000000000000000000000000000000000000000000000000000000000000000000000000000000000000000000000000000000000000000000000000000000000000000000000000000000000000000000000000000000000000000000000000
310
00000000000000000000000000000000000000000000000000000007000000000000000000000000000000000000000000000000000000000000000000000000000000000000000000000000000000000000000000000000000000070000000000000000000000000000000000000000000000000000000000000000000000
310
00000000000000000000000000000000000000000000000000000000000000000000000000000000000000000000000000000000000000000000000000000000000000000000000000000000000000000007000000000000000000000000000000000000000000000000000000000000000000000000000000000000000000
310
00000000000000000000000000000000070000000000000000000000000000000000000000000000000000000000000000000000000000000000000000000000000000000000000000000000000000000000000000000000000000000000000000000000000000000000000000000000000000000000000000000000000000
310
00000000000000000700000000000000000000000000000000000000000000000000000000000000000000000000000000000000000000000000000000000000000000000700000000000000000000000000000000000000000000000000000000000000000000000000000000000000000000000000000000000000000000
310
00000000000000000000000000000000000000000000000000000000000000000000000000000000000000000000000000000000000000000000000000000700000000000000000000000000000000000000000000000000000000000000000000000000000000000000000000000000000000000000000007000000000000
310
00000000000000000000000000000000000000000000000000000000000000000000000000000000000000000000000000000000000000000000000000000000000000000000000000000000000000000000000000000000000000000000000000000000000000000000000000000000000000000700000000000000000000
310
00000000000000000000000000000000000000000000000000000000000000000000000000000000000000000007000000000000000000000000000000000000000000000000000000000000000000000000000000000000000000000000000000000000000000000000000000000000000000000000000000000000000000
310
00000000000000000000000000000000000000000000000000000000000000000000000000000000000000070000000000000000000000000000000000000000000000000000000000000000000000000000000000000000000000000000000000070000000000000000000000000000000000000000000000000000000000
310
00000000000000000000000000000000000000000000000000000000000000000000000000000000000000000000000000000000000000000000000000000000000000000000000000000000000000000000000000000000000000000000000000070000000000000000000000000000000000000000000000000000000000
310
00000000000000000000000000000000000000000000070000000000000000000000000000000000000000000000000000000000000000000000000000000000000000000000000000000000000000000000000000000000000000000000000000000000000000000000000000000000000000000000000000000000000000
310
00000000000000000000000000000000000000000000000007000000000000000000000000000000000000000000000000000000000000000000000000000000000000000000000000000700000000000000000000000000000000000000000000000000000000000000000000000000000000000000000000000000000000
310
00000000000000000000000000000000000000000000000000000000000000000000000000000000000000000000000000000000000000000000000000000000000000000000000000000000000007000000000000000000000000000000000000000000000000000000000000000000000000000000000000000000000007
310
00000000000000000000000000000000000000000000000000000000000000000000000000000000000000000000000000000000000000000000000000000000000000000000000000000000000000000000000000000000000000000000000000000000000000000000000000000000000000000000000000000000000000
310
00000000000707000000000000000000000000000000000000000000000000000000000000000000000000000000000000000707000000000000000000000000000000000000000000000000000000000000000000000000000000000000000000000000000000000000000000000000000000000000000000000000000000
310
00000000000000000000000000000000000000000000000000000000000000000000000000000000000000000000000000000000000000000000000007070000000000000000000000000000000000000000000000000000000000000000000000000000000707000000000000000000000000000000000000000000000000
310
00000000000000000000000000000000000000000000000000000000000000000000000000000000000000000000000000000000000000000000000000000000000000000000000000000000000000000000000000000000000000000000000000000000000000000000000000000000000000070700000000000000000000
310
00000000000000000000000000000000000000000000000000070700000000000000000000000000000000000000000000000000000000000000000000000000000000000000000000000000000000000000000000000000000000000000000000000000000000000000000000000000000000000000000000000000000000
310
00000000000000000000000000000000000000000000000000000000000000000000000000000000000000070707000000000000000000000000000000000000000000000000000000000007070700000000000000000000000000000000000000000000000000000000000000000000000000000000000000000000000000
310
00000000000000000000000000000000000000000000000000000000000000000000000000000000000000000000000000000000000000000000000000000000000000000000000000000000000000000000000000000000000000000000000000000007070707000000000000000000000000000000000000000000070707
310
07000000000000000000000000000000000000000000000000000000000000000000000000000000000000000000000000000000000000000000000000000000000000000000000000000000000000000000000000000000000000000000000000000000000000000000000000000000000000000000000000000000000000
310
00000000000000000000000000000000000000000000000000000000000707070707000000000000000000000007070707070000000000000000000000000000000000000000000000000000000000000000000000000000000000000000000000000000000000000000000000000000000000000000000000000000000000
310
00000000000000000000000000000000000000000000000000000000000000000000000000000000000000000000000000000000000000000000000000000000000000000000000000000000000000000000000000000007070707070707070007070000000000000000000000000000000000000000000000000000000000
310
00000000000000000000000000000000000000000000000000000000000000000000000000000000000000000000000000000000000000000000000000000000000000000000000000000000000000000000000000000000000000000000000000000000000000000000000000000000000000000000000000000000000000
310
000000000000000000000000000000000000000000000000000000000000000000000000000000000000000000000000000000000000000000000000000000000000000000000000000000000000000000000000000000000000000000000000000000000000000000000000
  0
ENDSEC
  0
EOF
