  0
SECTION
  2
HEADER
  9
$ACADVER
  1
AC1015
  9
$ACADMAINTVER
 70
    13
  9
$DWGCODEPAGE
  3
ANSI_1252
  9
$INSBASE
 10
0.0
 20
0.0
 30
0.0
  9
$EXTMIN
 10
-0.0580114999999866
 20
-0.0000000000000107
 30
0.0
  9
$EXTMAX
 10
179.0580115
 20
271.0
 30
0.0
  9
$LIMMIN
 10
0.0
 20
0.0
  9
$LIMMAX
 10
12.0
 20
9.0
  9
$ORTHOMODE
 70
     0
  9
$REGENMODE
 70
     1
  9
$FILLMODE
 70
     1
  9
$QTEXTMODE
 70
     0
  9
$MIRRTEXT
 70
     1
  9
$LTSCALE
 40
1.0
  9
$ATTMODE
 70
     1
  9
$TEXTSIZE
 40
0.2
  9
$TRACEWID
 40
0.05
  9
$TEXTSTYLE
  7
Standard
  9
$CLAYER
  8
0
  9
$CELTYPE
  6
Continuous
  9
$CECOLOR
 62
   256
  9
$CELTSCALE
 40
1.0
  9
$DISPSILH
 70
     0
  9
$DIMSCALE
 40
1.0
  9
$DIMASZ
 40
0.18
  9
$DIMEXO
 40
0.0625
  9
$DIMDLI
 40
0.38
  9
$DIMRND
 40
0.0
  9
$DIMDLE
 40
0.0
  9
$DIMEXE
 40
0.18
  9
$DIMTP
 40
0.0
  9
$DIMTM
 40
0.0
  9
$DIMTXT
 40
0.18
  9
$DIMCEN
 40
0.09
  9
$DIMTSZ
 40
0.0
  9
$DIMTOL
 70
     0
  9
$DIMLIM
 70
     0
  9
$DIMTIH
 70
     1
  9
$DIMTOH
 70
     1
  9
$DIMSE1
 70
     0
  9
$DIMSE2
 70
     0
  9
$DIMTAD
 70
     0
  9
$DIMZIN
 70
     0
  9
$DIMBLK
  1

  9
$DIMASO
 70
     1
  9
$DIMSHO
 70
     1
  9
$DIMPOST
  1

  9
$DIMAPOST
  1

  9
$DIMALT
 70
     0
  9
$DIMALTD
 70
     2
  9
$DIMALTF
 40
25.4
  9
$DIMLFAC
 40
1.0
  9
$DIMTOFL
 70
     0
  9
$DIMTVP
 40
0.0
  9
$DIMTIX
 70
     0
  9
$DIMSOXD
 70
     0
  9
$DIMSAH
 70
     0
  9
$DIMBLK1
  1

  9
$DIMBLK2
  1

  9
$DIMSTYLE
  2
Standard
  9
$DIMCLRD
 70
     0
  9
$DIMCLRE
 70
     0
  9
$DIMCLRT
 70
     0
  9
$DIMTFAC
 40
1.0
  9
$DIMGAP
 40
0.09
  9
$DIMJUST
 70
     0
  9
$DIMSD1
 70
     0
  9
$DIMSD2
 70
     0
  9
$DIMTOLJ
 70
     1
  9
$DIMTZIN
 70
     0
  9
$DIMALTZ
 70
     0
  9
$DIMALTTZ
 70
     0
  9
$DIMUPT
 70
     0
  9
$DIMDEC
 70
     4
  9
$DIMTDEC
 70
     4
  9
$DIMALTU
 70
     2
  9
$DIMALTTD
 70
     2
  9
$DIMTXSTY
  7
Standard
  9
$DIMAUNIT
 70
     0
  9
$DIMADEC
 70
     0
  9
$DIMALTRND
 40
0.0
  9
$DIMAZIN
 70
     0
  9
$DIMDSEP
 70
    46
  9
$DIMATFIT
 70
     3
  9
$DIMFRAC
 70
     0
  9
$DIMLDRBLK
  1

  9
$DIMLUNIT
 70
     2
  9
$DIMLWD
 70
    -2
  9
$DIMLWE
 70
    -2
  9
$DIMTMOVE
 70
     0
  9
$LUNITS
 70
     2
  9
$LUPREC
 70
     4
  9
$SKETCHINC
 40
0.1
  9
$FILLETRAD
 40
0.0
  9
$AUNITS
 70
     0
  9
$AUPREC
 70
     0
  9
$MENU
  1
.
  9
$ELEVATION
 40
0.0
  9
$PELEVATION
 40
0.0
  9
$THICKNESS
 40
0.0
  9
$LIMCHECK
 70
     0
  9
$CHAMFERA
 40
0.0
  9
$CHAMFERB
 40
0.0
  9
$CHAMFERC
 40
0.0
  9
$CHAMFERD
 40
0.0
  9
$SKPOLY
 70
     0
  9
$TDCREATE
 40
2456021.572470208
  9
$TDUCREATE
 40
2456021.489136875
  9
$TDUPDATE
 40
2456021.573969410
  9
$TDUUPDATE
 40
2456021.490636076
  9
$TDINDWG
 40
0.0008982639
  9
$TDUSRTIMER
 40
0.0008982639
  9
$USRTIMER
 70
     1
  9
$ANGBASE
 50
0.0
  9
$ANGDIR
 70
     0
  9
$PDMODE
 70
     0
  9
$PDSIZE
 40
0.0
  9
$PLINEWID
 40
0.0
  9
$SPLFRAME
 70
     0
  9
$SPLINETYPE
 70
     6
  9
$SPLINESEGS
 70
     8
  9
$HANDSEED
  5
14E
  9
$SURFTAB1
 70
     6
  9
$SURFTAB2
 70
     6
  9
$SURFTYPE
 70
     6
  9
$SURFU
 70
     6
  9
$SURFV
 70
     6
  9
$UCSBASE
  2

  9
$UCSNAME
  2

  9
$UCSORG
 10
0.0
 20
0.0
 30
0.0
  9
$UCSXDIR
 10
1.0
 20
0.0
 30
0.0
  9
$UCSYDIR
 10
0.0
 20
1.0
 30
0.0
  9
$UCSORTHOREF
  2

  9
$UCSORTHOVIEW
 70
     1
  9
$UCSORGTOP
 10
0.0
 20
0.0
 30
0.0
  9
$UCSORGBOTTOM
 10
0.0
 20
0.0
 30
0.0
  9
$UCSORGLEFT
 10
0.0
 20
0.0
 30
0.0
  9
$UCSORGRIGHT
 10
0.0
 20
0.0
 30
0.0
  9
$UCSORGFRONT
 10
0.0
 20
0.0
 30
0.0
  9
$UCSORGBACK
 10
0.0
 20
0.0
 30
0.0
  9
$PUCSBASE
  2

  9
$PUCSNAME
  2

  9
$PUCSORG
 10
0.0
 20
0.0
 30
0.0
  9
$PUCSXDIR
 10
1.0
 20
0.0
 30
0.0
  9
$PUCSYDIR
 10
0.0
 20
1.0
 30
0.0
  9
$PUCSORTHOREF
  2

  9
$PUCSORTHOVIEW
 70
     0
  9
$PUCSORGTOP
 10
0.0
 20
0.0
 30
0.0
  9
$PUCSORGBOTTOM
 10
0.0
 20
0.0
 30
0.0
  9
$PUCSORGLEFT
 10
0.0
 20
0.0
 30
0.0
  9
$PUCSORGRIGHT
 10
0.0
 20
0.0
 30
0.0
  9
$PUCSORGFRONT
 10
0.0
 20
0.0
 30
0.0
  9
$PUCSORGBACK
 10
0.0
 20
0.0
 30
0.0
  9
$USERI1
 70
     0
  9
$USERI2
 70
     0
  9
$USERI3
 70
     0
  9
$USERI4
 70
     0
  9
$USERI5
 70
     0
  9
$USERR1
 40
0.0
  9
$USERR2
 40
0.0
  9
$USERR3
 40
0.0
  9
$USERR4
 40
0.0
  9
$USERR5
 40
0.0
  9
$WORLDVIEW
 70
     1
  9
$SHADEDGE
 70
     3
  9
$SHADEDIF
 70
    70
  9
$TILEMODE
 70
     1
  9
$MAXACTVP
 70
    64
  9
$PINSBASE
 10
0.0
 20
0.0
 30
0.0
  9
$PLIMCHECK
 70
     0
  9
$PEXTMIN
 10
1.000000000000000E+20
 20
1.000000000000000E+20
 30
1.000000000000000E+20
  9
$PEXTMAX
 10
-1.000000000000000E+20
 20
-1.000000000000000E+20
 30
-1.000000000000000E+20
  9
$PLIMMIN
 10
0.0
 20
0.0
  9
$PLIMMAX
 10
12.0
 20
9.0
  9
$UNITMODE
 70
     0
  9
$VISRETAIN
 70
     1
  9
$PLINEGEN
 70
     0
  9
$PSLTSCALE
 70
     1
  9
$TREEDEPTH
 70
  3020
  9
$CMLSTYLE
  2
Standard
  9
$CMLJUST
 70
     0
  9
$CMLSCALE
 40
1.0
  9
$PROXYGRAPHICS
 70
     1
  9
$MEASUREMENT
 70
     0
  9
$CELWEIGHT
370
    -1
  9
$ENDCAPS
280
     0
  9
$JOINSTYLE
280
     0
  9
$LWDISPLAY
290
     0
  9
$INSUNITS
 70
     0
  9
$HYPERLINKBASE
  1

  9
$STYLESHEET
  1

  9
$XEDIT
290
     1
  9
$CEPSNTYPE
380
     0
  9
$PSTYLEMODE
290
     1
  9
$FINGERPRINTGUID
  2
{CED0B8BF-41D7-4CD5-8642-4C9DA45D15DE}
  9
$VERSIONGUID
  2
{84177929-99F6-47E6-A4A8-DE628E9C7773}
  9
$EXTNAMES
290
     1
  9
$PSVPSCALE
 40
0.0
  9
$OLESTARTUP
290
     0
  0
ENDSEC
  0
SECTION
  2
CLASSES
  0
CLASS
  1
ACDBDICTIONARYWDFLT
  2
AcDbDictionaryWithDefault
  3
AutoCAD 2000
 90
        0
280
     0
281
     0
  0
CLASS
  1
ACDBPLACEHOLDER
  2
AcDbPlaceHolder
  3
AutoCAD 2000
 90
        0
280
     0
281
     0
  0
CLASS
  1
LAYOUT
  2
AcDbLayout
  3
AutoCAD 2000
 90
        0
280
     0
281
     0
  0
CLASS
  1
DICTIONARYVAR
  2
AcDbDictionaryVar
  3
AutoCAD 2000
 90
        0
280
     0
281
     0
  0
ENDSEC
  0
SECTION
  2
TABLES
  0
TABLE
  2
VPORT
  5
8
330
0
100
AcDbSymbolTable
 70
     3
  0
VPORT
  5
14D
330
8
100
AcDbSymbolTableRecord
100
AcDbViewportTableRecord
  2
*Active
 70
     0
 10
0.0
 20
0.0
 11
1.0
 21
1.0
 12
89.50000000000001
 22
135.4999999999999
 13
0.0
 23
0.0
 14
1.0
 24
1.0
 15
0.0
 25
0.0
 16
0.0
 26
0.0
 36
1.0
 17
0.0
 27
0.0
 37
0.0
 40
273.1338582677165
 41
2.102496714848883
 42
50.0
 43
0.0
 44
0.0
 50
0.0
 51
0.0
 71
     0
 72
   100
 73
     1
 74
     3
 75
     0
 76
     0
 77
     0
 78
     0
281
     0
 65
     1
110
0.0
120
0.0
130
0.0
111
1.0
121
0.0
131
0.0
112
0.0
122
1.0
132
0.0
 79
     1
146
0.0
  0
ENDTAB
  0
TABLE
  2
LTYPE
  5
5
330
0
100
AcDbSymbolTable
 70
     1
  0
LTYPE
  5
13
330
5
100
AcDbSymbolTableRecord
100
AcDbLinetypeTableRecord
  2
ByBlock
 70
     0
  3

 72
    65
 73
     0
 40
0.0
  0
LTYPE
  5
14
330
5
100
AcDbSymbolTableRecord
100
AcDbLinetypeTableRecord
  2
ByLayer
 70
     0
  3

 72
    65
 73
     0
 40
0.0
  0
LTYPE
  5
15
330
5
100
AcDbSymbolTableRecord
100
AcDbLinetypeTableRecord
  2
Continuous
 70
     0
  3
Solid line
 72
    65
 73
     0
 40
0.0
  0
ENDTAB
  0
TABLE
  2
LAYER
  5
2
330
0
100
AcDbSymbolTable
 70
     1
  0
LAYER
  5
10
330
2
100
AcDbSymbolTableRecord
100
AcDbLayerTableRecord
  2
0
 70
     0
 62
     7
  6
Continuous
370
    -3
390
F
  0
ENDTAB
  0
TABLE
  2
STYLE
  5
3
330
0
100
AcDbSymbolTable
 70
     1
  0
STYLE
  5
11
330
3
100
AcDbSymbolTableRecord
100
AcDbTextStyleTableRecord
  2
Standard
 70
     0
 40
0.0
 41
1.0
 50
0.0
 71
     0
 42
0.2
  3
txt
  4

  0
ENDTAB
  0
TABLE
  2
VIEW
  5
6
330
0
100
AcDbSymbolTable
 70
     0
  0
ENDTAB
  0
TABLE
  2
UCS
  5
7
330
0
100
AcDbSymbolTable
 70
     0
  0
ENDTAB
  0
TABLE
  2
APPID
  5
9
330
0
100
AcDbSymbolTable
 70
     1
  0
APPID
  5
12
330
9
100
AcDbSymbolTableRecord
100
AcDbRegAppTableRecord
  2
ACAD
 70
     0
  0
ENDTAB
  0
TABLE
  2
DIMSTYLE
  5
A
330
0
100
AcDbSymbolTable
 70
     1
100
AcDbDimStyleTable
 71
     0
  0
DIMSTYLE
105
13C
330
A
100
AcDbSymbolTableRecord
100
AcDbDimStyleTableRecord
  2
Standard
 70
     0
340
11
  0
ENDTAB
  0
TABLE
  2
BLOCK_RECORD
  5
1
330
0
100
AcDbSymbolTable
 70
     0
  0
BLOCK_RECORD
  5
1E
330
1
100
AcDbSymbolTableRecord
100
AcDbBlockTableRecord
  2
*Model_Space
340
21
  0
BLOCK_RECORD
  5
1A
330
1
100
AcDbSymbolTableRecord
100
AcDbBlockTableRecord
  2
*Paper_Space
340
1D
  0
ENDTAB
  0
ENDSEC
  0
SECTION
  2
BLOCKS
  0
BLOCK
  5
1F
330
1E
100
AcDbEntity
  8
0
100
AcDbBlockBegin
  2
*Model_Space
 70
     0
 10
0.0
 20
0.0
 30
0.0
  3
*Model_Space
  1

  0
ENDBLK
  5
20
330
1E
100
AcDbEntity
  8
0
100
AcDbBlockEnd
  0
BLOCK
  5
1B
330
1A
100
AcDbEntity
 67
     1
  8
0
100
AcDbBlockBegin
  2
*Paper_Space
 70
     0
 10
0.0
 20
0.0
 30
0.0
  3
*Paper_Space
  1

  0
ENDBLK
  5
1C
330
1A
100
AcDbEntity
 67
     1
  8
0
100
AcDbBlockEnd
  0
ENDSEC
  0
SECTION
  2
ENTITIES
  0
LINE
  5
22
330
1E
100
AcDbEntity
  8
0
100
AcDbLine
 10
113.1740115
 20
48.1848
 30
0.0
 11
114.4070114999999
 21
47.77129999999999
 31
0.0
  0
LINE
  5
25
330
1E
100
AcDbEntity
  8
0
100
AcDbLine
 10
64.2162115
 20
65.5454
 30
0.0
 11
65.47241149999999
 21
64.83119999999999
 31
0.0
  0
LINE
  5
26
330
1E
100
AcDbEntity
  8
0
100
AcDbLine
 10
65.18191149999999
 20
68.0
 30
0.0
 11
65.6727115
 21
67.85989999999999
 31
0.0
  0
LINE
  5
27
330
1E
100
AcDbEntity
  8
0
100
AcDbLine
 10
64.7520115
 20
67.88600000000001
 30
0.0
 11
65.18191149999999
 21
68.0
 31
0.0
  0
LINE
  5
28
330
1E
100
AcDbEntity
  8
0
100
AcDbLine
 10
64.4119115
 20
67.62640000000001
 30
0.0
 11
64.7520115
 21
67.88600000000001
 31
0.0
  0
LINE
  5
2A
330
1E
100
AcDbEntity
  8
0
100
AcDbLine
 10
63.9420115
 20
65.98040000000001
 30
0.0
 11
64.4119115
 21
67.62640000000001
 31
0.0
  0
LINE
  5
2B
330
1E
100
AcDbEntity
  8
0
100
AcDbLine
 10
63.9420115
 20
65.98040000000001
 30
0.0
 11
64.2162115
 21
65.5454
 31
0.0
  0
LINE
  5
2F
330
1E
100
AcDbEntity
  8
0
100
AcDbLine
 10
67.3730115
 20
64.0509
 30
0.0
 11
70.16551149999999
 21
63.03370000000001
 31
0.0
  0
LINE
  5
3A
330
1E
100
AcDbEntity
  8
0
100
AcDbLine
 10
70.16551149999999
 20
63.03370000000001
 30
0.0
 11
73.1978115
 21
61.9731
 31
0.0
  0
LINE
  5
3B
330
1E
100
AcDbEntity
  8
0
100
AcDbLine
 10
73.1978115
 20
61.9731
 30
0.0
 11
76.4215115
 21
60.8745
 31
0.0
  0
LINE
  5
3C
330
1E
100
AcDbEntity
  8
0
100
AcDbLine
 10
65.47241149999999
 20
64.83119999999999
 30
0.0
 11
67.3730115
 21
64.0509
 31
0.0
  0
LINE
  5
3D
330
1E
100
AcDbEntity
  8
0
100
AcDbLine
 10
76.4215115
 20
60.8745
 30
0.0
 11
113.1740115
 21
48.1848
 31
0.0
  0
LINE
  5
3E
330
1E
100
AcDbEntity
  8
0
100
AcDbLine
 10
113.4420114999999
 20
5.99999999999999
 30
0.0
 11
113.4420114999999
 21
-0.0000000000000066
 31
0.0
  0
LINE
  5
3F
330
1E
100
AcDbEntity
  8
0
100
AcDbLine
 10
18.31001149999999
 20
151.774
 30
0.0
 11
18.97441149999999
 21
152.0159999999999
 31
0.0
  0
LINE
  5
40
330
1E
100
AcDbEntity
  8
0
100
AcDbLine
 10
17.94751149999999
 20
151.9429999999999
 30
0.0
 11
18.31001149999999
 21
151.774
 31
0.0
  0
LINE
  5
41
330
1E
100
AcDbEntity
  8
0
100
AcDbLine
 10
17.13181149999999
 20
152.3229999999999
 30
0.0
 11
17.4037115
 21
152.1959999999999
 31
0.0
  0
LINE
  5
42
330
1E
100
AcDbEntity
  8
0
100
AcDbLine
 10
17.13181149999999
 20
152.3229999999999
 30
0.0
 11
17.94751149999999
 21
151.9429999999999
 31
0.0
  0
LINE
  5
43
330
1E
100
AcDbEntity
  8
0
100
AcDbLine
 10
12.36112784578399
 20
154.547717036171
 30
0.0
 11
13.3253115
 21
154.0979999999999
 31
0.0
  0
LINE
  5
44
330
1E
100
AcDbEntity
  8
0
100
AcDbLine
 10
12.36112784578369
 20
154.547717036171
 30
0.0
 11
13.3253115
 21
154.0979999999999
 31
0.0
  0
LINE
  5
45
330
1E
100
AcDbEntity
  8
0
100
AcDbLine
 10
13.7784115
 20
153.887
 30
0.0
 11
15.68171149999999
 21
152.9989999999999
 31
0.0
  0
LINE
  5
46
330
1E
100
AcDbEntity
  8
0
100
AcDbLine
 10
14.17101149999999
 20
154.2559999999999
 30
0.0
 11
16.16491149999999
 21
153.326
 31
0.0
  0
LINE
  5
47
330
1E
100
AcDbEntity
  8
0
100
AcDbLine
 10
14.982470894519
 20
153.325236356679
 30
0.0
 11
15.68171149999999
 21
152.9989999999999
 31
0.0
  0
LINE
  5
48
330
1E
100
AcDbEntity
  8
0
100
AcDbLine
 10
13.3253115
 20
154.0979999999999
 30
0.0
 11
14.98247089451909
 21
153.325236356679
 31
0.0
  0
LINE
  5
49
330
1E
100
AcDbEntity
  8
0
100
AcDbLine
 10
13.3253115
 20
154.0979999999999
 30
0.0
 11
14.9824708945189
 21
153.325236356679
 31
0.0
  0
LINE
  5
4A
330
1E
100
AcDbEntity
  8
0
100
AcDbLine
 10
-0.0580114999999866
 20
160.8909999999999
 30
0.0
 11
33.2376115
 21
232.109
 31
0.0
  0
LINE
  5
4B
330
1E
100
AcDbEntity
  8
0
100
AcDbLine
 10
6.15925518413509
 20
157.43989479495
 30
0.0
 11
7.162401500000019
 21
156.972
 31
0.0
  0
LINE
  5
4C
330
1E
100
AcDbEntity
  8
0
100
AcDbLine
 10
6.890511500000019
 20
157.0989999999999
 30
0.0
 11
9.246911500000019
 21
156.0
 31
0.0
  0
LINE
  5
4D
330
1E
100
AcDbEntity
  8
0
100
AcDbLine
 10
7.011191500000009
 20
157.5939999999999
 30
0.0
 11
9.458221500000009
 21
156.4529999999999
 31
0.0
  0
LINE
  5
4E
330
1E
100
AcDbEntity
  8
0
100
AcDbLine
 10
7.162401500000019
 20
156.972
 30
0.0
 11
9.246911500000019
 21
156.0
 31
0.0
  0
LINE
  5
4F
330
1E
100
AcDbEntity
  8
0
100
AcDbLine
 10
6.159255184135539
 20
157.43989479495
 30
0.0
 11
7.162401500000019
 21
156.972
 31
0.0
  0
LINE
  5
50
330
1E
100
AcDbEntity
  8
0
100
AcDbLine
 10
0.546356500000015
 20
160.057
 30
0.0
 11
1.36203150000001
 21
159.677
 31
0.0
  0
LINE
  5
51
330
1E
100
AcDbEntity
  8
0
100
AcDbLine
 10
2.81213150000002
 20
159.001
 30
0.0
 11
4.715371500000019
 21
158.1129999999999
 31
0.0
  0
LINE
  5
52
330
1E
100
AcDbEntity
  8
0
100
AcDbLine
 10
4.745421500000019
 20
158.651
 30
0.0
 11
7.011191500000009
 21
157.5939999999999
 31
0.0
  0
LINE
  5
53
330
1E
100
AcDbEntity
  8
0
100
AcDbLine
 10
2.75154150000002
 20
159.581
 30
0.0
 11
4.745421500000019
 21
158.651
 31
0.0
  0
LINE
  5
54
330
1E
100
AcDbEntity
  8
0
100
AcDbLine
 10
2.17771150000002
 20
159.2959999999999
 30
0.0
 11
3.44654150000002
 21
158.705
 31
0.0
  0
LINE
  5
55
330
1E
100
AcDbEntity
  8
0
100
AcDbLine
 10
1.36203150000001
 20
159.677
 30
0.0
 11
2.17771150000002
 21
159.2959999999999
 31
0.0
  0
LINE
  5
56
330
1E
100
AcDbEntity
  8
0
100
AcDbLine
 10
1.36203150000001
 20
159.677
 30
0.0
 11
2.81213150000002
 21
159.001
 31
0.0
  0
LINE
  5
57
330
1E
100
AcDbEntity
  8
0
100
AcDbLine
 10
4.715371500000019
 20
158.1129999999999
 30
0.0
 11
6.159255184135349
 21
157.43989479495
 31
0.0
  0
LINE
  5
58
330
1E
100
AcDbEntity
  8
0
100
AcDbLine
 10
4.715371500000019
 20
158.1129999999999
 30
0.0
 11
6.15925518413502
 21
157.43989479495
 31
0.0
  0
LINE
  5
59
330
1E
100
AcDbEntity
  8
0
100
AcDbLine
 10
4.715371500000019
 20
158.1129999999999
 30
0.0
 11
6.890511500000019
 21
157.0989999999999
 31
0.0
  0
LINE
  5
5A
330
1E
100
AcDbEntity
  8
0
100
AcDbLine
 10
0.546356500000015
 20
160.057
 30
0.0
 11
1.36203150000001
 21
159.677
 31
0.0
  0
LINE
  5
5B
330
1E
100
AcDbEntity
  8
0
100
AcDbLine
 10
0.304511500000015
 20
160.722
 30
0.0
 11
1.210821500000019
 21
160.299
 31
0.0
  0
LINE
  5
5C
330
1E
100
AcDbEntity
  8
0
100
AcDbLine
 10
1.210821500000019
 20
160.299
 30
0.0
 11
2.75154150000002
 21
159.581
 31
0.0
  0
LINE
  5
5D
330
1E
100
AcDbEntity
  8
0
100
AcDbLine
 10
0.304511500000015
 20
160.722
 30
0.0
 11
1.210821500000019
 21
160.299
 31
0.0
  0
LINE
  5
5E
330
1E
100
AcDbEntity
  8
0
100
AcDbLine
 10
0.183833500000015
 20
160.226
 30
0.0
 11
0.546356500000015
 21
160.057
 31
0.0
  0
LINE
  5
5F
330
1E
100
AcDbEntity
  8
0
100
AcDbLine
 10
-0.0580114999999849
 20
160.8909999999999
 30
0.0
 11
33.2376115
 21
232.109
 31
0.0
  0
LINE
  5
60
330
1E
100
AcDbEntity
  8
0
100
AcDbLine
 10
-0.0580114999999849
 20
160.8909999999999
 30
0.0
 11
0.304511500000015
 21
160.722
 31
0.0
  0
LINE
  5
61
330
1E
100
AcDbEntity
  8
0
100
AcDbLine
 10
-0.0580114999999849
 20
160.8909999999999
 30
0.0
 11
0.183833500000015
 21
160.226
 31
0.0
  0
LINE
  5
62
330
1E
100
AcDbEntity
  8
0
100
AcDbLine
 10
-0.0580114999999849
 20
160.8909999999999
 30
0.0
 11
0.304511500000015
 21
160.722
 31
0.0
  0
LINE
  5
63
330
1E
100
AcDbEntity
  8
0
100
AcDbLine
 10
-0.0580114999999849
 20
160.8909999999999
 30
0.0
 11
0.183833500000015
 21
160.226
 31
0.0
  0
LINE
  5
64
330
1E
100
AcDbEntity
  8
0
100
AcDbLine
 10
9.458221500000009
 20
156.4529999999999
 30
0.0
 11
11.9052115
 21
155.312
 31
0.0
  0
LINE
  5
65
330
1E
100
AcDbEntity
  8
0
100
AcDbLine
 10
11.9052115
 20
155.312
 30
0.0
 11
14.17101149999999
 21
154.2559999999999
 31
0.0
  0
LINE
  5
66
330
1E
100
AcDbEntity
  8
0
100
AcDbLine
 10
9.246911500000019
 20
156.0
 30
0.0
 11
11.60331149999999
 21
154.901
 31
0.0
  0
LINE
  5
67
330
1E
100
AcDbEntity
  8
0
100
AcDbLine
 10
11.60331149999999
 20
154.901
 30
0.0
 11
12.3611278457833
 21
154.547717036171
 31
0.0
  0
LINE
  5
68
330
1E
100
AcDbEntity
  8
0
100
AcDbLine
 10
11.60331149999999
 20
154.901
 30
0.0
 11
12.3611278457839
 21
154.547717036171
 31
0.0
  0
LINE
  5
69
330
1E
100
AcDbEntity
  8
0
100
AcDbLine
 10
11.60331149999999
 20
154.901
 30
0.0
 11
13.7784115
 21
153.887
 31
0.0
  0
LINE
  5
6A
330
1E
100
AcDbEntity
  8
0
100
AcDbLine
 10
16.16491149999999
 20
153.326
 30
0.0
 11
17.70561149999999
 21
152.6069999999999
 31
0.0
  0
LINE
  5
6B
330
1E
100
AcDbEntity
  8
0
100
AcDbLine
 10
14.9824708945194
 20
153.325236356679
 30
0.0
 11
15.68171149999999
 21
152.9989999999999
 31
0.0
  0
LINE
  5
6C
330
1E
100
AcDbEntity
  8
0
100
AcDbLine
 10
15.68171149999999
 20
152.9989999999999
 30
0.0
 11
17.13181149999999
 21
152.3229999999999
 31
0.0
  0
LINE
  5
6D
330
1E
100
AcDbEntity
  8
0
100
AcDbLine
 10
18.61191149999999
 20
152.185
 30
0.0
 11
18.97441149999999
 21
152.0159999999999
 31
0.0
  0
LINE
  5
6E
330
1E
100
AcDbEntity
  8
0
100
AcDbLine
 10
17.70561149999999
 20
152.6069999999999
 30
0.0
 11
18.61191149999999
 21
152.185
 31
0.0
  0
LINE
  5
6F
330
1E
100
AcDbEntity
  8
0
100
AcDbLine
 10
52.6391115
 20
224.0729999999999
 30
0.0
 11
55.0689115
 21
229.0
 31
0.0
  0
LINE
  5
70
330
1E
100
AcDbEntity
  8
0
100
AcDbLine
 10
55.0689115
 20
229.0
 30
0.0
 11
58.1212115
 21
233.5679999999999
 31
0.0
  0
LINE
  5
71
330
1E
100
AcDbEntity
  8
0
100
AcDbLine
 10
33.2376115
 20
232.109
 30
0.0
 11
36.88241149999999
 21
239.5
 31
0.0
  0
LINE
  5
72
330
1E
100
AcDbEntity
  8
0
100
AcDbLine
 10
58.1212115
 20
233.5679999999999
 30
0.0
 11
61.74351149999999
 21
237.6979999999999
 31
0.0
  0
LINE
  5
73
330
1E
100
AcDbEntity
  8
0
100
AcDbLine
 10
36.88241149999999
 20
239.5
 30
0.0
 11
41.4607115
 21
246.3519999999999
 31
0.0
  0
LINE
  5
74
330
1E
100
AcDbEntity
  8
0
100
AcDbLine
 10
41.4607115
 20
246.3519999999999
 30
0.0
 11
46.89431149999999
 21
252.5479999999999
 31
0.0
  0
LINE
  5
75
330
1E
100
AcDbEntity
  8
0
100
AcDbLine
 10
61.74351149999999
 20
237.6979999999999
 30
0.0
 11
65.87401149999999
 21
241.3209999999999
 31
0.0
  0
LINE
  5
76
330
1E
100
AcDbEntity
  8
0
100
AcDbLine
 10
70.44201149999999
 20
244.3729999999999
 30
0.0
 11
75.3693115
 21
246.803
 31
0.0
  0
LINE
  5
77
330
1E
100
AcDbEntity
  8
0
100
AcDbLine
 10
75.3693115
 20
246.803
 30
0.0
 11
80.5716115
 21
248.569
 31
0.0
  0
LINE
  5
78
330
1E
100
AcDbEntity
  8
0
100
AcDbLine
 10
65.87401149999999
 20
241.3209999999999
 30
0.0
 11
70.44201149999999
 21
244.3729999999999
 31
0.0
  0
LINE
  5
79
330
1E
100
AcDbEntity
  8
0
100
AcDbLine
 10
85.95991150000001
 20
249.641
 30
0.0
 11
91.44201149999998
 21
250.0
 31
0.0
  0
LINE
  5
7A
330
1E
100
AcDbEntity
  8
0
100
AcDbLine
 10
80.5716115
 20
248.569
 30
0.0
 11
85.95991150000001
 21
249.641
 31
0.0
  0
LINE
  5
7B
330
1E
100
AcDbEntity
  8
0
100
AcDbLine
 10
46.89431149999999
 20
252.5479999999999
 30
0.0
 11
53.0900115
 21
257.981
 31
0.0
  0
LINE
  5
7C
330
1E
100
AcDbEntity
  8
0
100
AcDbLine
 10
67.33291149999999
 20
266.204
 30
0.0
 11
75.13641149999999
 21
268.853
 31
0.0
  0
LINE
  5
7D
330
1E
100
AcDbEntity
  8
0
100
AcDbLine
 10
59.9420115
 20
262.5599999999999
 30
0.0
 11
67.33291149999999
 21
266.204
 31
0.0
  0
LINE
  5
7E
330
1E
100
AcDbEntity
  8
0
100
AcDbLine
 10
53.0900115
 20
257.981
 30
0.0
 11
59.9420115
 21
262.5599999999999
 31
0.0
  0
LINE
  5
7F
330
1E
100
AcDbEntity
  8
0
100
AcDbLine
 10
83.21881150000001
 20
270.461
 30
0.0
 11
91.44201149999998
 21
271.0
 31
0.0
  0
LINE
  5
80
330
1E
100
AcDbEntity
  8
0
100
AcDbLine
 10
75.13641149999999
 20
268.853
 30
0.0
 11
83.21881150000001
 21
270.461
 31
0.0
  0
LINE
  5
81
330
1E
100
AcDbEntity
  8
0
100
AcDbLine
 10
91.44201149999998
 20
250.0
 30
0.0
 11
96.92411149999999
 21
249.641
 31
0.0
  0
LINE
  5
82
330
1E
100
AcDbEntity
  8
0
100
AcDbLine
 10
102.3120114999999
 20
248.569
 30
0.0
 11
107.5150115
 21
246.803
 31
0.0
  0
LINE
  5
83
330
1E
100
AcDbEntity
  8
0
100
AcDbLine
 10
107.7480114999999
 20
268.853
 30
0.0
 11
115.5510115
 21
266.204
 31
0.0
  0
LINE
  5
84
330
1E
100
AcDbEntity
  8
0
100
AcDbLine
 10
99.6652115
 20
270.461
 30
0.0
 11
107.7480114999999
 21
268.853
 31
0.0
  0
LINE
  5
85
330
1E
100
AcDbEntity
  8
0
100
AcDbLine
 10
96.92411149999999
 20
249.641
 30
0.0
 11
102.3120114999999
 21
248.569
 31
0.0
  0
LINE
  5
86
330
1E
100
AcDbEntity
  8
0
100
AcDbLine
 10
91.44201149999998
 20
271.0
 30
0.0
 11
99.6652115
 21
270.461
 31
0.0
  0
LINE
  5
87
330
1E
100
AcDbEntity
  8
0
100
AcDbLine
 10
107.5150115
 20
246.803
 30
0.0
 11
112.4420114999999
 21
244.3729999999999
 31
0.0
  0
LINE
  5
88
330
1E
100
AcDbEntity
  8
0
100
AcDbLine
 10
112.4420114999999
 20
244.3729999999999
 30
0.0
 11
117.0100115
 21
241.3209999999999
 31
0.0
  0
LINE
  5
89
330
1E
100
AcDbEntity
  8
0
100
AcDbLine
 10
17.4037022740278
 20
152.196337631322
 30
0.0
 11
17.94751149999999
 21
151.9429999999999
 31
0.0
  0
LINE
  5
8A
330
1E
100
AcDbEntity
  8
0
100
AcDbLine
 10
17.3884360468351
 20
152.755016583907
 30
0.0
 11
17.70561149999999
 21
152.6069999999999
 31
0.0
  0
LINE
  5
8B
330
1E
100
AcDbEntity
  8
0
100
AcDbLine
 10
18.97441149999999
 20
152.0159999999999
 30
0.0
 11
52.6391115
 21
224.0729999999999
 31
0.0
  0
LINE
  5
8C
330
1E
100
AcDbEntity
  8
0
100
AcDbLine
 10
114.2420114999999
 20
-0.000000000000007
 30
0.0
 11
115.2420114999999
 21
-0.0000000000000071
 31
0.0
  0
LINE
  5
90
330
1E
100
AcDbEntity
  8
0
100
AcDbLine
 10
114.4070114999999
 20
47.77129999999999
 30
0.0
 11
118.0150114999999
 21
46.2147
 31
0.0
  0
LINE
  5
94
330
1E
100
AcDbEntity
  8
0
100
AcDbLine
 10
115.5510115
 20
266.204
 30
0.0
 11
122.9420114999999
 21
262.5599999999999
 31
0.0
  0
LINE
  5
95
330
1E
100
AcDbEntity
  8
0
100
AcDbLine
 10
113.7420115
 20
6.69999999999999
 30
0.0
 11
114.4420114999999
 21
6.99999999999999
 31
0.0
  0
LINE
  5
97
330
1E
100
AcDbEntity
  8
0
100
AcDbLine
 10
113.6420114999999
 20
-0.000000000000007
 30
0.0
 11
114.2420114999999
 21
-0.000000000000007
 31
0.0
  0
LINE
  5
98
330
1E
100
AcDbEntity
  8
0
100
AcDbLine
 10
113.4420114999999
 20
-0.0000000000000069
 30
0.0
 11
113.6420114999999
 21
-0.000000000000007
 31
0.0
  0
LINE
  5
99
330
1E
100
AcDbEntity
  8
0
100
AcDbLine
 10
113.4420114999999
 20
-0.0000000000000069
 30
0.0
 11
113.4420114999999
 21
5.99999999999999
 31
0.0
  0
LINE
  5
9A
330
1E
100
AcDbEntity
  8
0
100
AcDbLine
 10
115.2420114999999
 20
-0.0000000000000071
 30
0.0
 11
116.4420114999999
 21
-0.0000000000000071
 31
0.0
  0
LINE
  5
9D
330
1E
100
AcDbEntity
  8
0
100
AcDbLine
 10
118.0150114999999
 20
46.2147
 30
0.0
 11
121.4490115
 21
44.04869999999999
 31
0.0
  0
LINE
  5
A0
330
1E
100
AcDbEntity
  8
0
100
AcDbLine
 10
117.0100115
 20
241.3209999999999
 30
0.0
 11
121.1400114999999
 21
237.6979999999999
 31
0.0
  0
LINE
  5
A1
330
1E
100
AcDbEntity
  8
0
100
AcDbLine
 10
116.4420114999999
 20
-0.0000000000000071
 30
0.0
 11
117.9420114999999
 21
-0.0000000000000072
 31
0.0
  0
LINE
  5
A2
330
1E
100
AcDbEntity
  8
0
100
AcDbLine
 10
117.9420114999999
 20
-0.0000000000000072
 30
0.0
 11
119.4420114999999
 21
-0.0000000000000073
 31
0.0
  0
LINE
  5
A3
330
1E
100
AcDbEntity
  8
0
100
AcDbLine
 10
174.2420114999999
 20
-0.0000000000000107
 30
0.0
 11
174.4420115
 21
-0.0000000000000107
 31
0.0
  0
LINE
  5
A4
330
1E
100
AcDbEntity
  8
0
100
AcDbLine
 10
173.6420115
 20
-0.0000000000000106
 30
0.0
 11
174.2420114999999
 21
-0.0000000000000107
 31
0.0
  0
LINE
  5
A5
330
1E
100
AcDbEntity
  8
0
100
AcDbLine
 10
172.6420114999999
 20
-0.0000000000000106
 30
0.0
 11
173.6420115
 21
-0.0000000000000106
 31
0.0
  0
LINE
  5
A6
330
1E
100
AcDbEntity
  8
0
100
AcDbLine
 10
171.4420115
 20
-0.0000000000000105
 30
0.0
 11
172.6420114999999
 21
-0.0000000000000106
 31
0.0
  0
LINE
  5
A7
330
1E
100
AcDbEntity
  8
0
100
AcDbLine
 10
169.9420115
 20
-0.0000000000000104
 30
0.0
 11
171.4420115
 21
-0.0000000000000105
 31
0.0
  0
LINE
  5
A8
330
1E
100
AcDbEntity
  8
0
100
AcDbLine
 10
126.9420114999999
 20
6.99999999999999
 30
0.0
 11
126.9420114999999
 21
9.69999999999999
 31
0.0
  0
LINE
  5
AB
330
1E
100
AcDbEntity
  8
0
100
AcDbLine
 10
143.9420115
 20
-0.0000000000000088
 30
0.0
 11
168.4420114999999
 21
-0.0000000000000103
 31
0.0
  0
LINE
  5
AD
330
1E
100
AcDbEntity
  8
0
100
AcDbLine
 10
126.8380115
 20
30.0644
 30
0.0
 11
126.8380115
 21
11.0112
 31
0.0
  0
LINE
  5
AE
330
1E
100
AcDbEntity
  8
0
100
AcDbLine
 10
126.8380115
 20
11.0112
 30
0.0
 11
126.8380115
 21
30.0644
 31
0.0
  0
LINE
  5
AF
330
1E
100
AcDbEntity
  8
0
100
AcDbLine
 10
126.8380115
 20
11.0112
 30
0.0
 11
127.4870114999999
 21
11.0112
 31
0.0
  0
LINE
  5
B0
330
1E
100
AcDbEntity
  8
0
100
AcDbLine
 10
124.1370115
 20
41.04239999999999
 30
0.0
 11
125.7490114999999
 21
37.8156
 31
0.0
  0
LINE
  5
B1
330
1E
100
AcDbEntity
  8
0
100
AcDbLine
 10
121.4490115
 20
44.04869999999999
 30
0.0
 11
124.1370115
 21
41.04239999999999
 31
0.0
  0
LINE
  5
B2
330
1E
100
AcDbEntity
  8
0
100
AcDbLine
 10
125.7490114999999
 20
37.8156
 30
0.0
 11
126.3020114999999
 21
35.0233
 31
0.0
  0
LINE
  5
B3
330
1E
100
AcDbEntity
  8
0
100
AcDbLine
 10
126.3020114999999
 20
35.0233
 30
0.0
 11
126.6620115
 21
32.5264
 31
0.0
  0
LINE
  5
B4
330
1E
100
AcDbEntity
  8
0
100
AcDbLine
 10
126.6620115
 20
32.5264
 30
0.0
 11
126.8380115
 21
30.0644
 31
0.0
  0
LINE
  5
B5
330
1E
100
AcDbEntity
  8
0
100
AcDbLine
 10
143.9420115
 20
9.69999999999999
 30
0.0
 11
148.2940115
 21
9.69999999999999
 31
0.0
  0
LINE
  5
B6
330
1E
100
AcDbEntity
  8
0
100
AcDbLine
 10
148.2940115
 20
9.69999999999999
 30
0.0
 11
152.3740115
 21
9.69999999999999
 31
0.0
  0
LINE
  5
B7
330
1E
100
AcDbEntity
  8
0
100
AcDbLine
 10
152.3740115
 20
9.69999999999999
 30
0.0
 11
155.9780115
 21
9.69999999999999
 31
0.0
  0
LINE
  5
B8
330
1E
100
AcDbEntity
  8
0
100
AcDbLine
 10
139.5900115
 20
9.69999999999999
 30
0.0
 11
143.9420115
 21
9.69999999999999
 31
0.0
  0
LINE
  5
B9
330
1E
100
AcDbEntity
  8
0
100
AcDbLine
 10
135.5100114999999
 20
9.69999999999999
 30
0.0
 11
139.5900115
 21
9.69999999999999
 31
0.0
  0
LINE
  5
BA
330
1E
100
AcDbEntity
  8
0
100
AcDbLine
 10
131.9060115
 20
9.69999999999999
 30
0.0
 11
135.5100114999999
 21
9.69999999999999
 31
0.0
  0
LINE
  5
BB
330
1E
100
AcDbEntity
  8
0
100
AcDbLine
 10
129.1860115
 20
9.69999999999999
 30
0.0
 11
131.9060115
 21
9.69999999999999
 31
0.0
  0
LINE
  5
BC
330
1E
100
AcDbEntity
  8
0
100
AcDbLine
 10
127.8400114999999
 20
9.999999999999991
 30
0.0
 11
127.8400114999999
 21
11.0112
 31
0.0
  0
LINE
  5
BD
330
1E
100
AcDbEntity
  8
0
100
AcDbLine
 10
143.9420115
 20
9.999999999999991
 30
0.0
 11
148.2260115
 21
9.999999999999991
 31
0.0
  0
LINE
  5
BE
330
1E
100
AcDbEntity
  8
0
100
AcDbLine
 10
148.2260115
 20
9.999999999999991
 30
0.0
 11
152.1700114999999
 21
9.999999999999991
 31
0.0
  0
LINE
  5
BF
330
1E
100
AcDbEntity
  8
0
100
AcDbLine
 10
152.1700114999999
 20
9.999999999999991
 30
0.0
 11
155.6380115
 21
9.999999999999991
 31
0.0
  0
LINE
  5
C0
330
1E
100
AcDbEntity
  8
0
100
AcDbLine
 10
139.6580114999999
 20
9.999999999999991
 30
0.0
 11
143.9420115
 21
9.999999999999991
 31
0.0
  0
LINE
  5
C1
330
1E
100
AcDbEntity
  8
0
100
AcDbLine
 10
135.7140114999999
 20
9.999999999999991
 30
0.0
 11
139.6580114999999
 21
9.999999999999991
 31
0.0
  0
LINE
  5
C2
330
1E
100
AcDbEntity
  8
0
100
AcDbLine
 10
132.2460115
 20
9.999999999999991
 30
0.0
 11
135.7140114999999
 21
9.999999999999991
 31
0.0
  0
LINE
  5
C3
330
1E
100
AcDbEntity
  8
0
100
AcDbLine
 10
129.5940115
 20
9.999999999999991
 30
0.0
 11
132.2460115
 21
9.999999999999991
 31
0.0
  0
LINE
  5
C4
330
1E
100
AcDbEntity
  8
0
100
AcDbLine
 10
127.8400114999999
 20
11.0112
 30
0.0
 11
127.8400114999999
 21
9.999999999999991
 31
0.0
  0
LINE
  5
C5
330
1E
100
AcDbEntity
  8
0
100
AcDbLine
 10
129.1110114999999
 20
11.0112
 30
0.0
 11
131.8710115
 21
11.0112
 31
0.0
  0
LINE
  5
C6
330
1E
100
AcDbEntity
  8
0
100
AcDbLine
 10
135.4430115
 20
11.0112
 30
0.0
 11
139.5020115
 21
11.0112
 31
0.0
  0
LINE
  5
C7
330
1E
100
AcDbEntity
  8
0
100
AcDbLine
 10
139.5020115
 20
11.0112
 30
0.0
 11
143.8860114999999
 21
11.0112
 31
0.0
  0
LINE
  5
C8
330
1E
100
AcDbEntity
  8
0
100
AcDbLine
 10
143.8860114999999
 20
11.0112
 30
0.0
 11
148.5180115
 21
13.0712
 31
0.0
  0
LINE
  5
C9
330
1E
100
AcDbEntity
  8
0
100
AcDbLine
 10
148.5180115
 20
13.0712
 30
0.0
 11
152.4670115
 21
14.92259999999999
 31
0.0
  0
LINE
  5
CA
330
1E
100
AcDbEntity
  8
0
100
AcDbLine
 10
131.8710115
 20
11.0112
 30
0.0
 11
135.4430115
 21
11.0112
 31
0.0
  0
LINE
  5
CB
330
1E
100
AcDbEntity
  8
0
100
AcDbLine
 10
152.4670115
 20
14.92259999999999
 30
0.0
 11
156.0960115
 21
16.4536
 31
0.0
  0
LINE
  5
D0
330
1E
100
AcDbEntity
  8
0
100
AcDbLine
 10
127.4870114999999
 20
11.0112
 30
0.0
 11
127.8400114999999
 21
11.0112
 31
0.0
  0
LINE
  5
D1
330
1E
100
AcDbEntity
  8
0
100
AcDbLine
 10
127.4870114999999
 20
11.0112
 30
0.0
 11
129.1110114999999
 21
11.0112
 31
0.0
  0
LINE
  5
D2
330
1E
100
AcDbEntity
  8
0
100
AcDbLine
 10
127.9620114999999
 20
9.999999999999991
 30
0.0
 11
129.5940115
 21
9.999999999999991
 31
0.0
  0
LINE
  5
D3
330
1E
100
AcDbEntity
  8
0
100
AcDbLine
 10
127.3500115
 20
9.999999999999991
 30
0.0
 11
127.9620114999999
 21
9.999999999999991
 31
0.0
  0
LINE
  5
D4
330
1E
100
AcDbEntity
  8
0
100
AcDbLine
 10
127.5540115
 20
9.69999999999999
 30
0.0
 11
129.1860115
 21
9.69999999999999
 31
0.0
  0
LINE
  5
D5
330
1E
100
AcDbEntity
  8
0
100
AcDbLine
 10
126.9420114999999
 20
9.69999999999999
 30
0.0
 11
127.3500115
 21
9.999999999999991
 31
0.0
  0
LINE
  5
D6
330
1E
100
AcDbEntity
  8
0
100
AcDbLine
 10
126.9420114999999
 20
9.69999999999999
 30
0.0
 11
126.9420114999999
 21
6.99999999999999
 31
0.0
  0
LINE
  5
D7
330
1E
100
AcDbEntity
  8
0
100
AcDbLine
 10
126.9420114999999
 20
9.69999999999999
 30
0.0
 11
127.5540115
 21
9.69999999999999
 31
0.0
  0
LINE
  5
D9
330
1E
100
AcDbEntity
  8
0
100
AcDbLine
 10
154.4420115
 20
42.9533204087859
 30
0.0
 11
154.4420115
 21
208.0
 31
0.0
  0
LINE
  5
DA
330
1E
100
AcDbEntity
  8
0
100
AcDbLine
 10
133.4420115
 20
48.87527871971929
 30
0.0
 11
133.4420115
 21
208.0
 31
0.0
  0
LINE
  5
DB
330
1E
100
AcDbEntity
  8
0
100
AcDbLine
 10
130.2450115
 20
224.0729999999999
 30
0.0
 11
132.0110115
 21
218.87
 31
0.0
  0
LINE
  5
DC
330
1E
100
AcDbEntity
  8
0
100
AcDbLine
 10
127.8150115
 20
229.0
 30
0.0
 11
130.2450115
 21
224.0729999999999
 31
0.0
  0
LINE
  5
DD
330
1E
100
AcDbEntity
  8
0
100
AcDbLine
 10
132.0110115
 20
218.87
 30
0.0
 11
133.0830114999999
 21
213.4819999999999
 31
0.0
  0
LINE
  5
DE
330
1E
100
AcDbEntity
  8
0
100
AcDbLine
 10
133.0830114999999
 20
213.4819999999999
 30
0.0
 11
133.4420115
 21
208.0
 31
0.0
  0
LINE
  5
DF
330
1E
100
AcDbEntity
  8
0
100
AcDbLine
 10
124.7630114999999
 20
233.5679999999999
 30
0.0
 11
127.8150115
 21
229.0
 31
0.0
  0
LINE
  5
E0
330
1E
100
AcDbEntity
  8
0
100
AcDbLine
 10
122.9420114999999
 20
262.5599999999999
 30
0.0
 11
129.7940115
 21
257.981
 31
0.0
  0
LINE
  5
E1
330
1E
100
AcDbEntity
  8
0
100
AcDbLine
 10
129.7940115
 20
257.981
 30
0.0
 11
135.9900115
 21
252.5479999999999
 31
0.0
  0
LINE
  5
E2
330
1E
100
AcDbEntity
  8
0
100
AcDbLine
 10
121.1400114999999
 20
237.6979999999999
 30
0.0
 11
124.7630114999999
 21
233.5679999999999
 31
0.0
  0
LINE
  5
E3
330
1E
100
AcDbEntity
  8
0
100
AcDbLine
 10
149.6460114999999
 20
232.109
 30
0.0
 11
152.2950114999999
 21
224.3059999999999
 31
0.0
  0
LINE
  5
E4
330
1E
100
AcDbEntity
  8
0
100
AcDbLine
 10
146.0020115
 20
239.5
 30
0.0
 11
149.6460114999999
 21
232.109
 31
0.0
  0
LINE
  5
E5
330
1E
100
AcDbEntity
  8
0
100
AcDbLine
 10
152.2950114999999
 20
224.3059999999999
 30
0.0
 11
153.9030114999999
 21
216.223
 31
0.0
  0
LINE
  5
E6
330
1E
100
AcDbEntity
  8
0
100
AcDbLine
 10
153.9030114999999
 20
216.223
 30
0.0
 11
154.4420115
 21
208.0
 31
0.0
  0
LINE
  5
E7
330
1E
100
AcDbEntity
  8
0
100
AcDbLine
 10
141.4230115
 20
246.3519999999999
 30
0.0
 11
146.0020115
 21
239.5
 31
0.0
  0
LINE
  5
E8
330
1E
100
AcDbEntity
  8
0
100
AcDbLine
 10
135.9900115
 20
252.5479999999999
 30
0.0
 11
141.4230115
 21
246.3519999999999
 31
0.0
  0
LINE
  5
E9
330
1E
100
AcDbEntity
  8
0
100
AcDbLine
 10
133.4420115
 20
48.87527871971929
 30
0.0
 11
133.4420115
 21
208.0
 31
0.0
  0
LINE
  5
EA
330
1E
100
AcDbEntity
  8
0
100
AcDbLine
 10
155.6380115
 20
9.999999999999991
 30
0.0
 11
158.2900114999999
 21
9.999999999999991
 31
0.0
  0
LINE
  5
EB
330
1E
100
AcDbEntity
  8
0
100
AcDbLine
 10
158.2900114999999
 20
9.999999999999991
 30
0.0
 11
159.9220115
 21
9.999999999999991
 31
0.0
  0
LINE
  5
EC
330
1E
100
AcDbEntity
  8
0
100
AcDbLine
 10
155.9780115
 20
9.69999999999999
 30
0.0
 11
158.6980115
 21
9.69999999999999
 31
0.0
  0
LINE
  5
ED
330
1E
100
AcDbEntity
  8
0
100
AcDbLine
 10
158.6980115
 20
9.69999999999999
 30
0.0
 11
160.3300115
 21
9.69999999999999
 31
0.0
  0
LINE
  5
EE
330
1E
100
AcDbEntity
  8
0
100
AcDbLine
 10
156.0960115
 20
16.4536
 30
0.0
 11
158.5160114999999
 21
17.5217
 31
0.0
  0
LINE
  5
EF
330
1E
100
AcDbEntity
  8
0
100
AcDbLine
 10
158.5160114999999
 20
17.5217
 30
0.0
 11
160.5080114999999
 21
18.6254
 31
0.0
  0
LINE
  5
F0
330
1E
100
AcDbEntity
  8
0
100
AcDbLine
 10
159.512011499999
 20
18.0735499999994
 30
0.0
 11
160.3300115
 21
18.5186
 31
0.0
  0
LINE
  5
F1
330
1E
100
AcDbEntity
  8
0
100
AcDbLine
 10
159.5980115
 20
13.819
 30
0.0
 11
159.9320114999999
 21
11.0112
 31
0.0
  0
LINE
  5
F2
330
1E
100
AcDbEntity
  8
0
100
AcDbLine
 10
158.4095853627929
 20
17.4747273730781
 30
0.0
 11
159.5980115
 21
13.819
 31
0.0
  0
LINE
  5
F3
330
1E
100
AcDbEntity
  8
0
100
AcDbLine
 10
159.7153909046939
 20
12.8322398428139
 30
0.0
 11
162.2280115
 21
22.22539999999999
 31
0.0
  0
LINE
  5
F4
330
1E
100
AcDbEntity
  8
0
100
AcDbLine
 10
160.9420114999999
 20
6.99999999999999
 30
0.0
 11
160.9420114999999
 21
9.69999999999999
 31
0.0
  0
LINE
  5
F5
330
1E
100
AcDbEntity
  8
0
100
AcDbLine
 10
159.9320114999999
 20
9.999999999999991
 30
0.0
 11
159.9320114999999
 21
11.0112
 31
0.0
  0
LINE
  5
F6
330
1E
100
AcDbEntity
  8
0
100
AcDbLine
 10
159.9220115
 20
9.999999999999991
 30
0.0
 11
160.5340114999999
 21
9.999999999999991
 31
0.0
  0
LINE
  5
F7
330
1E
100
AcDbEntity
  8
0
100
AcDbLine
 10
160.3300115
 20
9.69999999999999
 30
0.0
 11
160.9420114999999
 21
9.69999999999999
 31
0.0
  0
LINE
  5
F8
330
1E
100
AcDbEntity
  8
0
100
AcDbLine
 10
159.9320114999999
 20
11.0112
 30
0.0
 11
159.9320114999999
 21
9.999999999999991
 31
0.0
  0
LINE
  5
F9
330
1E
100
AcDbEntity
  8
0
100
AcDbLine
 10
160.5080114999999
 20
18.6254
 30
0.0
 11
160.9330114999999
 21
18.80679999999999
 31
0.0
  0
LINE
  5
FA
330
1E
100
AcDbEntity
  8
0
100
AcDbLine
 10
160.9330114999999
 20
18.80679999999999
 30
0.0
 11
160.9420114999999
 21
40.4388
 31
0.0
  0
LINE
  5
FB
330
1E
100
AcDbEntity
  8
0
100
AcDbLine
 10
160.3300115
 20
18.5186
 30
0.0
 11
160.9330114999999
 21
18.80679999999999
 31
0.0
  0
LINE
  5
FC
330
1E
100
AcDbEntity
  8
0
100
AcDbLine
 10
160.5340114999999
 20
9.999999999999991
 30
0.0
 11
160.9420114999999
 21
9.69999999999999
 31
0.0
  0
LINE
  5
FD
330
1E
100
AcDbEntity
  8
0
100
AcDbLine
 10
160.9420114999999
 20
9.69999999999999
 30
0.0
 11
160.9420114999999
 21
6.99999999999999
 31
0.0
  0
LINE
  5
FE
330
1E
100
AcDbEntity
  8
0
100
AcDbLine
 10
162.296272080665
 20
6.99999999999999
 30
0.0
 11
166.0920115
 21
21.1902
 31
0.0
  0
LINE
  5
FF
330
1E
100
AcDbEntity
  8
0
100
AcDbLine
 10
159.7153909046939
 20
12.8322398428139
 30
0.0
 11
162.2280115
 21
22.22539999999999
 31
0.0
  0
LINE
  5
100
330
1E
100
AcDbEntity
  8
0
100
AcDbLine
 10
162.296272080665
 20
6.99999999999999
 30
0.0
 11
166.0920115
 21
21.1902
 31
0.0
  0
LINE
  5
101
330
1E
100
AcDbEntity
  8
0
100
AcDbLine
 10
166.1910114999999
 20
21.4313
 30
0.0
 11
166.3510115
 21
21.6385
 31
0.0
  0
LINE
  5
102
330
1E
100
AcDbEntity
  8
0
100
AcDbLine
 10
166.0920115
 20
21.1902
 30
0.0
 11
166.1910114999999
 21
21.4313
 31
0.0
  0
LINE
  5
103
330
1E
100
AcDbEntity
  8
0
100
AcDbLine
 10
166.5580115
 20
21.7974
 30
0.0
 11
166.7990115
 21
21.8973
 31
0.0
  0
LINE
  5
104
330
1E
100
AcDbEntity
  8
0
100
AcDbLine
 10
166.7990115
 20
21.8973
 30
0.0
 11
167.0580114999999
 21
21.9313
 31
0.0
  0
LINE
  5
105
330
1E
100
AcDbEntity
  8
0
100
AcDbLine
 10
166.3510115
 20
21.6385
 30
0.0
 11
166.5580115
 21
21.7974
 31
0.0
  0
LINE
  5
10C
330
1E
100
AcDbEntity
  8
0
100
AcDbLine
 10
167.0580114999999
 20
21.9313
 30
0.0
 11
178.9290115
 21
21.9313
 31
0.0
  0
LINE
  5
10D
330
1E
100
AcDbEntity
  8
0
100
AcDbLine
 10
179.0570114999999
 20
22.9633
 30
0.0
 11
179.0580115
 21
22.55529999999999
 31
0.0
  0
LINE
  5
10E
330
1E
100
AcDbEntity
  8
0
100
AcDbLine
 10
179.0570114999999
 20
22.9633
 30
0.0
 11
179.0580115
 21
23.42729999999999
 31
0.0
  0
LINE
  5
10F
330
1E
100
AcDbEntity
  8
0
100
AcDbLine
 10
162.2280115
 20
22.22539999999999
 30
0.0
 11
162.7280115
 21
23.43129999999999
 31
0.0
  0
LINE
  5
110
330
1E
100
AcDbEntity
  8
0
100
AcDbLine
 10
179.0580115
 20
22.2433
 30
0.0
 11
179.0580115
 21
22.55529999999999
 31
0.0
  0
LINE
  5
111
330
1E
100
AcDbEntity
  8
0
100
AcDbLine
 10
179.0580115
 20
22.2433
 30
0.0
 11
179.0580115
 21
22.0513
 31
0.0
  0
LINE
  5
112
330
1E
100
AcDbEntity
  8
0
100
AcDbLine
 10
179.0580115
 20
22.0513
 30
0.0
 11
179.0580115
 21
22.2433
 31
0.0
  0
LINE
  5
113
330
1E
100
AcDbEntity
  8
0
100
AcDbLine
 10
179.0580115
 20
22.0513
 30
0.0
 11
179.0580115
 21
21.97929999999999
 31
0.0
  0
LINE
  5
114
330
1E
100
AcDbEntity
  8
0
100
AcDbLine
 10
179.0580115
 20
21.97929999999999
 30
0.0
 11
179.0580115
 21
22.0513
 31
0.0
  0
LINE
  5
115
330
1E
100
AcDbEntity
  8
0
100
AcDbLine
 10
179.0580115
 20
22.55529999999999
 30
0.0
 11
179.0580115
 21
23.42729999999999
 31
0.0
  0
LINE
  5
116
330
1E
100
AcDbEntity
  8
0
100
AcDbLine
 10
179.0580115
 20
22.55529999999999
 30
0.0
 11
179.0580115
 21
22.9633
 31
0.0
  0
LINE
  5
117
330
1E
100
AcDbEntity
  8
0
100
AcDbLine
 10
179.0580115
 20
22.55529999999999
 30
0.0
 11
179.0580115
 21
22.2433
 31
0.0
  0
LINE
  5
118
330
1E
100
AcDbEntity
  8
0
100
AcDbLine
 10
179.0573550114499
 20
22.82314732824429
 30
0.0
 11
179.057599735294
 21
23.2362411764706
 31
0.0
  0
LINE
  5
119
330
1E
100
AcDbEntity
  8
0
100
AcDbLine
 10
162.7280115
 20
23.43129999999999
 30
0.0
 11
163.5220114999999
 21
24.4669
 31
0.0
  0
LINE
  5
11A
330
1E
100
AcDbEntity
  8
0
100
AcDbLine
 10
164.5580115
 20
25.2615
 30
0.0
 11
165.7640115
 21
25.761
 31
0.0
  0
LINE
  5
11B
330
1E
100
AcDbEntity
  8
0
100
AcDbLine
 10
165.7640115
 20
25.761
 30
0.0
 11
167.0580114999999
 21
25.9313
 31
0.0
  0
LINE
  5
11C
330
1E
100
AcDbEntity
  8
0
100
AcDbLine
 10
163.5220114999999
 20
24.4669
 30
0.0
 11
164.5580115
 21
25.2615
 31
0.0
  0
LINE
  5
11D
330
1E
100
AcDbEntity
  8
0
100
AcDbLine
 10
179.0570114999999
 20
24.8993
 30
0.0
 11
179.0580115
 21
25.3073
 31
0.0
  0
LINE
  5
11E
330
1E
100
AcDbEntity
  8
0
100
AcDbLine
 10
179.0570114999999
 20
24.8993
 30
0.0
 11
179.0580115
 21
24.4353
 31
0.0
  0
LINE
  5
11F
330
1E
100
AcDbEntity
  8
0
100
AcDbLine
 10
179.0573550114499
 20
25.0394526717557
 30
0.0
 11
179.057599735294
 21
24.62635882352939
 31
0.0
  0
LINE
  5
120
330
1E
100
AcDbEntity
  8
0
100
AcDbLine
 10
179.0580115
 20
23.9313
 30
0.0
 11
179.0580115
 21
23.42729999999999
 31
0.0
  0
LINE
  5
121
330
1E
100
AcDbEntity
  8
0
100
AcDbLine
 10
179.0580115
 20
23.9313
 30
0.0
 11
179.0580115
 21
24.4353
 31
0.0
  0
LINE
  5
122
330
1E
100
AcDbEntity
  8
0
100
AcDbLine
 10
179.0580115
 20
24.8993
 30
0.0
 11
179.0580115
 21
25.3073
 31
0.0
  0
LINE
  5
123
330
1E
100
AcDbEntity
  8
0
100
AcDbLine
 10
179.0580115
 20
24.4353
 30
0.0
 11
179.0580115
 21
25.3073
 31
0.0
  0
LINE
  5
124
330
1E
100
AcDbEntity
  8
0
100
AcDbLine
 10
179.0580115
 20
24.4353
 30
0.0
 11
179.0580115
 21
23.9313
 31
0.0
  0
LINE
  5
125
330
1E
100
AcDbEntity
  8
0
100
AcDbLine
 10
179.0575115
 20
24.6673
 30
0.0
 11
179.0580115
 21
24.8993
 31
0.0
  0
LINE
  5
126
330
1E
100
AcDbEntity
  8
0
100
AcDbLine
 10
179.0580115
 20
25.8833
 30
0.0
 11
179.0580115
 21
25.81129999999999
 31
0.0
  0
LINE
  5
127
330
1E
100
AcDbEntity
  8
0
100
AcDbLine
 10
179.0580115
 20
25.6193
 30
0.0
 11
179.0580115
 21
25.81129999999999
 31
0.0
  0
LINE
  5
128
330
1E
100
AcDbEntity
  8
0
100
AcDbLine
 10
179.0580115
 20
25.6193
 30
0.0
 11
179.0580115
 21
25.3073
 31
0.0
  0
LINE
  5
129
330
1E
100
AcDbEntity
  8
0
100
AcDbLine
 10
179.0580115
 20
25.81129999999999
 30
0.0
 11
179.0580115
 21
25.8833
 31
0.0
  0
LINE
  5
12A
330
1E
100
AcDbEntity
  8
0
100
AcDbLine
 10
179.0580115
 20
25.81129999999999
 30
0.0
 11
179.0580115
 21
25.6193
 31
0.0
  0
LINE
  5
12B
330
1E
100
AcDbEntity
  8
0
100
AcDbLine
 10
179.0580115
 20
25.3073
 30
0.0
 11
179.0580115
 21
24.8993
 31
0.0
  0
LINE
  5
12C
330
1E
100
AcDbEntity
  8
0
100
AcDbLine
 10
179.0580115
 20
25.3073
 30
0.0
 11
179.0580115
 21
24.4353
 31
0.0
  0
LINE
  5
12D
330
1E
100
AcDbEntity
  8
0
100
AcDbLine
 10
179.0580115
 20
25.3073
 30
0.0
 11
179.0580115
 21
25.6193
 31
0.0
  0
LINE
  5
12E
330
1E
100
AcDbEntity
  8
0
100
AcDbLine
 10
178.9290115
 20
25.9313
 30
0.0
 11
179.0580115
 21
25.8833
 31
0.0
  0
LINE
  5
12F
330
1E
100
AcDbEntity
  8
0
100
AcDbLine
 10
65.6727115
 20
67.85989999999999
 30
0.0
 11
159.7110115
 21
41.4493
 31
0.0
  0
LINE
  5
130
330
1E
100
AcDbEntity
  8
0
100
AcDbLine
 10
159.7110115
 20
41.4493
 30
0.0
 11
160.3350115
 21
41.2711
 31
0.0
  0
LINE
  5
131
330
1E
100
AcDbEntity
  8
0
100
AcDbLine
 10
160.3350115
 20
41.2711
 30
0.0
 11
160.7340115
 21
40.89339999999999
 31
0.0
  0
LINE
  5
132
330
1E
100
AcDbEntity
  8
0
100
AcDbLine
 10
160.7340115
 20
40.89339999999999
 30
0.0
 11
160.9420114999999
 21
40.4388
 31
0.0
  0
LINE
  5
133
330
1E
100
AcDbEntity
  8
0
100
AcDbLine
 10
167.0580114999999
 20
25.9313
 30
0.0
 11
178.9290115
 21
25.9313
 31
0.0
  0
LINE
  5
134
330
1E
100
AcDbEntity
  8
0
100
AcDbLine
 10
179.0580115
 20
23.42729999999999
 30
0.0
 11
179.0580115
 21
22.55529999999999
 31
0.0
  0
LINE
  5
135
330
1E
100
AcDbEntity
  8
0
100
AcDbLine
 10
179.0580115
 20
23.42729999999999
 30
0.0
 11
179.0580115
 21
23.9313
 31
0.0
  0
LINE
  5
136
330
1E
100
AcDbEntity
  8
0
100
AcDbLine
 10
179.0575115
 20
23.19529999999999
 30
0.0
 11
179.0580115
 21
22.9633
 31
0.0
  0
LINE
  5
137
330
1E
100
AcDbEntity
  8
0
100
AcDbLine
 10
179.0580115
 20
22.9633
 30
0.0
 11
179.0580115
 21
22.55529999999999
 31
0.0
  0
LINE
  5
138
330
1E
100
AcDbEntity
  8
0
100
AcDbLine
 10
178.9290115
 20
21.9313
 30
0.0
 11
179.0580115
 21
21.97929999999999
 31
0.0
  0
LINE
  5
139
330
1E
100
AcDbEntity
  8
0
100
AcDbLine
 10
154.4420115
 20
42.95332040878579
 30
0.0
 11
154.4420115
 21
208.0
 31
0.0
  0
LINE
  5
13A
330
1E
100
AcDbEntity
  8
0
100
AcDbLine
 10
168.4420114999999
 20
-0.0000000000000103
 30
0.0
 11
169.9420115
 21
-0.0000000000000104
 31
0.0
  0
LINE
  5
13B
330
1E
100
AcDbEntity
  8
0
100
AcDbLine
 10
119.4420114999999
 20
-0.0000000000000073
 30
0.0
 11
143.9420115
 21
-0.0000000000000088
 31
0.0
  0
LINE
  5
146
330
1E
100
AcDbEntity
  8
0
100
AcDbLine
 10
113.4420114999999
 20
5.99999999999999
 30
0.0
 11
113.7420115
 21
6.69999999999999
 31
0.0
  0
LINE
  5
147
330
1E
100
AcDbEntity
  8
0
100
AcDbLine
 10
114.4420114999999
 20
6.99999999999999
 30
0.0
 11
173.5579885
 21
6.99999999999999
 31
0.0
  0
LINE
  5
148
330
1E
100
AcDbEntity
  8
0
100
AcDbLine
 10
174.2579885
 20
6.69999999999999
 30
0.0
 11
173.5579885
 21
6.99999999999999
 31
0.0
  0
LINE
  5
149
330
1E
100
AcDbEntity
  8
0
100
AcDbLine
 10
174.5579885
 20
-0.0000000000000069
 30
0.0
 11
174.5579885
 21
5.99999999999999
 31
0.0
  0
LINE
  5
14A
330
1E
100
AcDbEntity
  8
0
100
AcDbLine
 10
174.5579885
 20
5.99999999999999
 30
0.0
 11
174.5579885
 21
-0.0000000000000066
 31
0.0
  0
LINE
  5
14B
330
1E
100
AcDbEntity
  8
0
100
AcDbLine
 10
174.5579885
 20
5.99999999999999
 30
0.0
 11
174.2579885
 21
6.69999999999999
 31
0.0
  0
ENDSEC
  0
SECTION
  2
OBJECTS
  0
DICTIONARY
  5
C
330
0
100
AcDbDictionary
281
     1
  3
ACAD_GROUP
350
D
  3
ACAD_LAYOUT
350
19
  3
ACAD_MLINESTYLE
350
16
  3
ACAD_PLOTSETTINGS
350
18
  3
ACAD_PLOTSTYLENAME
350
E
  3
AcDbVariableDictionary
350
141
  0
DICTIONARY
  5
D
102
{ACAD_REACTORS
330
C
102
}
330
C
100
AcDbDictionary
281
     1
  0
DICTIONARY
  5
19
102
{ACAD_REACTORS
330
C
102
}
330
C
100
AcDbDictionary
281
     1
  3
Layout1
350
1D
  3
Model
350
21
  0
DICTIONARY
  5
16
102
{ACAD_REACTORS
330
C
102
}
330
C
100
AcDbDictionary
281
     1
  3
Standard
350
17
  0
DICTIONARY
  5
18
102
{ACAD_REACTORS
330
C
102
}
330
C
100
AcDbDictionary
281
     1
  0
ACDBDICTIONARYWDFLT
  5
E
102
{ACAD_REACTORS
330
C
102
}
330
C
100
AcDbDictionary
281
     1
  3
Normal
350
F
100
AcDbDictionaryWithDefault
340
F
  0
DICTIONARY
  5
141
102
{ACAD_REACTORS
330
C
102
}
330
C
100
AcDbDictionary
281
     1
  3
DIMASSOC
350
142
  0
LAYOUT
  5
1D
102
{ACAD_REACTORS
330
19
102
}
330
19
100
AcDbPlotSettings
  1

  2
C:\Programme\AutoCAD LT 2002 Deu2\plotters\DWF ePlot (optimized for plotting).pc3
  4

  6

 40
0.0
 41
0.0
 42
0.0
 43
0.0
 44
0.0
 45
0.0
 46
0.0
 47
0.0
 48
0.0
 49
0.0
140
0.0
141
0.0
142
1.0
143
1.0
 70
   688
 72
     0
 73
     0
 74
     5
  7

 75
    16
147
1.0
148
0.0
149
0.0
100
AcDbLayout
  1
Layout1
 70
     1
 71
     1
 10
0.0
 20
0.0
 11
12.0
 21
9.0
 12
0.0
 22
0.0
 32
0.0
 14
1.000000000000000E+20
 24
1.000000000000000E+20
 34
1.000000000000000E+20
 15
-1.000000000000000E+20
 25
-1.000000000000000E+20
 35
-1.000000000000000E+20
146
0.0
 13
0.0
 23
0.0
 33
0.0
 16
1.0
 26
0.0
 36
0.0
 17
0.0
 27
1.0
 37
0.0
 76
     0
330
1A
  0
LAYOUT
  5
21
102
{ACAD_REACTORS
330
19
102
}
330
19
100
AcDbPlotSettings
  1

  2
C:\Programme\AutoCAD LT 2002 Deu2\plotters\DWF ePlot (optimized for plotting).pc3
  4

  6

 40
0.0
 41
0.0
 42
0.0
 43
0.0
 44
0.0
 45
0.0
 46
0.0
 47
0.0
 48
0.0
 49
0.0
140
0.0
141
0.0
142
1.0
143
1.0
 70
  1712
 72
     0
 73
     0
 74
     0
  7

 75
     0
147
1.0
148
0.0
149
0.0
100
AcDbLayout
  1
Model
 70
     1
 71
     0
 10
0.0
 20
0.0
 11
12.0
 21
9.0
 12
0.0
 22
0.0
 32
0.0
 14
0.0
 24
0.0
 34
0.0
 15
0.0
 25
0.0
 35
0.0
146
0.0
 13
0.0
 23
0.0
 33
0.0
 16
1.0
 26
0.0
 36
0.0
 17
0.0
 27
1.0
 37
0.0
 76
     0
330
1E
  0
MLINESTYLE
  5
17
102
{ACAD_REACTORS
330
16
102
}
330
16
100
AcDbMlineStyle
  2
STANDARD
 70
     0
  3

 62
   256
 51
90.0
 52
90.0
 71
     2
 49
0.5
 62
   256
  6
BYLAYER
 49
-0.5
 62
   256
  6
BYLAYER
  0
ACDBPLACEHOLDER
  5
F
102
{ACAD_REACTORS
330
E
102
}
330
E
  0
DICTIONARYVAR
  5
142
102
{ACAD_REACTORS
330
141
102
}
330
141
100
DictionaryVariables
280
     0
  1
1
  0
ENDSEC
  0
EOF
