  0
SECTION
  2
HEADER
  9
$ACADVER
  1
AC1015
  9
$ACADMAINTVER
 70
     6
  9
$DWGCODEPAGE
  3
ANSI_1252
  9
$INSBASE
 10
0.0
 20
0.0
 30
0.0
  9
$EXTMIN
 10
0.0824
 20
-0.14
 30
0.0
  9
$EXTMAX
 10
437.0824
 20
184.2
 30
0.0
  9
$LIMMIN
 10
0.0
 20
0.0
  9
$LIMMAX
 10
12.0
 20
9.0
  9
$ORTHOMODE
 70
     0
  9
$REGENMODE
 70
     1
  9
$FILLMODE
 70
     1
  9
$QTEXTMODE
 70
     0
  9
$MIRRTEXT
 70
     1
  9
$LTSCALE
 40
1.0
  9
$ATTMODE
 70
     1
  9
$TEXTSIZE
 40
0.2
  9
$TRACEWID
 40
0.05
  9
$TEXTSTYLE
  7
Standard
  9
$CLAYER
  8
0
  9
$CELTYPE
  6
ByBlock
  9
$CECOLOR
 62
   256
  9
$CELTSCALE
 40
1.0
  9
$DISPSILH
 70
     0
  9
$DIMSCALE
 40
1.0
  9
$DIMASZ
 40
0.18
  9
$DIMEXO
 40
0.0625
  9
$DIMDLI
 40
0.38
  9
$DIMRND
 40
0.0
  9
$DIMDLE
 40
0.0
  9
$DIMEXE
 40
0.18
  9
$DIMTP
 40
0.0
  9
$DIMTM
 40
0.0
  9
$DIMTXT
 40
0.18
  9
$DIMCEN
 40
0.09
  9
$DIMTSZ
 40
0.0
  9
$DIMTOL
 70
     0
  9
$DIMLIM
 70
     0
  9
$DIMTIH
 70
     1
  9
$DIMTOH
 70
     1
  9
$DIMSE1
 70
     0
  9
$DIMSE2
 70
     0
  9
$DIMTAD
 70
     0
  9
$DIMZIN
 70
     0
  9
$DIMBLK
  1

  9
$DIMASO
 70
     1
  9
$DIMSHO
 70
     1
  9
$DIMPOST
  1

  9
$DIMAPOST
  1

  9
$DIMALT
 70
     0
  9
$DIMALTD
 70
     2
  9
$DIMALTF
 40
25.4
  9
$DIMLFAC
 40
1.0
  9
$DIMTOFL
 70
     0
  9
$DIMTVP
 40
0.0
  9
$DIMTIX
 70
     0
  9
$DIMSOXD
 70
     0
  9
$DIMSAH
 70
     0
  9
$DIMBLK1
  1

  9
$DIMBLK2
  1

  9
$DIMSTYLE
  2
Standard
  9
$DIMCLRD
 70
     0
  9
$DIMCLRE
 70
     0
  9
$DIMCLRT
 70
     0
  9
$DIMTFAC
 40
1.0
  9
$DIMGAP
 40
0.09
  9
$DIMJUST
 70
     0
  9
$DIMSD1
 70
     0
  9
$DIMSD2
 70
     0
  9
$DIMTOLJ
 70
     1
  9
$DIMTZIN
 70
     0
  9
$DIMALTZ
 70
     0
  9
$DIMALTTZ
 70
     0
  9
$DIMUPT
 70
     0
  9
$DIMDEC
 70
     4
  9
$DIMTDEC
 70
     4
  9
$DIMALTU
 70
     2
  9
$DIMALTTD
 70
     2
  9
$DIMTXSTY
  7
Standard
  9
$DIMAUNIT
 70
     0
  9
$DIMADEC
 70
     0
  9
$DIMALTRND
 40
0.0
  9
$DIMAZIN
 70
     0
  9
$DIMDSEP
 70
    46
  9
$DIMATFIT
 70
     3
  9
$DIMFRAC
 70
     0
  9
$DIMLDRBLK
  1

  9
$DIMLUNIT
 70
     2
  9
$DIMLWD
 70
    -2
  9
$DIMLWE
 70
    -2
  9
$DIMTMOVE
 70
     2
  9
$LUNITS
 70
     2
  9
$LUPREC
 70
     4
  9
$SKETCHINC
 40
0.1
  9
$FILLETRAD
 40
0.5
  9
$AUNITS
 70
     0
  9
$AUPREC
 70
     0
  9
$MENU
  1
.
  9
$ELEVATION
 40
0.0
  9
$PELEVATION
 40
0.0
  9
$THICKNESS
 40
0.0
  9
$LIMCHECK
 70
     0
  9
$CHAMFERA
 40
0.5
  9
$CHAMFERB
 40
0.5
  9
$CHAMFERC
 40
1.0
  9
$CHAMFERD
 40
0.0
  9
$SKPOLY
 70
     0
  9
$TDCREATE
 40
2455872.560420637
  9
$TDUCREATE
 40
2455872.51875397
  9
$TDUPDATE
 40
2455872.564163773
  9
$TDUUPDATE
 40
2455872.522497106
  9
$TDINDWG
 40
0.0037426042
  9
$TDUSRTIMER
 40
0.0037426042
  9
$USRTIMER
 70
     1
  9
$ANGBASE
 50
0.0
  9
$ANGDIR
 70
     0
  9
$PDMODE
 70
     0
  9
$PDSIZE
 40
0.0
  9
$PLINEWID
 40
0.0
  9
$SPLFRAME
 70
     0
  9
$SPLINETYPE
 70
     6
  9
$SPLINESEGS
 70
     8
  9
$HANDSEED
  5
1799
  9
$SURFTAB1
 70
     6
  9
$SURFTAB2
 70
     6
  9
$SURFTYPE
 70
     6
  9
$SURFU
 70
     6
  9
$SURFV
 70
     6
  9
$UCSBASE
  2

  9
$UCSNAME
  2

  9
$UCSORG
 10
0.0
 20
0.0
 30
0.0
  9
$UCSXDIR
 10
1.0
 20
0.0
 30
0.0
  9
$UCSYDIR
 10
0.0
 20
1.0
 30
0.0
  9
$UCSORTHOREF
  2

  9
$UCSORTHOVIEW
 70
     0
  9
$UCSORGTOP
 10
0.0
 20
0.0
 30
0.0
  9
$UCSORGBOTTOM
 10
0.0
 20
0.0
 30
0.0
  9
$UCSORGLEFT
 10
0.0
 20
0.0
 30
0.0
  9
$UCSORGRIGHT
 10
0.0
 20
0.0
 30
0.0
  9
$UCSORGFRONT
 10
0.0
 20
0.0
 30
0.0
  9
$UCSORGBACK
 10
0.0
 20
0.0
 30
0.0
  9
$PUCSBASE
  2

  9
$PUCSNAME
  2

  9
$PUCSORG
 10
0.0
 20
0.0
 30
0.0
  9
$PUCSXDIR
 10
1.0
 20
0.0
 30
0.0
  9
$PUCSYDIR
 10
0.0
 20
1.0
 30
0.0
  9
$PUCSORTHOREF
  2

  9
$PUCSORTHOVIEW
 70
     0
  9
$PUCSORGTOP
 10
0.0
 20
0.0
 30
0.0
  9
$PUCSORGBOTTOM
 10
0.0
 20
0.0
 30
0.0
  9
$PUCSORGLEFT
 10
0.0
 20
0.0
 30
0.0
  9
$PUCSORGRIGHT
 10
0.0
 20
0.0
 30
0.0
  9
$PUCSORGFRONT
 10
0.0
 20
0.0
 30
0.0
  9
$PUCSORGBACK
 10
0.0
 20
0.0
 30
0.0
  9
$USERI1
 70
     0
  9
$USERI2
 70
     0
  9
$USERI3
 70
     0
  9
$USERI4
 70
     0
  9
$USERI5
 70
     0
  9
$USERR1
 40
0.0
  9
$USERR2
 40
0.0
  9
$USERR3
 40
0.0
  9
$USERR4
 40
0.0
  9
$USERR5
 40
0.0
  9
$WORLDVIEW
 70
     1
  9
$SHADEDGE
 70
     3
  9
$SHADEDIF
 70
    70
  9
$TILEMODE
 70
     1
  9
$MAXACTVP
 70
    64
  9
$PINSBASE
 10
0.0
 20
0.0
 30
0.0
  9
$PLIMCHECK
 70
     0
  9
$PEXTMIN
 10
1.000000000000E+20
 20
1.000000000000E+20
 30
1.000000000000E+20
  9
$PEXTMAX
 10
-1.000000000000E+20
 20
-1.000000000000E+20
 30
-1.000000000000E+20
  9
$PLIMMIN
 10
0.0
 20
0.0
  9
$PLIMMAX
 10
12.0
 20
9.0
  9
$UNITMODE
 70
     0
  9
$VISRETAIN
 70
     1
  9
$PLINEGEN
 70
     0
  9
$PSLTSCALE
 70
     1
  9
$TREEDEPTH
 70
  3020
  9
$CMLSTYLE
  2
Standard
  9
$CMLJUST
 70
     0
  9
$CMLSCALE
 40
1.0
  9
$PROXYGRAPHICS
 70
     1
  9
$MEASUREMENT
 70
     0
  9
$CELWEIGHT
370
    -1
  9
$ENDCAPS
280
     0
  9
$JOINSTYLE
280
     0
  9
$LWDISPLAY
290
     0
  9
$INSUNITS
 70
     0
  9
$HYPERLINKBASE
  1

  9
$STYLESHEET
  1

  9
$XEDIT
290
     1
  9
$CEPSNTYPE
380
     0
  9
$PSTYLEMODE
290
     1
  9
$FINGERPRINTGUID
  2
{9A00EEAF-08D9-45C8-9B8F-7B9A992F375D}
  9
$VERSIONGUID
  2
{FAEB1C32-E019-11D5-929B-00C0DF256EC4}
  9
$EXTNAMES
290
     1
  9
$PSVPSCALE
 40
0.0
  9
$OLESTARTUP
290
     0
  0
ENDSEC
  0
SECTION
  2
CLASSES
  0
CLASS
  1
ACDBDICTIONARYWDFLT
  2
AcDbDictionaryWithDefault
  3
ObjectDBX Classes
 90
        0
280
     0
281
     0
  0
CLASS
  1
SCALE
  2
AcDbScale
  3
ObjectDBX Classes
 90
     1153
280
     0
281
     0
  0
CLASS
  1
DICTIONARYVAR
  2
AcDbDictionaryVar
  3
ObjectDBX Classes
 90
        0
280
     0
281
     0
  0
CLASS
  1
ACDBPLACEHOLDER
  2
AcDbPlaceHolder
  3
ObjectDBX Classes
 90
        0
280
     0
281
     0
  0
CLASS
  1
LAYOUT
  2
AcDbLayout
  3
ObjectDBX Classes
 90
        0
280
     0
281
     0
  0
ENDSEC
  0
SECTION
  2
TABLES
  0
TABLE
  2
VPORT
  5
8
330
0
100
AcDbSymbolTable
 70
     1
  0
VPORT
  5
71E
330
8
100
AcDbSymbolTableRecord
100
AcDbViewportTableRecord
  2
*Active
 70
     0
 10
0.0
 20
0.0
 11
1.0
 21
1.0
 12
218.5412
 22
92.03
 13
0.0
 23
0.0
 14
0.5
 24
0.5
 15
0.5
 25
0.5
 16
0.0
 26
0.0
 36
1.0
 17
0.0
 27
0.0
 37
0.0
 40
196.249201457195
 41
2.271724137931
 42
50.0
 43
0.0
 44
0.0
 50
0.0
 51
0.0
 71
    16
 72
   100
 73
     1
 74
     3
 75
     0
 76
     0
 77
     0
 78
     0
281
     0
 65
     1
110
0.0
120
0.0
130
0.0
111
1.0
121
0.0
131
0.0
112
0.0
122
1.0
132
0.0
 79
     0
146
0.0
  0
ENDTAB
  0
TABLE
  2
LTYPE
  5
5
330
0
100
AcDbSymbolTable
 70
     1
  0
LTYPE
  5
14
330
5
100
AcDbSymbolTableRecord
100
AcDbLinetypeTableRecord
  2
ByBlock
 70
     0
  3

 72
    65
 73
     0
 40
0.0
  0
LTYPE
  5
15
330
5
100
AcDbSymbolTableRecord
100
AcDbLinetypeTableRecord
  2
ByLayer
 70
     0
  3

 72
    65
 73
     0
 40
0.0
  0
LTYPE
  5
16
330
5
100
AcDbSymbolTableRecord
100
AcDbLinetypeTableRecord
  2
Continuous
 70
     0
  3
Solid line
 72
    65
 73
     0
 40
0.0
  0
ENDTAB
  0
TABLE
  2
LAYER
  5
2
330
0
100
AcDbSymbolTable
 70
     1
  0
LAYER
  5
10
330
2
100
AcDbSymbolTableRecord
100
AcDbLayerTableRecord
  2
0
 70
     0
 62
     7
  6
Continuous
370
    -3
390
F
  0
ENDTAB
  0
TABLE
  2
STYLE
  5
3
330
0
100
AcDbSymbolTable
 70
     1
  0
STYLE
  5
11
330
3
100
AcDbSymbolTableRecord
100
AcDbTextStyleTableRecord
  2
Standard
 70
     0
 40
0.0
 41
1.0
 50
0.0
 71
     0
 42
0.2
  3
txt
  4

  0
ENDTAB
  0
TABLE
  2
VIEW
  5
6
330
0
100
AcDbSymbolTable
 70
     0
  0
ENDTAB
  0
TABLE
  2
UCS
  5
7
330
0
100
AcDbSymbolTable
 70
     0
  0
ENDTAB
  0
TABLE
  2
APPID
  5
9
330
0
100
AcDbSymbolTable
 70
     1
  0
APPID
  5
12
330
9
100
AcDbSymbolTableRecord
100
AcDbRegAppTableRecord
  2
ACAD
 70
     0
  0
ENDTAB
  0
TABLE
  2
DIMSTYLE
  5
A
330
0
100
AcDbSymbolTable
 70
     1
100
AcDbDimStyleTable
  0
DIMSTYLE
105
20
330
A
100
AcDbSymbolTableRecord
100
AcDbDimStyleTableRecord
  2
Standard
 70
     0
340
11
  0
ENDTAB
  0
TABLE
  2
BLOCK_RECORD
  5
1
330
0
100
AcDbSymbolTable
 70
     2
  0
BLOCK_RECORD
  5
1D
330
1
100
AcDbSymbolTableRecord
100
AcDbBlockTableRecord
  2
*Model_Space
340
1E
  0
BLOCK_RECORD
  5
1B
330
1
100
AcDbSymbolTableRecord
100
AcDbBlockTableRecord
  2
*Paper_Space
340
1C
  0
ENDTAB
  0
ENDSEC
  0
SECTION
  2
BLOCKS
  0
BLOCK
  5
721
330
1D
100
AcDbEntity
  8
0
100
AcDbBlockBegin
  2
*Model_Space
 70
     0
 10
0.0
 20
0.0
 30
0.0
  3
*Model_Space
  1
*Model_Space
  0
ENDBLK
  5
722
330
1D
100
AcDbEntity
  8
0
100
AcDbBlockEnd
  0
BLOCK
  5
71F
330
1B
100
AcDbEntity
 67
     1
  8
0
100
AcDbBlockBegin
  2
*Paper_Space
 70
     0
 10
0.0
 20
0.0
 30
0.0
  3
*Paper_Space
  1
*Paper_Space
  0
ENDBLK
  5
720
330
1B
100
AcDbEntity
 67
     1
  8
0
100
AcDbBlockEnd
  0
ENDSEC
  0
SECTION
  2
ENTITIES
  0
LINE
  5
21
330
1D
100
AcDbEntity
  8
0
100
AcDbLine
 10
10.0
 20
-0.14
 30
0.0
 11
10.0824
 21
-0.14
 31
0.0
  0
LINE
  5
22
330
1D
100
AcDbEntity
  8
0
100
AcDbLine
 10
11.2765
 20
-0.14
 30
0.0
 11
11.8118
 21
-0.14
 31
0.0
  0
LINE
  5
23
330
1D
100
AcDbEntity
  8
0
100
AcDbLine
 10
10.8235
 20
-0.14
 30
0.0
 11
11.2765
 21
-0.14
 31
0.0
  0
LINE
  5
24
330
1D
100
AcDbEntity
  8
0
100
AcDbLine
 10
10.4941
 20
-0.14
 30
0.0
 11
10.8235
 21
-0.14
 31
0.0
  0
LINE
  5
25
330
1D
100
AcDbEntity
  8
0
100
AcDbLine
 10
10.2059
 20
-0.14
 30
0.0
 11
10.4941
 21
-0.14
 31
0.0
  0
LINE
  5
26
330
1D
100
AcDbEntity
  8
0
100
AcDbLine
 10
10.0824
 20
-0.14
 30
0.0
 11
10.2059
 21
-0.14
 31
0.0
  0
LINE
  5
27
330
1D
100
AcDbEntity
  8
0
100
AcDbLine
 10
11.8118
 20
-0.14
 30
0.0
 11
12.4294
 21
-0.14
 31
0.0
  0
LINE
  5
28
330
1D
100
AcDbEntity
  8
0
100
AcDbLine
 10
11.2765
 20
-0.14
 30
0.0
 11
11.8118
 21
-0.14
 31
0.0
  0
LINE
  5
29
330
1D
100
AcDbEntity
  8
0
100
AcDbLine
 10
10.8235
 20
-0.14
 30
0.0
 11
11.2765
 21
-0.14
 31
0.0
  0
LINE
  5
2A
330
1D
100
AcDbEntity
  8
0
100
AcDbLine
 10
10.4941
 20
-0.14
 30
0.0
 11
10.8235
 21
-0.14
 31
0.0
  0
LINE
  5
2B
330
1D
100
AcDbEntity
  8
0
100
AcDbLine
 10
10.2059
 20
-0.14
 30
0.0
 11
10.4941
 21
-0.14
 31
0.0
  0
LINE
  5
2C
330
1D
100
AcDbEntity
  8
0
100
AcDbLine
 10
10.0824
 20
-0.14
 30
0.0
 11
10.2059
 21
-0.14
 31
0.0
  0
LINE
  5
2D
330
1D
100
AcDbEntity
  8
0
100
AcDbLine
 10
10.0
 20
-0.14
 30
0.0
 11
10.0824
 21
-0.14
 31
0.0
  0
LINE
  5
2F
330
1D
100
AcDbEntity
  8
0
100
AcDbLine
 10
12.4294
 20
-0.14
 30
0.0
 11
13.0882
 21
-0.14
 31
0.0
  0
LINE
  5
30
330
1D
100
AcDbEntity
  8
0
100
AcDbLine
 10
13.0882
 20
-0.14
 30
0.0
 11
13.8294
 21
-0.14
 31
0.0
  0
LINE
  5
31
330
1D
100
AcDbEntity
  8
0
100
AcDbLine
 10
11.8118
 20
-0.14
 30
0.0
 11
12.4294
 21
-0.14
 31
0.0
  0
LINE
  5
32
330
1D
100
AcDbEntity
  8
0
100
AcDbLine
 10
12.4294
 20
-0.14
 30
0.0
 11
13.0882
 21
-0.14
 31
0.0
  0
LINE
  5
33
330
1D
100
AcDbEntity
  8
0
100
AcDbLine
 10
13.8294
 20
-0.14
 30
0.0
 11
14.5706
 21
-0.14
 31
0.0
  0
LINE
  5
34
330
1D
100
AcDbEntity
  8
0
100
AcDbLine
 10
14.5706
 20
-0.14
 30
0.0
 11
15.3529
 21
-0.14
 31
0.0
  0
LINE
  5
35
330
1D
100
AcDbEntity
  8
0
100
AcDbLine
 10
13.0882
 20
-0.14
 30
0.0
 11
13.8294
 21
-0.14
 31
0.0
  0
LINE
  5
36
330
1D
100
AcDbEntity
  8
0
100
AcDbLine
 10
13.8294
 20
-0.14
 30
0.0
 11
14.5706
 21
-0.14
 31
0.0
  0
LINE
  5
37
330
1D
100
AcDbEntity
  8
0
100
AcDbLine
 10
15.3529
 20
-0.14
 30
0.0
 11
16.1765
 21
-0.14
 31
0.0
  0
LINE
  5
38
330
1D
100
AcDbEntity
  8
0
100
AcDbLine
 10
16.1765
 20
-0.14
 30
0.0
 11
167.0
 21
-0.14
 31
0.0
  0
LINE
  5
39
330
1D
100
AcDbEntity
  8
0
100
AcDbLine
 10
16.1765
 20
-0.14
 30
0.0
 11
167.0
 21
-0.14
 31
0.0
  0
LINE
  5
3A
330
1D
100
AcDbEntity
  8
0
100
AcDbLine
 10
16.1765
 20
-0.14
 30
0.0
 11
167.0
 21
-0.14
 31
0.0
  0
LINE
  5
3B
330
1D
100
AcDbEntity
  8
0
100
AcDbLine
 10
14.5706
 20
-0.14
 30
0.0
 11
15.3529
 21
-0.14
 31
0.0
  0
LINE
  5
4C
330
1D
100
AcDbEntity
  8
0
100
AcDbLine
 10
15.3529
 20
-0.14
 30
0.0
 11
16.1765
 21
-0.14
 31
0.0
  0
LINE
  5
4D
330
1D
100
AcDbEntity
  8
0
100
AcDbLine
 10
16.1765
 20
-0.14
 30
0.0
 11
167.0
 21
-0.14
 31
0.0
  0
LINE
  5
A4
330
1D
100
AcDbEntity
  8
0
100
AcDbLine
 10
167.0
 20
-0.14
 30
0.0
 11
412.823
 21
-0.14
 31
0.0
  0
LINE
  5
A9
330
1D
100
AcDbEntity
  8
0
100
AcDbLine
 10
167.0
 20
-0.14
 30
0.0
 11
412.823
 21
-0.14
 31
0.0
  0
LINE
  5
AA
330
1D
100
AcDbEntity
  8
0
100
AcDbLine
 10
167.0
 20
-0.14
 30
0.0
 11
412.823
 21
-0.14
 31
0.0
  0
LINE
  5
AB
330
1D
100
AcDbEntity
  8
0
100
AcDbLine
 10
167.0
 20
-0.14
 30
0.0
 11
412.823
 21
-0.14
 31
0.0
  0
LINE
  5
158
330
1D
100
AcDbEntity
  8
0
100
AcDbLine
 10
412.823
 20
-0.14
 30
0.0
 11
413.647
 21
-0.14
 31
0.0
  0
LINE
  5
159
330
1D
100
AcDbEntity
  8
0
100
AcDbLine
 10
412.823
 20
14.71
 30
0.0
 11
413.647
 21
14.71
 31
0.0
  0
LINE
  5
15A
330
1D
100
AcDbEntity
  8
0
100
AcDbLine
 10
414.429
 20
-0.14
 30
0.0
 11
415.171
 21
-0.14
 31
0.0
  0
LINE
  5
15B
330
1D
100
AcDbEntity
  8
0
100
AcDbLine
 10
415.171
 20
-0.14
 30
0.0
 11
415.912
 21
-0.14
 31
0.0
  0
LINE
  5
15C
330
1D
100
AcDbEntity
  8
0
100
AcDbLine
 10
414.429
 20
-0.14
 30
0.0
 11
415.171
 21
-0.14
 31
0.0
  0
LINE
  5
15D
330
1D
100
AcDbEntity
  8
0
100
AcDbLine
 10
413.647
 20
-0.14
 30
0.0
 11
414.429
 21
-0.14
 31
0.0
  0
LINE
  5
15E
330
1D
100
AcDbEntity
  8
0
100
AcDbLine
 10
415.171
 20
14.71
 30
0.0
 11
415.871
 21
14.71
 31
0.0
  0
LINE
  5
15F
330
1D
100
AcDbEntity
  8
0
100
AcDbLine
 10
414.388
 20
14.71
 30
0.0
 11
415.171
 21
14.71
 31
0.0
  0
LINE
  5
160
330
1D
100
AcDbEntity
  8
0
100
AcDbLine
 10
413.647
 20
14.71
 30
0.0
 11
414.388
 21
14.71
 31
0.0
  0
LINE
  5
161
330
1D
100
AcDbEntity
  8
0
100
AcDbLine
 10
416.571
 20
-0.14
 30
0.0
 11
417.188
 21
-0.14
 31
0.0
  0
LINE
  5
162
330
1D
100
AcDbEntity
  8
0
100
AcDbLine
 10
415.912
 20
-0.14
 30
0.0
 11
416.571
 21
-0.14
 31
0.0
  0
LINE
  5
163
330
1D
100
AcDbEntity
  8
0
100
AcDbLine
 10
415.871
 20
14.71
 30
0.0
 11
416.529
 21
14.71
 31
0.0
  0
LINE
  5
164
330
1D
100
AcDbEntity
  8
0
100
AcDbLine
 10
416.529
 20
14.71
 30
0.0
 11
417.106
 21
14.71
 31
0.0
  0
LINE
  5
165
330
1D
100
AcDbEntity
  8
0
100
AcDbLine
 10
417.188
 20
-0.14
 30
0.0
 11
417.724
 21
-0.14
 31
0.0
  0
LINE
  5
166
330
1D
100
AcDbEntity
  8
0
100
AcDbLine
 10
417.724
 20
-0.14
 30
0.0
 11
418.177
 21
-0.14
 31
0.0
  0
LINE
  5
167
330
1D
100
AcDbEntity
  8
0
100
AcDbLine
 10
418.177
 20
-0.14
 30
0.0
 11
418.506
 21
-0.14
 31
0.0
  0
LINE
  5
168
330
1D
100
AcDbEntity
  8
0
100
AcDbLine
 10
418.506
 20
-0.14
 30
0.0
 11
418.794
 21
-0.14
 31
0.0
  0
LINE
  5
169
330
1D
100
AcDbEntity
  8
0
100
AcDbLine
 10
418.794
 20
-0.14
 30
0.0
 11
418.918
 21
-0.14
 31
0.0
  0
LINE
  5
16A
330
1D
100
AcDbEntity
  8
0
100
AcDbLine
 10
418.918
 20
-0.14
 30
0.0
 11
419.0
 21
-0.14
 31
0.0
  0
LINE
  5
16B
330
1D
100
AcDbEntity
  8
0
100
AcDbLine
 10
417.188
 20
-0.14
 30
0.0
 11
417.724
 21
-0.14
 31
0.0
  0
LINE
  5
16C
330
1D
100
AcDbEntity
  8
0
100
AcDbLine
 10
417.724
 20
-0.14
 30
0.0
 11
418.177
 21
-0.14
 31
0.0
  0
LINE
  5
16D
330
1D
100
AcDbEntity
  8
0
100
AcDbLine
 10
418.177
 20
-0.14
 30
0.0
 11
418.506
 21
-0.14
 31
0.0
  0
LINE
  5
16E
330
1D
100
AcDbEntity
  8
0
100
AcDbLine
 10
418.506
 20
-0.14
 30
0.0
 11
418.794
 21
-0.14
 31
0.0
  0
LINE
  5
16F
330
1D
100
AcDbEntity
  8
0
100
AcDbLine
 10
419.0
 20
-0.14
 30
0.0
 11
419.0
 21
14.36
 31
0.0
  0
LINE
  5
170
330
1D
100
AcDbEntity
  8
0
100
AcDbLine
 10
419.0
 20
14.36
 30
0.0
 11
419.0
 21
-0.14
 31
0.0
  0
LINE
  5
171
330
1D
100
AcDbEntity
  8
0
100
AcDbLine
 10
418.794
 20
-0.14
 30
0.0
 11
418.918
 21
-0.14
 31
0.0
  0
LINE
  5
172
330
1D
100
AcDbEntity
  8
0
100
AcDbLine
 10
418.918
 20
-0.14
 30
0.0
 11
419.0
 21
-0.14
 31
0.0
  0
LINE
  5
173
330
1D
100
AcDbEntity
  8
0
100
AcDbLine
 10
417.106
 20
14.71
 30
0.0
 11
417.641
 21
14.71
 31
0.0
  0
LINE
  5
174
330
1D
100
AcDbEntity
  8
0
100
AcDbLine
 10
417.641
 20
14.71
 30
0.0
 11
418.094
 21
14.71
 31
0.0
  0
LINE
  5
175
330
1D
100
AcDbEntity
  8
0
100
AcDbLine
 10
418.094
 20
14.71
 30
0.0
 11
418.423
 21
14.71
 31
0.0
  0
LINE
  5
176
330
1D
100
AcDbEntity
  8
0
100
AcDbLine
 10
418.423
 20
14.71
 30
0.0
 11
418.671
 21
14.71
 31
0.0
  0
LINE
  5
177
330
1D
100
AcDbEntity
  8
0
100
AcDbLine
 10
418.671
 20
14.71
 30
0.0
 11
418.835
 21
14.71
 31
0.0
  0
LINE
  5
178
330
1D
100
AcDbEntity
  8
0
100
AcDbLine
 10
418.876
 20
14.71
 30
0.0
 11
419.0
 21
14.36
 31
0.0
  0
LINE
  5
179
330
1D
100
AcDbEntity
  8
0
100
AcDbLine
 10
416.571
 20
-0.14
 30
0.0
 11
417.188
 21
-0.14
 31
0.0
  0
LINE
  5
17A
330
1D
100
AcDbEntity
  8
0
100
AcDbLine
 10
415.912
 20
-0.14
 30
0.0
 11
416.571
 21
-0.14
 31
0.0
  0
LINE
  5
17B
330
1D
100
AcDbEntity
  8
0
100
AcDbLine
 10
415.171
 20
-0.14
 30
0.0
 11
415.912
 21
-0.14
 31
0.0
  0
LINE
  5
17C
330
1D
100
AcDbEntity
  8
0
100
AcDbLine
 10
413.647
 20
-0.14
 30
0.0
 11
414.429
 21
-0.14
 31
0.0
  0
LINE
  5
17D
330
1D
100
AcDbEntity
  8
0
100
AcDbLine
 10
412.823
 20
-0.14
 30
0.0
 11
413.647
 21
-0.14
 31
0.0
  0
LINE
  5
1EB
330
1D
100
AcDbEntity
  8
0
100
AcDbLine
 10
368.5
 20
14.86
 30
0.0
 11
368.692
 21
14.9692
 31
0.0
  0
LINE
  5
1EC
330
1D
100
AcDbEntity
  8
0
100
AcDbLine
 10
416.9
 20
14.86
 30
0.0
 11
417.394
 21
14.86
 31
0.0
  0
LINE
  5
1ED
330
1D
100
AcDbEntity
  8
0
100
AcDbLine
 10
417.806
 20
14.86
 30
0.0
 11
418.135
 21
14.86
 31
0.0
  0
LINE
  5
1EE
330
1D
100
AcDbEntity
  8
0
100
AcDbLine
 10
418.588
 20
14.86
 30
0.0
 11
418.876
 21
14.71
 31
0.0
  0
LINE
  5
1EF
330
1D
100
AcDbEntity
  8
0
100
AcDbLine
 10
416.323
 20
14.86
 30
0.0
 11
416.9
 21
14.86
 31
0.0
  0
LINE
  5
1F0
330
1D
100
AcDbEntity
  8
0
100
AcDbLine
 10
415.006
 20
14.86
 30
0.0
 11
415.706
 21
14.86
 31
0.0
  0
LINE
  5
1F1
330
1D
100
AcDbEntity
  8
0
100
AcDbLine
 10
414.306
 20
14.86
 30
0.0
 11
415.006
 21
14.86
 31
0.0
  0
LINE
  5
1F2
330
1D
100
AcDbEntity
  8
0
100
AcDbLine
 10
413.565
 20
14.86
 30
0.0
 11
414.306
 21
14.86
 31
0.0
  0
LINE
  5
1F3
330
1D
100
AcDbEntity
  8
0
100
AcDbLine
 10
370.974
 20
18.3809
 30
0.0
 11
370.996
 21
19.0063
 31
0.0
  0
LINE
  5
1F4
330
1D
100
AcDbEntity
  8
0
100
AcDbLine
 10
370.78
 20
17.4959
 30
0.0
 11
370.974
 21
18.3809
 31
0.0
  0
LINE
  5
1F5
330
1D
100
AcDbEntity
  8
0
100
AcDbLine
 10
370.37
 20
16.6517
 30
0.0
 11
370.78
 21
17.4959
 31
0.0
  0
LINE
  5
1F6
330
1D
100
AcDbEntity
  8
0
100
AcDbLine
 10
369.909
 20
16.0321
 30
0.0
 11
370.37
 21
16.6517
 31
0.0
  0
LINE
  5
1F7
330
1D
100
AcDbEntity
  8
0
100
AcDbLine
 10
369.337
 20
15.4594
 30
0.0
 11
369.909
 21
16.0321
 31
0.0
  0
LINE
  5
1F8
330
1D
100
AcDbEntity
  8
0
100
AcDbLine
 10
368.683
 20
14.9632
 30
0.0
 11
369.337
 21
15.4594
 31
0.0
  0
LINE
  5
1F9
330
1D
100
AcDbEntity
  8
0
100
AcDbLine
 10
370.996
 20
19.0063
 30
0.0
 11
370.996
 21
48.6193
 31
0.0
  0
LINE
  5
1FA
330
1D
100
AcDbEntity
  8
0
100
AcDbLine
 10
370.996
 20
48.6193
 30
0.0
 11
370.996
 21
19.0063
 31
0.0
  0
LINE
  5
1FB
330
1D
100
AcDbEntity
  8
0
100
AcDbLine
 10
370.996
 20
48.6193
 30
0.0
 11
371.187
 21
47.0578
 31
0.0
  0
LINE
  5
1FC
330
1D
100
AcDbEntity
  8
0
100
AcDbLine
 10
370.996
 20
48.6193
 30
0.0
 11
371.021608686118
 21
48.828293144043
 31
0.0
  0
LINE
  5
20B
330
1D
100
AcDbEntity
  8
0
100
AcDbLine
 10
371.197
 20
47.0039
 30
0.0
 11
371.781
 21
45.4526
 31
0.0
  0
LINE
  5
20D
330
1D
100
AcDbEntity
  8
0
100
AcDbLine
 10
384.515
 20
38.5029
 30
0.0
 11
386.985
 21
38.3788
 31
0.0
  0
LINE
  5
20E
330
1D
100
AcDbEntity
  8
0
100
AcDbLine
 10
377.568
 20
40.3466
 30
0.0
 11
377.616
 21
40.3242
 31
0.0
  0
LINE
  5
20F
330
1D
100
AcDbEntity
  8
0
100
AcDbLine
 10
377.616
 20
40.3242
 30
0.0
 11
379.734
 21
39.4946
 31
0.0
  0
LINE
  5
210
330
1D
100
AcDbEntity
  8
0
100
AcDbLine
 10
375.699
 20
41.3686
 30
0.0
 11
377.568
 21
40.3466
 31
0.0
  0
LINE
  5
211
330
1D
100
AcDbEntity
  8
0
100
AcDbLine
 10
373.413472454653
 20
43.615079524906
 30
0.0
 11
373.496
 21
43.488
 31
0.0
  0
LINE
  5
215
330
1D
100
AcDbEntity
  8
0
100
AcDbLine
 10
372.775
 20
43.9329
 30
0.0
 11
374.064
 21
42.5905
 31
0.0
  0
LINE
  5
216
330
1D
100
AcDbEntity
  8
0
100
AcDbLine
 10
371.781
 20
45.4526
 30
0.0
 11
372.734
 21
43.9784
 31
0.0
  0
LINE
  5
217
330
1D
100
AcDbEntity
  8
0
100
AcDbLine
 10
373.112
 20
43.8696
 30
0.0
 11
373.496
 21
43.488
 31
0.0
  0
LINE
  5
218
330
1D
100
AcDbEntity
  8
0
100
AcDbLine
 10
374.098
 20
42.5644
 30
0.0
 11
375.699
 21
41.3686
 31
0.0
  0
LINE
  5
219
330
1D
100
AcDbEntity
  8
0
100
AcDbLine
 10
375.992
 20
54.5105
 30
0.0
 11
379.256
 21
52.9202
 31
0.0
  0
LINE
  5
21A
330
1D
100
AcDbEntity
  8
0
100
AcDbLine
 10
379.256
 20
52.9202
 30
0.0
 11
382.968
 21
51.9415
 31
0.0
  0
LINE
  5
21B
330
1D
100
AcDbEntity
  8
0
100
AcDbLine
 10
373.496
 20
43.488
 30
0.0
 11
375.992
 21
41.4083
 31
0.0
  0
LINE
  5
21C
330
1D
100
AcDbEntity
  8
0
100
AcDbLine
 10
375.992
 20
41.4083
 30
0.0
 11
379.256
 21
39.8179
 31
0.0
  0
LINE
  5
220
330
1D
100
AcDbEntity
  8
0
100
AcDbLine
 10
382.029
 20
38.8856
 30
0.0
 11
382.106
 21
38.8705
 31
0.0
  0
LINE
  5
222
330
1D
100
AcDbEntity
  8
0
100
AcDbLine
 10
379.734
 20
39.4946
 30
0.0
 11
382.029
 21
38.8856
 31
0.0
  0
LINE
  5
223
330
1D
100
AcDbEntity
  8
0
100
AcDbLine
 10
382.106
 20
38.8705
 30
0.0
 11
384.515
 21
38.5029
 31
0.0
  0
LINE
  5
224
330
1D
100
AcDbEntity
  8
0
100
AcDbLine
 10
382.968
 20
51.9415
 30
0.0
 11
387.0
 21
51.5744
 31
0.0
  0
LINE
  5
225
330
1D
100
AcDbEntity
  8
0
100
AcDbLine
 10
387.0
 20
51.5744
 30
0.0
 11
391.032
 21
51.9415
 31
0.0
  0
LINE
  5
226
330
1D
100
AcDbEntity
  8
0
100
AcDbLine
 10
379.256
 20
39.8179
 30
0.0
 11
382.968
 21
38.8392
 31
0.0
  0
LINE
  5
227
330
1D
100
AcDbEntity
  8
0
100
AcDbLine
 10
382.968
 20
38.8392
 30
0.0
 11
387.0
 21
38.4722
 31
0.0
  0
LINE
  5
228
330
1D
100
AcDbEntity
  8
0
100
AcDbLine
 10
371.576
 20
46.3164
 30
0.0
 11
373.112
 21
43.8696
 31
0.0
  0
LINE
  5
229
330
1D
100
AcDbEntity
  8
0
100
AcDbLine
 10
387.0
 20
38.4722
 30
0.0
 11
391.032
 21
38.8392
 31
0.0
  0
LINE
  5
22A
330
1D
100
AcDbEntity
  8
0
100
AcDbLine
 10
371.0
 20
48.9262
 30
0.0
 11
371.0
 21
61.0207
 31
0.0
  0
LINE
  5
22B
330
1D
100
AcDbEntity
  8
0
100
AcDbLine
 10
371.0
 20
48.9262
 30
0.0
 11
371.576
 21
46.3164
 31
0.0
  0
LINE
  5
22C
330
1D
100
AcDbEntity
  8
0
100
AcDbLine
 10
383.928
 20
54.8038
 30
0.0
 11
387.0
 21
54.4492
 31
0.0
  0
LINE
  5
22D
330
1D
100
AcDbEntity
  8
0
100
AcDbLine
 10
387.015
 20
38.3788
 30
0.0
 11
389.485
 21
38.5029
 31
0.0
  0
LINE
  5
22E
330
1D
100
AcDbEntity
  8
0
100
AcDbLine
 10
389.485
 20
38.5029
 30
0.0
 11
391.894
 21
38.8705
 31
0.0
  0
LINE
  5
230
330
1D
100
AcDbEntity
  8
0
100
AcDbLine
 10
391.971
 20
38.8856
 30
0.0
 11
394.266
 21
39.4946
 31
0.0
  0
LINE
  5
231
330
1D
100
AcDbEntity
  8
0
100
AcDbLine
 10
391.894
 20
38.8705
 30
0.0
 11
391.971
 21
38.8856
 31
0.0
  0
LINE
  5
239
330
1D
100
AcDbEntity
  8
0
100
AcDbLine
 10
391.032
 20
51.9415
 30
0.0
 11
394.744
 21
52.9202
 31
0.0
  0
LINE
  5
23A
330
1D
100
AcDbEntity
  8
0
100
AcDbLine
 10
391.032
 20
38.8392
 30
0.0
 11
394.744
 21
39.8179
 31
0.0
  0
LINE
  5
23B
330
1D
100
AcDbEntity
  8
0
100
AcDbLine
 10
387.0
 20
54.4492
 30
0.0
 11
390.072
 21
54.8038
 31
0.0
  0
LINE
  5
23C
330
1D
100
AcDbEntity
  8
0
100
AcDbLine
 10
381.048
 20
55.5578
 30
0.0
 11
383.928
 21
54.8038
 31
0.0
  0
LINE
  5
23D
330
1D
100
AcDbEntity
  8
0
100
AcDbLine
 10
390.072
 20
54.8038
 30
0.0
 11
392.952
 21
55.5578
 31
0.0
  0
LINE
  5
23E
330
1D
100
AcDbEntity
  8
0
100
AcDbLine
 10
394.266
 20
39.4946
 30
0.0
 11
396.384
 21
40.3242
 31
0.0
  0
LINE
  5
244
330
1D
100
AcDbEntity
  8
0
100
AcDbLine
 10
396.384
 20
40.3242
 30
0.0
 11
396.432
 21
40.3466
 31
0.0
  0
LINE
  5
245
330
1D
100
AcDbEntity
  8
0
100
AcDbLine
 10
398.301
 20
41.3686
 30
0.0
 11
399.902
 21
42.5644
 31
0.0
  0
LINE
  5
246
330
1D
100
AcDbEntity
  8
0
100
AcDbLine
 10
396.432
 20
40.3466
 30
0.0
 11
398.301
 21
41.3686
 31
0.0
  0
LINE
  5
249
330
1D
100
AcDbEntity
  8
0
100
AcDbLine
 10
403.026
 20
18.3809
 30
0.0
 11
403.22
 21
17.4959
 31
0.0
  0
LINE
  5
24A
330
1D
100
AcDbEntity
  8
0
100
AcDbLine
 10
403.22
 20
17.4959
 30
0.0
 11
403.63
 21
16.6517
 31
0.0
  0
LINE
  5
24B
330
1D
100
AcDbEntity
  8
0
100
AcDbLine
 10
404.091
 20
16.0321
 30
0.0
 11
404.663
 21
15.4594
 31
0.0
  0
LINE
  5
24C
330
1D
100
AcDbEntity
  8
0
100
AcDbLine
 10
404.663
 20
15.4594
 30
0.0
 11
405.317
 21
14.9632
 31
0.0
  0
LINE
  5
24D
330
1D
100
AcDbEntity
  8
0
100
AcDbLine
 10
403.63
 20
16.6517
 30
0.0
 11
404.091
 21
16.0321
 31
0.0
  0
LINE
  5
24E
330
1D
100
AcDbEntity
  8
0
100
AcDbLine
 10
405.308
 20
14.9692
 30
0.0
 11
405.5
 21
14.86
 31
0.0
  0
LINE
  5
24F
330
1D
100
AcDbEntity
  8
0
100
AcDbLine
 10
403.004
 20
19.0063
 30
0.0
 11
403.004
 21
48.6193
 31
0.0
  0
LINE
  5
250
330
1D
100
AcDbEntity
  8
0
100
AcDbLine
 10
403.004
 20
19.0063
 30
0.0
 11
403.026
 21
18.3809
 31
0.0
  0
LINE
  5
251
330
1D
100
AcDbEntity
  8
0
100
AcDbLine
 10
399.936
 20
42.5905
 30
0.0
 11
401.225
 21
43.9329
 31
0.0
  0
LINE
  5
252
330
1D
100
AcDbEntity
  8
0
100
AcDbLine
 10
400.504
 20
43.488
 30
0.0
 11
400.888
 21
43.8696
 31
0.0
  0
LINE
  5
254
330
1D
100
AcDbEntity
  8
0
100
AcDbLine
 10
398.008
 20
41.4083
 30
0.0
 11
400.504
 21
43.488
 31
0.0
  0
LINE
  5
255
330
1D
100
AcDbEntity
  8
0
100
AcDbLine
 10
394.744
 20
39.8179
 30
0.0
 11
398.008
 21
41.4083
 31
0.0
  0
LINE
  5
256
330
1D
100
AcDbEntity
  8
0
100
AcDbLine
 10
401.225
 20
43.9329
 30
0.0
 11
401.266
 21
43.9784
 31
0.0
  0
LINE
  5
258
330
1D
100
AcDbEntity
  8
0
100
AcDbLine
 10
401.266
 20
43.9784
 30
0.0
 11
402.219
 21
45.4526
 31
0.0
  0
LINE
  5
259
330
1D
100
AcDbEntity
  8
0
100
AcDbLine
 10
402.219
 20
45.4526
 30
0.0
 11
402.803
 21
47.0039
 31
0.0
  0
LINE
  5
25A
330
1D
100
AcDbEntity
  8
0
100
AcDbLine
 10
398.008
 20
54.5105
 30
0.0
 11
400.504
 21
56.5903
 31
0.0
  0
LINE
  5
25B
330
1D
100
AcDbEntity
  8
0
100
AcDbLine
 10
394.744
 20
52.9202
 30
0.0
 11
398.008
 21
54.5105
 31
0.0
  0
LINE
  5
25C
330
1D
100
AcDbEntity
  8
0
100
AcDbLine
 10
402.813
 20
47.0578
 30
0.0
 11
403.004
 21
48.6193
 31
0.0
  0
LINE
  5
25D
330
1D
100
AcDbEntity
  8
0
100
AcDbLine
 10
402.978391313882
 20
48.828293144043
 30
0.0
 11
403.004
 21
48.6193
 31
0.0
  0
LINE
  5
25E
330
1D
100
AcDbEntity
  8
0
100
AcDbLine
 10
403.004
 20
48.6193
 30
0.0
 11
403.004
 21
19.0063
 31
0.0
  0
LINE
  5
25F
330
1D
100
AcDbEntity
  8
0
100
AcDbLine
 10
403.0
 20
48.9262
 30
0.0
 11
403.0
 21
61.0207
 31
0.0
  0
LINE
  5
260
330
1D
100
AcDbEntity
  8
0
100
AcDbLine
 10
402.424
 20
46.3164
 30
0.0
 11
403.0
 21
48.9262
 31
0.0
  0
LINE
  5
261
330
1D
100
AcDbEntity
  8
0
100
AcDbLine
 10
400.888
 20
43.8696
 30
0.0
 11
402.424
 21
46.3164
 31
0.0
  0
LINE
  5
262
330
1D
100
AcDbEntity
  8
0
100
AcDbLine
 10
392.952
 20
55.5578
 30
0.0
 11
395.448
 21
56.7996
 31
0.0
  0
LINE
  5
263
330
1D
100
AcDbEntity
  8
0
100
AcDbLine
 10
412.823
 20
14.86
 30
0.0
 11
413.565
 21
14.86
 31
0.0
  0
LINE
  5
266
330
1D
100
AcDbEntity
  8
0
100
AcDbLine
 10
373.496
 20
56.5903
 30
0.0
 11
375.992
 21
54.5105
 31
0.0
  0
LINE
  5
267
330
1D
100
AcDbEntity
  8
0
100
AcDbLine
 10
378.552
 20
56.7996
 30
0.0
 11
381.048
 21
55.5578
 31
0.0
  0
LINE
  5
268
330
1D
100
AcDbEntity
  8
0
100
AcDbLine
 10
378.552
 20
56.7996
 30
0.0
 11
379.124702074421
 21
56.506601527997
 31
0.0
  0
LINE
  5
269
330
1D
100
AcDbEntity
  8
0
100
AcDbLine
 10
394.875297925579
 20
56.506601527997
 30
0.0
 11
395.448
 21
56.7996
 31
0.0
  0
LINE
  5
26A
330
1D
100
AcDbEntity
  8
0
100
AcDbLine
 10
371.96
 20
58.9555
 30
0.0
 11
373.496
 21
56.5903
 31
0.0
  0
LINE
  5
26B
330
1D
100
AcDbEntity
  8
0
100
AcDbLine
 10
376.632
 20
58.3526
 30
0.0
 11
378.552
 21
56.7996
 31
0.0
  0
LINE
  5
26C
330
1D
100
AcDbEntity
  8
0
100
AcDbLine
 10
395.448
 20
56.7996
 30
0.0
 11
397.368
 21
58.3526
 31
0.0
  0
LINE
  5
26D
330
1D
100
AcDbEntity
  8
0
100
AcDbLine
 10
402.04
 20
58.9555
 30
0.0
 11
402.616
 21
61.5246
 31
0.0
  0
LINE
  5
26E
330
1D
100
AcDbEntity
  8
0
100
AcDbLine
 10
400.504
 20
56.5903
 30
0.0
 11
402.04
 21
58.9555
 31
0.0
  0
LINE
  5
26F
330
1D
100
AcDbEntity
  8
0
100
AcDbLine
 10
397.368
 20
58.3526
 30
0.0
 11
398.616
 21
60.2601
 31
0.0
  0
LINE
  5
2A6
330
1D
100
AcDbEntity
  8
0
100
AcDbLine
 10
375.384
 20
60.2601
 30
0.0
 11
376.632
 21
58.3526
 31
0.0
  0
LINE
  5
2A7
330
1D
100
AcDbEntity
  8
0
100
AcDbLine
 10
398.616
 20
60.2601
 30
0.0
 11
399.0
 21
62.2559
 31
0.0
  0
LINE
  5
2A9
330
1D
100
AcDbEntity
  8
0
100
AcDbLine
 10
371.384
 20
61.5246
 30
0.0
 11
371.96
 21
64.0936
 31
0.0
  0
LINE
  5
2AA
330
1D
100
AcDbEntity
  8
0
100
AcDbLine
 10
371.384
 20
61.5246
 30
0.0
 11
371.96
 21
58.9555
 31
0.0
  0
LINE
  5
2AB
330
1D
100
AcDbEntity
  8
0
100
AcDbLine
 10
371.0
 20
61.0207
 30
0.0
 11
371.576
 21
63.6305
 31
0.0
  0
LINE
  5
2AC
330
1D
100
AcDbEntity
  8
0
100
AcDbLine
 10
371.0
 20
61.0207
 30
0.0
 11
371.0
 21
48.9262
 31
0.0
  0
LINE
  5
2AD
330
1D
100
AcDbEntity
  8
0
100
AcDbLine
 10
371.576
 20
63.6305
 30
0.0
 11
373.112
 21
66.0773
 31
0.0
  0
LINE
  5
2AF
330
1D
100
AcDbEntity
  8
0
100
AcDbLine
 10
375.0
 20
62.2559
 30
0.0
 11
375.384
 21
60.2601
 31
0.0
  0
LINE
  5
2B0
330
1D
100
AcDbEntity
  8
0
100
AcDbLine
 10
403.0
 20
61.0207
 30
0.0
 11
403.0
 21
48.9262
 31
0.0
  0
LINE
  5
2B1
330
1D
100
AcDbEntity
  8
0
100
AcDbLine
 10
402.424
 20
63.6305
 30
0.0
 11
403.0
 21
61.0207
 31
0.0
  0
LINE
  5
2BC
330
1D
100
AcDbEntity
  8
0
100
AcDbLine
 10
371.96
 20
64.0936
 30
0.0
 11
373.496
 21
66.4588
 31
0.0
  0
LINE
  5
2BD
330
1D
100
AcDbEntity
  8
0
100
AcDbLine
 10
373.496
 20
66.4588
 30
0.0
 11
375.0
 21
67.712012820513
 31
0.0
  0
LINE
  5
2BE
330
1D
100
AcDbEntity
  8
0
100
AcDbLine
 10
373.112
 20
66.0773
 30
0.0
 11
373.496
 21
66.4588
 31
0.0
  0
LINE
  5
584
330
1D
100
AcDbEntity
  8
0
100
AcDbLine
 10
399.0
 20
67.712012820513
 30
0.0
 11
400.504
 21
66.4588
 31
0.0
  0
LINE
  5
599
330
1D
100
AcDbEntity
  8
0
100
AcDbLine
 10
402.04
 20
64.0936
 30
0.0
 11
402.616
 21
61.5246
 31
0.0
  0
LINE
  5
59B
330
1D
100
AcDbEntity
  8
0
100
AcDbLine
 10
400.888
 20
66.0773
 30
0.0
 11
402.424
 21
63.6305
 31
0.0
  0
LINE
  5
59C
330
1D
100
AcDbEntity
  8
0
100
AcDbLine
 10
400.504
 20
66.4588
 30
0.0
 11
400.888
 21
66.0773
 31
0.0
  0
LINE
  5
59D
330
1D
100
AcDbEntity
  8
0
100
AcDbLine
 10
400.504
 20
66.4588
 30
0.0
 11
402.04
 21
64.0936
 31
0.0
  0
LINE
  5
D24
330
1D
100
AcDbEntity
  8
0
100
AcDbLine
 10
10.0824
 20
-0.14
 30
0.0
 11
10.1648
 21
-0.14
 31
0.0
  0
LINE
  5
D25
330
1D
100
AcDbEntity
  8
0
100
AcDbLine
 10
11.3589
 20
-0.14
 30
0.0
 11
11.8942
 21
-0.14
 31
0.0
  0
LINE
  5
D26
330
1D
100
AcDbEntity
  8
0
100
AcDbLine
 10
10.9059
 20
-0.14
 30
0.0
 11
11.3589
 21
-0.14
 31
0.0
  0
LINE
  5
D27
330
1D
100
AcDbEntity
  8
0
100
AcDbLine
 10
10.5765
 20
-0.14
 30
0.0
 11
10.9059
 21
-0.14
 31
0.0
  0
LINE
  5
D28
330
1D
100
AcDbEntity
  8
0
100
AcDbLine
 10
10.2883
 20
-0.14
 30
0.0
 11
10.5765
 21
-0.14
 31
0.0
  0
LINE
  5
D29
330
1D
100
AcDbEntity
  8
0
100
AcDbLine
 10
10.1648
 20
-0.14
 30
0.0
 11
10.2883
 21
-0.14
 31
0.0
  0
LINE
  5
D2A
330
1D
100
AcDbEntity
  8
0
100
AcDbLine
 10
11.8942
 20
-0.14
 30
0.0
 11
12.5118
 21
-0.14
 31
0.0
  0
LINE
  5
D2B
330
1D
100
AcDbEntity
  8
0
100
AcDbLine
 10
11.3589
 20
-0.14
 30
0.0
 11
11.8942
 21
-0.14
 31
0.0
  0
LINE
  5
D2C
330
1D
100
AcDbEntity
  8
0
100
AcDbLine
 10
10.9059
 20
-0.14
 30
0.0
 11
11.3589
 21
-0.14
 31
0.0
  0
LINE
  5
D2D
330
1D
100
AcDbEntity
  8
0
100
AcDbLine
 10
10.5765
 20
-0.14
 30
0.0
 11
10.9059
 21
-0.14
 31
0.0
  0
LINE
  5
D2E
330
1D
100
AcDbEntity
  8
0
100
AcDbLine
 10
10.2883
 20
-0.14
 30
0.0
 11
10.5765
 21
-0.14
 31
0.0
  0
LINE
  5
D2F
330
1D
100
AcDbEntity
  8
0
100
AcDbLine
 10
10.1648
 20
-0.14
 30
0.0
 11
10.2883
 21
-0.14
 31
0.0
  0
LINE
  5
D30
330
1D
100
AcDbEntity
  8
0
100
AcDbLine
 10
10.0824
 20
-0.14
 30
0.0
 11
10.1648
 21
-0.14
 31
0.0
  0
LINE
  5
D31
330
1D
100
AcDbEntity
  8
0
100
AcDbLine
 10
10.0824
 20
-0.14
 30
0.0
 11
10.0824
 21
14.36
 31
0.0
  0
LINE
  5
D32
330
1D
100
AcDbEntity
  8
0
100
AcDbLine
 10
12.5118
 20
-0.14
 30
0.0
 11
13.1706
 21
-0.14
 31
0.0
  0
LINE
  5
D33
330
1D
100
AcDbEntity
  8
0
100
AcDbLine
 10
13.1706
 20
-0.14
 30
0.0
 11
13.9118
 21
-0.14
 31
0.0
  0
LINE
  5
D34
330
1D
100
AcDbEntity
  8
0
100
AcDbLine
 10
11.8942
 20
-0.14
 30
0.0
 11
12.5118
 21
-0.14
 31
0.0
  0
LINE
  5
D35
330
1D
100
AcDbEntity
  8
0
100
AcDbLine
 10
12.5118
 20
-0.14
 30
0.0
 11
13.1706
 21
-0.14
 31
0.0
  0
LINE
  5
D36
330
1D
100
AcDbEntity
  8
0
100
AcDbLine
 10
13.9118
 20
-0.14
 30
0.0
 11
14.653
 21
-0.14
 31
0.0
  0
LINE
  5
D37
330
1D
100
AcDbEntity
  8
0
100
AcDbLine
 10
14.653
 20
-0.14
 30
0.0
 11
15.4353
 21
-0.14
 31
0.0
  0
LINE
  5
D38
330
1D
100
AcDbEntity
  8
0
100
AcDbLine
 10
13.1706
 20
-0.14
 30
0.0
 11
13.9118
 21
-0.14
 31
0.0
  0
LINE
  5
D39
330
1D
100
AcDbEntity
  8
0
100
AcDbLine
 10
13.9118
 20
-0.14
 30
0.0
 11
14.653
 21
-0.14
 31
0.0
  0
LINE
  5
D3A
330
1D
100
AcDbEntity
  8
0
100
AcDbLine
 10
15.4353
 20
-0.14
 30
0.0
 11
16.2589
 21
-0.14
 31
0.0
  0
LINE
  5
D3B
330
1D
100
AcDbEntity
  8
0
100
AcDbLine
 10
16.2589
 20
-0.14
 30
0.0
 11
167.0824
 21
-0.14
 31
0.0
  0
LINE
  5
D3C
330
1D
100
AcDbEntity
  8
0
100
AcDbLine
 10
16.2589
 20
-0.14
 30
0.0
 11
167.0824
 21
-0.14
 31
0.0
  0
LINE
  5
D3D
330
1D
100
AcDbEntity
  8
0
100
AcDbLine
 10
16.2589
 20
-0.14
 30
0.0
 11
167.0824
 21
-0.14
 31
0.0
  0
LINE
  5
D3E
330
1D
100
AcDbEntity
  8
0
100
AcDbLine
 10
14.653
 20
-0.14
 30
0.0
 11
15.4353
 21
-0.14
 31
0.0
  0
LINE
  5
D3F
330
1D
100
AcDbEntity
  8
0
100
AcDbLine
 10
10.2059
 20
14.71
 30
0.0
 11
10.4942
 21
14.86
 31
0.0
  0
LINE
  5
D40
330
1D
100
AcDbEntity
  8
0
100
AcDbLine
 10
10.0824
 20
14.36
 30
0.0
 11
10.0824
 21
-0.14
 31
0.0
  0
LINE
  5
D41
330
1D
100
AcDbEntity
  8
0
100
AcDbLine
 10
10.0824
 20
14.36
 30
0.0
 11
10.2059
 21
14.71
 31
0.0
  0
LINE
  5
D42
330
1D
100
AcDbEntity
  8
0
100
AcDbLine
 10
15.4353
 20
-0.14
 30
0.0
 11
16.2589
 21
-0.14
 31
0.0
  0
LINE
  5
D43
330
1D
100
AcDbEntity
  8
0
100
AcDbLine
 10
16.2589
 20
-0.14
 30
0.0
 11
167.0824
 21
-0.14
 31
0.0
  0
LINE
  5
D44
330
1D
100
AcDbEntity
  8
0
100
AcDbLine
 10
4.5824
 20
15.16
 30
0.0
 11
6.0824
 21
14.86
 31
0.0
  0
LINE
  5
D45
330
1D
100
AcDbEntity
  8
0
100
AcDbLine
 10
3.1824
 20
15.76
 30
0.0
 11
4.5824
 21
15.16
 31
0.0
  0
LINE
  5
D46
330
1D
100
AcDbEntity
  8
0
100
AcDbLine
 10
5.43417
 20
18.4411
 30
0.0
 11
6.0824
 21
18.36
 31
0.0
  0
LINE
  5
D47
330
1D
100
AcDbEntity
  8
0
100
AcDbLine
 10
4.79245
 20
18.6924
 30
0.0
 11
5.43417
 21
18.4411
 31
0.0
  0
LINE
  5
D48
330
1D
100
AcDbEntity
  8
0
100
AcDbLine
 10
1.8824
 20
16.66
 30
0.0
 11
3.1824
 21
15.76
 31
0.0
  0
LINE
  5
D49
330
1D
100
AcDbEntity
  8
0
100
AcDbLine
 10
0.9824
 20
17.96
 30
0.0
 11
1.8824
 21
16.66
 31
0.0
  0
LINE
  5
D4A
330
1D
100
AcDbEntity
  8
0
100
AcDbLine
 10
0.0824
 20
20.86
 30
0.0
 11
0.0824
 21
37.86
 31
0.0
  0
LINE
  5
D4B
330
1D
100
AcDbEntity
  8
0
100
AcDbLine
 10
0.3824
 20
19.36
 30
0.0
 11
0.9824
 21
17.96
 31
0.0
  0
LINE
  5
D4C
330
1D
100
AcDbEntity
  8
0
100
AcDbLine
 10
4.31551
 20
19.091
 30
0.0
 11
4.79245
 21
18.6924
 31
0.0
  0
LINE
  5
D4D
330
1D
100
AcDbEntity
  8
0
100
AcDbLine
 10
3.65645
 20
20.2088
 30
0.0
 11
3.89926
 21
19.6196
 31
0.0
  0
LINE
  5
D4E
330
1D
100
AcDbEntity
  8
0
100
AcDbLine
 10
3.89926
 20
19.6196
 30
0.0
 11
4.31551
 21
19.091
 31
0.0
  0
LINE
  5
D4F
330
1D
100
AcDbEntity
  8
0
100
AcDbLine
 10
3.5824
 20
20.86
 30
0.0
 11
3.5824
 21
37.86
 31
0.0
  0
LINE
  5
D50
330
1D
100
AcDbEntity
  8
0
100
AcDbLine
 10
3.5824
 20
20.86
 30
0.0
 11
3.65645
 21
20.2088
 31
0.0
  0
LINE
  5
D51
330
1D
100
AcDbEntity
  8
0
100
AcDbLine
 10
0.3824
 20
19.36
 30
0.0
 11
0.9824
 21
17.96
 31
0.0
  0
LINE
  5
D52
330
1D
100
AcDbEntity
  8
0
100
AcDbLine
 10
0.0824
 20
20.86
 30
0.0
 11
0.3824
 21
19.36
 31
0.0
  0
LINE
  5
D53
330
1D
100
AcDbEntity
  8
0
100
AcDbLine
 10
6.0824
 20
18.36
 30
0.0
 11
50.0824
 21
18.36
 31
0.0
  0
LINE
  5
D54
330
1D
100
AcDbEntity
  8
0
100
AcDbLine
 10
6.0824
 20
18.36
 30
0.0
 11
50.0824
 21
18.36
 31
0.0
  0
LINE
  5
D55
330
1D
100
AcDbEntity
  8
0
100
AcDbLine
 10
16.2589
 20
14.86
 30
0.0
 11
167.0824
 21
14.86
 31
0.0
  0
LINE
  5
D56
330
1D
100
AcDbEntity
  8
0
100
AcDbLine
 10
6.0824
 20
14.86
 30
0.0
 11
16.2589
 21
14.86
 31
0.0
  0
LINE
  5
D57
330
1D
100
AcDbEntity
  8
0
100
AcDbLine
 10
16.2589
 20
14.86
 30
0.0
 11
167.0824
 21
14.86
 31
0.0
  0
LINE
  5
D58
330
1D
100
AcDbEntity
  8
0
100
AcDbLine
 10
50.0824
 20
18.36
 30
0.0
 11
50.7306
 21
18.4411
 31
0.0
  0
LINE
  5
D59
330
1D
100
AcDbEntity
  8
0
100
AcDbLine
 10
50.7306
 20
18.4411
 30
0.0
 11
51.3723
 21
18.6924
 31
0.0
  0
LINE
  5
D5A
330
1D
100
AcDbEntity
  8
0
100
AcDbLine
 10
51.3723
 20
18.6924
 30
0.0
 11
51.8493
 21
19.091
 31
0.0
  0
LINE
  5
D5B
330
1D
100
AcDbEntity
  8
0
100
AcDbLine
 10
51.8493
 20
19.091
 30
0.0
 11
52.2655
 21
19.6196
 31
0.0
  0
LINE
  5
D5C
330
1D
100
AcDbEntity
  8
0
100
AcDbLine
 10
80.0824
 20
15.86
 30
0.0
 11
80.0824
 21
37.86
 31
0.0
  0
LINE
  5
D5D
330
1D
100
AcDbEntity
  8
0
100
AcDbLine
 10
52.2655
 20
19.6196
 30
0.0
 11
52.5084
 21
20.2088
 31
0.0
  0
LINE
  5
D5E
330
1D
100
AcDbEntity
  8
0
100
AcDbLine
 10
52.5824
 20
20.86
 30
0.0
 11
52.5824
 21
37.86
 31
0.0
  0
LINE
  5
D5F
330
1D
100
AcDbEntity
  8
0
100
AcDbLine
 10
52.5084
 20
20.2088
 30
0.0
 11
52.5824
 21
20.86
 31
0.0
  0
LINE
  5
D60
330
1D
100
AcDbEntity
  8
0
100
AcDbLine
 10
52.5824
 20
37.86
 30
0.0
 11
52.5824
 21
54.86
 31
0.0
  0
LINE
  5
D61
330
1D
100
AcDbEntity
  8
0
100
AcDbLine
 10
52.5824
 20
37.86
 30
0.0
 11
52.5824
 21
20.86
 31
0.0
  0
LINE
  5
D62
330
1D
100
AcDbEntity
  8
0
100
AcDbLine
 10
3.5824
 20
37.86
 30
0.0
 11
3.5824
 21
54.86
 31
0.0
  0
LINE
  5
D63
330
1D
100
AcDbEntity
  8
0
100
AcDbLine
 10
3.5824
 20
37.86
 30
0.0
 11
3.5824
 21
20.86
 31
0.0
  0
LINE
  5
D64
330
1D
100
AcDbEntity
  8
0
100
AcDbLine
 10
80.0824
 20
37.86
 30
0.0
 11
80.0824
 21
59.86
 31
0.0
  0
LINE
  5
D65
330
1D
100
AcDbEntity
  8
0
100
AcDbLine
 10
80.0824
 20
37.86
 30
0.0
 11
80.0824
 21
15.86
 31
0.0
  0
LINE
  5
D66
330
1D
100
AcDbEntity
  8
0
100
AcDbLine
 10
0.0824
 20
37.86
 30
0.0
 11
0.0824
 21
54.86
 31
0.0
  0
LINE
  5
D67
330
1D
100
AcDbEntity
  8
0
100
AcDbLine
 10
0.0824
 20
37.86
 30
0.0
 11
0.0824
 21
20.86
 31
0.0
  0
LINE
  5
D68
330
1D
100
AcDbEntity
  8
0
100
AcDbLine
 10
144.0824
 20
47.0245
 30
0.0
 11
144.0824
 21
34.86
 31
0.0
  0
LINE
  5
D69
330
1D
100
AcDbEntity
  8
0
100
AcDbLine
 10
144.0824
 20
47.0245
 30
0.0
 11
144.0824
 21
58.36
 31
0.0
  0
LINE
  5
D6A
330
1D
100
AcDbEntity
  8
0
100
AcDbLine
 10
144.0824
 20
14.86
 30
0.0
 11
144.0824
 21
34.86
 31
0.0
  0
LINE
  5
D6B
330
1D
100
AcDbEntity
  8
0
100
AcDbLine
 10
167.0824
 20
-0.14
 30
0.0
 11
412.9054
 21
-0.14
 31
0.0
  0
LINE
  5
D6C
330
1D
100
AcDbEntity
  8
0
100
AcDbLine
 10
167.0824
 20
-0.14
 30
0.0
 11
412.9054
 21
-0.14
 31
0.0
  0
LINE
  5
D6D
330
1D
100
AcDbEntity
  8
0
100
AcDbLine
 10
167.0824
 20
-0.14
 30
0.0
 11
412.9054
 21
-0.14
 31
0.0
  0
LINE
  5
D6E
330
1D
100
AcDbEntity
  8
0
100
AcDbLine
 10
167.0824
 20
-0.14
 30
0.0
 11
412.9054
 21
-0.14
 31
0.0
  0
LINE
  5
D6F
330
1D
100
AcDbEntity
  8
0
100
AcDbLine
 10
144.0824
 20
34.86
 30
0.0
 11
144.0824
 21
14.86
 31
0.0
  0
LINE
  5
D70
330
1D
100
AcDbEntity
  8
0
100
AcDbLine
 10
144.0824
 20
34.86
 30
0.0
 11
144.090486494522
 21
63.971380278588
 31
0.0
  0
LINE
  5
D71
330
1D
100
AcDbEntity
  8
0
100
AcDbLine
 10
144.0824
 20
34.86
 30
0.0
 11
144.0824
 21
47.0245
 31
0.0
  0
LINE
  5
D72
330
1D
100
AcDbEntity
  8
0
100
AcDbLine
 10
52.5824
 20
54.86
 30
0.0
 11
52.5824
 21
37.86
 31
0.0
  0
LINE
  5
D73
330
1D
100
AcDbEntity
  8
0
100
AcDbLine
 10
3.5824
 20
54.86
 30
0.0
 11
3.5824
 21
37.86
 31
0.0
  0
LINE
  5
D74
330
1D
100
AcDbEntity
  8
0
100
AcDbLine
 10
3.5824
 20
54.86
 30
0.0
 11
3.65645
 21
55.5112
 31
0.0
  0
LINE
  5
D75
330
1D
100
AcDbEntity
  8
0
100
AcDbLine
 10
3.65645
 20
55.5112
 30
0.0
 11
3.89926
 21
56.1004
 31
0.0
  0
LINE
  5
D76
330
1D
100
AcDbEntity
  8
0
100
AcDbLine
 10
52.5084
 20
55.5112
 30
0.0
 11
52.5824
 21
54.86
 31
0.0
  0
LINE
  5
D77
330
1D
100
AcDbEntity
  8
0
100
AcDbLine
 10
0.0824
 20
54.86
 30
0.0
 11
0.3824
 21
56.36
 31
0.0
  0
LINE
  5
D78
330
1D
100
AcDbEntity
  8
0
100
AcDbLine
 10
0.0824
 20
54.86
 30
0.0
 11
0.0824
 21
37.86
 31
0.0
  0
LINE
  5
D79
330
1D
100
AcDbEntity
  8
0
100
AcDbLine
 10
156.4784
 20
53.8564
 30
0.0
 11
156.7424
 21
53.5895
 31
0.0
  0
LINE
  5
D7A
330
1D
100
AcDbEntity
  8
0
100
AcDbLine
 10
156.7424
 20
53.5895
 30
0.0
 11
157.7984
 21
52.7167
 31
0.0
  0
LINE
  5
D7B
330
1D
100
AcDbEntity
  8
0
100
AcDbLine
 10
156.3464
 20
54.5376
 30
0.0
 11
156.7424
 21
55.4857
 31
0.0
  0
LINE
  5
D7C
330
1D
100
AcDbEntity
  8
0
100
AcDbLine
 10
156.3464
 20
54.5376
 30
0.0
 11
156.7424
 21
53.5895
 31
0.0
  0
LINE
  5
D7D
330
1D
100
AcDbEntity
  8
0
100
AcDbLine
 10
156.7424
 20
55.4857
 30
0.0
 11
157.7984
 21
56.3585
 31
0.0
  0
LINE
  5
D7E
330
1D
100
AcDbEntity
  8
0
100
AcDbLine
 10
156.0824
 20
54.8195
 30
0.0
 11
156.4784
 21
55.7826
 31
0.0
  0
LINE
  5
D7F
330
1D
100
AcDbEntity
  8
0
100
AcDbLine
 10
156.0824
 20
54.8195
 30
0.0
 11
156.4784
 21
53.8564
 31
0.0
  0
LINE
  5
D80
330
1D
100
AcDbEntity
  8
0
100
AcDbLine
 10
156.0824
 20
54.8195
 30
0.0
 11
156.0824
 21
59.308522167488
 31
0.0
  0
LINE
  5
D81
330
1D
100
AcDbEntity
  8
0
100
AcDbLine
 10
3.89926
 20
56.1004
 30
0.0
 11
4.31551
 21
56.629
 31
0.0
  0
LINE
  5
D82
330
1D
100
AcDbEntity
  8
0
100
AcDbLine
 10
0.3824
 20
56.36
 30
0.0
 11
0.9824
 21
57.76
 31
0.0
  0
LINE
  5
D83
330
1D
100
AcDbEntity
  8
0
100
AcDbLine
 10
52.2655
 20
56.1004
 30
0.0
 11
52.5084
 21
55.5112
 31
0.0
  0
LINE
  5
D84
330
1D
100
AcDbEntity
  8
0
100
AcDbLine
 10
4.31551
 20
56.629
 30
0.0
 11
4.79245
 21
57.0276
 31
0.0
  0
LINE
  5
D85
330
1D
100
AcDbEntity
  8
0
100
AcDbLine
 10
5.43417
 20
57.2789
 30
0.0
 11
6.0824
 21
57.36
 31
0.0
  0
LINE
  5
D86
330
1D
100
AcDbEntity
  8
0
100
AcDbLine
 10
4.79245
 20
57.0276
 30
0.0
 11
5.43417
 21
57.2789
 31
0.0
  0
LINE
  5
D87
330
1D
100
AcDbEntity
  8
0
100
AcDbLine
 10
50.0824
 20
57.36
 30
0.0
 11
50.7306
 21
57.2789
 31
0.0
  0
LINE
  5
D88
330
1D
100
AcDbEntity
  8
0
100
AcDbLine
 10
6.0824
 20
57.36
 30
0.0
 11
50.0824
 21
57.36
 31
0.0
  0
LINE
  5
D89
330
1D
100
AcDbEntity
  8
0
100
AcDbLine
 10
6.0824
 20
57.36
 30
0.0
 11
50.0824
 21
57.36
 31
0.0
  0
LINE
  5
D8A
330
1D
100
AcDbEntity
  8
0
100
AcDbLine
 10
51.8493
 20
56.629
 30
0.0
 11
52.2655
 21
56.1004
 31
0.0
  0
LINE
  5
D8B
330
1D
100
AcDbEntity
  8
0
100
AcDbLine
 10
51.3723
 20
57.0276
 30
0.0
 11
51.8493
 21
56.629
 31
0.0
  0
LINE
  5
D8C
330
1D
100
AcDbEntity
  8
0
100
AcDbLine
 10
50.7306
 20
57.2789
 30
0.0
 11
51.3723
 21
57.0276
 31
0.0
  0
LINE
  5
D8D
330
1D
100
AcDbEntity
  8
0
100
AcDbLine
 10
0.3824
 20
56.36
 30
0.0
 11
0.9824
 21
57.76
 31
0.0
  0
LINE
  5
D8E
330
1D
100
AcDbEntity
  8
0
100
AcDbLine
 10
156.4784
 20
55.7826
 30
0.0
 11
157.5344
 21
56.6856
 31
0.0
  0
LINE
  5
D8F
330
1D
100
AcDbEntity
  8
0
100
AcDbLine
 10
157.7984
 20
52.7167
 30
0.0
 11
159.5144
 21
51.9492
 31
0.0
  0
LINE
  5
D90
330
1D
100
AcDbEntity
  8
0
100
AcDbLine
 10
159.5144
 20
51.9492
 30
0.0
 11
161.7584
 21
51.3623
 31
0.0
  0
LINE
  5
D91
330
1D
100
AcDbEntity
  8
0
100
AcDbLine
 10
157.7984
 20
56.3585
 30
0.0
 11
159.5144
 21
57.126
 31
0.0
  0
LINE
  5
D92
330
1D
100
AcDbEntity
  8
0
100
AcDbLine
 10
159.5144
 20
57.126
 30
0.0
 11
161.7584
 21
57.7129
 31
0.0
  0
LINE
  5
D93
330
1D
100
AcDbEntity
  8
0
100
AcDbLine
 10
157.5344
 20
56.6856
 30
0.0
 11
159.2944
 21
57.4832
 31
0.0
  0
LINE
  5
D94
330
1D
100
AcDbEntity
  8
0
100
AcDbLine
 10
0.9824
 20
57.76
 30
0.0
 11
1.8824
 21
59.06
 31
0.0
  0
LINE
  5
D95
330
1D
100
AcDbEntity
  8
0
100
AcDbLine
 10
144.0824
 20
58.36
 30
0.0
 11
144.0824
 21
47.0245
 31
0.0
  0
LINE
  5
D96
330
1D
100
AcDbEntity
  8
0
100
AcDbLine
 10
144.0824
 20
58.36
 30
0.0
 11
144.0824
 21
66.7345
 31
0.0
  0
LINE
  5
D97
330
1D
100
AcDbEntity
  8
0
100
AcDbLine
 10
159.2944
 20
57.4832
 30
0.0
 11
161.6264
 21
58.0851
 31
0.0
  0
LINE
  5
D98
330
1D
100
AcDbEntity
  8
0
100
AcDbLine
 10
161.7584
 20
51.3623
 30
0.0
 11
164.3104
 21
51.0011
 31
0.0
  0
LINE
  5
D99
330
1D
100
AcDbEntity
  8
0
100
AcDbLine
 10
164.3104
 20
51.0011
 30
0.0
 11
167.0824
 21
50.8657
 31
0.0
  0
LINE
  5
D9A
330
1D
100
AcDbEntity
  8
0
100
AcDbLine
 10
161.7584
 20
57.7129
 30
0.0
 11
164.3104
 21
58.0741
 31
0.0
  0
LINE
  5
D9B
330
1D
100
AcDbEntity
  8
0
100
AcDbLine
 10
164.3104
 20
58.0741
 30
0.0
 11
167.0824
 21
58.2095
 31
0.0
  0
LINE
  5
D9C
330
1D
100
AcDbEntity
  8
0
100
AcDbLine
 10
161.6264
 20
58.0851
 30
0.0
 11
164.2664
 21
58.4463
 31
0.0
  0
LINE
  5
D9D
330
1D
100
AcDbEntity
  8
0
100
AcDbLine
 10
164.2664
 20
58.4463
 30
0.0
 11
167.0824
 21
58.5817
 31
0.0
  0
LINE
  5
D9E
330
1D
100
AcDbEntity
  8
0
100
AcDbLine
 10
1.8824
 20
59.06
 30
0.0
 11
3.1824
 21
59.96
 31
0.0
  0
LINE
  5
D9F
330
1D
100
AcDbEntity
  8
0
100
AcDbLine
 10
80.0824
 20
59.86
 30
0.0
 11
80.0824
 21
37.86
 31
0.0
  0
LINE
  5
DA0
330
1D
100
AcDbEntity
  8
0
100
AcDbLine
 10
79.7824
 20
60.56
 30
0.0
 11
80.0824
 21
59.86
 31
0.0
  0
LINE
  5
DA1
330
1D
100
AcDbEntity
  8
0
100
AcDbLine
 10
3.1824
 20
59.96
 30
0.0
 11
4.5824
 21
60.56
 31
0.0
  0
LINE
  5
DA2
330
1D
100
AcDbEntity
  8
0
100
AcDbLine
 10
6.0824
 20
60.86
 30
0.0
 11
74.0824
 21
60.86
 31
0.0
  0
LINE
  5
DA3
330
1D
100
AcDbEntity
  8
0
100
AcDbLine
 10
6.0824
 20
60.86
 30
0.0
 11
74.0824
 21
60.86
 31
0.0
  0
LINE
  5
DA4
330
1D
100
AcDbEntity
  8
0
100
AcDbLine
 10
77.5824
 20
60.86
 30
0.0
 11
78.3824
 21
60.86
 31
0.0
  0
LINE
  5
DA5
330
1D
100
AcDbEntity
  8
0
100
AcDbLine
 10
78.3824
 20
60.86
 30
0.0
 11
78.8824
 21
60.86
 31
0.0
  0
LINE
  5
DA6
330
1D
100
AcDbEntity
  8
0
100
AcDbLine
 10
78.8824
 20
60.86
 30
0.0
 11
79.0824
 21
60.86
 31
0.0
  0
LINE
  5
DA7
330
1D
100
AcDbEntity
  8
0
100
AcDbLine
 10
79.0824
 20
60.86
 30
0.0
 11
79.7824
 21
60.56
 31
0.0
  0
LINE
  5
DA8
330
1D
100
AcDbEntity
  8
0
100
AcDbLine
 10
75.2824
 20
60.86
 30
0.0
 11
77.5824
 21
60.86
 31
0.0
  0
LINE
  5
DA9
330
1D
100
AcDbEntity
  8
0
100
AcDbLine
 10
74.0824
 20
60.86
 30
0.0
 11
75.2824
 21
60.86
 31
0.0
  0
LINE
  5
DAA
330
1D
100
AcDbEntity
  8
0
100
AcDbLine
 10
4.5824
 20
60.56
 30
0.0
 11
6.0824
 21
60.86
 31
0.0
  0
LINE
  5
DAB
330
1D
100
AcDbEntity
  8
0
100
AcDbLine
 10
152.6234
 20
59.46
 30
0.0
 11
152.7504
 21
59.46
 31
0.0
  0
LINE
  5
DAC
330
1D
100
AcDbEntity
  8
0
100
AcDbLine
 10
152.7504
 20
59.46
 30
0.0
 11
153.053552719665
 21
59.426788702929
 31
0.0
  0
LINE
  5
DAD
330
1D
100
AcDbEntity
  8
0
100
AcDbLine
 10
150.5814
 20
59.86
 30
0.0
 11
152.6234
 21
59.46
 31
0.0
  0
LINE
  5
DAE
330
1D
100
AcDbEntity
  8
0
100
AcDbLine
 10
148.7324
 20
60.66
 30
0.0
 11
150.5814
 21
59.86
 31
0.0
  0
LINE
  5
DAF
330
1D
100
AcDbEntity
  8
0
100
AcDbLine
 10
147.0794
 20
61.86
 30
0.0
 11
148.7324
 21
60.66
 31
0.0
  0
LINE
  5
DB0
330
1D
100
AcDbEntity
  8
0
100
AcDbLine
 10
145.8814
 20
63.56
 30
0.0
 11
147.0764
 21
61.86
 31
0.0
  0
LINE
  5
DB1
330
1D
100
AcDbEntity
  8
0
100
AcDbLine
 10
144.0824
 20
66.7345
 30
0.0
 11
144.0824
 21
58.36
 31
0.0
  0
LINE
  5
DB2
330
1D
100
AcDbEntity
  8
0
100
AcDbLine
 10
144.0824
 20
66.7345
 30
0.0
 11
144.0824
 21
71.3674
 31
0.0
  0
LINE
  5
DB3
330
1D
100
AcDbEntity
  8
0
100
AcDbLine
 10
144.0824
 20
70.9662
 30
0.0
 11
144.0824
 21
70.86
 31
0.0
  0
LINE
  5
DB4
330
1D
100
AcDbEntity
  8
0
100
AcDbLine
 10
144.0824
 20
70.86
 30
0.0
 11
144.0824
 21
70.9662
 31
0.0
  0
LINE
  5
DB5
330
1D
100
AcDbEntity
  8
0
100
AcDbLine
 10
144.0824
 20
70.86
 30
0.0
 11
144.0824
 21
34.86
 31
0.0
  0
LINE
  5
DB6
330
1D
100
AcDbEntity
  8
0
100
AcDbLine
 10
144.0824
 20
73.86
 30
0.0
 11
144.3824
 21
74.56
 31
0.0
  0
LINE
  5
DB7
330
1D
100
AcDbEntity
  8
0
100
AcDbLine
 10
144.0824
 20
73.86
 30
0.0
 11
144.0824
 21
72.86
 31
0.0
  0
LINE
  5
DB8
330
1D
100
AcDbEntity
  8
0
100
AcDbLine
 10
144.0824
 20
72.86
 30
0.0
 11
144.0824
 21
73.86
 31
0.0
  0
LINE
  5
DB9
330
1D
100
AcDbEntity
  8
0
100
AcDbLine
 10
144.0824
 20
71.3674
 30
0.0
 11
144.0824
 21
66.7345
 31
0.0
  0
LINE
  5
DBA
330
1D
100
AcDbEntity
  8
0
100
AcDbLine
 10
144.0824
 20
71.3674
 30
0.0
 11
144.0824
 21
72.86
 31
0.0
  0
LINE
  5
DBB
330
1D
100
AcDbEntity
  8
0
100
AcDbLine
 10
145.0824
 20
74.86
 30
0.0
 11
146.8824
 21
74.86
 31
0.0
  0
LINE
  5
DBC
330
1D
100
AcDbEntity
  8
0
100
AcDbLine
 10
155.6164
 20
74.86
 30
0.0
 11
158.1874
 21
74.86
 31
0.0
  0
LINE
  5
DBD
330
1D
100
AcDbEntity
  8
0
100
AcDbLine
 10
153.4674
 20
74.86
 30
0.0
 11
155.6164
 21
74.86
 31
0.0
  0
LINE
  5
DBE
330
1D
100
AcDbEntity
  8
0
100
AcDbLine
 10
151.5864
 20
74.86
 30
0.0
 11
153.4674
 21
74.86
 31
0.0
  0
LINE
  5
DBF
330
1D
100
AcDbEntity
  8
0
100
AcDbLine
 10
149.7824
 20
74.86
 30
0.0
 11
151.5864
 21
74.86
 31
0.0
  0
LINE
  5
DC0
330
1D
100
AcDbEntity
  8
0
100
AcDbLine
 10
148.0824
 20
74.86
 30
0.0
 11
149.7824
 21
74.86
 31
0.0
  0
LINE
  5
DC1
330
1D
100
AcDbEntity
  8
0
100
AcDbLine
 10
146.8824
 20
74.86
 30
0.0
 11
148.0824
 21
74.86
 31
0.0
  0
LINE
  5
DC2
330
1D
100
AcDbEntity
  8
0
100
AcDbLine
 10
144.3824
 20
74.56
 30
0.0
 11
145.0824
 21
74.86
 31
0.0
  0
LINE
  5
DC3
330
1D
100
AcDbEntity
  8
0
100
AcDbLine
 10
144.0824
 20
72.86
 30
0.0
 11
144.0824
 21
71.3674
 31
0.0
  0
LINE
  5
DC4
330
1D
100
AcDbEntity
  8
0
100
AcDbLine
 10
164.7974
 20
74.86
 30
0.0
 11
167.0824
 21
74.86
 31
0.0
  0
LINE
  5
DC5
330
1D
100
AcDbEntity
  8
0
100
AcDbLine
 10
161.6824
 20
74.86
 30
0.0
 11
164.7974
 21
74.86
 31
0.0
  0
LINE
  5
DC6
330
1D
100
AcDbEntity
  8
0
100
AcDbLine
 10
158.1874
 20
74.86
 30
0.0
 11
161.6824
 21
74.86
 31
0.0
  0
LINE
  5
DC7
330
1D
100
AcDbEntity
  8
0
100
AcDbLine
 10
156.0824
 20
59.308522167488
 30
0.0
 11
156.0824
 21
54.8195
 31
0.0
  0
LINE
  5
DC8
330
1D
100
AcDbEntity
  8
0
100
AcDbLine
 10
412.9054
 20
-0.14
 30
0.0
 11
413.7294
 21
-0.14
 31
0.0
  0
LINE
  5
DC9
330
1D
100
AcDbEntity
  8
0
100
AcDbLine
 10
414.5114
 20
-0.14
 30
0.0
 11
415.2534
 21
-0.14
 31
0.0
  0
LINE
  5
DCA
330
1D
100
AcDbEntity
  8
0
100
AcDbLine
 10
413.7294
 20
-0.14
 30
0.0
 11
414.5114
 21
-0.14
 31
0.0
  0
LINE
  5
DCB
330
1D
100
AcDbEntity
  8
0
100
AcDbLine
 10
415.9944
 20
-0.14
 30
0.0
 11
416.6534
 21
-0.14
 31
0.0
  0
LINE
  5
DCC
330
1D
100
AcDbEntity
  8
0
100
AcDbLine
 10
415.2534
 20
-0.14
 30
0.0
 11
415.9944
 21
-0.14
 31
0.0
  0
LINE
  5
DCD
330
1D
100
AcDbEntity
  8
0
100
AcDbLine
 10
417.2704
 20
-0.14
 30
0.0
 11
417.8064
 21
-0.14
 31
0.0
  0
LINE
  5
DCE
330
1D
100
AcDbEntity
  8
0
100
AcDbLine
 10
417.8064
 20
-0.14
 30
0.0
 11
418.2594
 21
-0.14
 31
0.0
  0
LINE
  5
DCF
330
1D
100
AcDbEntity
  8
0
100
AcDbLine
 10
418.2594
 20
-0.14
 30
0.0
 11
418.5884
 21
-0.14
 31
0.0
  0
LINE
  5
DD0
330
1D
100
AcDbEntity
  8
0
100
AcDbLine
 10
418.5884
 20
-0.14
 30
0.0
 11
418.8764
 21
-0.14
 31
0.0
  0
LINE
  5
DD1
330
1D
100
AcDbEntity
  8
0
100
AcDbLine
 10
418.8764
 20
-0.14
 30
0.0
 11
419.0004
 21
-0.14
 31
0.0
  0
LINE
  5
DD2
330
1D
100
AcDbEntity
  8
0
100
AcDbLine
 10
419.0004
 20
-0.14
 30
0.0
 11
419.0824
 21
-0.14
 31
0.0
  0
LINE
  5
DD3
330
1D
100
AcDbEntity
  8
0
100
AcDbLine
 10
416.6534
 20
-0.14
 30
0.0
 11
417.2704
 21
-0.14
 31
0.0
  0
LINE
  5
DD4
330
1D
100
AcDbEntity
  8
0
100
AcDbLine
 10
417.2704
 20
-0.14
 30
0.0
 11
417.8064
 21
-0.14
 31
0.0
  0
LINE
  5
DD5
330
1D
100
AcDbEntity
  8
0
100
AcDbLine
 10
417.8064
 20
-0.14
 30
0.0
 11
418.2594
 21
-0.14
 31
0.0
  0
LINE
  5
DD6
330
1D
100
AcDbEntity
  8
0
100
AcDbLine
 10
418.2594
 20
-0.14
 30
0.0
 11
418.5884
 21
-0.14
 31
0.0
  0
LINE
  5
DD7
330
1D
100
AcDbEntity
  8
0
100
AcDbLine
 10
418.5884
 20
-0.14
 30
0.0
 11
418.8764
 21
-0.14
 31
0.0
  0
LINE
  5
DD8
330
1D
100
AcDbEntity
  8
0
100
AcDbLine
 10
419.0824
 20
-0.14
 30
0.0
 11
419.0824
 21
14.36
 31
0.0
  0
LINE
  5
DD9
330
1D
100
AcDbEntity
  8
0
100
AcDbLine
 10
419.0824
 20
14.36
 30
0.0
 11
419.0824
 21
-0.14
 31
0.0
  0
LINE
  5
DDA
330
1D
100
AcDbEntity
  8
0
100
AcDbLine
 10
418.8764
 20
-0.14
 30
0.0
 11
419.0004
 21
-0.14
 31
0.0
  0
LINE
  5
DDB
330
1D
100
AcDbEntity
  8
0
100
AcDbLine
 10
419.0004
 20
-0.14
 30
0.0
 11
419.0824
 21
-0.14
 31
0.0
  0
LINE
  5
DDC
330
1D
100
AcDbEntity
  8
0
100
AcDbLine
 10
418.9584
 20
14.71
 30
0.0
 11
419.0824
 21
14.36
 31
0.0
  0
LINE
  5
DDD
330
1D
100
AcDbEntity
  8
0
100
AcDbLine
 10
416.6534
 20
-0.14
 30
0.0
 11
417.2704
 21
-0.14
 31
0.0
  0
LINE
  5
DDE
330
1D
100
AcDbEntity
  8
0
100
AcDbLine
 10
415.9944
 20
-0.14
 30
0.0
 11
416.6534
 21
-0.14
 31
0.0
  0
LINE
  5
DDF
330
1D
100
AcDbEntity
  8
0
100
AcDbLine
 10
415.2534
 20
-0.14
 30
0.0
 11
415.9944
 21
-0.14
 31
0.0
  0
LINE
  5
DE0
330
1D
100
AcDbEntity
  8
0
100
AcDbLine
 10
414.5114
 20
-0.14
 30
0.0
 11
415.2534
 21
-0.14
 31
0.0
  0
LINE
  5
DE1
330
1D
100
AcDbEntity
  8
0
100
AcDbLine
 10
413.7294
 20
-0.14
 30
0.0
 11
414.5114
 21
-0.14
 31
0.0
  0
LINE
  5
DE2
330
1D
100
AcDbEntity
  8
0
100
AcDbLine
 10
412.9054
 20
-0.14
 30
0.0
 11
413.7294
 21
-0.14
 31
0.0
  0
LINE
  5
DE4
330
1D
100
AcDbEntity
  8
0
100
AcDbLine
 10
418.6704
 20
14.86
 30
0.0
 11
418.9584
 21
14.71
 31
0.0
  0
LINE
  5
DE5
330
1D
100
AcDbEntity
  8
0
100
AcDbLine
 10
415.0884
 20
14.86
 30
0.0
 11
418.6704
 21
14.86
 31
0.0
  0
LINE
  5
DE6
330
1D
100
AcDbEntity
  8
0
100
AcDbLine
 10
414.3884
 20
14.86
 30
0.0
 11
415.0884
 21
14.86
 31
0.0
  0
LINE
  5
DE7
330
1D
100
AcDbEntity
  8
0
100
AcDbLine
 10
413.6474
 20
14.86
 30
0.0
 11
414.3884
 21
14.86
 31
0.0
  0
LINE
  5
E22
330
1D
100
AcDbEntity
  8
0
100
AcDbLine
 10
328.0824
 20
14.86
 30
0.0
 11
413.6474
 21
14.86
 31
0.0
  0
LINE
  5
E23
330
1D
100
AcDbEntity
  8
0
100
AcDbLine
 10
375.4664
 20
112.262
 30
0.0
 11
376.7144
 21
109.349
 31
0.0
  0
LINE
  5
E24
330
1D
100
AcDbEntity
  8
0
100
AcDbLine
 10
375.0824
 20
115.351
 30
0.0
 11
375.4664
 21
118.528
 31
0.0
  0
LINE
  5
E26
330
1D
100
AcDbEntity
  8
0
100
AcDbLine
 10
375.0824
 20
115.351
 30
0.0
 11
375.4664
 21
112.262
 31
0.0
  0
LINE
  5
E27
330
1D
100
AcDbEntity
  8
0
100
AcDbLine
 10
376.7144
 20
109.349
 30
0.0
 11
378.6344
 21
106.79
 31
0.0
  0
LINE
  5
E28
330
1D
100
AcDbEntity
  8
0
100
AcDbLine
 10
375.4664
 20
118.528
 30
0.0
 11
376.7144
 21
121.44
 31
0.0
  0
LINE
  5
E29
330
1D
100
AcDbEntity
  8
0
100
AcDbLine
 10
376.7144
 20
121.44
 30
0.0
 11
377.302143916615
 21
122.223658555487
 31
0.0
  0
LINE
  5
E2A
330
1D
100
AcDbEntity
  8
0
100
AcDbLine
 10
378.6344
 20
106.79
 30
0.0
 11
381.1304
 21
104.848
 31
0.0
  0
LINE
  5
E2B
330
1D
100
AcDbEntity
  8
0
100
AcDbLine
 10
381.1304
 20
104.848
 30
0.0
 11
384.0104
 21
103.612
 31
0.0
  0
LINE
  5
E2C
330
1D
100
AcDbEntity
  8
0
100
AcDbLine
 10
384.0104
 20
103.612
 30
0.0
 11
387.0824
 21
103.171
 31
0.0
  0
LINE
  5
E2D
330
1D
100
AcDbEntity
  8
0
100
AcDbLine
 10
384.8744
 20
106.966
 30
0.0
 11
387.0824
 21
106.613
 31
0.0
  0
LINE
  5
E2E
330
1D
100
AcDbEntity
  8
0
100
AcDbLine
 10
382.7624
 20
107.76
 30
0.0
 11
384.8744
 21
106.966
 31
0.0
  0
LINE
  5
E2F
330
1D
100
AcDbEntity
  8
0
100
AcDbLine
 10
380.9384
 20
109.172
 30
0.0
 11
382.7624
 21
107.76
 31
0.0
  0
LINE
  5
E30
330
1D
100
AcDbEntity
  8
0
100
AcDbLine
 10
379.5944
 20
111.026
 30
0.0
 11
380.9384
 21
109.172
 31
0.0
  0
LINE
  5
E31
330
1D
100
AcDbEntity
  8
0
100
AcDbLine
 10
378.7304
 20
113.144
 30
0.0
 11
379.5944
 21
111.026
 31
0.0
  0
LINE
  5
E32
330
1D
100
AcDbEntity
  8
0
100
AcDbLine
 10
378.4424
 20
115.351
 30
0.0
 11
378.7304
 21
113.144
 31
0.0
  0
LINE
  5
E33
330
1D
100
AcDbEntity
  8
0
100
AcDbLine
 10
378.4424
 20
115.351
 30
0.0
 11
378.4424
 21
122.125045882159
 31
0.0
  0
LINE
  5
E34
330
1D
100
AcDbEntity
  8
0
100
AcDbLine
 10
387.0824
 20
103.171
 30
0.0
 11
390.1544
 21
103.612
 31
0.0
  0
LINE
  5
E35
330
1D
100
AcDbEntity
  8
0
100
AcDbLine
 10
387.0824
 20
106.613
 30
0.0
 11
389.2904
 21
106.966
 31
0.0
  0
LINE
  5
E36
330
1D
100
AcDbEntity
  8
0
100
AcDbLine
 10
380.6114
 20
122.416
 30
0.0
 11
381.8754
 21
122.725
 31
0.0
  0
LINE
  5
E37
330
1D
100
AcDbEntity
  8
0
100
AcDbLine
 10
378.4424
 20
122.125045882159
 30
0.0
 11
378.4424
 21
115.351
 31
0.0
  0
LINE
  5
E38
330
1D
100
AcDbEntity
  8
0
100
AcDbLine
 10
338.3234
 20
139.849
 30
0.0
 11
339.5644
 21
137.289
 31
0.0
  0
LINE
  5
E39
330
1D
100
AcDbEntity
  8
0
100
AcDbLine
 10
350.9524
 20
129.653
 30
0.0
 11
350.9524
 21
130.549150201904
 31
0.0
  0
LINE
  5
E3A
330
1D
100
AcDbEntity
  8
0
100
AcDbLine
 10
350.9524
 20
129.653
 30
0.0
 11
350.9524
 21
130.27
 31
0.0
  0
LINE
  5
E3B
330
1D
100
AcDbEntity
  8
0
100
AcDbLine
 10
350.9524
 20
129.653
 30
0.0
 11
352.4124
 21
129.653
 31
0.0
  0
LINE
  5
E3C
330
1D
100
AcDbEntity
  8
0
100
AcDbLine
 10
352.4124
 20
129.653
 30
0.0
 11
352.4124
 21
130.27
 31
0.0
  0
LINE
  5
E3D
330
1D
100
AcDbEntity
  8
0
100
AcDbLine
 10
351.440064609054
 20
129.653
 30
0.0
 11
353.8704
 21
128.497
 31
0.0
  0
LINE
  5
E3E
330
1D
100
AcDbEntity
  8
0
100
AcDbLine
 10
346.1664
 20
133.084
 30
0.0
 11
346.1664
 21
133.701
 31
0.0
  0
LINE
  5
E3F
330
1D
100
AcDbEntity
  8
0
100
AcDbLine
 10
346.1664
 20
133.084
 30
0.0
 11
347.6264
 21
133.084
 31
0.0
  0
LINE
  5
E40
330
1D
100
AcDbEntity
  8
0
100
AcDbLine
 10
346.1664
 20
133.701
 30
0.0
 11
346.1664
 21
133.084
 31
0.0
  0
LINE
  5
E41
330
1D
100
AcDbEntity
  8
0
100
AcDbLine
 10
346.1664
 20
133.701
 30
0.0
 11
346.1664
 21
134.889975804253
 31
0.0
  0
LINE
  5
E42
330
1D
100
AcDbEntity
  8
0
100
AcDbLine
 10
346.1664
 20
133.701
 30
0.0
 11
347.6264
 21
133.701
 31
0.0
  0
LINE
  5
E43
330
1D
100
AcDbEntity
  8
0
100
AcDbLine
 10
352.4124
 20
130.27
 30
0.0
 11
352.4124
 21
131.070939121757
 31
0.0
  0
LINE
  5
E44
330
1D
100
AcDbEntity
  8
0
100
AcDbLine
 10
352.4124
 20
130.27
 30
0.0
 11
352.4124
 21
129.653
 31
0.0
  0
LINE
  5
E45
330
1D
100
AcDbEntity
  8
0
100
AcDbLine
 10
350.9524
 20
130.27
 30
0.0
 11
350.9524
 21
129.653
 31
0.0
  0
LINE
  5
E46
330
1D
100
AcDbEntity
  8
0
100
AcDbLine
 10
350.9524
 20
130.27
 30
0.0
 11
350.9524
 21
130.721106060606
 31
0.0
  0
LINE
  5
E47
330
1D
100
AcDbEntity
  8
0
100
AcDbLine
 10
350.9524
 20
130.27
 30
0.0
 11
352.4124
 21
130.27
 31
0.0
  0
LINE
  5
E48
330
1D
100
AcDbEntity
  8
0
100
AcDbLine
 10
347.6264
 20
133.701
 30
0.0
 11
347.6264
 21
134.85803332879
 31
0.0
  0
LINE
  5
E49
330
1D
100
AcDbEntity
  8
0
100
AcDbLine
 10
347.6264
 20
133.701
 30
0.0
 11
347.6264
 21
133.084
 31
0.0
  0
LINE
  5
E4A
330
1D
100
AcDbEntity
  8
0
100
AcDbLine
 10
350.9524
 20
130.549150201904
 30
0.0
 11
350.9524
 21
129.653
 31
0.0
  0
LINE
  5
E4B
330
1D
100
AcDbEntity
  8
0
100
AcDbLine
 10
352.4124
 20
131.070939121757
 30
0.0
 11
352.4124
 21
130.27
 31
0.0
  0
LINE
  5
E4C
330
1D
100
AcDbEntity
  8
0
100
AcDbLine
 10
350.9524
 20
130.721106060606
 30
0.0
 11
350.9524
 21
130.27
 31
0.0
  0
LINE
  5
E4D
330
1D
100
AcDbEntity
  8
0
100
AcDbLine
 10
347.6264
 20
133.084
 30
0.0
 11
347.6264
 21
133.701
 31
0.0
  0
LINE
  5
E4E
330
1D
100
AcDbEntity
  8
0
100
AcDbLine
 10
349.7834
 20
130.441
 30
0.0
 11
350.9524
 21
129.884959872767
 31
0.0
  0
LINE
  5
E4F
330
1D
100
AcDbEntity
  8
0
100
AcDbLine
 10
346.2794
 20
132.631
 30
0.0
 11
349.7834
 21
130.441
 31
0.0
  0
LINE
  5
E50
330
1D
100
AcDbEntity
  8
0
100
AcDbLine
 10
348.0314
 20
129.885
 30
0.0
 11
352.2654
 21
127.819
 31
0.0
  0
LINE
  5
E51
330
1D
100
AcDbEntity
  8
0
100
AcDbLine
 10
344.3814
 20
132.168
 30
0.0
 11
348.0314
 21
129.885
 31
0.0
  0
LINE
  5
E52
330
1D
100
AcDbEntity
  8
0
100
AcDbLine
 10
342.8404
 20
137.167
 30
0.0
 11
342.8404
 21
137.746770981508
 31
0.0
  0
LINE
  5
E53
330
1D
100
AcDbEntity
  8
0
100
AcDbLine
 10
342.8404
 20
137.167
 30
0.0
 11
342.8404
 21
137.784
 31
0.0
  0
LINE
  5
E54
330
1D
100
AcDbEntity
  8
0
100
AcDbLine
 10
342.8404
 20
137.167
 30
0.0
 11
344.3004
 21
137.167
 31
0.0
  0
LINE
  5
E55
330
1D
100
AcDbEntity
  8
0
100
AcDbLine
 10
347.6264
 20
134.85803332879
 30
0.0
 11
347.6264
 21
133.701
 31
0.0
  0
LINE
  5
E56
330
1D
100
AcDbEntity
  8
0
100
AcDbLine
 10
346.1664
 20
134.889975804253
 30
0.0
 11
346.1664
 21
133.701
 31
0.0
  0
LINE
  5
E57
330
1D
100
AcDbEntity
  8
0
100
AcDbLine
 10
353.2224
 20
136.782
 30
0.0
 11
353.2224
 21
137.399
 31
0.0
  0
LINE
  5
E58
330
1D
100
AcDbEntity
  8
0
100
AcDbLine
 10
351.7624
 20
136.782
 30
0.0
 11
351.7624
 21
137.945156397395
 31
0.0
  0
LINE
  5
E59
330
1D
100
AcDbEntity
  8
0
100
AcDbLine
 10
351.7624
 20
136.782
 30
0.0
 11
351.7624
 21
137.399
 31
0.0
  0
LINE
  5
E5A
330
1D
100
AcDbEntity
  8
0
100
AcDbLine
 10
351.7624
 20
136.782
 30
0.0
 11
353.2224
 21
136.782
 31
0.0
  0
LINE
  5
E5B
330
1D
100
AcDbEntity
  8
0
100
AcDbLine
 10
344.3004
 20
137.167
 30
0.0
 11
344.3004
 21
137.784
 31
0.0
  0
LINE
  5
E5C
330
1D
100
AcDbEntity
  8
0
100
AcDbLine
 10
343.6514
 20
134.945
 30
0.0
 11
346.2794
 21
132.631
 31
0.0
  0
LINE
  5
E5D
330
1D
100
AcDbEntity
  8
0
100
AcDbLine
 10
341.6814
 20
134.575
 30
0.0
 11
344.3814
 21
132.168
 31
0.0
  0
LINE
  5
E5E
330
1D
100
AcDbEntity
  8
0
100
AcDbLine
 10
340.9514
 20
135.358
 30
0.0
 11
341.6814
 21
134.575
 31
0.0
  0
LINE
  5
E5F
330
1D
100
AcDbEntity
  8
0
100
AcDbLine
 10
353.2224
 20
137.399
 30
0.0
 11
353.2224
 21
137.977620274014
 31
0.0
  0
LINE
  5
E60
330
1D
100
AcDbEntity
  8
0
100
AcDbLine
 10
353.2224
 20
137.399
 30
0.0
 11
353.2224
 21
136.782
 31
0.0
  0
LINE
  5
E61
330
1D
100
AcDbEntity
  8
0
100
AcDbLine
 10
351.7624
 20
137.399
 30
0.0
 11
351.7624
 21
136.782
 31
0.0
  0
LINE
  5
E62
330
1D
100
AcDbEntity
  8
0
100
AcDbLine
 10
351.7624
 20
137.399
 30
0.0
 11
351.7624
 21
137.945156397395
 31
0.0
  0
LINE
  5
E63
330
1D
100
AcDbEntity
  8
0
100
AcDbLine
 10
351.7624
 20
137.399
 30
0.0
 11
353.2224
 21
137.399
 31
0.0
  0
LINE
  5
E64
330
1D
100
AcDbEntity
  8
0
100
AcDbLine
 10
342.8404
 20
137.746770981508
 30
0.0
 11
342.8404
 21
137.167
 31
0.0
  0
LINE
  5
E65
330
1D
100
AcDbEntity
  8
0
100
AcDbLine
 10
353.2224
 20
137.977620274014
 30
0.0
 11
353.2224
 21
137.399
 31
0.0
  0
LINE
  5
E66
330
1D
100
AcDbEntity
  8
0
100
AcDbLine
 10
351.7624
 20
137.945156397395
 30
0.0
 11
351.7624
 21
137.399
 31
0.0
  0
LINE
  5
E67
330
1D
100
AcDbEntity
  8
0
100
AcDbLine
 10
351.7624
 20
137.945156397395
 30
0.0
 11
351.7624
 21
136.782
 31
0.0
  0
LINE
  5
E68
330
1D
100
AcDbEntity
  8
0
100
AcDbLine
 10
344.3004
 20
137.784
 30
0.0
 11
344.3004
 21
137.167
 31
0.0
  0
LINE
  5
E69
330
1D
100
AcDbEntity
  8
0
100
AcDbLine
 10
342.8404
 20
137.784
 30
0.0
 11
342.8404
 21
137.167
 31
0.0
  0
LINE
  5
E6A
330
1D
100
AcDbEntity
  8
0
100
AcDbLine
 10
342.8404
 20
137.784
 30
0.0
 11
344.3004
 21
137.784
 31
0.0
  0
LINE
  5
E6B
330
1D
100
AcDbEntity
  8
0
100
AcDbLine
 10
341.6814
 20
137.721
 30
0.0
 11
343.6514
 21
134.945
 31
0.0
  0
LINE
  5
E6C
330
1D
100
AcDbEntity
  8
0
100
AcDbLine
 10
340.4404
 20
139.911
 30
0.0
 11
341.6814
 21
137.721
 31
0.0
  0
LINE
  5
E6D
330
1D
100
AcDbEntity
  8
0
100
AcDbLine
 10
339.5644
 20
137.289
 30
0.0
 11
341.6814
 21
134.575
 31
0.0
  0
LINE
  5
E6E
330
1D
100
AcDbEntity
  8
0
100
AcDbLine
 10
338.9074
 20
137.98
 30
0.0
 11
340.9514
 21
135.358
 31
0.0
  0
LINE
  5
E6F
330
1D
100
AcDbEntity
  8
0
100
AcDbLine
 10
351.6814
 20
140.866
 30
0.0
 11
351.6814
 21
141.483
 31
0.0
  0
LINE
  5
E70
330
1D
100
AcDbEntity
  8
0
100
AcDbLine
 10
350.2214
 20
140.866
 30
0.0
 11
350.2214
 21
141.865390106721
 31
0.0
  0
LINE
  5
E71
330
1D
100
AcDbEntity
  8
0
100
AcDbLine
 10
350.2214
 20
140.866
 30
0.0
 11
350.2214
 21
141.483
 31
0.0
  0
LINE
  5
E72
330
1D
100
AcDbEntity
  8
0
100
AcDbLine
 10
350.2214
 20
140.866
 30
0.0
 11
351.6814
 21
140.866
 31
0.0
  0
LINE
  5
E73
330
1D
100
AcDbEntity
  8
0
100
AcDbLine
 10
350.2214
 20
141.865390106721
 30
0.0
 11
350.2214
 21
141.483
 31
0.0
  0
LINE
  5
E74
330
1D
100
AcDbEntity
  8
0
100
AcDbLine
 10
350.2214
 20
141.865390106721
 30
0.0
 11
350.2214
 21
140.866
 31
0.0
  0
LINE
  5
E75
330
1D
100
AcDbEntity
  8
0
100
AcDbLine
 10
351.6814
 20
141.483
 30
0.0
 11
351.6814
 21
141.77000793193
 31
0.0
  0
LINE
  5
E76
330
1D
100
AcDbEntity
  8
0
100
AcDbLine
 10
351.6814
 20
141.483
 30
0.0
 11
351.6814
 21
140.866
 31
0.0
  0
LINE
  5
E77
330
1D
100
AcDbEntity
  8
0
100
AcDbLine
 10
351.6814
 20
141.77000793193
 30
0.0
 11
351.6814
 21
141.483
 31
0.0
  0
LINE
  5
E78
330
1D
100
AcDbEntity
  8
0
100
AcDbLine
 10
350.2214
 20
141.483
 30
0.0
 11
350.2214
 21
140.866
 31
0.0
  0
LINE
  5
E79
330
1D
100
AcDbEntity
  8
0
100
AcDbLine
 10
350.2214
 20
141.483
 30
0.0
 11
350.2214
 21
141.865390106721
 31
0.0
  0
LINE
  5
E7A
330
1D
100
AcDbEntity
  8
0
100
AcDbLine
 10
350.2214
 20
141.483
 30
0.0
 11
351.6814
 21
141.483
 31
0.0
  0
LINE
  5
E7B
330
1D
100
AcDbEntity
  8
0
100
AcDbLine
 10
342.9214
 20
141.319
 30
0.0
 11
342.9214
 21
141.936
 31
0.0
  0
LINE
  5
E7C
330
1D
100
AcDbEntity
  8
0
100
AcDbLine
 10
341.4624
 20
141.319
 30
0.0
 11
341.4624
 21
142.25326839036
 31
0.0
  0
LINE
  5
E7D
330
1D
100
AcDbEntity
  8
0
100
AcDbLine
 10
341.4624
 20
141.319
 30
0.0
 11
341.4624
 21
141.936
 31
0.0
  0
LINE
  5
E7E
330
1D
100
AcDbEntity
  8
0
100
AcDbLine
 10
341.4624
 20
141.319
 30
0.0
 11
342.9214
 21
141.319
 31
0.0
  0
LINE
  5
E7F
330
1D
100
AcDbEntity
  8
0
100
AcDbLine
 10
337.5934
 20
140.725
 30
0.0
 11
338.9074
 21
137.98
 31
0.0
  0
LINE
  5
E80
330
1D
100
AcDbEntity
  8
0
100
AcDbLine
 10
356.2234
 20
132.939739088531
 30
0.0
 11
356.2234
 21
132.7
 31
0.0
  0
LINE
  5
E81
330
1D
100
AcDbEntity
  8
0
100
AcDbLine
 10
356.2234
 20
134.276499169711
 30
0.0
 11
356.2234
 21
133.317
 31
0.0
  0
LINE
  5
E82
330
1D
100
AcDbEntity
  8
0
100
AcDbLine
 10
356.2234
 20
133.317
 30
0.0
 11
356.2234
 21
132.7
 31
0.0
  0
LINE
  5
E83
330
1D
100
AcDbEntity
  8
0
100
AcDbLine
 10
356.2234
 20
133.317
 30
0.0
 11
356.2234
 21
134.276499169711
 31
0.0
  0
LINE
  5
E84
330
1D
100
AcDbEntity
  8
0
100
AcDbLine
 10
356.2234
 20
133.317
 30
0.0
 11
357.6834
 21
133.317
 31
0.0
  0
LINE
  5
E85
330
1D
100
AcDbEntity
  8
0
100
AcDbLine
 10
356.2234
 20
132.7
 30
0.0
 11
356.2234
 21
132.939739088531
 31
0.0
  0
LINE
  5
E86
330
1D
100
AcDbEntity
  8
0
100
AcDbLine
 10
356.2234
 20
132.7
 30
0.0
 11
356.2234
 21
133.317
 31
0.0
  0
LINE
  5
E87
330
1D
100
AcDbEntity
  8
0
100
AcDbLine
 10
356.2234
 20
132.7
 30
0.0
 11
357.6834
 21
132.7
 31
0.0
  0
LINE
  5
E88
330
1D
100
AcDbEntity
  8
0
100
AcDbLine
 10
353.8704
 20
128.497
 30
0.0
 11
357.3604
 21
127.186447706023
 31
0.0
  0
LINE
  5
E89
330
1D
100
AcDbEntity
  8
0
100
AcDbLine
 10
352.2654
 20
127.819
 30
0.0
 11
357.1554
 21
126.029
 31
0.0
  0
LINE
  5
E8A
330
1D
100
AcDbEntity
  8
0
100
AcDbLine
 10
364.9044
 20
124.776
 30
0.0
 11
365.6344
 21
125.31
 31
0.0
  0
LINE
  5
E8B
330
1D
100
AcDbEntity
  8
0
100
AcDbLine
 10
357.3604
 20
126.805
 30
0.0
 11
357.3604
 21
127.186447706023
 31
0.0
  0
LINE
  5
E8C
330
1D
100
AcDbEntity
  8
0
100
AcDbLine
 10
357.3604
 20
126.805
 30
0.0
 11
357.3604
 21
127.422
 31
0.0
  0
LINE
  5
E8D
330
1D
100
AcDbEntity
  8
0
100
AcDbLine
 10
357.3604
 20
126.805
 30
0.0
 11
358.8204
 21
126.805
 31
0.0
  0
LINE
  5
E8E
330
1D
100
AcDbEntity
  8
0
100
AcDbLine
 10
357.3604
 20
127.186447706023
 30
0.0
 11
357.3604
 21
126.805
 31
0.0
  0
LINE
  5
E8F
330
1D
100
AcDbEntity
  8
0
100
AcDbLine
 10
357.3604
 20
127.422
 30
0.0
 11
357.3604
 21
126.805
 31
0.0
  0
LINE
  5
E90
330
1D
100
AcDbEntity
  8
0
100
AcDbLine
 10
357.3604
 20
127.422
 30
0.0
 11
358.8204
 21
127.422
 31
0.0
  0
LINE
  5
E91
330
1D
100
AcDbEntity
  8
0
100
AcDbLine
 10
357.6834
 20
133.317
 30
0.0
 11
357.6834
 21
132.7
 31
0.0
  0
LINE
  5
E92
330
1D
100
AcDbEntity
  8
0
100
AcDbLine
 10
357.6834
 20
132.7
 30
0.0
 11
357.6834
 21
133.317
 31
0.0
  0
LINE
  5
E93
330
1D
100
AcDbEntity
  8
0
100
AcDbLine
 10
358.376195020266
 20
126.805
 30
0.0
 11
358.4694
 21
126.77
 31
0.0
  0
LINE
  5
E94
330
1D
100
AcDbEntity
  8
0
100
AcDbLine
 10
358.8204
 20
127.422
 30
0.0
 11
358.8204
 21
126.805
 31
0.0
  0
LINE
  5
E95
330
1D
100
AcDbEntity
  8
0
100
AcDbLine
 10
358.8204
 20
126.805
 30
0.0
 11
358.8204
 21
127.422
 31
0.0
  0
LINE
  5
E96
330
1D
100
AcDbEntity
  8
0
100
AcDbLine
 10
361.1704
 20
136.859874371859
 30
0.0
 11
361.1704
 21
136.638
 31
0.0
  0
LINE
  5
E97
330
1D
100
AcDbEntity
  8
0
100
AcDbLine
 10
361.1704
 20
138.209889414548
 30
0.0
 11
361.1704
 21
137.254
 31
0.0
  0
LINE
  5
E98
330
1D
100
AcDbEntity
  8
0
100
AcDbLine
 10
361.1704
 20
137.254
 30
0.0
 11
361.1704
 21
136.638
 31
0.0
  0
LINE
  5
E99
330
1D
100
AcDbEntity
  8
0
100
AcDbLine
 10
361.1704
 20
137.254
 30
0.0
 11
361.1704
 21
138.209889414548
 31
0.0
  0
LINE
  5
E9A
330
1D
100
AcDbEntity
  8
0
100
AcDbLine
 10
361.1704
 20
137.254
 30
0.0
 11
362.6304
 21
137.254
 31
0.0
  0
LINE
  5
E9B
330
1D
100
AcDbEntity
  8
0
100
AcDbLine
 10
361.5774
 20
131.039734791944
 30
0.0
 11
361.5774
 21
130.503
 31
0.0
  0
LINE
  5
E9C
330
1D
100
AcDbEntity
  8
0
100
AcDbLine
 10
361.5774
 20
131.039734791944
 30
0.0
 11
361.5774
 21
129.886
 31
0.0
  0
LINE
  5
E9D
330
1D
100
AcDbEntity
  8
0
100
AcDbLine
 10
361.5774
 20
130.503
 30
0.0
 11
361.5774
 21
129.886
 31
0.0
  0
LINE
  5
E9E
330
1D
100
AcDbEntity
  8
0
100
AcDbLine
 10
361.5774
 20
130.503
 30
0.0
 11
361.5774
 21
131.039734791944
 31
0.0
  0
LINE
  5
E9F
330
1D
100
AcDbEntity
  8
0
100
AcDbLine
 10
361.5774
 20
130.503
 30
0.0
 11
363.0374
 21
130.503
 31
0.0
  0
LINE
  5
EA0
330
1D
100
AcDbEntity
  8
0
100
AcDbLine
 10
361.5774
 20
129.886
 30
0.0
 11
361.5774
 21
131.039734791944
 31
0.0
  0
LINE
  5
EA1
330
1D
100
AcDbEntity
  8
0
100
AcDbLine
 10
361.5774
 20
129.886
 30
0.0
 11
361.5774
 21
130.503
 31
0.0
  0
LINE
  5
EA2
330
1D
100
AcDbEntity
  8
0
100
AcDbLine
 10
361.5774
 20
129.886
 30
0.0
 11
363.0374
 21
129.886
 31
0.0
  0
LINE
  5
EA3
330
1D
100
AcDbEntity
  8
0
100
AcDbLine
 10
362.6304
 20
137.254
 30
0.0
 11
362.6304
 21
138.255577370392
 31
0.0
  0
LINE
  5
EA4
330
1D
100
AcDbEntity
  8
0
100
AcDbLine
 10
362.6304
 20
137.254
 30
0.0
 11
362.6304
 21
136.638
 31
0.0
  0
LINE
  5
EA5
330
1D
100
AcDbEntity
  8
0
100
AcDbLine
 10
363.0374
 20
130.503
 30
0.0
 11
363.0374
 21
131.52142582558
 31
0.0
  0
LINE
  5
EA6
330
1D
100
AcDbEntity
  8
0
100
AcDbLine
 10
363.0374
 20
130.503
 30
0.0
 11
363.0374
 21
129.886
 31
0.0
  0
LINE
  5
EA7
330
1D
100
AcDbEntity
  8
0
100
AcDbLine
 10
363.6404
 20
125.292143766885
 30
0.0
 11
363.6404
 21
125.084
 31
0.0
  0
LINE
  5
EA8
330
1D
100
AcDbEntity
  8
0
100
AcDbLine
 10
365.6344
 20
125.31
 30
0.0
 11
365.6344
 21
125.913839049394
 31
0.0
  0
LINE
  5
EA9
330
1D
100
AcDbEntity
  8
0
100
AcDbLine
 10
364.3704
 20
125.618
 30
0.0
 11
365.6344
 21
125.31
 31
0.0
  0
LINE
  5
EAA
330
1D
100
AcDbEntity
  8
0
100
AcDbLine
 10
364.3704
 20
125.618
 30
0.0
 11
364.3704
 21
125.727399300495
 31
0.0
  0
LINE
  5
EAB
330
1D
100
AcDbEntity
  8
0
100
AcDbLine
 10
365.6344
 20
125.913839049394
 30
0.0
 11
365.6344
 21
125.31
 31
0.0
  0
LINE
  5
EAC
330
1D
100
AcDbEntity
  8
0
100
AcDbLine
 10
364.3704
 20
125.727399300495
 30
0.0
 11
364.3704
 21
125.618
 31
0.0
  0
LINE
  5
EAD
330
1D
100
AcDbEntity
  8
0
100
AcDbLine
 10
363.6404
 20
125.084
 30
0.0
 11
364.9044
 21
124.776
 31
0.0
  0
LINE
  5
EAE
330
1D
100
AcDbEntity
  8
0
100
AcDbLine
 10
363.6404
 20
125.084
 30
0.0
 11
363.6404
 21
125.292143766885
 31
0.0
  0
LINE
  5
EAF
330
1D
100
AcDbEntity
  8
0
100
AcDbLine
 10
363.6404
 20
125.084
 30
0.0
 11
364.3704
 21
125.618
 31
0.0
  0
LINE
  5
EB0
330
1D
100
AcDbEntity
  8
0
100
AcDbLine
 10
368.0194
 20
128.913278811026
 30
0.0
 11
368.0194
 21
127.837
 31
0.0
  0
LINE
  5
EB1
330
1D
100
AcDbEntity
  8
0
100
AcDbLine
 10
368.0194
 20
127.837
 30
0.0
 11
369.2844
 21
127.528
 31
0.0
  0
LINE
  5
EB2
330
1D
100
AcDbEntity
  8
0
100
AcDbLine
 10
368.0194
 20
127.837
 30
0.0
 11
368.0194
 21
128.913278811026
 31
0.0
  0
LINE
  5
EB3
330
1D
100
AcDbEntity
  8
0
100
AcDbLine
 10
368.0194
 20
127.837
 30
0.0
 11
368.7494
 21
128.371
 31
0.0
  0
LINE
  5
EB4
330
1D
100
AcDbEntity
  8
0
100
AcDbLine
 10
363.0374
 20
129.886
 30
0.0
 11
363.0374
 21
130.503
 31
0.0
  0
LINE
  5
EB5
330
1D
100
AcDbEntity
  8
0
100
AcDbLine
 10
366.4424
 20
132.83
 30
0.0
 11
366.4424
 21
133.447
 31
0.0
  0
LINE
  5
EB6
330
1D
100
AcDbEntity
  8
0
100
AcDbLine
 10
366.4424
 20
132.83
 30
0.0
 11
367.9024
 21
132.83
 31
0.0
  0
LINE
  5
EB7
330
1D
100
AcDbEntity
  8
0
100
AcDbLine
 10
366.4424
 20
134.329758098224
 30
0.0
 11
366.4424
 21
133.447
 31
0.0
  0
LINE
  5
EB8
330
1D
100
AcDbEntity
  8
0
100
AcDbLine
 10
367.9024
 20
133.447
 30
0.0
 11
367.9024
 21
132.83
 31
0.0
  0
LINE
  5
EB9
330
1D
100
AcDbEntity
  8
0
100
AcDbLine
 10
367.9024
 20
132.83
 30
0.0
 11
367.9024
 21
133.447
 31
0.0
  0
LINE
  5
EBA
330
1D
100
AcDbEntity
  8
0
100
AcDbLine
 10
366.4424
 20
133.447
 30
0.0
 11
366.4424
 21
132.83
 31
0.0
  0
LINE
  5
EBB
330
1D
100
AcDbEntity
  8
0
100
AcDbLine
 10
366.4424
 20
133.447
 30
0.0
 11
366.4424
 21
134.329758098224
 31
0.0
  0
LINE
  5
EBC
330
1D
100
AcDbEntity
  8
0
100
AcDbLine
 10
366.4424
 20
133.447
 30
0.0
 11
367.9024
 21
133.447
 31
0.0
  0
LINE
  5
EBD
330
1D
100
AcDbEntity
  8
0
100
AcDbLine
 10
363.0374
 20
131.52142582558
 30
0.0
 11
363.0374
 21
130.503
 31
0.0
  0
LINE
  5
EBE
330
1D
100
AcDbEntity
  8
0
100
AcDbLine
 10
362.6304
 20
136.638
 30
0.0
 11
362.6304
 21
137.254
 31
0.0
  0
LINE
  5
EBF
330
1D
100
AcDbEntity
  8
0
100
AcDbLine
 10
362.6304
 20
138.255577370392
 30
0.0
 11
362.6304
 21
137.254
 31
0.0
  0
LINE
  5
EC0
330
1D
100
AcDbEntity
  8
0
100
AcDbLine
 10
361.1704
 20
136.638
 30
0.0
 11
361.1704
 21
136.859874371859
 31
0.0
  0
LINE
  5
EC1
330
1D
100
AcDbEntity
  8
0
100
AcDbLine
 10
361.1704
 20
136.638
 30
0.0
 11
361.1704
 21
137.254
 31
0.0
  0
LINE
  5
EC2
330
1D
100
AcDbEntity
  8
0
100
AcDbLine
 10
361.1704
 20
136.638
 30
0.0
 11
362.6304
 21
136.638
 31
0.0
  0
LINE
  5
EC3
330
1D
100
AcDbEntity
  8
0
100
AcDbLine
 10
360.4404
 20
140.412
 30
0.0
 11
360.4404
 21
141.029
 31
0.0
  0
LINE
  5
EC4
330
1D
100
AcDbEntity
  8
0
100
AcDbLine
 10
358.9804
 20
141.225826272833
 30
0.0
 11
358.9804
 21
140.412
 31
0.0
  0
LINE
  5
EC5
330
1D
100
AcDbEntity
  8
0
100
AcDbLine
 10
360.4404
 20
141.029
 30
0.0
 11
360.4404
 21
141.564121550719
 31
0.0
  0
LINE
  5
EC6
330
1D
100
AcDbEntity
  8
0
100
AcDbLine
 10
360.4404
 20
141.029
 30
0.0
 11
360.4404
 21
140.412
 31
0.0
  0
LINE
  5
EC7
330
1D
100
AcDbEntity
  8
0
100
AcDbLine
 10
358.9804
 20
141.029
 30
0.0
 11
358.9804
 21
140.412
 31
0.0
  0
LINE
  5
EC8
330
1D
100
AcDbEntity
  8
0
100
AcDbLine
 10
358.9804
 20
141.029
 30
0.0
 11
358.9804
 21
141.578094539448
 31
0.0
  0
LINE
  5
EC9
330
1D
100
AcDbEntity
  8
0
100
AcDbLine
 10
358.9804
 20
141.029
 30
0.0
 11
360.4404
 21
141.029
 31
0.0
  0
LINE
  5
ECA
330
1D
100
AcDbEntity
  8
0
100
AcDbLine
 10
358.9804
 20
140.412
 30
0.0
 11
358.9804
 21
141.225826272833
 31
0.0
  0
LINE
  5
ECB
330
1D
100
AcDbEntity
  8
0
100
AcDbLine
 10
358.9804
 20
140.412
 30
0.0
 11
358.9804
 21
141.029
 31
0.0
  0
LINE
  5
ECC
330
1D
100
AcDbEntity
  8
0
100
AcDbLine
 10
358.9804
 20
140.412
 30
0.0
 11
360.4404
 21
140.412
 31
0.0
  0
LINE
  5
ECD
330
1D
100
AcDbEntity
  8
0
100
AcDbLine
 10
367.7394
 20
140.538178390983
 30
0.0
 11
367.7394
 21
139.959
 31
0.0
  0
LINE
  5
ECE
330
1D
100
AcDbEntity
  8
0
100
AcDbLine
 10
360.4404
 20
141.564121550719
 30
0.0
 11
360.4404
 21
141.029
 31
0.0
  0
LINE
  5
ECF
330
1D
100
AcDbEntity
  8
0
100
AcDbLine
 10
358.9804
 20
141.578094539448
 30
0.0
 11
358.9804
 21
141.029
 31
0.0
  0
LINE
  5
ED0
330
1D
100
AcDbEntity
  8
0
100
AcDbLine
 10
367.7394
 20
141.494266177614
 30
0.0
 11
367.7394
 21
140.575
 31
0.0
  0
LINE
  5
ED1
330
1D
100
AcDbEntity
  8
0
100
AcDbLine
 10
367.7394
 20
140.575
 30
0.0
 11
367.7394
 21
139.959
 31
0.0
  0
LINE
  5
ED2
330
1D
100
AcDbEntity
  8
0
100
AcDbLine
 10
367.7394
 20
140.575
 30
0.0
 11
367.7394
 21
141.494266177614
 31
0.0
  0
LINE
  5
ED3
330
1D
100
AcDbEntity
  8
0
100
AcDbLine
 10
367.7394
 20
140.575
 30
0.0
 11
369.1994
 21
140.575
 31
0.0
  0
LINE
  5
ED4
330
1D
100
AcDbEntity
  8
0
100
AcDbLine
 10
367.7394
 20
139.959
 30
0.0
 11
367.7394
 21
140.538178390983
 31
0.0
  0
LINE
  5
ED5
330
1D
100
AcDbEntity
  8
0
100
AcDbLine
 10
367.7394
 20
139.959
 30
0.0
 11
367.7394
 21
140.575
 31
0.0
  0
LINE
  5
ED6
330
1D
100
AcDbEntity
  8
0
100
AcDbLine
 10
367.7394
 20
139.959
 30
0.0
 11
369.1994
 21
139.959
 31
0.0
  0
LINE
  5
ED7
330
1D
100
AcDbEntity
  8
0
100
AcDbLine
 10
358.4694
 20
126.77
 30
0.0
 11
363.6404
 21
125.292143766885
 31
0.0
  0
LINE
  5
ED8
330
1D
100
AcDbEntity
  8
0
100
AcDbLine
 10
365.181593548387
 20
124.978768979231
 30
0.0
 11
369.1264
 21
124.179
 31
0.0
  0
LINE
  5
ED9
330
1D
100
AcDbEntity
  8
0
100
AcDbLine
 10
357.1554
 20
126.029
 30
0.0
 11
362.5574
 21
124.487
 31
0.0
  0
LINE
  5
EDA
330
1D
100
AcDbEntity
  8
0
100
AcDbLine
 10
362.5574
 20
124.487
 30
0.0
 11
368.2504
 21
123.346
 31
0.0
  0
LINE
  5
EDB
330
1D
100
AcDbEntity
  8
0
100
AcDbLine
 10
371.5714
 20
123.338
 30
0.0
 11
372.8354
 21
123.646
 31
0.0
  0
LINE
  5
EDC
330
1D
100
AcDbEntity
  8
0
100
AcDbLine
 10
379.8814
 20
122.951
 30
0.0
 11
381.1454
 21
123.259
 31
0.0
  0
LINE
  5
EDD
330
1D
100
AcDbEntity
  8
0
100
AcDbLine
 10
379.8814
 20
122.951
 30
0.0
 11
380.6114
 21
122.416
 31
0.0
  0
LINE
  5
EDE
330
1D
100
AcDbEntity
  8
0
100
AcDbLine
 10
370.8414
 20
123.872
 30
0.0
 11
372.1054
 21
124.181
 31
0.0
  0
LINE
  5
EDF
330
1D
100
AcDbEntity
  8
0
100
AcDbLine
 10
370.8414
 20
123.872
 30
0.0
 11
371.5714
 21
123.338
 31
0.0
  0
LINE
  5
EE0
330
1D
100
AcDbEntity
  8
0
100
AcDbLine
 10
370.8414
 20
123.872
 30
0.0
 11
370.8414
 21
124.890426295667
 31
0.0
  0
LINE
  5
EE1
330
1D
100
AcDbEntity
  8
0
100
AcDbLine
 10
372.8354
 20
123.646
 30
0.0
 11
372.8354
 21
123.708670117217
 31
0.0
  0
LINE
  5
EE2
330
1D
100
AcDbEntity
  8
0
100
AcDbLine
 10
368.7494
 20
128.371
 30
0.0
 11
370.0134
 21
128.063
 31
0.0
  0
LINE
  5
EE3
330
1D
100
AcDbEntity
  8
0
100
AcDbLine
 10
368.7494
 20
128.371
 30
0.0
 11
368.7494
 21
129.077110594487
 31
0.0
  0
LINE
  5
EE4
330
1D
100
AcDbEntity
  8
0
100
AcDbLine
 10
370.0134
 20
128.063
 30
0.0
 11
370.0134
 21
129.168132614398
 31
0.0
  0
LINE
  5
EE5
330
1D
100
AcDbEntity
  8
0
100
AcDbLine
 10
369.2844
 20
127.528
 30
0.0
 11
370.0134
 21
128.063
 31
0.0
  0
LINE
  5
EE6
330
1D
100
AcDbEntity
  8
0
100
AcDbLine
 10
370.0134
 20
129.168132614398
 30
0.0
 11
370.0134
 21
128.063
 31
0.0
  0
LINE
  5
EE7
330
1D
100
AcDbEntity
  8
0
100
AcDbLine
 10
368.7494
 20
129.077110594487
 30
0.0
 11
368.7494
 21
128.371
 31
0.0
  0
LINE
  5
EE8
330
1D
100
AcDbEntity
  8
0
100
AcDbLine
 10
370.9024
 20
136.534537420083
 30
0.0
 11
370.9024
 21
135.944
 31
0.0
  0
LINE
  5
EE9
330
1D
100
AcDbEntity
  8
0
100
AcDbLine
 10
369.1994
 20
140.575
 30
0.0
 11
369.1994
 21
141.480293188885
 31
0.0
  0
LINE
  5
EEA
330
1D
100
AcDbEntity
  8
0
100
AcDbLine
 10
369.1994
 20
140.575
 30
0.0
 11
369.1994
 21
139.959
 31
0.0
  0
LINE
  5
EEB
330
1D
100
AcDbEntity
  8
0
100
AcDbLine
 10
369.1994
 20
139.959
 30
0.0
 11
369.1994
 21
140.575
 31
0.0
  0
LINE
  5
EEC
330
1D
100
AcDbEntity
  8
0
100
AcDbLine
 10
369.1994
 20
141.480293188885
 30
0.0
 11
369.1994
 21
140.575
 31
0.0
  0
LINE
  5
EED
330
1D
100
AcDbEntity
  8
0
100
AcDbLine
 10
370.9024
 20
137.05377513587
 30
0.0
 11
370.9024
 21
136.561
 31
0.0
  0
LINE
  5
EEE
330
1D
100
AcDbEntity
  8
0
100
AcDbLine
 10
370.9024
 20
136.561
 30
0.0
 11
370.9024
 21
135.944
 31
0.0
  0
LINE
  5
EEF
330
1D
100
AcDbEntity
  8
0
100
AcDbLine
 10
370.9024
 20
136.561
 30
0.0
 11
370.9024
 21
137.05377513587
 31
0.0
  0
LINE
  5
EF0
330
1D
100
AcDbEntity
  8
0
100
AcDbLine
 10
370.9024
 20
136.561
 30
0.0
 11
372.3624
 21
136.561
 31
0.0
  0
LINE
  5
EF1
330
1D
100
AcDbEntity
  8
0
100
AcDbLine
 10
370.9024
 20
135.944
 30
0.0
 11
370.9024
 21
136.534537420083
 31
0.0
  0
LINE
  5
EF2
330
1D
100
AcDbEntity
  8
0
100
AcDbLine
 10
370.9024
 20
135.944
 30
0.0
 11
370.9024
 21
136.561
 31
0.0
  0
LINE
  5
EF3
330
1D
100
AcDbEntity
  8
0
100
AcDbLine
 10
370.9024
 20
135.944
 30
0.0
 11
372.3624
 21
135.944
 31
0.0
  0
LINE
  5
EF4
330
1D
100
AcDbEntity
  8
0
100
AcDbLine
 10
370.8414
 20
124.890426295667
 30
0.0
 11
370.8414
 21
123.872
 31
0.0
  0
LINE
  5
EF5
330
1D
100
AcDbEntity
  8
0
100
AcDbLine
 10
372.3624
 20
136.561
 30
0.0
 11
372.3624
 21
137.33579053442
 31
0.0
  0
LINE
  5
EF6
330
1D
100
AcDbEntity
  8
0
100
AcDbLine
 10
372.3624
 20
136.561
 30
0.0
 11
372.3624
 21
135.944
 31
0.0
  0
LINE
  5
EF7
330
1D
100
AcDbEntity
  8
0
100
AcDbLine
 10
372.3994
 20
130.683332517859
 30
0.0
 11
372.3994
 21
130.589
 31
0.0
  0
LINE
  5
EF8
330
1D
100
AcDbEntity
  8
0
100
AcDbLine
 10
372.3994
 20
130.589
 30
0.0
 11
373.6634
 21
130.28
 31
0.0
  0
LINE
  5
EF9
330
1D
100
AcDbEntity
  8
0
100
AcDbLine
 10
372.3994
 20
130.589
 30
0.0
 11
372.3994
 21
130.683332517859
 31
0.0
  0
LINE
  5
EFA
330
1D
100
AcDbEntity
  8
0
100
AcDbLine
 10
372.3994
 20
130.589
 30
0.0
 11
373.1294
 21
131.124
 31
0.0
  0
LINE
  5
EFB
330
1D
100
AcDbEntity
  8
0
100
AcDbLine
 10
372.3624
 20
135.944
 30
0.0
 11
372.3624
 21
136.561
 31
0.0
  0
LINE
  5
EFC
330
1D
100
AcDbEntity
  8
0
100
AcDbLine
 10
372.3624
 20
137.33579053442
 30
0.0
 11
372.3624
 21
136.561
 31
0.0
  0
LINE
  5
EFD
330
1D
100
AcDbEntity
  8
0
100
AcDbLine
 10
372.1054
 20
125.414766142736
 30
0.0
 11
372.1054
 21
124.181
 31
0.0
  0
LINE
  5
EFE
330
1D
100
AcDbEntity
  8
0
100
AcDbLine
 10
372.1054
 20
124.181
 30
0.0
 11
372.8354
 21
123.646
 31
0.0
  0
LINE
  5
EFF
330
1D
100
AcDbEntity
  8
0
100
AcDbLine
 10
372.1054
 20
124.181
 30
0.0
 11
372.1054
 21
125.414766142736
 31
0.0
  0
LINE
  5
F00
330
1D
100
AcDbEntity
  8
0
100
AcDbLine
 10
369.1264
 20
124.179
 30
0.0
 11
370.8414
 21
123.961524737403
 31
0.0
  0
LINE
  5
F01
330
1D
100
AcDbEntity
  8
0
100
AcDbLine
 10
374.3934
 20
130.816
 30
0.0
 11
374.3934
 21
131.559853913341
 31
0.0
  0
LINE
  5
F02
330
1D
100
AcDbEntity
  8
0
100
AcDbLine
 10
373.6634
 20
130.28
 30
0.0
 11
374.3934
 21
130.816
 31
0.0
  0
LINE
  5
F03
330
1D
100
AcDbEntity
  8
0
100
AcDbLine
 10
373.1294
 20
131.124
 30
0.0
 11
374.3934
 21
130.816
 31
0.0
  0
LINE
  5
F04
330
1D
100
AcDbEntity
  8
0
100
AcDbLine
 10
374.3934
 20
131.559853913341
 30
0.0
 11
374.3934
 21
130.816
 31
0.0
  0
LINE
  5
F05
330
1D
100
AcDbEntity
  8
0
100
AcDbLine
 10
375.9744
 20
127.019727272727
 30
0.0
 11
375.9744
 21
126.729
 31
0.0
  0
LINE
  5
F06
330
1D
100
AcDbEntity
  8
0
100
AcDbLine
 10
375.9744
 20
126.729
 30
0.0
 11
377.2394
 21
127.038
 31
0.0
  0
LINE
  5
F07
330
1D
100
AcDbEntity
  8
0
100
AcDbLine
 10
375.9744
 20
126.729
 30
0.0
 11
376.7044
 21
126.195
 31
0.0
  0
LINE
  5
F08
330
1D
100
AcDbEntity
  8
0
100
AcDbLine
 10
375.9744
 20
126.729
 30
0.0
 11
375.9744
 21
127.019727272727
 31
0.0
  0
LINE
  5
F09
330
1D
100
AcDbEntity
  8
0
100
AcDbLine
 10
377.2394
 20
127.038
 30
0.0
 11
377.9694
 21
126.503
 31
0.0
  0
LINE
  5
F0A
330
1D
100
AcDbEntity
  8
0
100
AcDbLine
 10
377.2394
 20
127.038
 30
0.0
 11
377.2394
 21
127.544481945625
 31
0.0
  0
LINE
  5
F0B
330
1D
100
AcDbEntity
  8
0
100
AcDbLine
 10
377.9694
 20
126.503
 30
0.0
 11
377.9694
 21
127.131207586934
 31
0.0
  0
LINE
  5
F0C
330
1D
100
AcDbEntity
  8
0
100
AcDbLine
 10
376.7784
 20
134.460404715553
 30
0.0
 11
376.7784
 21
133.342
 31
0.0
  0
LINE
  5
F0D
330
1D
100
AcDbEntity
  8
0
100
AcDbLine
 10
376.7784
 20
133.342
 30
0.0
 11
378.0434
 21
133.033
 31
0.0
  0
LINE
  5
F0E
330
1D
100
AcDbEntity
  8
0
100
AcDbLine
 10
376.7784
 20
133.342
 30
0.0
 11
376.7784
 21
134.460404715553
 31
0.0
  0
LINE
  5
F0F
330
1D
100
AcDbEntity
  8
0
100
AcDbLine
 10
376.7784
 20
133.342
 30
0.0
 11
377.5084
 21
133.876
 31
0.0
  0
LINE
  5
F10
330
1D
100
AcDbEntity
  8
0
100
AcDbLine
 10
378.7734
 20
133.567
 30
0.0
 11
378.7734
 21
133.915632300051
 31
0.0
  0
LINE
  5
F11
330
1D
100
AcDbEntity
  8
0
100
AcDbLine
 10
378.0434
 20
133.033
 30
0.0
 11
378.7734
 21
133.567
 31
0.0
  0
LINE
  5
F12
330
1D
100
AcDbEntity
  8
0
100
AcDbLine
 10
378.7734
 20
133.915632300051
 30
0.0
 11
378.7734
 21
133.567
 31
0.0
  0
LINE
  5
F13
330
1D
100
AcDbEntity
  8
0
100
AcDbLine
 10
377.5084
 20
133.876
 30
0.0
 11
378.7734
 21
133.567
 31
0.0
  0
LINE
  5
F14
330
1D
100
AcDbEntity
  8
0
100
AcDbLine
 10
377.5084
 20
133.876
 30
0.0
 11
377.5084
 21
134.750372990122
 31
0.0
  0
LINE
  5
F15
330
1D
100
AcDbEntity
  8
0
100
AcDbLine
 10
377.5084
 20
134.750372990122
 30
0.0
 11
377.5084
 21
133.876
 31
0.0
  0
LINE
  5
F16
330
1D
100
AcDbEntity
  8
0
100
AcDbLine
 10
380.5024
 20
130.170124617403
 30
0.0
 11
380.5024
 21
129.756
 31
0.0
  0
LINE
  5
F17
330
1D
100
AcDbEntity
  8
0
100
AcDbLine
 10
380.5024
 20
129.756
 30
0.0
 11
381.7664
 21
130.064
 31
0.0
  0
LINE
  5
F18
330
1D
100
AcDbEntity
  8
0
100
AcDbLine
 10
380.5024
 20
129.756
 30
0.0
 11
381.2324
 21
129.221
 31
0.0
  0
LINE
  5
F19
330
1D
100
AcDbEntity
  8
0
100
AcDbLine
 10
380.5024
 20
129.756
 30
0.0
 11
380.5024
 21
130.170124617403
 31
0.0
  0
LINE
  5
F1A
330
1D
100
AcDbEntity
  8
0
100
AcDbLine
 10
377.2394
 20
127.544481945625
 30
0.0
 11
377.2394
 21
127.038
 31
0.0
  0
LINE
  5
F1B
330
1D
100
AcDbEntity
  8
0
100
AcDbLine
 10
377.9694
 20
127.131207586934
 30
0.0
 11
377.9694
 21
126.503
 31
0.0
  0
LINE
  5
F1C
330
1D
100
AcDbEntity
  8
0
100
AcDbLine
 10
376.7044
 20
126.195
 30
0.0
 11
377.9694
 21
126.503
 31
0.0
  0
LINE
  5
F1D
330
1D
100
AcDbEntity
  8
0
100
AcDbLine
 10
376.4984
 20
140.721
 30
0.0
 11
376.4984
 21
139.506
 31
0.0
  0
LINE
  5
F1E
330
1D
100
AcDbEntity
  8
0
100
AcDbLine
 10
376.4984
 20
141.315239467849
 30
0.0
 11
376.4984
 21
140.122
 31
0.0
  0
LINE
  5
F1F
330
1D
100
AcDbEntity
  8
0
100
AcDbLine
 10
376.4984
 20
140.122
 30
0.0
 11
376.4984
 21
139.506
 31
0.0
  0
LINE
  5
F20
330
1D
100
AcDbEntity
  8
0
100
AcDbLine
 10
376.4984
 20
140.122
 30
0.0
 11
376.4984
 21
141.315239467849
 31
0.0
  0
LINE
  5
F21
330
1D
100
AcDbEntity
  8
0
100
AcDbLine
 10
376.4984
 20
140.122
 30
0.0
 11
377.9584
 21
140.122
 31
0.0
  0
LINE
  5
F22
330
1D
100
AcDbEntity
  8
0
100
AcDbLine
 10
377.9584
 20
140.122
 30
0.0
 11
377.9584
 21
141.23326765917
 31
0.0
  0
LINE
  5
F23
330
1D
100
AcDbEntity
  8
0
100
AcDbLine
 10
377.9584
 20
140.122
 30
0.0
 11
377.9584
 21
139.506
 31
0.0
  0
LINE
  5
F24
330
1D
100
AcDbEntity
  8
0
100
AcDbLine
 10
377.9584
 20
139.506
 30
0.0
 11
377.9584
 21
140.122
 31
0.0
  0
LINE
  5
F25
330
1D
100
AcDbEntity
  8
0
100
AcDbLine
 10
377.9584
 20
141.23326765917
 30
0.0
 11
377.9584
 21
140.122
 31
0.0
  0
LINE
  5
F26
330
1D
100
AcDbEntity
  8
0
100
AcDbLine
 10
376.4984
 20
139.506
 30
0.0
 11
376.4984
 21
140.721
 31
0.0
  0
LINE
  5
F27
330
1D
100
AcDbEntity
  8
0
100
AcDbLine
 10
376.4984
 20
139.506
 30
0.0
 11
376.4984
 21
140.122
 31
0.0
  0
LINE
  5
F28
330
1D
100
AcDbEntity
  8
0
100
AcDbLine
 10
376.4984
 20
139.506
 30
0.0
 11
377.9584
 21
139.506
 31
0.0
  0
LINE
  5
F29
330
1D
100
AcDbEntity
  8
0
100
AcDbLine
 10
372.8354
 20
123.708670117217
 30
0.0
 11
375.6954
 21
123.346
 31
0.0
  0
LINE
  5
F2A
330
1D
100
AcDbEntity
  8
0
100
AcDbLine
 10
372.8354
 20
123.708670117217
 30
0.0
 11
372.8354
 21
123.646
 31
0.0
  0
LINE
  5
F2B
330
1D
100
AcDbEntity
  8
0
100
AcDbLine
 10
375.6954
 20
123.346
 30
0.0
 11
379.92733401558
 21
122.917336029678
 31
0.0
  0
LINE
  5
F2C
330
1D
100
AcDbEntity
  8
0
100
AcDbLine
 10
368.2504
 20
123.346
 30
0.0
 11
374.6734
 21
122.451
 31
0.0
  0
LINE
  5
F2D
330
1D
100
AcDbEntity
  8
0
100
AcDbLine
 10
374.6734
 20
122.451
 30
0.0
 11
380.7324
 21
121.927
 31
0.0
  0
LINE
  5
F2E
330
1D
100
AcDbEntity
  8
0
100
AcDbLine
 10
381.8754
 20
122.725
 30
0.0
 11
381.8754
 21
123.587552224371
 31
0.0
  0
LINE
  5
F2F
330
1D
100
AcDbEntity
  8
0
100
AcDbLine
 10
381.1584
 20
137.437800827194
 30
0.0
 11
381.1584
 21
136.095
 31
0.0
  0
LINE
  5
F30
330
1D
100
AcDbEntity
  8
0
100
AcDbLine
 10
381.1584
 20
136.095
 30
0.0
 11
382.4224
 21
135.786
 31
0.0
  0
LINE
  5
F31
330
1D
100
AcDbEntity
  8
0
100
AcDbLine
 10
381.1584
 20
136.095
 30
0.0
 11
381.1584
 21
137.437800827194
 31
0.0
  0
LINE
  5
F32
330
1D
100
AcDbEntity
  8
0
100
AcDbLine
 10
381.1584
 20
136.095
 30
0.0
 11
381.8884
 21
136.629
 31
0.0
  0
LINE
  5
F33
330
1D
100
AcDbEntity
  8
0
100
AcDbLine
 10
381.7664
 20
130.064
 30
0.0
 11
382.4964
 21
129.529
 31
0.0
  0
LINE
  5
F34
330
1D
100
AcDbEntity
  8
0
100
AcDbLine
 10
381.2324
 20
129.221
 30
0.0
 11
382.4964
 21
129.529
 31
0.0
  0
LINE
  5
F35
330
1D
100
AcDbEntity
  8
0
100
AcDbLine
 10
381.1454
 20
123.514045861887
 30
0.0
 11
381.1454
 21
123.259
 31
0.0
  0
LINE
  5
F36
330
1D
100
AcDbEntity
  8
0
100
AcDbLine
 10
381.1454
 20
123.259
 30
0.0
 11
381.8754
 21
122.725
 31
0.0
  0
LINE
  5
F37
330
1D
100
AcDbEntity
  8
0
100
AcDbLine
 10
381.1454
 20
123.259
 30
0.0
 11
381.1454
 21
123.514045861887
 31
0.0
  0
LINE
  5
F38
330
1D
100
AcDbEntity
  8
0
100
AcDbLine
 10
384.4164
 20
126.177
 30
0.0
 11
385.6814
 21
126.485
 31
0.0
  0
LINE
  5
F39
330
1D
100
AcDbEntity
  8
0
100
AcDbLine
 10
384.4164
 20
126.177
 30
0.0
 11
385.1464
 21
125.642
 31
0.0
  0
LINE
  5
F3A
330
1D
100
AcDbEntity
  8
0
100
AcDbLine
 10
381.8884
 20
136.629
 30
0.0
 11
383.1524
 21
136.32
 31
0.0
  0
LINE
  5
F3B
330
1D
100
AcDbEntity
  8
0
100
AcDbLine
 10
381.8884
 20
136.629
 30
0.0
 11
381.8884
 21
137.842381413985
 31
0.0
  0
LINE
  5
F3C
330
1D
100
AcDbEntity
  8
0
100
AcDbLine
 10
381.8884
 20
137.842381413985
 30
0.0
 11
381.8884
 21
136.629
 31
0.0
  0
LINE
  5
F3D
330
1D
100
AcDbEntity
  8
0
100
AcDbLine
 10
383.1524
 20
136.32
 30
0.0
 11
383.1524
 21
136.729932733592
 31
0.0
  0
LINE
  5
F3E
330
1D
100
AcDbEntity
  8
0
100
AcDbLine
 10
382.4224
 20
135.786
 30
0.0
 11
383.1524
 21
136.32
 31
0.0
  0
LINE
  5
F3F
330
1D
100
AcDbEntity
  8
0
100
AcDbLine
 10
383.1524
 20
136.729932733592
 30
0.0
 11
383.1524
 21
136.32
 31
0.0
  0
LINE
  5
F40
330
1D
100
AcDbEntity
  8
0
100
AcDbLine
 10
385.5844
 20
132.719
 30
0.0
 11
386.8484
 21
133.027
 31
0.0
  0
LINE
  5
F41
330
1D
100
AcDbEntity
  8
0
100
AcDbLine
 10
385.5844
 20
132.719
 30
0.0
 11
386.3144
 21
132.184
 31
0.0
  0
LINE
  5
F42
330
1D
100
AcDbEntity
  8
0
100
AcDbLine
 10
386.3144
 20
132.184
 30
0.0
 11
387.5784
 21
132.492
 31
0.0
  0
LINE
  5
F43
330
1D
100
AcDbEntity
  8
0
100
AcDbLine
 10
385.6814
 20
126.485
 30
0.0
 11
386.4114
 21
125.951
 31
0.0
  0
LINE
  5
F44
330
1D
100
AcDbEntity
  8
0
100
AcDbLine
 10
386.4114
 20
125.951
 30
0.0
 11
386.4114
 21
127.075095744681
 31
0.0
  0
LINE
  5
F45
330
1D
100
AcDbEntity
  8
0
100
AcDbLine
 10
386.8484
 20
133.027
 30
0.0
 11
387.5784
 21
132.492
 31
0.0
  0
LINE
  5
F46
330
1D
100
AcDbEntity
  8
0
100
AcDbLine
 10
386.4114
 20
127.075095744681
 30
0.0
 11
386.4114
 21
125.951
 31
0.0
  0
LINE
  5
F47
330
1D
100
AcDbEntity
  8
0
100
AcDbLine
 10
385.1464
 20
125.642
 30
0.0
 11
386.4114
 21
125.951
 31
0.0
  0
LINE
  5
F48
330
1D
100
AcDbEntity
  8
0
100
AcDbLine
 10
381.8754
 20
123.587552224371
 30
0.0
 11
381.8754
 21
122.725
 31
0.0
  0
LINE
  5
F49
330
1D
100
AcDbEntity
  8
0
100
AcDbLine
 10
383.5644
 20
141.116
 30
0.0
 11
383.9144
 21
141.486
 31
0.0
  0
LINE
  5
F4A
330
1D
100
AcDbEntity
  8
0
100
AcDbLine
 10
383.5644
 20
140.209
 30
0.0
 11
383.9144
 21
140.58
 31
0.0
  0
LINE
  5
F4B
330
1D
100
AcDbEntity
  8
0
100
AcDbLine
 10
383.4324
 20
140.721
 30
0.0
 11
383.4324
 21
139.815
 31
0.0
  0
LINE
  5
F4C
330
1D
100
AcDbEntity
  8
0
100
AcDbLine
 10
383.4324
 20
140.721
 30
0.0
 11
383.5644
 21
141.116
 31
0.0
  0
LINE
  5
F4D
330
1D
100
AcDbEntity
  8
0
100
AcDbLine
 10
383.4324
 20
139.815
 30
0.0
 11
383.5644
 21
139.419
 31
0.0
  0
LINE
  5
F4E
330
1D
100
AcDbEntity
  8
0
100
AcDbLine
 10
383.4324
 20
139.815
 30
0.0
 11
383.5644
 21
140.209
 31
0.0
  0
LINE
  5
F4F
330
1D
100
AcDbEntity
  8
0
100
AcDbLine
 10
383.4324
 20
139.815
 30
0.0
 11
383.4324
 21
140.721
 31
0.0
  0
LINE
  5
F50
330
1D
100
AcDbEntity
  8
0
100
AcDbLine
 10
383.9144
 20
140.58
 30
0.0
 11
384.4984
 21
140.906
 31
0.0
  0
LINE
  5
F51
330
1D
100
AcDbEntity
  8
0
100
AcDbLine
 10
383.9144
 20
141.486
 30
0.0
 11
384.4984
 21
141.813
 31
0.0
  0
LINE
  5
F52
330
1D
100
AcDbEntity
  8
0
100
AcDbLine
 10
384.4984
 20
141.813
 30
0.0
 11
385.2724
 21
142.06
 31
0.0
  0
LINE
  5
F53
330
1D
100
AcDbEntity
  8
0
100
AcDbLine
 10
384.4984
 20
140.906
 30
0.0
 11
385.2724
 21
141.153
 31
0.0
  0
LINE
  5
F54
330
1D
100
AcDbEntity
  8
0
100
AcDbLine
 10
383.5644
 20
139.419
 30
0.0
 11
383.9144
 21
139.049
 31
0.0
  0
LINE
  5
F55
330
1D
100
AcDbEntity
  8
0
100
AcDbLine
 10
383.9144
 20
139.049
 30
0.0
 11
384.4984
 21
138.723
 31
0.0
  0
LINE
  5
F56
330
1D
100
AcDbEntity
  8
0
100
AcDbLine
 10
385.2724
 20
141.153
 30
0.0
 11
386.1484
 21
141.301
 31
0.0
  0
LINE
  5
F57
330
1D
100
AcDbEntity
  8
0
100
AcDbLine
 10
386.1484
 20
141.301
 30
0.0
 11
387.0824
 21
141.356
 31
0.0
  0
LINE
  5
F58
330
1D
100
AcDbEntity
  8
0
100
AcDbLine
 10
384.4984
 20
138.723
 30
0.0
 11
385.2724
 21
138.476
 31
0.0
  0
LINE
  5
F59
330
1D
100
AcDbEntity
  8
0
100
AcDbLine
 10
385.2724
 20
138.476
 30
0.0
 11
386.1484
 21
138.327
 31
0.0
  0
LINE
  5
F5A
330
1D
100
AcDbEntity
  8
0
100
AcDbLine
 10
386.1484
 20
138.327
 30
0.0
 11
387.0824
 21
138.272
 31
0.0
  0
LINE
  5
F5B
330
1D
100
AcDbEntity
  8
0
100
AcDbLine
 10
387.0824
 20
138.272
 30
0.0
 11
388.0164
 21
138.327
 31
0.0
  0
LINE
  5
F5C
330
1D
100
AcDbEntity
  8
0
100
AcDbLine
 10
387.0824
 20
141.356
 30
0.0
 11
388.0164
 21
141.301
 31
0.0
  0
LINE
  5
F5D
330
1D
100
AcDbEntity
  8
0
100
AcDbLine
 10
381.8754
 20
122.791269987105
 30
0.0
 11
387.0824
 21
122.636
 31
0.0
  0
LINE
  5
F5E
330
1D
100
AcDbEntity
  8
0
100
AcDbLine
 10
380.7324
 20
121.927
 30
0.0
 11
387.0824
 21
121.711
 31
0.0
  0
LINE
  5
F5F
330
1D
100
AcDbEntity
  8
0
100
AcDbLine
 10
342.9214
 20
141.936
 30
0.0
 11
342.9214
 21
142.720449307946
 31
0.0
  0
LINE
  5
F60
330
1D
100
AcDbEntity
  8
0
100
AcDbLine
 10
342.9214
 20
141.936
 30
0.0
 11
342.9214
 21
141.319
 31
0.0
  0
LINE
  5
F61
330
1D
100
AcDbEntity
  8
0
100
AcDbLine
 10
341.4624
 20
142.25326839036
 30
0.0
 11
341.4624
 21
141.319
 31
0.0
  0
LINE
  5
F62
330
1D
100
AcDbEntity
  8
0
100
AcDbLine
 10
341.4624
 20
141.936
 30
0.0
 11
341.4624
 21
141.319
 31
0.0
  0
LINE
  5
F63
330
1D
100
AcDbEntity
  8
0
100
AcDbLine
 10
341.4624
 20
141.936
 30
0.0
 11
341.4624
 21
142.626756762453
 31
0.0
  0
LINE
  5
F64
330
1D
100
AcDbEntity
  8
0
100
AcDbLine
 10
341.4624
 20
141.936
 30
0.0
 11
342.9214
 21
141.936
 31
0.0
  0
LINE
  5
F65
330
1D
100
AcDbEntity
  8
0
100
AcDbLine
 10
340.0024
 20
142.533
 30
0.0
 11
340.4404
 21
139.911
 31
0.0
  0
LINE
  5
F66
330
1D
100
AcDbEntity
  8
0
100
AcDbLine
 10
340.0024
 20
142.533
 30
0.0
 11
340.4404
 21
145.155
 31
0.0
  0
LINE
  5
F67
330
1D
100
AcDbEntity
  8
0
100
AcDbLine
 10
342.9214
 20
142.720449307946
 30
0.0
 11
342.9214
 21
141.936
 31
0.0
  0
LINE
  5
F68
330
1D
100
AcDbEntity
  8
0
100
AcDbLine
 10
341.4624
 20
142.626756762453
 30
0.0
 11
341.4624
 21
141.936
 31
0.0
  0
LINE
  5
F69
330
1D
100
AcDbEntity
  8
0
100
AcDbLine
 10
337.8124
 20
142.533
 30
0.0
 11
338.3234
 21
139.849
 31
0.0
  0
LINE
  5
F6A
330
1D
100
AcDbEntity
  8
0
100
AcDbLine
 10
337.8124
 20
142.533
 30
0.0
 11
338.3234
 21
145.217
 31
0.0
  0
LINE
  5
F6B
330
1D
100
AcDbEntity
  8
0
100
AcDbLine
 10
337.0824
 20
143.44
 30
0.0
 11
337.5934
 21
140.725
 31
0.0
  0
LINE
  5
F6C
330
1D
100
AcDbEntity
  8
0
100
AcDbLine
 10
337.0824
 20
143.44
 30
0.0
 11
337.0824
 21
162.472
 31
0.0
  0
LINE
  5
F6D
330
1D
100
AcDbEntity
  8
0
100
AcDbLine
 10
337.0824
 20
143.44
 30
0.0
 11
337.5934
 21
146.154
 31
0.0
  0
LINE
  5
F6E
330
1D
100
AcDbEntity
  8
0
100
AcDbLine
 10
361.1704
 20
144.803
 30
0.0
 11
361.1704
 21
145.938077492727
 31
0.0
  0
LINE
  5
F6F
330
1D
100
AcDbEntity
  8
0
100
AcDbLine
 10
361.1704
 20
144.803
 30
0.0
 11
361.1704
 21
144.186
 31
0.0
  0
LINE
  5
F70
330
1D
100
AcDbEntity
  8
0
100
AcDbLine
 10
361.1704
 20
144.803
 30
0.0
 11
362.6304
 21
144.803
 31
0.0
  0
LINE
  5
F71
330
1D
100
AcDbEntity
  8
0
100
AcDbLine
 10
361.1704
 20
144.495941454761
 30
0.0
 11
361.1704
 21
144.186
 31
0.0
  0
LINE
  5
F72
330
1D
100
AcDbEntity
  8
0
100
AcDbLine
 10
362.6304
 20
144.186
 30
0.0
 11
362.6304
 21
144.803
 31
0.0
  0
LINE
  5
F73
330
1D
100
AcDbEntity
  8
0
100
AcDbLine
 10
362.6304
 20
144.803
 30
0.0
 11
362.6304
 21
144.186
 31
0.0
  0
LINE
  5
F74
330
1D
100
AcDbEntity
  8
0
100
AcDbLine
 10
362.6304
 20
144.803
 30
0.0
 11
362.6304
 21
145.61317825972
 31
0.0
  0
LINE
  5
F75
330
1D
100
AcDbEntity
  8
0
100
AcDbLine
 10
361.1704
 20
144.186
 30
0.0
 11
361.1704
 21
144.803
 31
0.0
  0
LINE
  5
F76
330
1D
100
AcDbEntity
  8
0
100
AcDbLine
 10
361.1704
 20
144.186
 30
0.0
 11
361.1704
 21
144.495941454761
 31
0.0
  0
LINE
  5
F77
330
1D
100
AcDbEntity
  8
0
100
AcDbLine
 10
361.1704
 20
144.186
 30
0.0
 11
362.6304
 21
144.186
 31
0.0
  0
LINE
  5
F78
330
1D
100
AcDbEntity
  8
0
100
AcDbLine
 10
353.2224
 20
144.948
 30
0.0
 11
353.2224
 21
145.565
 31
0.0
  0
LINE
  5
F79
330
1D
100
AcDbEntity
  8
0
100
AcDbLine
 10
351.7624
 20
144.948
 30
0.0
 11
351.7624
 21
145.565
 31
0.0
  0
LINE
  5
F7A
330
1D
100
AcDbEntity
  8
0
100
AcDbLine
 10
351.7624
 20
144.948
 30
0.0
 11
351.7624
 21
145.753263157895
 31
0.0
  0
LINE
  5
F7B
330
1D
100
AcDbEntity
  8
0
100
AcDbLine
 10
351.7624
 20
144.948
 30
0.0
 11
353.2224
 21
144.948
 31
0.0
  0
LINE
  5
F7C
330
1D
100
AcDbEntity
  8
0
100
AcDbLine
 10
342.8404
 20
146.087
 30
0.0
 11
342.8404
 21
147.162
 31
0.0
  0
LINE
  5
F7D
330
1D
100
AcDbEntity
  8
0
100
AcDbLine
 10
342.8404
 20
146.087
 30
0.0
 11
342.8404
 21
145.47
 31
0.0
  0
LINE
  5
F7E
330
1D
100
AcDbEntity
  8
0
100
AcDbLine
 10
342.8404
 20
146.087
 30
0.0
 11
344.3004
 21
146.087
 31
0.0
  0
LINE
  5
F7F
330
1D
100
AcDbEntity
  8
0
100
AcDbLine
 10
362.6304
 20
145.61317825972
 30
0.0
 11
362.6304
 21
144.803
 31
0.0
  0
LINE
  5
F80
330
1D
100
AcDbEntity
  8
0
100
AcDbLine
 10
353.2224
 20
145.565
 30
0.0
 11
353.2224
 21
144.948
 31
0.0
  0
LINE
  5
F81
330
1D
100
AcDbEntity
  8
0
100
AcDbLine
 10
351.7624
 20
145.565
 30
0.0
 11
351.7624
 21
145.753263157895
 31
0.0
  0
LINE
  5
F82
330
1D
100
AcDbEntity
  8
0
100
AcDbLine
 10
351.7624
 20
145.565
 30
0.0
 11
351.7624
 21
144.948
 31
0.0
  0
LINE
  5
F83
330
1D
100
AcDbEntity
  8
0
100
AcDbLine
 10
351.7624
 20
145.565
 30
0.0
 11
353.2224
 21
145.565
 31
0.0
  0
LINE
  5
F84
330
1D
100
AcDbEntity
  8
0
100
AcDbLine
 10
361.1704
 20
145.938077492727
 30
0.0
 11
361.1704
 21
144.803
 31
0.0
  0
LINE
  5
F85
330
1D
100
AcDbEntity
  8
0
100
AcDbLine
 10
351.7624
 20
145.753263157895
 30
0.0
 11
351.7624
 21
144.948
 31
0.0
  0
LINE
  5
F86
330
1D
100
AcDbEntity
  8
0
100
AcDbLine
 10
351.7624
 20
145.753263157895
 30
0.0
 11
351.7624
 21
145.565
 31
0.0
  0
LINE
  5
F87
330
1D
100
AcDbEntity
  8
0
100
AcDbLine
 10
344.3004
 20
145.47
 30
0.0
 11
344.3004
 21
146.087
 31
0.0
  0
LINE
  5
F88
330
1D
100
AcDbEntity
  8
0
100
AcDbLine
 10
344.3004
 20
146.087
 30
0.0
 11
344.3004
 21
145.47
 31
0.0
  0
LINE
  5
F89
330
1D
100
AcDbEntity
  8
0
100
AcDbLine
 10
344.3004
 20
146.087
 30
0.0
 11
344.3004
 21
146.931473684211
 31
0.0
  0
LINE
  5
F8A
330
1D
100
AcDbEntity
  8
0
100
AcDbLine
 10
342.8404
 20
145.47
 30
0.0
 11
342.8404
 21
146.087
 31
0.0
  0
LINE
  5
F8B
330
1D
100
AcDbEntity
  8
0
100
AcDbLine
 10
342.8404
 20
145.47
 30
0.0
 11
344.3004
 21
145.47
 31
0.0
  0
LINE
  5
F8C
330
1D
100
AcDbEntity
  8
0
100
AcDbLine
 10
340.4404
 20
145.155
 30
0.0
 11
341.6814
 21
147.345
 31
0.0
  0
LINE
  5
F8D
330
1D
100
AcDbEntity
  8
0
100
AcDbLine
 10
338.3234
 20
145.217
 30
0.0
 11
339.5644
 21
147.777
 31
0.0
  0
LINE
  5
F8E
330
1D
100
AcDbEntity
  8
0
100
AcDbLine
 10
342.8404
 20
147.162
 30
0.0
 11
342.8404
 21
146.087
 31
0.0
  0
LINE
  5
F8F
330
1D
100
AcDbEntity
  8
0
100
AcDbLine
 10
344.3004
 20
146.931473684211
 30
0.0
 11
344.3004
 21
146.087
 31
0.0
  0
LINE
  5
F90
330
1D
100
AcDbEntity
  8
0
100
AcDbLine
 10
346.1664
 20
149.866077494547
 30
0.0
 11
346.1664
 21
149.553
 31
0.0
  0
LINE
  5
F91
330
1D
100
AcDbEntity
  8
0
100
AcDbLine
 10
356.2234
 20
149.292616738625
 30
0.0
 11
356.2234
 21
149.03
 31
0.0
  0
LINE
  5
F92
330
1D
100
AcDbEntity
  8
0
100
AcDbLine
 10
366.4424
 20
148.611
 30
0.0
 11
366.4424
 21
147.994
 31
0.0
  0
LINE
  5
F93
330
1D
100
AcDbEntity
  8
0
100
AcDbLine
 10
366.4424
 20
148.611
 30
0.0
 11
367.9024
 21
148.611
 31
0.0
  0
LINE
  5
F94
330
1D
100
AcDbEntity
  8
0
100
AcDbLine
 10
366.4424
 20
148.33095959596
 30
0.0
 11
366.4424
 21
147.994
 31
0.0
  0
LINE
  5
F95
330
1D
100
AcDbEntity
  8
0
100
AcDbLine
 10
367.9024
 20
147.994
 30
0.0
 11
367.9024
 21
148.611
 31
0.0
  0
LINE
  5
F96
330
1D
100
AcDbEntity
  8
0
100
AcDbLine
 10
367.9024
 20
148.611
 30
0.0
 11
367.9024
 21
147.994
 31
0.0
  0
LINE
  5
F97
330
1D
100
AcDbEntity
  8
0
100
AcDbLine
 10
367.9024
 20
148.611
 30
0.0
 11
367.9024
 21
149.464693115438
 31
0.0
  0
LINE
  5
F98
330
1D
100
AcDbEntity
  8
0
100
AcDbLine
 10
366.4424
 20
147.994
 30
0.0
 11
366.4424
 21
148.611
 31
0.0
  0
LINE
  5
F99
330
1D
100
AcDbEntity
  8
0
100
AcDbLine
 10
366.4424
 20
147.994
 30
0.0
 11
366.4424
 21
148.33095959596
 31
0.0
  0
LINE
  5
F9A
330
1D
100
AcDbEntity
  8
0
100
AcDbLine
 10
366.4424
 20
147.994
 30
0.0
 11
367.9024
 21
147.994
 31
0.0
  0
LINE
  5
F9B
330
1D
100
AcDbEntity
  8
0
100
AcDbLine
 10
367.9024
 20
149.464693115438
 30
0.0
 11
367.9024
 21
148.611
 31
0.0
  0
LINE
  5
F9C
330
1D
100
AcDbEntity
  8
0
100
AcDbLine
 10
357.6834
 20
149.03
 30
0.0
 11
357.6834
 21
149.647
 31
0.0
  0
LINE
  5
F9D
330
1D
100
AcDbEntity
  8
0
100
AcDbLine
 10
356.2234
 20
149.03
 30
0.0
 11
356.2234
 21
149.647
 31
0.0
  0
LINE
  5
F9E
330
1D
100
AcDbEntity
  8
0
100
AcDbLine
 10
356.2234
 20
149.03
 30
0.0
 11
356.2234
 21
149.292616738625
 31
0.0
  0
LINE
  5
F9F
330
1D
100
AcDbEntity
  8
0
100
AcDbLine
 10
356.2234
 20
149.03
 30
0.0
 11
357.6834
 21
149.03
 31
0.0
  0
LINE
  5
FA0
330
1D
100
AcDbEntity
  8
0
100
AcDbLine
 10
357.6834
 20
149.647
 30
0.0
 11
357.6834
 21
149.03
 31
0.0
  0
LINE
  5
FA1
330
1D
100
AcDbEntity
  8
0
100
AcDbLine
 10
357.6834
 20
149.647
 30
0.0
 11
357.6834
 21
150.658375189316
 31
0.0
  0
LINE
  5
FA2
330
1D
100
AcDbEntity
  8
0
100
AcDbLine
 10
356.2234
 20
149.647
 30
0.0
 11
356.2234
 21
150.885828032493
 31
0.0
  0
LINE
  5
FA3
330
1D
100
AcDbEntity
  8
0
100
AcDbLine
 10
356.2234
 20
149.647
 30
0.0
 11
356.2234
 21
149.03
 31
0.0
  0
LINE
  5
FA4
330
1D
100
AcDbEntity
  8
0
100
AcDbLine
 10
356.2234
 20
149.647
 30
0.0
 11
357.6834
 21
149.647
 31
0.0
  0
LINE
  5
FA5
330
1D
100
AcDbEntity
  8
0
100
AcDbLine
 10
347.6264
 20
149.553
 30
0.0
 11
347.6264
 21
150.17
 31
0.0
  0
LINE
  5
FA6
330
1D
100
AcDbEntity
  8
0
100
AcDbLine
 10
346.1664
 20
149.553
 30
0.0
 11
346.1664
 21
150.17
 31
0.0
  0
LINE
  5
FA7
330
1D
100
AcDbEntity
  8
0
100
AcDbLine
 10
346.1664
 20
149.553
 30
0.0
 11
346.1664
 21
149.866077494547
 31
0.0
  0
LINE
  5
FA8
330
1D
100
AcDbEntity
  8
0
100
AcDbLine
 10
346.1664
 20
149.553
 30
0.0
 11
347.6264
 21
149.553
 31
0.0
  0
LINE
  5
FA9
330
1D
100
AcDbEntity
  8
0
100
AcDbLine
 10
346.1664
 20
150.17
 30
0.0
 11
346.1664
 21
149.553
 31
0.0
  0
LINE
  5
FAA
330
1D
100
AcDbEntity
  8
0
100
AcDbLine
 10
346.1664
 20
150.17
 30
0.0
 11
347.6264
 21
150.17
 31
0.0
  0
LINE
  5
FAB
330
1D
100
AcDbEntity
  8
0
100
AcDbLine
 10
347.6264
 20
150.17
 30
0.0
 11
347.6264
 21
149.553
 31
0.0
  0
LINE
  5
FAC
330
1D
100
AcDbEntity
  8
0
100
AcDbLine
 10
343.6514
 20
150.122
 30
0.0
 11
346.2794
 21
152.435
 31
0.0
  0
LINE
  5
FAD
330
1D
100
AcDbEntity
  8
0
100
AcDbLine
 10
341.6814
 20
147.345
 30
0.0
 11
343.6514
 21
150.122
 31
0.0
  0
LINE
  5
FAE
330
1D
100
AcDbEntity
  8
0
100
AcDbLine
 10
356.2234
 20
150.885828032493
 30
0.0
 11
356.2234
 21
149.647
 31
0.0
  0
LINE
  5
FAF
330
1D
100
AcDbEntity
  8
0
100
AcDbLine
 10
357.6834
 20
150.658375189316
 30
0.0
 11
357.6834
 21
149.647
 31
0.0
  0
LINE
  5
FB0
330
1D
100
AcDbEntity
  8
0
100
AcDbLine
 10
341.6814
 20
150.492
 30
0.0
 11
344.3814
 21
152.898
 31
0.0
  0
LINE
  5
FB1
330
1D
100
AcDbEntity
  8
0
100
AcDbLine
 10
339.5644
 20
147.777
 30
0.0
 11
341.6814
 21
150.492
 31
0.0
  0
LINE
  5
FB2
330
1D
100
AcDbEntity
  8
0
100
AcDbLine
 10
350.9524
 20
153.601
 30
0.0
 11
350.9524
 21
154.364023363138
 31
0.0
  0
LINE
  5
FB3
330
1D
100
AcDbEntity
  8
0
100
AcDbLine
 10
350.9524
 20
153.601
 30
0.0
 11
350.9524
 21
152.984
 31
0.0
  0
LINE
  5
FB4
330
1D
100
AcDbEntity
  8
0
100
AcDbLine
 10
350.9524
 20
153.601
 30
0.0
 11
352.4124
 21
153.601
 31
0.0
  0
LINE
  5
FB5
330
1D
100
AcDbEntity
  8
0
100
AcDbLine
 10
350.9524
 20
154.364023363138
 30
0.0
 11
350.9524
 21
153.601
 31
0.0
  0
LINE
  5
FB6
330
1D
100
AcDbEntity
  8
0
100
AcDbLine
 10
350.9524
 20
154.152712121212
 30
0.0
 11
350.9524
 21
152.984
 31
0.0
  0
LINE
  5
FB7
330
1D
100
AcDbEntity
  8
0
100
AcDbLine
 10
363.0374
 20
151.844
 30
0.0
 11
363.0374
 21
152.461
 31
0.0
  0
LINE
  5
FB8
330
1D
100
AcDbEntity
  8
0
100
AcDbLine
 10
361.5774
 20
152.461
 30
0.0
 11
361.5774
 21
152.597700541867
 31
0.0
  0
LINE
  5
FB9
330
1D
100
AcDbEntity
  8
0
100
AcDbLine
 10
361.5774
 20
152.461
 30
0.0
 11
361.5774
 21
151.844
 31
0.0
  0
LINE
  5
FBA
330
1D
100
AcDbEntity
  8
0
100
AcDbLine
 10
361.5774
 20
152.461
 30
0.0
 11
363.0374
 21
152.461
 31
0.0
  0
LINE
  5
FBB
330
1D
100
AcDbEntity
  8
0
100
AcDbLine
 10
363.0374
 20
152.461
 30
0.0
 11
363.0374
 21
151.844
 31
0.0
  0
LINE
  5
FBC
330
1D
100
AcDbEntity
  8
0
100
AcDbLine
 10
361.5774
 20
152.597700541867
 30
0.0
 11
361.5774
 21
151.844
 31
0.0
  0
LINE
  5
FBD
330
1D
100
AcDbEntity
  8
0
100
AcDbLine
 10
361.5774
 20
152.597700541867
 30
0.0
 11
361.5774
 21
152.461
 31
0.0
  0
LINE
  5
FBE
330
1D
100
AcDbEntity
  8
0
100
AcDbLine
 10
361.5774
 20
151.844
 30
0.0
 11
361.5774
 21
152.461
 31
0.0
  0
LINE
  5
FBF
330
1D
100
AcDbEntity
  8
0
100
AcDbLine
 10
361.5774
 20
151.844
 30
0.0
 11
361.5774
 21
152.597700541867
 31
0.0
  0
LINE
  5
FC0
330
1D
100
AcDbEntity
  8
0
100
AcDbLine
 10
361.5774
 20
151.844
 30
0.0
 11
363.0374
 21
151.844
 31
0.0
  0
LINE
  5
FC1
330
1D
100
AcDbEntity
  8
0
100
AcDbLine
 10
352.4124
 20
152.984
 30
0.0
 11
352.4124
 21
153.601
 31
0.0
  0
LINE
  5
FC2
330
1D
100
AcDbEntity
  8
0
100
AcDbLine
 10
368.7494
 20
153.976
 30
0.0
 11
370.0134
 21
154.284
 31
0.0
  0
LINE
  5
FC3
330
1D
100
AcDbEntity
  8
0
100
AcDbLine
 10
368.0194
 20
154.511
 30
0.0
 11
369.2844
 21
154.819
 31
0.0
  0
LINE
  5
FC4
330
1D
100
AcDbEntity
  8
0
100
AcDbLine
 10
368.0194
 20
154.511
 30
0.0
 11
368.7494
 21
153.976
 31
0.0
  0
LINE
  5
FC5
330
1D
100
AcDbEntity
  8
0
100
AcDbLine
 10
368.0194
 20
154.511
 30
0.0
 11
368.0194
 21
154.715939388907
 31
0.0
  0
LINE
  5
FC6
330
1D
100
AcDbEntity
  8
0
100
AcDbLine
 10
352.4124
 20
154.038081626767
 30
0.0
 11
352.4124
 21
153.601
 31
0.0
  0
LINE
  5
FC7
330
1D
100
AcDbEntity
  8
0
100
AcDbLine
 10
352.4124
 20
153.601
 30
0.0
 11
352.4124
 21
152.984
 31
0.0
  0
LINE
  5
FC8
330
1D
100
AcDbEntity
  8
0
100
AcDbLine
 10
352.4124
 20
153.601
 30
0.0
 11
352.4124
 21
154.038081626767
 31
0.0
  0
LINE
  5
FC9
330
1D
100
AcDbEntity
  8
0
100
AcDbLine
 10
350.9524
 20
152.984
 30
0.0
 11
350.9524
 21
153.601
 31
0.0
  0
LINE
  5
FCA
330
1D
100
AcDbEntity
  8
0
100
AcDbLine
 10
350.9524
 20
152.984
 30
0.0
 11
350.9524
 21
154.152712121212
 31
0.0
  0
LINE
  5
FCB
330
1D
100
AcDbEntity
  8
0
100
AcDbLine
 10
350.9524
 20
152.984
 30
0.0
 11
352.4124
 21
152.984
 31
0.0
  0
LINE
  5
FCC
330
1D
100
AcDbEntity
  8
0
100
AcDbLine
 10
369.2844
 20
154.819
 30
0.0
 11
370.0134
 21
154.284
 31
0.0
  0
LINE
  5
FCD
330
1D
100
AcDbEntity
  8
0
100
AcDbLine
 10
368.0194
 20
154.715939388907
 30
0.0
 11
368.0194
 21
154.511
 31
0.0
  0
LINE
  5
FCE
330
1D
100
AcDbEntity
  8
0
100
AcDbLine
 10
349.7834
 20
154.625
 30
0.0
 11
353.8704
 21
156.569
 31
0.0
  0
LINE
  5
FCF
330
1D
100
AcDbEntity
  8
0
100
AcDbLine
 10
346.2794
 20
152.435
 30
0.0
 11
349.7834
 21
154.625
 31
0.0
  0
LINE
  5
FD0
330
1D
100
AcDbEntity
  8
0
100
AcDbLine
 10
358.8204
 20
155.831
 30
0.0
 11
358.8204
 21
156.448
 31
0.0
  0
LINE
  5
FD1
330
1D
100
AcDbEntity
  8
0
100
AcDbLine
 10
357.3604
 20
155.831
 30
0.0
 11
357.3604
 21
156.448
 31
0.0
  0
LINE
  5
FD2
330
1D
100
AcDbEntity
  8
0
100
AcDbLine
 10
357.3604
 20
155.831
 30
0.0
 11
358.8204
 21
155.831
 31
0.0
  0
LINE
  5
FD3
330
1D
100
AcDbEntity
  8
0
100
AcDbLine
 10
348.0314
 20
155.181
 30
0.0
 11
352.2654
 21
157.247
 31
0.0
  0
LINE
  5
FD4
330
1D
100
AcDbEntity
  8
0
100
AcDbLine
 10
344.3814
 20
152.898
 30
0.0
 11
348.0314
 21
155.181
 31
0.0
  0
LINE
  5
FD5
330
1D
100
AcDbEntity
  8
0
100
AcDbLine
 10
353.8704
 20
156.569
 30
0.0
 11
358.4694
 21
158.296
 31
0.0
  0
LINE
  5
FD6
330
1D
100
AcDbEntity
  8
0
100
AcDbLine
 10
352.2654
 20
157.247
 30
0.0
 11
357.1554
 21
159.037
 31
0.0
  0
LINE
  5
FD7
330
1D
100
AcDbEntity
  8
0
100
AcDbLine
 10
351.7544
 20
158.37
 30
0.0
 11
356.7174
 21
160.19
 31
0.0
  0
LINE
  5
FD8
330
1D
100
AcDbEntity
  8
0
100
AcDbLine
 10
357.3604
 20
157.879552293977
 30
0.0
 11
357.3604
 21
156.448
 31
0.0
  0
LINE
  5
FD9
330
1D
100
AcDbEntity
  8
0
100
AcDbLine
 10
357.3604
 20
156.448
 30
0.0
 11
357.3604
 21
157.879552293977
 31
0.0
  0
LINE
  5
FDA
330
1D
100
AcDbEntity
  8
0
100
AcDbLine
 10
357.3604
 20
156.448
 30
0.0
 11
357.3604
 21
155.831
 31
0.0
  0
LINE
  5
FDB
330
1D
100
AcDbEntity
  8
0
100
AcDbLine
 10
357.3604
 20
156.448
 30
0.0
 11
358.8204
 21
156.448
 31
0.0
  0
LINE
  5
FDC
330
1D
100
AcDbEntity
  8
0
100
AcDbLine
 10
358.8204
 20
156.448
 30
0.0
 11
358.8204
 21
155.831
 31
0.0
  0
LINE
  5
FDD
330
1D
100
AcDbEntity
  8
0
100
AcDbLine
 10
365.6344
 20
157.944
 30
0.0
 11
365.6344
 21
158.817102329916
 31
0.0
  0
LINE
  5
FDE
330
1D
100
AcDbEntity
  8
0
100
AcDbLine
 10
364.3704
 20
157.635
 30
0.0
 11
365.6344
 21
157.944
 31
0.0
  0
LINE
  5
FDF
330
1D
100
AcDbEntity
  8
0
100
AcDbLine
 10
363.6404
 20
158.169
 30
0.0
 11
364.9044
 21
158.478
 31
0.0
  0
LINE
  5
FE0
330
1D
100
AcDbEntity
  8
0
100
AcDbLine
 10
363.6404
 20
158.169
 30
0.0
 11
364.3704
 21
157.635
 31
0.0
  0
LINE
  5
FE1
330
1D
100
AcDbEntity
  8
0
100
AcDbLine
 10
363.6404
 20
158.169
 30
0.0
 11
363.6404
 21
159.773856233115
 31
0.0
  0
LINE
  5
FE2
330
1D
100
AcDbEntity
  8
0
100
AcDbLine
 10
364.9044
 20
159.170468592731
 30
0.0
 11
364.9044
 21
158.478
 31
0.0
  0
LINE
  5
FE3
330
1D
100
AcDbEntity
  8
0
100
AcDbLine
 10
365.6344
 20
158.817102329916
 30
0.0
 11
365.6344
 21
157.944
 31
0.0
  0
LINE
  5
FE4
330
1D
100
AcDbEntity
  8
0
100
AcDbLine
 10
364.9044
 20
158.478
 30
0.0
 11
364.9044
 21
159.170468592731
 31
0.0
  0
LINE
  5
FE5
330
1D
100
AcDbEntity
  8
0
100
AcDbLine
 10
364.9044
 20
158.478
 30
0.0
 11
365.6344
 21
157.944
 31
0.0
  0
LINE
  5
FE6
330
1D
100
AcDbEntity
  8
0
100
AcDbLine
 10
363.6404
 20
159.773856233115
 30
0.0
 11
363.6404
 21
158.169
 31
0.0
  0
LINE
  5
FE7
330
1D
100
AcDbEntity
  8
0
100
AcDbLine
 10
358.4694
 20
158.296
 30
0.0
 11
363.6514
 21
159.777
 31
0.0
  0
LINE
  5
FE8
330
1D
100
AcDbEntity
  8
0
100
AcDbLine
 10
363.6514
 20
159.777
 30
0.0
 11
369.1264
 21
160.888
 31
0.0
  0
LINE
  5
FE9
330
1D
100
AcDbEntity
  8
0
100
AcDbLine
 10
357.1554
 20
159.037
 30
0.0
 11
362.5574
 21
160.579
 31
0.0
  0
LINE
  5
FEA
330
1D
100
AcDbEntity
  8
0
100
AcDbLine
 10
362.5574
 20
160.579
 30
0.0
 11
368.2504
 21
161.72
 31
0.0
  0
LINE
  5
FEB
330
1D
100
AcDbEntity
  8
0
100
AcDbLine
 10
356.7174
 20
160.19
 30
0.0
 11
362.1914
 21
161.732
 31
0.0
  0
LINE
  5
FEC
330
1D
100
AcDbEntity
  8
0
100
AcDbLine
 10
362.1914
 20
161.732
 30
0.0
 11
367.9584
 21
162.935
 31
0.0
  0
LINE
  5
FED
330
1D
100
AcDbEntity
  8
0
100
AcDbLine
 10
369.1264
 20
160.888
 30
0.0
 11
375.6954
 21
161.72
 31
0.0
  0
LINE
  5
FEE
330
1D
100
AcDbEntity
  8
0
100
AcDbLine
 10
368.2504
 20
161.72
 30
0.0
 11
374.6734
 21
162.615
 31
0.0
  0
LINE
  5
FEF
330
1D
100
AcDbEntity
  8
0
100
AcDbLine
 10
367.9584
 20
162.935
 30
0.0
 11
374.1624
 21
163.799
 31
0.0
  0
LINE
  5
FF0
330
1D
100
AcDbEntity
  8
0
100
AcDbLine
 10
347.4474
 20
156.272
 30
0.0
 11
351.7544
 21
158.37
 31
0.0
  0
LINE
  5
FF1
330
1D
100
AcDbEntity
  8
0
100
AcDbLine
 10
343.7974
 20
153.959
 30
0.0
 11
347.4474
 21
156.272
 31
0.0
  0
LINE
  5
FF2
330
1D
100
AcDbEntity
  8
0
100
AcDbLine
 10
340.9514
 20
151.522
 30
0.0
 11
343.7974
 21
153.959
 31
0.0
  0
LINE
  5
FF3
330
1D
100
AcDbEntity
  8
0
100
AcDbLine
 10
338.9074
 20
148.899
 30
0.0
 11
340.9514
 21
151.522
 31
0.0
  0
LINE
  5
FF4
330
1D
100
AcDbEntity
  8
0
100
AcDbLine
 10
337.5934
 20
146.154
 30
0.0
 11
338.9074
 21
148.899
 31
0.0
  0
LINE
  5
FF5
330
1D
100
AcDbEntity
  8
0
100
AcDbLine
 10
337.0824
 20
162.472
 30
0.0
 11
337.5934
 21
165.187
 31
0.0
  0
LINE
  5
FF6
330
1D
100
AcDbEntity
  8
0
100
AcDbLine
 10
337.0824
 20
162.472
 30
0.0
 11
337.0824
 21
143.44
 31
0.0
  0
LINE
  5
FF7
330
1D
100
AcDbEntity
  8
0
100
AcDbLine
 10
372.3624
 20
143.973
 30
0.0
 11
372.3624
 21
144.59
 31
0.0
  0
LINE
  5
FF8
330
1D
100
AcDbEntity
  8
0
100
AcDbLine
 10
370.9024
 20
145.493880406168
 30
0.0
 11
370.9024
 21
144.59
 31
0.0
  0
LINE
  5
FF9
330
1D
100
AcDbEntity
  8
0
100
AcDbLine
 10
370.9024
 20
144.59
 30
0.0
 11
370.9024
 21
145.493880406168
 31
0.0
  0
LINE
  5
FFA
330
1D
100
AcDbEntity
  8
0
100
AcDbLine
 10
370.9024
 20
144.59
 30
0.0
 11
370.9024
 21
143.973
 31
0.0
  0
LINE
  5
FFB
330
1D
100
AcDbEntity
  8
0
100
AcDbLine
 10
370.9024
 20
144.59
 30
0.0
 11
372.3624
 21
144.59
 31
0.0
  0
LINE
  5
FFC
330
1D
100
AcDbEntity
  8
0
100
AcDbLine
 10
370.8414
 20
159.846359706882
 30
0.0
 11
370.8414
 21
159.381
 31
0.0
  0
LINE
  5
FFD
330
1D
100
AcDbEntity
  8
0
100
AcDbLine
 10
370.8414
 20
159.381
 30
0.0
 11
372.1054
 21
159.073
 31
0.0
  0
LINE
  5
FFE
330
1D
100
AcDbEntity
  8
0
100
AcDbLine
 10
370.8414
 20
159.381
 30
0.0
 11
371.5714
 21
159.916
 31
0.0
  0
LINE
  5
FFF
330
1D
100
AcDbEntity
  8
0
100
AcDbLine
 10
370.8414
 20
159.381
 30
0.0
 11
370.8414
 21
159.846359706882
 31
0.0
  0
LINE
  5
1000
330
1D
100
AcDbEntity
  8
0
100
AcDbLine
 10
371.5714
 20
161.19767270513
 30
0.0
 11
371.5714
 21
159.916
 31
0.0
  0
LINE
  5
1001
330
1D
100
AcDbEntity
  8
0
100
AcDbLine
 10
372.1054
 20
159.073
 30
0.0
 11
372.8354
 21
159.607
 31
0.0
  0
LINE
  5
1002
330
1D
100
AcDbEntity
  8
0
100
AcDbLine
 10
371.5714
 20
159.916
 30
0.0
 11
372.8354
 21
159.607
 31
0.0
  0
LINE
  5
1003
330
1D
100
AcDbEntity
  8
0
100
AcDbLine
 10
371.5714
 20
159.916
 30
0.0
 11
371.5714
 21
161.19767270513
 31
0.0
  0
LINE
  5
1004
330
1D
100
AcDbEntity
  8
0
100
AcDbLine
 10
374.3934
 20
150.626
 30
0.0
 11
374.3934
 21
151.091779243021
 31
0.0
  0
LINE
  5
1005
330
1D
100
AcDbEntity
  8
0
100
AcDbLine
 10
373.1294
 20
150.318
 30
0.0
 11
374.3934
 21
150.626
 31
0.0
  0
LINE
  5
1006
330
1D
100
AcDbEntity
  8
0
100
AcDbLine
 10
374.3934
 20
151.091779243021
 30
0.0
 11
374.3934
 21
150.626
 31
0.0
  0
LINE
  5
1007
330
1D
100
AcDbEntity
  8
0
100
AcDbLine
 10
373.6634
 20
151.597740880288
 30
0.0
 11
373.6634
 21
151.16
 31
0.0
  0
LINE
  5
1008
330
1D
100
AcDbEntity
  8
0
100
AcDbLine
 10
373.6634
 20
151.16
 30
0.0
 11
373.6634
 21
151.597740880288
 31
0.0
  0
LINE
  5
1009
330
1D
100
AcDbEntity
  8
0
100
AcDbLine
 10
373.6634
 20
151.16
 30
0.0
 11
374.3934
 21
150.626
 31
0.0
  0
LINE
  5
100A
330
1D
100
AcDbEntity
  8
0
100
AcDbLine
 10
372.3994
 20
152.235878950974
 30
0.0
 11
372.3994
 21
150.852
 31
0.0
  0
LINE
  5
100B
330
1D
100
AcDbEntity
  8
0
100
AcDbLine
 10
372.3994
 20
150.852
 30
0.0
 11
373.6634
 21
151.16
 31
0.0
  0
LINE
  5
100C
330
1D
100
AcDbEntity
  8
0
100
AcDbLine
 10
372.3994
 20
150.852
 30
0.0
 11
373.1294
 21
150.318
 31
0.0
  0
LINE
  5
100D
330
1D
100
AcDbEntity
  8
0
100
AcDbLine
 10
372.3994
 20
150.852
 30
0.0
 11
372.3994
 21
152.235878950974
 31
0.0
  0
LINE
  5
100E
330
1D
100
AcDbEntity
  8
0
100
AcDbLine
 10
372.3624
 20
145.12999817332
 30
0.0
 11
372.3624
 21
144.59
 31
0.0
  0
LINE
  5
100F
330
1D
100
AcDbEntity
  8
0
100
AcDbLine
 10
372.3624
 20
144.59
 30
0.0
 11
372.3624
 21
143.973
 31
0.0
  0
LINE
  5
1010
330
1D
100
AcDbEntity
  8
0
100
AcDbLine
 10
372.3624
 20
144.59
 30
0.0
 11
372.3624
 21
145.12999817332
 31
0.0
  0
LINE
  5
1011
330
1D
100
AcDbEntity
  8
0
100
AcDbLine
 10
370.9024
 20
144.908851902174
 30
0.0
 11
370.9024
 21
143.973
 31
0.0
  0
LINE
  5
1012
330
1D
100
AcDbEntity
  8
0
100
AcDbLine
 10
370.9024
 20
143.973
 30
0.0
 11
370.9024
 21
144.59
 31
0.0
  0
LINE
  5
1013
330
1D
100
AcDbEntity
  8
0
100
AcDbLine
 10
370.9024
 20
143.973
 30
0.0
 11
370.9024
 21
144.908851902174
 31
0.0
  0
LINE
  5
1014
330
1D
100
AcDbEntity
  8
0
100
AcDbLine
 10
370.9024
 20
143.973
 30
0.0
 11
372.3624
 21
143.973
 31
0.0
  0
LINE
  5
1015
330
1D
100
AcDbEntity
  8
0
100
AcDbLine
 10
385.2724
 20
142.06
 30
0.0
 11
386.1484
 21
142.208
 31
0.0
  0
LINE
  5
1016
330
1D
100
AcDbEntity
  8
0
100
AcDbLine
 10
386.1484
 20
142.208
 30
0.0
 11
387.0824
 21
142.263
 31
0.0
  0
LINE
  5
1017
330
1D
100
AcDbEntity
  8
0
100
AcDbLine
 10
376.7784
 20
147.496759896171
 30
0.0
 11
376.7784
 21
147.193
 31
0.0
  0
LINE
  5
1018
330
1D
100
AcDbEntity
  8
0
100
AcDbLine
 10
376.7044
 20
156.285346856415
 30
0.0
 11
376.7044
 21
156.152
 31
0.0
  0
LINE
  5
1019
330
1D
100
AcDbEntity
  8
0
100
AcDbLine
 10
375.9744
 20
156.728727272727
 30
0.0
 11
375.9744
 21
155.618
 31
0.0
  0
LINE
  5
101A
330
1D
100
AcDbEntity
  8
0
100
AcDbLine
 10
375.9744
 20
155.618
 30
0.0
 11
377.2394
 21
155.31
 31
0.0
  0
LINE
  5
101B
330
1D
100
AcDbEntity
  8
0
100
AcDbLine
 10
375.9744
 20
155.618
 30
0.0
 11
376.7044
 21
156.152
 31
0.0
  0
LINE
  5
101C
330
1D
100
AcDbEntity
  8
0
100
AcDbLine
 10
375.9744
 20
155.618
 30
0.0
 11
375.9744
 21
156.728727272727
 31
0.0
  0
LINE
  5
101D
330
1D
100
AcDbEntity
  8
0
100
AcDbLine
 10
376.7044
 20
156.152
 30
0.0
 11
377.9694
 21
155.844
 31
0.0
  0
LINE
  5
101E
330
1D
100
AcDbEntity
  8
0
100
AcDbLine
 10
376.7044
 20
156.152
 30
0.0
 11
376.7044
 21
156.285346856415
 31
0.0
  0
LINE
  5
101F
330
1D
100
AcDbEntity
  8
0
100
AcDbLine
 10
378.0434
 20
148.561971056688
 30
0.0
 11
378.0434
 21
147.501
 31
0.0
  0
LINE
  5
1020
330
1D
100
AcDbEntity
  8
0
100
AcDbLine
 10
377.5084
 20
146.659
 30
0.0
 11
378.7734
 21
146.967
 31
0.0
  0
LINE
  5
1021
330
1D
100
AcDbEntity
  8
0
100
AcDbLine
 10
378.7734
 20
146.967
 30
0.0
 11
378.7734
 21
148.056009419421
 31
0.0
  0
LINE
  5
1022
330
1D
100
AcDbEntity
  8
0
100
AcDbLine
 10
378.7734
 20
148.056009419421
 30
0.0
 11
378.7734
 21
146.967
 31
0.0
  0
LINE
  5
1023
330
1D
100
AcDbEntity
  8
0
100
AcDbLine
 10
378.0434
 20
147.501
 30
0.0
 11
378.0434
 21
148.561971056688
 31
0.0
  0
LINE
  5
1024
330
1D
100
AcDbEntity
  8
0
100
AcDbLine
 10
378.0434
 20
147.501
 30
0.0
 11
378.7734
 21
146.967
 31
0.0
  0
LINE
  5
1025
330
1D
100
AcDbEntity
  8
0
100
AcDbLine
 10
377.9694
 20
155.844
 30
0.0
 11
377.9694
 21
156.487483667018
 31
0.0
  0
LINE
  5
1026
330
1D
100
AcDbEntity
  8
0
100
AcDbLine
 10
377.2394
 20
155.31
 30
0.0
 11
377.9694
 21
155.844
 31
0.0
  0
LINE
  5
1027
330
1D
100
AcDbEntity
  8
0
100
AcDbLine
 10
380.5024
 20
152.565950881796
 30
0.0
 11
380.5024
 21
151.686
 31
0.0
  0
LINE
  5
1028
330
1D
100
AcDbEntity
  8
0
100
AcDbLine
 10
380.5024
 20
151.686
 30
0.0
 11
381.7664
 21
151.378
 31
0.0
  0
LINE
  5
1029
330
1D
100
AcDbEntity
  8
0
100
AcDbLine
 10
380.5024
 20
151.686
 30
0.0
 11
381.2324
 21
152.22
 31
0.0
  0
LINE
  5
102A
330
1D
100
AcDbEntity
  8
0
100
AcDbLine
 10
380.5024
 20
151.686
 30
0.0
 11
380.5024
 21
152.565950881796
 31
0.0
  0
LINE
  5
102B
330
1D
100
AcDbEntity
  8
0
100
AcDbLine
 10
377.9694
 20
156.487483667018
 30
0.0
 11
377.9694
 21
155.844
 31
0.0
  0
LINE
  5
102C
330
1D
100
AcDbEntity
  8
0
100
AcDbLine
 10
380.6114
 20
162.217954852402
 30
0.0
 11
380.6114
 21
160.837
 31
0.0
  0
LINE
  5
102D
330
1D
100
AcDbEntity
  8
0
100
AcDbLine
 10
379.8814
 20
160.303
 30
0.0
 11
381.1454
 21
159.994
 31
0.0
  0
LINE
  5
102E
330
1D
100
AcDbEntity
  8
0
100
AcDbLine
 10
379.8814
 20
160.303
 30
0.0
 11
380.6114
 21
160.837
 31
0.0
  0
LINE
  5
102F
330
1D
100
AcDbEntity
  8
0
100
AcDbLine
 10
381.1454
 20
159.994
 30
0.0
 11
381.8754
 21
160.528
 31
0.0
  0
LINE
  5
1030
330
1D
100
AcDbEntity
  8
0
100
AcDbLine
 10
380.6114
 20
160.837
 30
0.0
 11
381.8754
 21
160.528
 31
0.0
  0
LINE
  5
1031
330
1D
100
AcDbEntity
  8
0
100
AcDbLine
 10
380.6114
 20
160.837
 30
0.0
 11
380.6114
 21
162.217954852402
 31
0.0
  0
LINE
  5
1032
330
1D
100
AcDbEntity
  8
0
100
AcDbLine
 10
376.7784
 20
147.193
 30
0.0
 11
378.0434
 21
147.501
 31
0.0
  0
LINE
  5
1033
330
1D
100
AcDbEntity
  8
0
100
AcDbLine
 10
376.7784
 20
147.193
 30
0.0
 11
377.5084
 21
146.659
 31
0.0
  0
LINE
  5
1034
330
1D
100
AcDbEntity
  8
0
100
AcDbLine
 10
376.7784
 20
147.193
 30
0.0
 11
376.7784
 21
147.496759896171
 31
0.0
  0
LINE
  5
1035
330
1D
100
AcDbEntity
  8
0
100
AcDbLine
 10
381.1584
 20
144.004199172806
 30
0.0
 11
381.1584
 21
143.534
 31
0.0
  0
LINE
  5
1036
330
1D
100
AcDbEntity
  8
0
100
AcDbLine
 10
383.1524
 20
143.308
 30
0.0
 11
383.1524
 21
144.711263749744
 31
0.0
  0
LINE
  5
1037
330
1D
100
AcDbEntity
  8
0
100
AcDbLine
 10
381.8884
 20
142.999
 30
0.0
 11
383.1524
 21
143.308
 31
0.0
  0
LINE
  5
1038
330
1D
100
AcDbEntity
  8
0
100
AcDbLine
 10
381.7664
 20
151.378
 30
0.0
 11
382.4964
 21
151.912
 31
0.0
  0
LINE
  5
1039
330
1D
100
AcDbEntity
  8
0
100
AcDbLine
 10
381.2324
 20
152.22
 30
0.0
 11
382.4964
 21
151.912
 31
0.0
  0
LINE
  5
103A
330
1D
100
AcDbEntity
  8
0
100
AcDbLine
 10
381.8754
 20
160.528
 30
0.0
 11
381.8754
 21
161.187093649259
 31
0.0
  0
LINE
  5
103B
330
1D
100
AcDbEntity
  8
0
100
AcDbLine
 10
381.8754
 20
161.187093649259
 30
0.0
 11
381.8754
 21
160.528
 31
0.0
  0
LINE
  5
103C
330
1D
100
AcDbEntity
  8
0
100
AcDbLine
 10
382.4224
 20
144.161327559055
 30
0.0
 11
382.4224
 21
143.842
 31
0.0
  0
LINE
  5
103D
330
1D
100
AcDbEntity
  8
0
100
AcDbLine
 10
385.5844
 20
147.816
 30
0.0
 11
386.8484
 21
147.507
 31
0.0
  0
LINE
  5
103E
330
1D
100
AcDbEntity
  8
0
100
AcDbLine
 10
385.5844
 20
147.816
 30
0.0
 11
386.3144
 21
148.351
 31
0.0
  0
LINE
  5
103F
330
1D
100
AcDbEntity
  8
0
100
AcDbLine
 10
384.4164
 20
156.171
 30
0.0
 11
385.6814
 21
155.863
 31
0.0
  0
LINE
  5
1040
330
1D
100
AcDbEntity
  8
0
100
AcDbLine
 10
384.4164
 20
156.171
 30
0.0
 11
385.1464
 21
156.705
 31
0.0
  0
LINE
  5
1041
330
1D
100
AcDbEntity
  8
0
100
AcDbLine
 10
386.8484
 20
147.507
 30
0.0
 11
387.5784
 21
148.042
 31
0.0
  0
LINE
  5
1042
330
1D
100
AcDbEntity
  8
0
100
AcDbLine
 10
386.3144
 20
148.351
 30
0.0
 11
387.5784
 21
148.042
 31
0.0
  0
LINE
  5
1043
330
1D
100
AcDbEntity
  8
0
100
AcDbLine
 10
385.6814
 20
155.863
 30
0.0
 11
386.4114
 21
156.397
 31
0.0
  0
LINE
  5
1044
330
1D
100
AcDbEntity
  8
0
100
AcDbLine
 10
385.1464
 20
157.716269503546
 30
0.0
 11
385.1464
 21
156.705
 31
0.0
  0
LINE
  5
1045
330
1D
100
AcDbEntity
  8
0
100
AcDbLine
 10
385.1464
 20
156.705
 30
0.0
 11
386.4114
 21
156.397
 31
0.0
  0
LINE
  5
1046
330
1D
100
AcDbEntity
  8
0
100
AcDbLine
 10
385.1464
 20
156.705
 30
0.0
 11
385.1464
 21
157.716269503546
 31
0.0
  0
LINE
  5
1047
330
1D
100
AcDbEntity
  8
0
100
AcDbLine
 10
383.1524
 20
144.711263749744
 30
0.0
 11
383.1524
 21
143.308
 31
0.0
  0
LINE
  5
1048
330
1D
100
AcDbEntity
  8
0
100
AcDbLine
 10
382.4224
 20
143.842
 30
0.0
 11
382.4224
 21
144.161327559055
 31
0.0
  0
LINE
  5
1049
330
1D
100
AcDbEntity
  8
0
100
AcDbLine
 10
382.4224
 20
143.842
 30
0.0
 11
383.1524
 21
143.308
 31
0.0
  0
LINE
  5
104A
330
1D
100
AcDbEntity
  8
0
100
AcDbLine
 10
381.1584
 20
143.534
 30
0.0
 11
382.4224
 21
143.842
 31
0.0
  0
LINE
  5
104B
330
1D
100
AcDbEntity
  8
0
100
AcDbLine
 10
381.1584
 20
143.534
 30
0.0
 11
381.8884
 21
142.999
 31
0.0
  0
LINE
  5
104C
330
1D
100
AcDbEntity
  8
0
100
AcDbLine
 10
381.1584
 20
143.534
 30
0.0
 11
381.1584
 21
144.004199172806
 31
0.0
  0
LINE
  5
104D
330
1D
100
AcDbEntity
  8
0
100
AcDbLine
 10
387.0824
 20
142.263
 30
0.0
 11
388.0164
 21
142.208
 31
0.0
  0
LINE
  5
104E
330
1D
100
AcDbEntity
  8
0
100
AcDbLine
 10
375.6954
 20
161.72
 30
0.0
 11
380.8784
 21
162.245
 31
0.0
  0
LINE
  5
104F
330
1D
100
AcDbEntity
  8
0
100
AcDbLine
 10
380.8784
 20
162.245
 30
0.0
 11
387.0824
 21
162.43
 31
0.0
  0
LINE
  5
1050
330
1D
100
AcDbEntity
  8
0
100
AcDbLine
 10
374.6734
 20
162.615
 30
0.0
 11
380.7324
 21
163.139
 31
0.0
  0
LINE
  5
1051
330
1D
100
AcDbEntity
  8
0
100
AcDbLine
 10
380.7324
 20
163.139
 30
0.0
 11
387.0824
 21
163.356
 31
0.0
  0
LINE
  5
1052
330
1D
100
AcDbEntity
  8
0
100
AcDbLine
 10
387.0824
 20
122.636
 30
0.0
 11
389.583333000211
 21
122.710576499845
 31
0.0
  0
LINE
  5
1053
330
1D
100
AcDbEntity
  8
0
100
AcDbLine
 10
387.0824
 20
121.711
 30
0.0
 11
393.4324
 21
121.927
 31
0.0
  0
LINE
  5
1054
330
1D
100
AcDbEntity
  8
0
100
AcDbLine
 10
387.0824
 20
162.43
 30
0.0
 11
393.2864
 21
162.245
 31
0.0
  0
LINE
  5
1055
330
1D
100
AcDbEntity
  8
0
100
AcDbLine
 10
340.9514
 20
170.554
 30
0.0
 11
341.6814
 21
171.337
 31
0.0
  0
LINE
  5
1056
330
1D
100
AcDbEntity
  8
0
100
AcDbLine
 10
340.9514
 20
170.554
 30
0.0
 11
343.7974
 21
172.991
 31
0.0
  0
LINE
  5
1057
330
1D
100
AcDbEntity
  8
0
100
AcDbLine
 10
338.9074
 20
167.932
 30
0.0
 11
340.9514
 21
170.554
 31
0.0
  0
LINE
  5
1058
330
1D
100
AcDbEntity
  8
0
100
AcDbLine
 10
337.5934
 20
165.187
 30
0.0
 11
338.9074
 21
167.932
 31
0.0
  0
LINE
  5
1059
330
1D
100
AcDbEntity
  8
0
100
AcDbLine
 10
374.1624
 20
163.799
 30
0.0
 11
380.6594
 21
164.354
 31
0.0
  0
LINE
  5
105A
330
1D
100
AcDbEntity
  8
0
100
AcDbLine
 10
380.6594
 20
164.354
 30
0.0
 11
387.0824
 21
164.571
 31
0.0
  0
LINE
  5
105B
330
1D
100
AcDbEntity
  8
0
100
AcDbLine
 10
343.7974
 20
172.991
 30
0.0
 11
347.4474
 21
175.305
 31
0.0
  0
LINE
  5
105C
330
1D
100
AcDbEntity
  8
0
100
AcDbLine
 10
347.4474
 20
175.305
 30
0.0
 11
351.7544
 21
177.402
 31
0.0
  0
LINE
  5
105D
330
1D
100
AcDbEntity
  8
0
100
AcDbLine
 10
351.7544
 20
177.402
 30
0.0
 11
356.7174
 21
179.223
 31
0.0
  0
LINE
  5
105E
330
1D
100
AcDbEntity
  8
0
100
AcDbLine
 10
356.7174
 20
179.223
 30
0.0
 11
362.1914
 21
180.765
 31
0.0
  0
LINE
  5
105F
330
1D
100
AcDbEntity
  8
0
100
AcDbLine
 10
352.2654
 20
178.093
 30
0.0
 11
357.1554
 21
179.882
 31
0.0
  0
LINE
  5
1060
330
1D
100
AcDbEntity
  8
0
100
AcDbLine
 10
362.1914
 20
180.765
 30
0.0
 11
367.9584
 21
181.968
 31
0.0
  0
LINE
  5
1061
330
1D
100
AcDbEntity
  8
0
100
AcDbLine
 10
357.1554
 20
179.882
 30
0.0
 11
362.5574
 21
181.425
 31
0.0
  0
LINE
  5
1062
330
1D
100
AcDbEntity
  8
0
100
AcDbLine
 10
367.9584
 20
181.968
 30
0.0
 11
374.1624
 21
182.832
 31
0.0
  0
LINE
  5
1063
330
1D
100
AcDbEntity
  8
0
100
AcDbLine
 10
362.5574
 20
181.425
 30
0.0
 11
368.2504
 21
182.566
 31
0.0
  0
LINE
  5
1064
330
1D
100
AcDbEntity
  8
0
100
AcDbLine
 10
374.1624
 20
182.832
 30
0.0
 11
380.6594
 21
183.387
 31
0.0
  0
LINE
  5
1065
330
1D
100
AcDbEntity
  8
0
100
AcDbLine
 10
380.6594
 20
183.387
 30
0.0
 11
387.0824
 21
183.603
 31
0.0
  0
LINE
  5
1066
330
1D
100
AcDbEntity
  8
0
100
AcDbLine
 10
368.2504
 20
182.566
 30
0.0
 11
374.6734
 21
183.46
 31
0.0
  0
LINE
  5
1067
330
1D
100
AcDbEntity
  8
0
100
AcDbLine
 10
374.6734
 20
183.46
 30
0.0
 11
380.7324
 21
183.985
 31
0.0
  0
LINE
  5
1068
330
1D
100
AcDbEntity
  8
0
100
AcDbLine
 10
348.0314
 20
176.026
 30
0.0
 11
352.2654
 21
178.093
 31
0.0
  0
LINE
  5
1069
330
1D
100
AcDbEntity
  8
0
100
AcDbLine
 10
344.3814
 20
173.743
 30
0.0
 11
348.0314
 21
176.026
 31
0.0
  0
LINE
  5
106A
330
1D
100
AcDbEntity
  8
0
100
AcDbLine
 10
341.6814
 20
171.337
 30
0.0
 11
344.3814
 21
173.743
 31
0.0
  0
LINE
  5
106B
330
1D
100
AcDbEntity
  8
0
100
AcDbLine
 10
387.0824
 20
163.356
 30
0.0
 11
393.4324
 21
163.139
 31
0.0
  0
LINE
  5
106C
330
1D
100
AcDbEntity
  8
0
100
AcDbLine
 10
390.1544
 20
103.612
 30
0.0
 11
393.0344
 21
104.848
 31
0.0
  0
LINE
  5
106D
330
1D
100
AcDbEntity
  8
0
100
AcDbLine
 10
393.0344
 20
104.848
 30
0.0
 11
395.5304
 21
106.79
 31
0.0
  0
LINE
  5
106E
330
1D
100
AcDbEntity
  8
0
100
AcDbLine
 10
389.2904
 20
106.966
 30
0.0
 11
391.4024
 21
107.76
 31
0.0
  0
LINE
  5
106F
330
1D
100
AcDbEntity
  8
0
100
AcDbLine
 10
391.2984
 20
122.689
 30
0.0
 11
391.2984
 21
122.761718891038
 31
0.0
  0
LINE
  5
1070
330
1D
100
AcDbEntity
  8
0
100
AcDbLine
 10
390.0344
 20
122.38
 30
0.0
 11
391.2984
 21
122.689
 31
0.0
  0
LINE
  5
1071
330
1D
100
AcDbEntity
  8
0
100
AcDbLine
 10
391.4024
 20
107.76
 30
0.0
 11
393.2264
 21
109.172
 31
0.0
  0
LINE
  5
1072
330
1D
100
AcDbEntity
  8
0
100
AcDbLine
 10
393.2264
 20
109.172
 30
0.0
 11
394.5704
 21
111.026
 31
0.0
  0
LINE
  5
1073
330
1D
100
AcDbEntity
  8
0
100
AcDbLine
 10
388.8924
 20
138.476
 30
0.0
 11
389.6664
 21
138.723
 31
0.0
  0
LINE
  5
1074
330
1D
100
AcDbEntity
  8
0
100
AcDbLine
 10
388.0164
 20
138.327
 30
0.0
 11
388.8924
 21
138.476
 31
0.0
  0
LINE
  5
1075
330
1D
100
AcDbEntity
  8
0
100
AcDbLine
 10
389.3044
 20
122.915
 30
0.0
 11
390.5684
 21
123.223
 31
0.0
  0
LINE
  5
1076
330
1D
100
AcDbEntity
  8
0
100
AcDbLine
 10
389.3044
 20
122.915
 30
0.0
 11
390.0344
 21
122.38
 31
0.0
  0
LINE
  5
1077
330
1D
100
AcDbEntity
  8
0
100
AcDbLine
 10
390.2504
 20
139.049
 30
0.0
 11
390.6004
 21
139.419
 31
0.0
  0
LINE
  5
1078
330
1D
100
AcDbEntity
  8
0
100
AcDbLine
 10
389.6664
 20
138.723
 30
0.0
 11
390.2504
 21
139.049
 31
0.0
  0
LINE
  5
1079
330
1D
100
AcDbEntity
  8
0
100
AcDbLine
 10
390.5684
 20
123.223
 30
0.0
 11
391.2984
 21
122.689
 31
0.0
  0
LINE
  5
107A
330
1D
100
AcDbEntity
  8
0
100
AcDbLine
 10
390.9424
 20
129.729
 30
0.0
 11
392.2064
 21
130.038
 31
0.0
  0
LINE
  5
107B
330
1D
100
AcDbEntity
  8
0
100
AcDbLine
 10
390.9424
 20
129.729
 30
0.0
 11
391.6724
 21
129.195
 31
0.0
  0
LINE
  5
107C
330
1D
100
AcDbEntity
  8
0
100
AcDbLine
 10
391.6724
 20
129.195
 30
0.0
 11
392.9364
 21
129.504
 31
0.0
  0
LINE
  5
107D
330
1D
100
AcDbEntity
  8
0
100
AcDbLine
 10
391.0124
 20
136.729932733592
 30
0.0
 11
391.0124
 21
136.32
 31
0.0
  0
LINE
  5
107E
330
1D
100
AcDbEntity
  8
0
100
AcDbLine
 10
391.0124
 20
136.32
 30
0.0
 11
392.2764
 21
136.629
 31
0.0
  0
LINE
  5
107F
330
1D
100
AcDbEntity
  8
0
100
AcDbLine
 10
391.0124
 20
136.32
 30
0.0
 11
391.7424
 21
135.786
 31
0.0
  0
LINE
  5
1080
330
1D
100
AcDbEntity
  8
0
100
AcDbLine
 10
391.0124
 20
136.32
 30
0.0
 11
391.0124
 21
136.729932733592
 31
0.0
  0
LINE
  5
1081
330
1D
100
AcDbEntity
  8
0
100
AcDbLine
 10
392.2064
 20
130.038
 30
0.0
 11
392.9364
 21
129.504
 31
0.0
  0
LINE
  5
1082
330
1D
100
AcDbEntity
  8
0
100
AcDbLine
 10
392.2764
 20
136.629
 30
0.0
 11
393.0064
 21
136.095
 31
0.0
  0
LINE
  5
1083
330
1D
100
AcDbEntity
  8
0
100
AcDbLine
 10
392.2764
 20
136.629
 30
0.0
 11
392.2764
 21
137.842381413985
 31
0.0
  0
LINE
  5
1084
330
1D
100
AcDbEntity
  8
0
100
AcDbLine
 10
393.0064
 20
136.095
 30
0.0
 11
393.0064
 21
137.437800827194
 31
0.0
  0
LINE
  5
1085
330
1D
100
AcDbEntity
  8
0
100
AcDbLine
 10
392.2764
 20
137.842381413985
 30
0.0
 11
392.2764
 21
136.629
 31
0.0
  0
LINE
  5
1086
330
1D
100
AcDbEntity
  8
0
100
AcDbLine
 10
393.0064
 20
137.437800827194
 30
0.0
 11
393.0064
 21
136.095
 31
0.0
  0
LINE
  5
1087
330
1D
100
AcDbEntity
  8
0
100
AcDbLine
 10
391.7424
 20
135.786
 30
0.0
 11
393.0064
 21
136.095
 31
0.0
  0
LINE
  5
1088
330
1D
100
AcDbEntity
  8
0
100
AcDbLine
 10
390.7324
 20
139.815
 30
0.0
 11
390.7324
 21
140.721
 31
0.0
  0
LINE
  5
1089
330
1D
100
AcDbEntity
  8
0
100
AcDbLine
 10
390.6004
 20
139.419
 30
0.0
 11
390.7324
 21
139.815
 31
0.0
  0
LINE
  5
108A
330
1D
100
AcDbEntity
  8
0
100
AcDbLine
 10
390.7324
 20
140.721
 30
0.0
 11
390.7324
 21
139.815
 31
0.0
  0
LINE
  5
108B
330
1D
100
AcDbEntity
  8
0
100
AcDbLine
 10
390.6004
 20
140.209
 30
0.0
 11
390.7324
 21
139.815
 31
0.0
  0
LINE
  5
108C
330
1D
100
AcDbEntity
  8
0
100
AcDbLine
 10
390.2504
 20
140.58
 30
0.0
 11
390.6004
 21
140.209
 31
0.0
  0
LINE
  5
108D
330
1D
100
AcDbEntity
  8
0
100
AcDbLine
 10
390.6004
 20
141.116
 30
0.0
 11
390.7324
 21
140.721
 31
0.0
  0
LINE
  5
108E
330
1D
100
AcDbEntity
  8
0
100
AcDbLine
 10
389.6664
 20
140.906
 30
0.0
 11
390.2504
 21
140.58
 31
0.0
  0
LINE
  5
108F
330
1D
100
AcDbEntity
  8
0
100
AcDbLine
 10
388.8924
 20
141.153
 30
0.0
 11
389.6664
 21
140.906
 31
0.0
  0
LINE
  5
1090
330
1D
100
AcDbEntity
  8
0
100
AcDbLine
 10
390.2504
 20
141.486
 30
0.0
 11
390.6004
 21
141.116
 31
0.0
  0
LINE
  5
1091
330
1D
100
AcDbEntity
  8
0
100
AcDbLine
 10
389.6664
 20
141.813
 30
0.0
 11
390.2504
 21
141.486
 31
0.0
  0
LINE
  5
1092
330
1D
100
AcDbEntity
  8
0
100
AcDbLine
 10
389.3044
 20
160.339
 30
0.0
 11
390.5684
 21
160.03
 31
0.0
  0
LINE
  5
1093
330
1D
100
AcDbEntity
  8
0
100
AcDbLine
 10
389.3044
 20
160.339
 30
0.0
 11
390.0344
 21
160.873
 31
0.0
  0
LINE
  5
1094
330
1D
100
AcDbEntity
  8
0
100
AcDbLine
 10
390.9424
 20
151.712
 30
0.0
 11
392.2064
 21
151.403
 31
0.0
  0
LINE
  5
1095
330
1D
100
AcDbEntity
  8
0
100
AcDbLine
 10
390.9424
 20
151.712
 30
0.0
 11
391.6724
 21
152.246
 31
0.0
  0
LINE
  5
1096
330
1D
100
AcDbEntity
  8
0
100
AcDbLine
 10
390.5684
 20
160.03
 30
0.0
 11
391.2984
 21
160.565
 31
0.0
  0
LINE
  5
1097
330
1D
100
AcDbEntity
  8
0
100
AcDbLine
 10
390.0344
 20
162.341972920696
 30
0.0
 11
390.0344
 21
160.873
 31
0.0
  0
LINE
  5
1098
330
1D
100
AcDbEntity
  8
0
100
AcDbLine
 10
390.0344
 20
160.873
 30
0.0
 11
391.2984
 21
160.565
 31
0.0
  0
LINE
  5
1099
330
1D
100
AcDbEntity
  8
0
100
AcDbLine
 10
390.0344
 20
160.873
 30
0.0
 11
390.0344
 21
162.341972920696
 31
0.0
  0
LINE
  5
109A
330
1D
100
AcDbEntity
  8
0
100
AcDbLine
 10
391.6724
 20
152.246
 30
0.0
 11
392.9364
 21
151.937
 31
0.0
  0
LINE
  5
109B
330
1D
100
AcDbEntity
  8
0
100
AcDbLine
 10
391.7424
 20
144.161327559055
 30
0.0
 11
391.7424
 21
143.842
 31
0.0
  0
LINE
  5
109C
330
1D
100
AcDbEntity
  8
0
100
AcDbLine
 10
391.0124
 20
144.711263749744
 30
0.0
 11
391.0124
 21
143.308
 31
0.0
  0
LINE
  5
109D
330
1D
100
AcDbEntity
  8
0
100
AcDbLine
 10
391.0124
 20
143.308
 30
0.0
 11
392.2764
 21
142.999
 31
0.0
  0
LINE
  5
109E
330
1D
100
AcDbEntity
  8
0
100
AcDbLine
 10
391.0124
 20
143.308
 30
0.0
 11
391.7424
 21
143.842
 31
0.0
  0
LINE
  5
109F
330
1D
100
AcDbEntity
  8
0
100
AcDbLine
 10
391.0124
 20
143.308
 30
0.0
 11
391.0124
 21
144.711263749744
 31
0.0
  0
LINE
  5
10A0
330
1D
100
AcDbEntity
  8
0
100
AcDbLine
 10
393.0064
 20
143.534
 30
0.0
 11
393.0064
 21
144.004199172806
 31
0.0
  0
LINE
  5
10A1
330
1D
100
AcDbEntity
  8
0
100
AcDbLine
 10
392.2764
 20
142.999
 30
0.0
 11
393.0064
 21
143.534
 31
0.0
  0
LINE
  5
10A2
330
1D
100
AcDbEntity
  8
0
100
AcDbLine
 10
392.2064
 20
151.403
 30
0.0
 11
392.9364
 21
151.937
 31
0.0
  0
LINE
  5
10A3
330
1D
100
AcDbEntity
  8
0
100
AcDbLine
 10
393.0064
 20
144.004199172806
 30
0.0
 11
393.0064
 21
143.534
 31
0.0
  0
LINE
  5
10A4
330
1D
100
AcDbEntity
  8
0
100
AcDbLine
 10
391.7424
 20
143.842
 30
0.0
 11
393.0064
 21
143.534
 31
0.0
  0
LINE
  5
10A5
330
1D
100
AcDbEntity
  8
0
100
AcDbLine
 10
391.7424
 20
143.842
 30
0.0
 11
391.7424
 21
144.161327559055
 31
0.0
  0
LINE
  5
10A6
330
1D
100
AcDbEntity
  8
0
100
AcDbLine
 10
388.8924
 20
142.06
 30
0.0
 11
389.6664
 21
141.813
 31
0.0
  0
LINE
  5
10A7
330
1D
100
AcDbEntity
  8
0
100
AcDbLine
 10
388.0164
 20
142.208
 30
0.0
 11
388.8924
 21
142.06
 31
0.0
  0
LINE
  5
10A8
330
1D
100
AcDbEntity
  8
0
100
AcDbLine
 10
388.0164
 20
141.301
 30
0.0
 11
388.8924
 21
141.153
 31
0.0
  0
LINE
  5
10A9
330
1D
100
AcDbEntity
  8
0
100
AcDbLine
 10
393.2864
 20
122.821
 30
0.0
 11
398.4694
 21
123.346
 31
0.0
  0
LINE
  5
10AA
330
1D
100
AcDbEntity
  8
0
100
AcDbLine
 10
391.2984
 20
122.761718891038
 30
0.0
 11
393.2864
 21
122.821
 31
0.0
  0
LINE
  5
10AB
330
1D
100
AcDbEntity
  8
0
100
AcDbLine
 10
391.2984
 20
122.761718891038
 30
0.0
 11
391.2984
 21
122.689
 31
0.0
  0
LINE
  5
10AC
330
1D
100
AcDbEntity
  8
0
100
AcDbLine
 10
393.4324
 20
121.927
 30
0.0
 11
399.4914
 21
122.451
 31
0.0
  0
LINE
  5
10AD
330
1D
100
AcDbEntity
  8
0
100
AcDbLine
 10
393.2864
 20
162.245
 30
0.0
 11
398.4694
 21
161.72
 31
0.0
  0
LINE
  5
10AE
330
1D
100
AcDbEntity
  8
0
100
AcDbLine
 10
393.4324
 20
163.139
 30
0.0
 11
399.4914
 21
162.615
 31
0.0
  0
LINE
  5
10AF
330
1D
100
AcDbEntity
  8
0
100
AcDbLine
 10
387.0824
 20
164.571
 30
0.0
 11
393.5054
 21
164.354
 31
0.0
  0
LINE
  5
10B0
330
1D
100
AcDbEntity
  8
0
100
AcDbLine
 10
380.7324
 20
183.985
 30
0.0
 11
387.0824
 21
184.2
 31
0.0
  0
LINE
  5
10B1
330
1D
100
AcDbEntity
  8
0
100
AcDbLine
 10
387.0824
 20
183.603
 30
0.0
 11
393.5054
 21
183.387
 31
0.0
  0
LINE
  5
10B2
330
1D
100
AcDbEntity
  8
0
100
AcDbLine
 10
394.5704
 20
111.026
 30
0.0
 11
395.4344
 21
113.144
 31
0.0
  0
LINE
  5
10B3
330
1D
100
AcDbEntity
  8
0
100
AcDbLine
 10
395.5304
 20
106.79
 30
0.0
 11
397.4504
 21
109.349
 31
0.0
  0
LINE
  5
10B4
330
1D
100
AcDbEntity
  8
0
100
AcDbLine
 10
397.4504
 20
109.349
 30
0.0
 11
398.6984
 21
112.262
 31
0.0
  0
LINE
  5
10B5
330
1D
100
AcDbEntity
  8
0
100
AcDbLine
 10
397.4504
 20
121.44
 30
0.0
 11
398.6984
 21
118.528
 31
0.0
  0
LINE
  5
10B6
330
1D
100
AcDbEntity
  8
0
100
AcDbLine
 10
395.7224
 20
115.351
 30
0.0
 11
395.7224
 21
122.125045882159
 31
0.0
  0
LINE
  5
10B7
330
1D
100
AcDbEntity
  8
0
100
AcDbLine
 10
395.4344
 20
113.144
 30
0.0
 11
395.7224
 21
115.351
 31
0.0
  0
LINE
  5
10B8
330
1D
100
AcDbEntity
  8
0
100
AcDbLine
 10
395.0144
 20
126.585
 30
0.0
 11
396.2784
 21
126.894
 31
0.0
  0
LINE
  5
10B9
330
1D
100
AcDbEntity
  8
0
100
AcDbLine
 10
395.0144
 20
126.585
 30
0.0
 11
395.7434
 21
126.051
 31
0.0
  0
LINE
  5
10BA
330
1D
100
AcDbEntity
  8
0
100
AcDbLine
 10
396.2784
 20
127.812874256585
 30
0.0
 11
396.2784
 21
126.894
 31
0.0
  0
LINE
  5
10BB
330
1D
100
AcDbEntity
  8
0
100
AcDbLine
 10
396.2784
 20
126.894
 30
0.0
 11
397.0084
 21
126.359
 31
0.0
  0
LINE
  5
10BC
330
1D
100
AcDbEntity
  8
0
100
AcDbLine
 10
396.2784
 20
126.894
 30
0.0
 11
396.2784
 21
127.812874256585
 31
0.0
  0
LINE
  5
10BD
330
1D
100
AcDbEntity
  8
0
100
AcDbLine
 10
395.7434
 20
126.051
 30
0.0
 11
397.0084
 21
126.359
 31
0.0
  0
LINE
  5
10BE
330
1D
100
AcDbEntity
  8
0
100
AcDbLine
 10
395.3914
 20
133.915632300051
 30
0.0
 11
395.3914
 21
133.567
 31
0.0
  0
LINE
  5
10BF
330
1D
100
AcDbEntity
  8
0
100
AcDbLine
 10
395.3914
 20
133.567
 30
0.0
 11
396.6564
 21
133.876
 31
0.0
  0
LINE
  5
10C0
330
1D
100
AcDbEntity
  8
0
100
AcDbLine
 10
395.3914
 20
133.567
 30
0.0
 11
396.1214
 21
133.033
 31
0.0
  0
LINE
  5
10C1
330
1D
100
AcDbEntity
  8
0
100
AcDbLine
 10
395.3914
 20
133.567
 30
0.0
 11
395.3914
 21
133.915632300051
 31
0.0
  0
LINE
  5
10C2
330
1D
100
AcDbEntity
  8
0
100
AcDbLine
 10
396.2064
 20
140.208009819449
 30
0.0
 11
396.2064
 21
139.506
 31
0.0
  0
LINE
  5
10C3
330
1D
100
AcDbEntity
  8
0
100
AcDbLine
 10
396.2064
 20
139.506
 30
0.0
 11
396.2064
 21
140.122
 31
0.0
  0
LINE
  5
10C4
330
1D
100
AcDbEntity
  8
0
100
AcDbLine
 10
396.2064
 20
139.506
 30
0.0
 11
397.6664
 21
139.506
 31
0.0
  0
LINE
  5
10C5
330
1D
100
AcDbEntity
  8
0
100
AcDbLine
 10
396.2064
 20
139.506
 30
0.0
 11
396.2064
 21
140.208009819449
 31
0.0
  0
LINE
  5
10C6
330
1D
100
AcDbEntity
  8
0
100
AcDbLine
 10
396.2064
 20
141.23326765917
 30
0.0
 11
396.2064
 21
140.122
 31
0.0
  0
LINE
  5
10C7
330
1D
100
AcDbEntity
  8
0
100
AcDbLine
 10
396.2064
 20
140.122
 30
0.0
 11
397.6664
 21
140.122
 31
0.0
  0
LINE
  5
10C8
330
1D
100
AcDbEntity
  8
0
100
AcDbLine
 10
396.2064
 20
140.122
 30
0.0
 11
396.2064
 21
141.23326765917
 31
0.0
  0
LINE
  5
10C9
330
1D
100
AcDbEntity
  8
0
100
AcDbLine
 10
396.2064
 20
140.122
 30
0.0
 11
396.2064
 21
139.506
 31
0.0
  0
LINE
  5
10CA
330
1D
100
AcDbEntity
  8
0
100
AcDbLine
 10
396.6564
 20
134.750372990122
 30
0.0
 11
396.6564
 21
133.876
 31
0.0
  0
LINE
  5
10CB
330
1D
100
AcDbEntity
  8
0
100
AcDbLine
 10
396.6564
 20
133.876
 30
0.0
 11
397.3864
 21
133.342
 31
0.0
  0
LINE
  5
10CC
330
1D
100
AcDbEntity
  8
0
100
AcDbLine
 10
396.6564
 20
133.876
 30
0.0
 11
396.6564
 21
134.750372990122
 31
0.0
  0
LINE
  5
10CD
330
1D
100
AcDbEntity
  8
0
100
AcDbLine
 10
396.1214
 20
133.033
 30
0.0
 11
397.3864
 21
133.342
 31
0.0
  0
LINE
  5
10CE
330
1D
100
AcDbEntity
  8
0
100
AcDbLine
 10
397.0084
 20
126.359
 30
0.0
 11
397.0084
 21
127.510051401869
 31
0.0
  0
LINE
  5
10CF
330
1D
100
AcDbEntity
  8
0
100
AcDbLine
 10
397.0084
 20
127.510051401869
 30
0.0
 11
397.0084
 21
126.359
 31
0.0
  0
LINE
  5
10D0
330
1D
100
AcDbEntity
  8
0
100
AcDbLine
 10
397.3864
 20
133.342
 30
0.0
 11
397.3864
 21
134.460404715553
 31
0.0
  0
LINE
  5
10D1
330
1D
100
AcDbEntity
  8
0
100
AcDbLine
 10
397.6664
 20
139.506
 30
0.0
 11
397.6664
 21
140.122
 31
0.0
  0
LINE
  5
10D2
330
1D
100
AcDbEntity
  8
0
100
AcDbLine
 10
397.6664
 20
141.315239467849
 30
0.0
 11
397.6664
 21
140.122
 31
0.0
  0
LINE
  5
10D3
330
1D
100
AcDbEntity
  8
0
100
AcDbLine
 10
397.6664
 20
140.122
 30
0.0
 11
397.6664
 21
139.506
 31
0.0
  0
LINE
  5
10D4
330
1D
100
AcDbEntity
  8
0
100
AcDbLine
 10
397.6664
 20
140.122
 30
0.0
 11
397.6664
 21
141.315239467849
 31
0.0
  0
LINE
  5
10D5
330
1D
100
AcDbEntity
  8
0
100
AcDbLine
 10
397.3864
 20
134.460404715553
 30
0.0
 11
397.3864
 21
133.342
 31
0.0
  0
LINE
  5
10D6
330
1D
100
AcDbEntity
  8
0
100
AcDbLine
 10
396.862656083385
 20
122.223658555487
 30
0.0
 11
397.4504
 21
121.44
 31
0.0
  0
LINE
  5
10D7
330
1D
100
AcDbEntity
  8
0
100
AcDbLine
 10
395.7224
 20
122.125045882159
 30
0.0
 11
395.7224
 21
115.351
 31
0.0
  0
LINE
  5
10D8
330
1D
100
AcDbEntity
  8
0
100
AcDbLine
 10
398.4694
 20
123.346
 30
0.0
 11
399.664011835398
 21
123.497486019012
 31
0.0
  0
LINE
  5
10D9
330
1D
100
AcDbEntity
  8
0
100
AcDbLine
 10
395.0144
 20
155.762
 30
0.0
 11
396.2784
 21
155.453
 31
0.0
  0
LINE
  5
10DA
330
1D
100
AcDbEntity
  8
0
100
AcDbLine
 10
395.0144
 20
155.762
 30
0.0
 11
395.7434
 21
156.296
 31
0.0
  0
LINE
  5
10DB
330
1D
100
AcDbEntity
  8
0
100
AcDbLine
 10
395.7434
 20
156.296
 30
0.0
 11
397.0084
 21
155.988
 31
0.0
  0
LINE
  5
10DC
330
1D
100
AcDbEntity
  8
0
100
AcDbLine
 10
396.1214
 20
148.561971056688
 30
0.0
 11
396.1214
 21
147.501
 31
0.0
  0
LINE
  5
10DD
330
1D
100
AcDbEntity
  8
0
100
AcDbLine
 10
395.3914
 20
148.056009419421
 30
0.0
 11
395.3914
 21
146.967
 31
0.0
  0
LINE
  5
10DE
330
1D
100
AcDbEntity
  8
0
100
AcDbLine
 10
395.3914
 20
146.967
 30
0.0
 11
396.6564
 21
146.659
 31
0.0
  0
LINE
  5
10DF
330
1D
100
AcDbEntity
  8
0
100
AcDbLine
 10
395.3914
 20
146.967
 30
0.0
 11
396.1214
 21
147.501
 31
0.0
  0
LINE
  5
10E0
330
1D
100
AcDbEntity
  8
0
100
AcDbLine
 10
395.3914
 20
146.967
 30
0.0
 11
395.3914
 21
148.056009419421
 31
0.0
  0
LINE
  5
10E1
330
1D
100
AcDbEntity
  8
0
100
AcDbLine
 10
397.3864
 20
147.193
 30
0.0
 11
397.3864
 21
147.496759896171
 31
0.0
  0
LINE
  5
10E2
330
1D
100
AcDbEntity
  8
0
100
AcDbLine
 10
396.6564
 20
146.659
 30
0.0
 11
397.3864
 21
147.193
 31
0.0
  0
LINE
  5
10E3
330
1D
100
AcDbEntity
  8
0
100
AcDbLine
 10
396.2784
 20
155.453
 30
0.0
 11
397.0084
 21
155.988
 31
0.0
  0
LINE
  5
10E4
330
1D
100
AcDbEntity
  8
0
100
AcDbLine
 10
397.3864
 20
147.496759896171
 30
0.0
 11
397.3864
 21
147.193
 31
0.0
  0
LINE
  5
10E5
330
1D
100
AcDbEntity
  8
0
100
AcDbLine
 10
396.1214
 20
147.501
 30
0.0
 11
397.3864
 21
147.193
 31
0.0
  0
LINE
  5
10E6
330
1D
100
AcDbEntity
  8
0
100
AcDbLine
 10
396.1214
 20
147.501
 30
0.0
 11
396.1214
 21
148.561971056688
 31
0.0
  0
LINE
  5
10E7
330
1D
100
AcDbEntity
  8
0
100
AcDbLine
 10
398.6984
 20
112.262
 30
0.0
 11
399.0824
 21
115.351
 31
0.0
  0
LINE
  5
10E9
330
1D
100
AcDbEntity
  8
0
100
AcDbLine
 10
398.6984
 20
118.528
 30
0.0
 11
399.0824
 21
115.351
 31
0.0
  0
LINE
  5
10EA
330
1D
100
AcDbEntity
  8
0
100
AcDbLine
 10
399.3334
 20
123.739
 30
0.0
 11
400.5984
 21
124.047
 31
0.0
  0
LINE
  5
10EB
330
1D
100
AcDbEntity
  8
0
100
AcDbLine
 10
399.3334
 20
123.739
 30
0.0
 11
400.0644
 21
123.205
 31
0.0
  0
LINE
  5
10EC
330
1D
100
AcDbEntity
  8
0
100
AcDbLine
 10
399.3334
 20
159.515
 30
0.0
 11
400.5984
 21
159.206
 31
0.0
  0
LINE
  5
10ED
330
1D
100
AcDbEntity
  8
0
100
AcDbLine
 10
399.3334
 20
159.515
 30
0.0
 11
400.0644
 21
160.049
 31
0.0
  0
LINE
  5
10EE
330
1D
100
AcDbEntity
  8
0
100
AcDbLine
 10
399.7714
 20
151.091779243021
 30
0.0
 11
399.7714
 21
150.626
 31
0.0
  0
LINE
  5
10EF
330
1D
100
AcDbEntity
  8
0
100
AcDbLine
 10
399.7714
 20
150.626
 30
0.0
 11
401.0354
 21
150.318
 31
0.0
  0
LINE
  5
10F0
330
1D
100
AcDbEntity
  8
0
100
AcDbLine
 10
399.7714
 20
150.626
 30
0.0
 11
400.5014
 21
151.16
 31
0.0
  0
LINE
  5
10F1
330
1D
100
AcDbEntity
  8
0
100
AcDbLine
 10
399.7714
 20
150.626
 30
0.0
 11
399.7714
 21
151.091779243021
 31
0.0
  0
LINE
  5
10F2
330
1D
100
AcDbEntity
  8
0
100
AcDbLine
 10
399.7714
 20
131.559853913341
 30
0.0
 11
399.7714
 21
130.816
 31
0.0
  0
LINE
  5
10F3
330
1D
100
AcDbEntity
  8
0
100
AcDbLine
 10
399.7714
 20
130.816
 30
0.0
 11
401.0354
 21
131.124
 31
0.0
  0
LINE
  5
10F4
330
1D
100
AcDbEntity
  8
0
100
AcDbLine
 10
399.7714
 20
130.816
 30
0.0
 11
400.5014
 21
130.28
 31
0.0
  0
LINE
  5
10F5
330
1D
100
AcDbEntity
  8
0
100
AcDbLine
 10
399.7714
 20
130.816
 30
0.0
 11
399.7714
 21
131.559853913341
 31
0.0
  0
LINE
  5
10F6
330
1D
100
AcDbEntity
  8
0
100
AcDbLine
 10
399.4914
 20
122.451
 30
0.0
 11
405.9144
 21
123.346
 31
0.0
  0
LINE
  5
10F7
330
1D
100
AcDbEntity
  8
0
100
AcDbLine
 10
398.4694
 20
161.72
 30
0.0
 11
405.0384
 21
160.888
 31
0.0
  0
LINE
  5
10F8
330
1D
100
AcDbEntity
  8
0
100
AcDbLine
 10
399.4914
 20
162.615
 30
0.0
 11
405.9144
 21
161.72
 31
0.0
  0
LINE
  5
10F9
330
1D
100
AcDbEntity
  8
0
100
AcDbLine
 10
400.0024
 20
163.799
 30
0.0
 11
406.2064
 21
162.935
 31
0.0
  0
LINE
  5
10FA
330
1D
100
AcDbEntity
  8
0
100
AcDbLine
 10
393.5054
 20
164.354
 30
0.0
 11
400.0024
 21
163.799
 31
0.0
  0
LINE
  5
10FB
330
1D
100
AcDbEntity
  8
0
100
AcDbLine
 10
400.5984
 20
124.047
 30
0.0
 11
401.3284
 21
123.513
 31
0.0
  0
LINE
  5
10FC
330
1D
100
AcDbEntity
  8
0
100
AcDbLine
 10
401.3284
 20
123.513
 30
0.0
 11
401.3284
 21
123.708543309484
 31
0.0
  0
LINE
  5
10FD
330
1D
100
AcDbEntity
  8
0
100
AcDbLine
 10
400.0644
 20
123.205
 30
0.0
 11
401.3284
 21
123.513
 31
0.0
  0
LINE
  5
10FE
330
1D
100
AcDbEntity
  8
0
100
AcDbLine
 10
401.0354
 20
131.124
 30
0.0
 11
401.7654
 21
130.589
 31
0.0
  0
LINE
  5
10FF
330
1D
100
AcDbEntity
  8
0
100
AcDbLine
 10
400.5014
 20
130.28
 30
0.0
 11
401.7654
 21
130.589
 31
0.0
  0
LINE
  5
1100
330
1D
100
AcDbEntity
  8
0
100
AcDbLine
 10
401.7654
 20
130.589
 30
0.0
 11
401.7654
 21
130.683332517859
 31
0.0
  0
LINE
  5
1101
330
1D
100
AcDbEntity
  8
0
100
AcDbLine
 10
401.8024
 20
136.756286735078
 30
0.0
 11
401.8024
 21
135.944
 31
0.0
  0
LINE
  5
1102
330
1D
100
AcDbEntity
  8
0
100
AcDbLine
 10
401.8024
 20
135.944
 30
0.0
 11
401.8024
 21
136.561
 31
0.0
  0
LINE
  5
1103
330
1D
100
AcDbEntity
  8
0
100
AcDbLine
 10
401.8024
 20
135.944
 30
0.0
 11
403.2624
 21
135.944
 31
0.0
  0
LINE
  5
1104
330
1D
100
AcDbEntity
  8
0
100
AcDbLine
 10
401.8024
 20
135.944
 30
0.0
 11
401.8024
 21
136.756286735078
 31
0.0
  0
LINE
  5
1105
330
1D
100
AcDbEntity
  8
0
100
AcDbLine
 10
403.2624
 20
135.944
 30
0.0
 11
403.2624
 21
136.561
 31
0.0
  0
LINE
  5
1106
330
1D
100
AcDbEntity
  8
0
100
AcDbLine
 10
401.8024
 20
136.561
 30
0.0
 11
403.2624
 21
136.561
 31
0.0
  0
LINE
  5
1107
330
1D
100
AcDbEntity
  8
0
100
AcDbLine
 10
401.8024
 20
136.561
 30
0.0
 11
401.8024
 21
137.33579053442
 31
0.0
  0
LINE
  5
1108
330
1D
100
AcDbEntity
  8
0
100
AcDbLine
 10
401.8024
 20
136.561
 30
0.0
 11
401.8024
 21
135.944
 31
0.0
  0
LINE
  5
1109
330
1D
100
AcDbEntity
  8
0
100
AcDbLine
 10
401.8024
 20
137.33579053442
 30
0.0
 11
401.8024
 21
136.561
 31
0.0
  0
LINE
  5
110A
330
1D
100
AcDbEntity
  8
0
100
AcDbLine
 10
403.2624
 20
137.05377513587
 30
0.0
 11
403.2624
 21
136.561
 31
0.0
  0
LINE
  5
110B
330
1D
100
AcDbEntity
  8
0
100
AcDbLine
 10
403.2624
 20
136.561
 30
0.0
 11
403.2624
 21
135.944
 31
0.0
  0
LINE
  5
110C
330
1D
100
AcDbEntity
  8
0
100
AcDbLine
 10
403.2624
 20
136.561
 30
0.0
 11
403.2624
 21
137.05377513587
 31
0.0
  0
LINE
  5
110D
330
1D
100
AcDbEntity
  8
0
100
AcDbLine
 10
401.7654
 20
130.683332517859
 30
0.0
 11
401.7654
 21
130.589
 31
0.0
  0
LINE
  5
110E
330
1D
100
AcDbEntity
  8
0
100
AcDbLine
 10
404.1514
 20
129.168132614398
 30
0.0
 11
404.1514
 21
128.063
 31
0.0
  0
LINE
  5
110F
330
1D
100
AcDbEntity
  8
0
100
AcDbLine
 10
404.1514
 20
128.063
 30
0.0
 11
405.4154
 21
128.371
 31
0.0
  0
LINE
  5
1110
330
1D
100
AcDbEntity
  8
0
100
AcDbLine
 10
404.1514
 20
128.063
 30
0.0
 11
404.8804
 21
127.528
 31
0.0
  0
LINE
  5
1111
330
1D
100
AcDbEntity
  8
0
100
AcDbLine
 10
404.1514
 20
128.063
 30
0.0
 11
404.1514
 21
129.168132614398
 31
0.0
  0
LINE
  5
1112
330
1D
100
AcDbEntity
  8
0
100
AcDbLine
 10
404.9654
 20
140.423557326079
 30
0.0
 11
404.9654
 21
139.959
 31
0.0
  0
LINE
  5
1113
330
1D
100
AcDbEntity
  8
0
100
AcDbLine
 10
404.9654
 20
139.959
 30
0.0
 11
404.9654
 21
140.575
 31
0.0
  0
LINE
  5
1114
330
1D
100
AcDbEntity
  8
0
100
AcDbLine
 10
404.9654
 20
139.959
 30
0.0
 11
406.4254
 21
139.959
 31
0.0
  0
LINE
  5
1115
330
1D
100
AcDbEntity
  8
0
100
AcDbLine
 10
404.9654
 20
139.959
 30
0.0
 11
404.9654
 21
140.423557326079
 31
0.0
  0
LINE
  5
1116
330
1D
100
AcDbEntity
  8
0
100
AcDbLine
 10
404.9654
 20
141.480293188885
 30
0.0
 11
404.9654
 21
140.575
 31
0.0
  0
LINE
  5
1117
330
1D
100
AcDbEntity
  8
0
100
AcDbLine
 10
404.9654
 20
140.575
 30
0.0
 11
406.4254
 21
140.575
 31
0.0
  0
LINE
  5
1118
330
1D
100
AcDbEntity
  8
0
100
AcDbLine
 10
404.9654
 20
140.575
 30
0.0
 11
404.9654
 21
141.480293188885
 31
0.0
  0
LINE
  5
1119
330
1D
100
AcDbEntity
  8
0
100
AcDbLine
 10
404.9654
 20
140.575
 30
0.0
 11
404.9654
 21
139.959
 31
0.0
  0
LINE
  5
111A
330
1D
100
AcDbEntity
  8
0
100
AcDbLine
 10
404.8804
 20
127.528
 30
0.0
 11
406.1454
 21
127.837
 31
0.0
  0
LINE
  5
111B
330
1D
100
AcDbEntity
  8
0
100
AcDbLine
 10
405.0384
 20
124.179
 30
0.0
 11
408.983206451613
 21
124.978768979231
 31
0.0
  0
LINE
  5
111C
330
1D
100
AcDbEntity
  8
0
100
AcDbLine
 10
401.3284
 20
123.708543309484
 30
0.0
 11
405.0384
 21
124.179
 31
0.0
  0
LINE
  5
111D
330
1D
100
AcDbEntity
  8
0
100
AcDbLine
 10
401.3284
 20
123.708543309484
 30
0.0
 11
401.3284
 21
123.513
 31
0.0
  0
LINE
  5
111E
330
1D
100
AcDbEntity
  8
0
100
AcDbLine
 10
400.0644
 20
161.517984472523
 30
0.0
 11
400.0644
 21
160.049
 31
0.0
  0
LINE
  5
111F
330
1D
100
AcDbEntity
  8
0
100
AcDbLine
 10
400.0644
 20
160.049
 30
0.0
 11
401.3284
 21
159.741
 31
0.0
  0
LINE
  5
1120
330
1D
100
AcDbEntity
  8
0
100
AcDbLine
 10
400.0644
 20
160.049
 30
0.0
 11
400.0644
 21
161.517984472523
 31
0.0
  0
LINE
  5
1121
330
1D
100
AcDbEntity
  8
0
100
AcDbLine
 10
400.5014
 20
151.597740880288
 30
0.0
 11
400.5014
 21
151.16
 31
0.0
  0
LINE
  5
1122
330
1D
100
AcDbEntity
  8
0
100
AcDbLine
 10
401.8024
 20
144.59
 30
0.0
 11
401.8024
 21
143.973
 31
0.0
  0
LINE
  5
1123
330
1D
100
AcDbEntity
  8
0
100
AcDbLine
 10
401.8024
 20
144.59
 30
0.0
 11
403.2624
 21
144.59
 31
0.0
  0
LINE
  5
1124
330
1D
100
AcDbEntity
  8
0
100
AcDbLine
 10
401.8024
 20
144.59
 30
0.0
 11
401.8024
 21
145.12999817332
 31
0.0
  0
LINE
  5
1125
330
1D
100
AcDbEntity
  8
0
100
AcDbLine
 10
401.8024
 20
144.477067481884
 30
0.0
 11
401.8024
 21
143.973
 31
0.0
  0
LINE
  5
1126
330
1D
100
AcDbEntity
  8
0
100
AcDbLine
 10
401.8024
 20
143.973
 30
0.0
 11
403.2624
 21
143.973
 31
0.0
  0
LINE
  5
1127
330
1D
100
AcDbEntity
  8
0
100
AcDbLine
 10
401.8024
 20
143.973
 30
0.0
 11
401.8024
 21
144.477067481884
 31
0.0
  0
LINE
  5
1128
330
1D
100
AcDbEntity
  8
0
100
AcDbLine
 10
401.8024
 20
143.973
 30
0.0
 11
401.8024
 21
144.59
 31
0.0
  0
LINE
  5
1129
330
1D
100
AcDbEntity
  8
0
100
AcDbLine
 10
403.2624
 20
145.493880406168
 30
0.0
 11
403.2624
 21
144.59
 31
0.0
  0
LINE
  5
112A
330
1D
100
AcDbEntity
  8
0
100
AcDbLine
 10
401.8024
 20
145.12999817332
 30
0.0
 11
401.8024
 21
144.59
 31
0.0
  0
LINE
  5
112B
330
1D
100
AcDbEntity
  8
0
100
AcDbLine
 10
403.2624
 20
144.59
 30
0.0
 11
403.2624
 21
145.493880406168
 31
0.0
  0
LINE
  5
112C
330
1D
100
AcDbEntity
  8
0
100
AcDbLine
 10
403.2624
 20
144.59
 30
0.0
 11
403.2624
 21
143.973
 31
0.0
  0
LINE
  5
112D
330
1D
100
AcDbEntity
  8
0
100
AcDbLine
 10
403.2624
 20
143.973
 30
0.0
 11
403.2624
 21
144.59
 31
0.0
  0
LINE
  5
112E
330
1D
100
AcDbEntity
  8
0
100
AcDbLine
 10
401.7654
 20
150.852
 30
0.0
 11
401.7654
 21
152.235878950974
 31
0.0
  0
LINE
  5
112F
330
1D
100
AcDbEntity
  8
0
100
AcDbLine
 10
401.0354
 20
150.318
 30
0.0
 11
401.7654
 21
150.852
 31
0.0
  0
LINE
  5
1130
330
1D
100
AcDbEntity
  8
0
100
AcDbLine
 10
401.3284
 20
159.741
 30
0.0
 11
401.3284
 21
161.357891916578
 31
0.0
  0
LINE
  5
1131
330
1D
100
AcDbEntity
  8
0
100
AcDbLine
 10
400.5984
 20
159.206
 30
0.0
 11
401.3284
 21
159.741
 31
0.0
  0
LINE
  5
1132
330
1D
100
AcDbEntity
  8
0
100
AcDbLine
 10
401.3284
 20
161.357891916578
 30
0.0
 11
401.3284
 21
159.741
 31
0.0
  0
LINE
  5
1133
330
1D
100
AcDbEntity
  8
0
100
AcDbLine
 10
404.1514
 20
154.284
 30
0.0
 11
405.4154
 21
153.976
 31
0.0
  0
LINE
  5
1134
330
1D
100
AcDbEntity
  8
0
100
AcDbLine
 10
404.1514
 20
154.284
 30
0.0
 11
404.8804
 21
154.819
 31
0.0
  0
LINE
  5
1135
330
1D
100
AcDbEntity
  8
0
100
AcDbLine
 10
404.8804
 20
154.819
 30
0.0
 11
406.1454
 21
154.511
 31
0.0
  0
LINE
  5
1136
330
1D
100
AcDbEntity
  8
0
100
AcDbLine
 10
401.7654
 20
152.235878950974
 30
0.0
 11
401.7654
 21
150.852
 31
0.0
  0
LINE
  5
1137
330
1D
100
AcDbEntity
  8
0
100
AcDbLine
 10
400.5014
 20
151.16
 30
0.0
 11
401.7654
 21
150.852
 31
0.0
  0
LINE
  5
1138
330
1D
100
AcDbEntity
  8
0
100
AcDbLine
 10
400.5014
 20
151.16
 30
0.0
 11
400.5014
 21
151.597740880288
 31
0.0
  0
LINE
  5
1139
330
1D
100
AcDbEntity
  8
0
100
AcDbLine
 10
405.4154
 20
153.976
 30
0.0
 11
406.1454
 21
154.511
 31
0.0
  0
LINE
  5
113A
330
1D
100
AcDbEntity
  8
0
100
AcDbLine
 10
405.4154
 20
129.077110594487
 30
0.0
 11
405.4154
 21
128.371
 31
0.0
  0
LINE
  5
113B
330
1D
100
AcDbEntity
  8
0
100
AcDbLine
 10
405.4154
 20
128.371
 30
0.0
 11
406.1454
 21
127.837
 31
0.0
  0
LINE
  5
113C
330
1D
100
AcDbEntity
  8
0
100
AcDbLine
 10
405.4154
 20
128.371
 30
0.0
 11
405.4154
 21
129.077110594487
 31
0.0
  0
LINE
  5
113D
330
1D
100
AcDbEntity
  8
0
100
AcDbLine
 10
405.9144
 20
123.346
 30
0.0
 11
411.6074
 21
124.487
 31
0.0
  0
LINE
  5
113E
330
1D
100
AcDbEntity
  8
0
100
AcDbLine
 10
405.0384
 20
160.888
 30
0.0
 11
410.5134
 21
159.777
 31
0.0
  0
LINE
  5
113F
330
1D
100
AcDbEntity
  8
0
100
AcDbLine
 10
405.9144
 20
161.72
 30
0.0
 11
411.6074
 21
160.579
 31
0.0
  0
LINE
  5
1140
330
1D
100
AcDbEntity
  8
0
100
AcDbLine
 10
400.0024
 20
182.832
 30
0.0
 11
406.2064
 21
181.968
 31
0.0
  0
LINE
  5
1141
330
1D
100
AcDbEntity
  8
0
100
AcDbLine
 10
393.5054
 20
183.387
 30
0.0
 11
400.0024
 21
182.832
 31
0.0
  0
LINE
  5
1142
330
1D
100
AcDbEntity
  8
0
100
AcDbLine
 10
406.1454
 20
127.837
 30
0.0
 11
406.1454
 21
128.913278811026
 31
0.0
  0
LINE
  5
1143
330
1D
100
AcDbEntity
  8
0
100
AcDbLine
 10
406.1454
 20
154.511
 30
0.0
 11
406.1454
 21
154.715939388907
 31
0.0
  0
LINE
  5
1144
330
1D
100
AcDbEntity
  8
0
100
AcDbLine
 10
406.1454
 20
154.715939388907
 30
0.0
 11
406.1454
 21
154.511
 31
0.0
  0
LINE
  5
1145
330
1D
100
AcDbEntity
  8
0
100
AcDbLine
 10
406.1454
 20
128.913278811026
 30
0.0
 11
406.1454
 21
127.837
 31
0.0
  0
LINE
  5
1146
330
1D
100
AcDbEntity
  8
0
100
AcDbLine
 10
410.5244
 20
125.084
 30
0.0
 11
410.5244
 21
125.292143766885
 31
0.0
  0
LINE
  5
1147
330
1D
100
AcDbEntity
  8
0
100
AcDbLine
 10
409.2604
 20
124.776
 30
0.0
 11
410.5244
 21
125.084
 31
0.0
  0
LINE
  5
1148
330
1D
100
AcDbEntity
  8
0
100
AcDbLine
 10
408.5304
 20
125.31
 30
0.0
 11
409.7944
 21
125.618
 31
0.0
  0
LINE
  5
1149
330
1D
100
AcDbEntity
  8
0
100
AcDbLine
 10
408.5304
 20
125.31
 30
0.0
 11
409.2604
 21
124.776
 31
0.0
  0
LINE
  5
114A
330
1D
100
AcDbEntity
  8
0
100
AcDbLine
 10
408.5304
 20
125.31
 30
0.0
 11
408.5304
 21
125.913839049394
 31
0.0
  0
LINE
  5
114B
330
1D
100
AcDbEntity
  8
0
100
AcDbLine
 10
406.2624
 20
133.252645410292
 30
0.0
 11
406.2624
 21
132.83
 31
0.0
  0
LINE
  5
114C
330
1D
100
AcDbEntity
  8
0
100
AcDbLine
 10
406.2624
 20
132.83
 30
0.0
 11
406.2624
 21
133.447
 31
0.0
  0
LINE
  5
114D
330
1D
100
AcDbEntity
  8
0
100
AcDbLine
 10
406.2624
 20
132.83
 30
0.0
 11
407.7224
 21
132.83
 31
0.0
  0
LINE
  5
114E
330
1D
100
AcDbEntity
  8
0
100
AcDbLine
 10
406.2624
 20
132.83
 30
0.0
 11
406.2624
 21
133.252645410292
 31
0.0
  0
LINE
  5
114F
330
1D
100
AcDbEntity
  8
0
100
AcDbLine
 10
406.2624
 20
133.447
 30
0.0
 11
407.7224
 21
133.447
 31
0.0
  0
LINE
  5
1150
330
1D
100
AcDbEntity
  8
0
100
AcDbLine
 10
406.2624
 20
133.447
 30
0.0
 11
406.2624
 21
132.83
 31
0.0
  0
LINE
  5
1151
330
1D
100
AcDbEntity
  8
0
100
AcDbLine
 10
407.7224
 20
132.83
 30
0.0
 11
407.7224
 21
133.447
 31
0.0
  0
LINE
  5
1152
330
1D
100
AcDbEntity
  8
0
100
AcDbLine
 10
407.7224
 20
134.329758098224
 30
0.0
 11
407.7224
 21
133.447
 31
0.0
  0
LINE
  5
1153
330
1D
100
AcDbEntity
  8
0
100
AcDbLine
 10
407.7224
 20
133.447
 30
0.0
 11
407.7224
 21
132.83
 31
0.0
  0
LINE
  5
1154
330
1D
100
AcDbEntity
  8
0
100
AcDbLine
 10
407.7224
 20
133.447
 30
0.0
 11
407.7224
 21
134.329758098224
 31
0.0
  0
LINE
  5
1155
330
1D
100
AcDbEntity
  8
0
100
AcDbLine
 10
406.4254
 20
139.959
 30
0.0
 11
406.4254
 21
140.575
 31
0.0
  0
LINE
  5
1156
330
1D
100
AcDbEntity
  8
0
100
AcDbLine
 10
406.2624
 20
149.464693115438
 30
0.0
 11
406.2624
 21
148.611
 31
0.0
  0
LINE
  5
1157
330
1D
100
AcDbEntity
  8
0
100
AcDbLine
 10
406.2624
 20
148.611
 30
0.0
 11
406.2624
 21
147.994
 31
0.0
  0
LINE
  5
1158
330
1D
100
AcDbEntity
  8
0
100
AcDbLine
 10
406.2624
 20
148.611
 30
0.0
 11
407.7224
 21
148.611
 31
0.0
  0
LINE
  5
1159
330
1D
100
AcDbEntity
  8
0
100
AcDbLine
 10
406.2624
 20
148.611
 30
0.0
 11
406.2624
 21
149.464693115438
 31
0.0
  0
LINE
  5
115A
330
1D
100
AcDbEntity
  8
0
100
AcDbLine
 10
406.2624
 20
147.994
 30
0.0
 11
407.7224
 21
147.994
 31
0.0
  0
LINE
  5
115B
330
1D
100
AcDbEntity
  8
0
100
AcDbLine
 10
406.2624
 20
147.994
 30
0.0
 11
406.2624
 21
148.611
 31
0.0
  0
LINE
  5
115C
330
1D
100
AcDbEntity
  8
0
100
AcDbLine
 10
407.7224
 20
148.611
 30
0.0
 11
407.7224
 21
147.994
 31
0.0
  0
LINE
  5
115D
330
1D
100
AcDbEntity
  8
0
100
AcDbLine
 10
407.7224
 20
147.994
 30
0.0
 11
407.7224
 21
148.611
 31
0.0
  0
LINE
  5
115E
330
1D
100
AcDbEntity
  8
0
100
AcDbLine
 10
408.5304
 20
158.817102329916
 30
0.0
 11
408.5304
 21
157.944
 31
0.0
  0
LINE
  5
115F
330
1D
100
AcDbEntity
  8
0
100
AcDbLine
 10
408.5304
 20
157.944
 30
0.0
 11
409.7944
 21
157.635
 31
0.0
  0
LINE
  5
1160
330
1D
100
AcDbEntity
  8
0
100
AcDbLine
 10
408.5304
 20
157.944
 30
0.0
 11
409.2604
 21
158.478
 31
0.0
  0
LINE
  5
1161
330
1D
100
AcDbEntity
  8
0
100
AcDbLine
 10
408.5304
 20
157.944
 30
0.0
 11
408.5304
 21
158.817102329916
 31
0.0
  0
LINE
  5
1162
330
1D
100
AcDbEntity
  8
0
100
AcDbLine
 10
406.4254
 20
141.494266177614
 30
0.0
 11
406.4254
 21
140.575
 31
0.0
  0
LINE
  5
1163
330
1D
100
AcDbEntity
  8
0
100
AcDbLine
 10
406.4254
 20
140.575
 30
0.0
 11
406.4254
 21
139.959
 31
0.0
  0
LINE
  5
1164
330
1D
100
AcDbEntity
  8
0
100
AcDbLine
 10
406.4254
 20
140.575
 30
0.0
 11
406.4254
 21
141.494266177614
 31
0.0
  0
LINE
  5
1165
330
1D
100
AcDbEntity
  8
0
100
AcDbLine
 10
409.7944
 20
157.635
 30
0.0
 11
410.5244
 21
158.169
 31
0.0
  0
LINE
  5
1166
330
1D
100
AcDbEntity
  8
0
100
AcDbLine
 10
409.2604
 20
159.170468592731
 30
0.0
 11
409.2604
 21
158.478
 31
0.0
  0
LINE
  5
1167
330
1D
100
AcDbEntity
  8
0
100
AcDbLine
 10
409.2604
 20
158.478
 30
0.0
 11
410.5244
 21
158.169
 31
0.0
  0
LINE
  5
1168
330
1D
100
AcDbEntity
  8
0
100
AcDbLine
 10
409.2604
 20
158.478
 30
0.0
 11
409.2604
 21
159.170468592731
 31
0.0
  0
LINE
  5
1169
330
1D
100
AcDbEntity
  8
0
100
AcDbLine
 10
408.5304
 20
125.913839049394
 30
0.0
 11
408.5304
 21
125.31
 31
0.0
  0
LINE
  5
116A
330
1D
100
AcDbEntity
  8
0
100
AcDbLine
 10
409.7944
 20
125.727399300495
 30
0.0
 11
409.7944
 21
125.618
 31
0.0
  0
LINE
  5
116B
330
1D
100
AcDbEntity
  8
0
100
AcDbLine
 10
411.1274
 20
129.886
 30
0.0
 11
411.1274
 21
130.503
 31
0.0
  0
LINE
  5
116C
330
1D
100
AcDbEntity
  8
0
100
AcDbLine
 10
411.1274
 20
129.886
 30
0.0
 11
412.5874
 21
129.886
 31
0.0
  0
LINE
  5
116D
330
1D
100
AcDbEntity
  8
0
100
AcDbLine
 10
411.1274
 20
131.52142582558
 30
0.0
 11
411.1274
 21
130.503
 31
0.0
  0
LINE
  5
116E
330
1D
100
AcDbEntity
  8
0
100
AcDbLine
 10
411.5344
 20
137.04475879397
 30
0.0
 11
411.5344
 21
136.638
 31
0.0
  0
LINE
  5
116F
330
1D
100
AcDbEntity
  8
0
100
AcDbLine
 10
411.5344
 20
136.638
 30
0.0
 11
411.5344
 21
137.254
 31
0.0
  0
LINE
  5
1170
330
1D
100
AcDbEntity
  8
0
100
AcDbLine
 10
411.5344
 20
136.638
 30
0.0
 11
412.9944
 21
136.638
 31
0.0
  0
LINE
  5
1171
330
1D
100
AcDbEntity
  8
0
100
AcDbLine
 10
411.5344
 20
136.638
 30
0.0
 11
411.5344
 21
137.04475879397
 31
0.0
  0
LINE
  5
1172
330
1D
100
AcDbEntity
  8
0
100
AcDbLine
 10
411.5344
 20
138.255577370392
 30
0.0
 11
411.5344
 21
137.254
 31
0.0
  0
LINE
  5
1173
330
1D
100
AcDbEntity
  8
0
100
AcDbLine
 10
411.5344
 20
137.254
 30
0.0
 11
412.9944
 21
137.254
 31
0.0
  0
LINE
  5
1174
330
1D
100
AcDbEntity
  8
0
100
AcDbLine
 10
411.5344
 20
137.254
 30
0.0
 11
411.5344
 21
138.255577370392
 31
0.0
  0
LINE
  5
1175
330
1D
100
AcDbEntity
  8
0
100
AcDbLine
 10
411.5344
 20
137.254
 30
0.0
 11
411.5344
 21
136.638
 31
0.0
  0
LINE
  5
1176
330
1D
100
AcDbEntity
  8
0
100
AcDbLine
 10
411.1274
 20
130.503
 30
0.0
 11
412.5874
 21
130.503
 31
0.0
  0
LINE
  5
1177
330
1D
100
AcDbEntity
  8
0
100
AcDbLine
 10
411.1274
 20
130.503
 30
0.0
 11
411.1274
 21
131.52142582558
 31
0.0
  0
LINE
  5
1178
330
1D
100
AcDbEntity
  8
0
100
AcDbLine
 10
411.1274
 20
130.503
 30
0.0
 11
411.1274
 21
129.886
 31
0.0
  0
LINE
  5
1179
330
1D
100
AcDbEntity
  8
0
100
AcDbLine
 10
411.1274
 20
152.461
 30
0.0
 11
411.1274
 21
151.844
 31
0.0
  0
LINE
  5
117A
330
1D
100
AcDbEntity
  8
0
100
AcDbLine
 10
411.1274
 20
152.461
 30
0.0
 11
412.5874
 21
152.461
 31
0.0
  0
LINE
  5
117B
330
1D
100
AcDbEntity
  8
0
100
AcDbLine
 10
411.1274
 20
151.844
 30
0.0
 11
412.5874
 21
151.844
 31
0.0
  0
LINE
  5
117C
330
1D
100
AcDbEntity
  8
0
100
AcDbLine
 10
411.1274
 20
151.844
 30
0.0
 11
411.1274
 21
152.461
 31
0.0
  0
LINE
  5
117D
330
1D
100
AcDbEntity
  8
0
100
AcDbLine
 10
411.5344
 20
145.61317825972
 30
0.0
 11
411.5344
 21
144.803
 31
0.0
  0
LINE
  5
117E
330
1D
100
AcDbEntity
  8
0
100
AcDbLine
 10
411.5344
 20
144.803
 30
0.0
 11
411.5344
 21
144.186
 31
0.0
  0
LINE
  5
117F
330
1D
100
AcDbEntity
  8
0
100
AcDbLine
 10
411.5344
 20
144.803
 30
0.0
 11
412.9944
 21
144.803
 31
0.0
  0
LINE
  5
1180
330
1D
100
AcDbEntity
  8
0
100
AcDbLine
 10
411.5344
 20
144.803
 30
0.0
 11
411.5344
 21
145.61317825972
 31
0.0
  0
LINE
  5
1181
330
1D
100
AcDbEntity
  8
0
100
AcDbLine
 10
411.5344
 20
144.319737039227
 30
0.0
 11
411.5344
 21
144.186
 31
0.0
  0
LINE
  5
1182
330
1D
100
AcDbEntity
  8
0
100
AcDbLine
 10
411.5344
 20
144.186
 30
0.0
 11
412.9944
 21
144.186
 31
0.0
  0
LINE
  5
1183
330
1D
100
AcDbEntity
  8
0
100
AcDbLine
 10
411.5344
 20
144.186
 30
0.0
 11
411.5344
 21
144.319737039227
 31
0.0
  0
LINE
  5
1184
330
1D
100
AcDbEntity
  8
0
100
AcDbLine
 10
411.5344
 20
144.186
 30
0.0
 11
411.5344
 21
144.803
 31
0.0
  0
LINE
  5
1185
330
1D
100
AcDbEntity
  8
0
100
AcDbLine
 10
410.5244
 20
158.169
 30
0.0
 11
410.5244
 21
159.773856233115
 31
0.0
  0
LINE
  5
1186
330
1D
100
AcDbEntity
  8
0
100
AcDbLine
 10
410.5244
 20
159.773856233115
 30
0.0
 11
410.5244
 21
158.169
 31
0.0
  0
LINE
  5
1187
330
1D
100
AcDbEntity
  8
0
100
AcDbLine
 10
409.7944
 20
125.618
 30
0.0
 11
410.5244
 21
125.084
 31
0.0
  0
LINE
  5
1188
330
1D
100
AcDbEntity
  8
0
100
AcDbLine
 10
409.7944
 20
125.618
 30
0.0
 11
409.7944
 21
125.727399300495
 31
0.0
  0
LINE
  5
1189
330
1D
100
AcDbEntity
  8
0
100
AcDbLine
 10
410.5244
 20
125.292143766885
 30
0.0
 11
415.6954
 21
126.77
 31
0.0
  0
LINE
  5
118A
330
1D
100
AcDbEntity
  8
0
100
AcDbLine
 10
410.5244
 20
125.292143766885
 30
0.0
 11
410.5244
 21
125.084
 31
0.0
  0
LINE
  5
118B
330
1D
100
AcDbEntity
  8
0
100
AcDbLine
 10
411.6074
 20
124.487
 30
0.0
 11
417.0094
 21
126.029
 31
0.0
  0
LINE
  5
118C
330
1D
100
AcDbEntity
  8
0
100
AcDbLine
 10
410.5134
 20
159.777
 30
0.0
 11
415.6954
 21
158.296
 31
0.0
  0
LINE
  5
118D
330
1D
100
AcDbEntity
  8
0
100
AcDbLine
 10
412.5874
 20
129.886
 30
0.0
 11
412.5874
 21
130.503
 31
0.0
  0
LINE
  5
118E
330
1D
100
AcDbEntity
  8
0
100
AcDbLine
 10
412.5874
 20
131.039734791944
 30
0.0
 11
412.5874
 21
130.503
 31
0.0
  0
LINE
  5
118F
330
1D
100
AcDbEntity
  8
0
100
AcDbLine
 10
412.9944
 20
136.638
 30
0.0
 11
412.9944
 21
137.254
 31
0.0
  0
LINE
  5
1190
330
1D
100
AcDbEntity
  8
0
100
AcDbLine
 10
412.9944
 20
138.209889414548
 30
0.0
 11
412.9944
 21
137.254
 31
0.0
  0
LINE
  5
1191
330
1D
100
AcDbEntity
  8
0
100
AcDbLine
 10
412.9944
 20
137.254
 30
0.0
 11
412.9944
 21
136.638
 31
0.0
  0
LINE
  5
1192
330
1D
100
AcDbEntity
  8
0
100
AcDbLine
 10
412.9944
 20
137.254
 30
0.0
 11
412.9944
 21
138.209889414548
 31
0.0
  0
LINE
  5
1193
330
1D
100
AcDbEntity
  8
0
100
AcDbLine
 10
412.5874
 20
130.503
 30
0.0
 11
412.5874
 21
129.886
 31
0.0
  0
LINE
  5
1194
330
1D
100
AcDbEntity
  8
0
100
AcDbLine
 10
412.5874
 20
130.503
 30
0.0
 11
412.5874
 21
131.039734791944
 31
0.0
  0
LINE
  5
1195
330
1D
100
AcDbEntity
  8
0
100
AcDbLine
 10
413.7244
 20
141.111205207928
 30
0.0
 11
413.7244
 21
140.412
 31
0.0
  0
LINE
  5
1196
330
1D
100
AcDbEntity
  8
0
100
AcDbLine
 10
413.7244
 20
140.412
 30
0.0
 11
413.7244
 21
141.029
 31
0.0
  0
LINE
  5
1197
330
1D
100
AcDbEntity
  8
0
100
AcDbLine
 10
413.7244
 20
140.412
 30
0.0
 11
415.1844
 21
140.412
 31
0.0
  0
LINE
  5
1198
330
1D
100
AcDbEntity
  8
0
100
AcDbLine
 10
413.7244
 20
140.412
 30
0.0
 11
413.7244
 21
141.111205207928
 31
0.0
  0
LINE
  5
1199
330
1D
100
AcDbEntity
  8
0
100
AcDbLine
 10
413.7244
 20
141.564121550719
 30
0.0
 11
413.7244
 21
141.029
 31
0.0
  0
LINE
  5
119A
330
1D
100
AcDbEntity
  8
0
100
AcDbLine
 10
415.1844
 20
140.412
 30
0.0
 11
415.1844
 21
141.029
 31
0.0
  0
LINE
  5
119B
330
1D
100
AcDbEntity
  8
0
100
AcDbLine
 10
413.7244
 20
141.029
 30
0.0
 11
415.1844
 21
141.029
 31
0.0
  0
LINE
  5
119C
330
1D
100
AcDbEntity
  8
0
100
AcDbLine
 10
413.7244
 20
141.029
 30
0.0
 11
413.7244
 21
141.564121550719
 31
0.0
  0
LINE
  5
119D
330
1D
100
AcDbEntity
  8
0
100
AcDbLine
 10
413.7244
 20
141.029
 30
0.0
 11
413.7244
 21
140.412
 31
0.0
  0
LINE
  5
119E
330
1D
100
AcDbEntity
  8
0
100
AcDbLine
 10
412.5874
 20
152.597700541867
 30
0.0
 11
412.5874
 21
152.461
 31
0.0
  0
LINE
  5
119F
330
1D
100
AcDbEntity
  8
0
100
AcDbLine
 10
412.5874
 20
152.461
 30
0.0
 11
412.5874
 21
152.597700541867
 31
0.0
  0
LINE
  5
11A0
330
1D
100
AcDbEntity
  8
0
100
AcDbLine
 10
412.5874
 20
152.461
 30
0.0
 11
412.5874
 21
151.844
 31
0.0
  0
LINE
  5
11A1
330
1D
100
AcDbEntity
  8
0
100
AcDbLine
 10
412.5874
 20
151.844
 30
0.0
 11
412.5874
 21
152.461
 31
0.0
  0
LINE
  5
11A2
330
1D
100
AcDbEntity
  8
0
100
AcDbLine
 10
412.9944
 20
145.938077492727
 30
0.0
 11
412.9944
 21
144.803
 31
0.0
  0
LINE
  5
11A3
330
1D
100
AcDbEntity
  8
0
100
AcDbLine
 10
412.9944
 20
144.803
 30
0.0
 11
412.9944
 21
145.938077492727
 31
0.0
  0
LINE
  5
11A4
330
1D
100
AcDbEntity
  8
0
100
AcDbLine
 10
412.9944
 20
144.803
 30
0.0
 11
412.9944
 21
144.186
 31
0.0
  0
LINE
  5
11A5
330
1D
100
AcDbEntity
  8
0
100
AcDbLine
 10
412.9944
 20
144.186
 30
0.0
 11
412.9944
 21
144.803
 31
0.0
  0
LINE
  5
11A6
330
1D
100
AcDbEntity
  8
0
100
AcDbLine
 10
415.1844
 20
141.578094539448
 30
0.0
 11
415.1844
 21
141.029
 31
0.0
  0
LINE
  5
11A7
330
1D
100
AcDbEntity
  8
0
100
AcDbLine
 10
415.3444
 20
126.926892065761
 30
0.0
 11
415.3444
 21
126.805
 31
0.0
  0
LINE
  5
11A8
330
1D
100
AcDbEntity
  8
0
100
AcDbLine
 10
415.3444
 20
126.805
 30
0.0
 11
415.3444
 21
127.422
 31
0.0
  0
LINE
  5
11A9
330
1D
100
AcDbEntity
  8
0
100
AcDbLine
 10
415.3444
 20
126.805
 30
0.0
 11
416.8044
 21
126.805
 31
0.0
  0
LINE
  5
11AA
330
1D
100
AcDbEntity
  8
0
100
AcDbLine
 10
415.3444
 20
126.805
 30
0.0
 11
415.3444
 21
126.926892065761
 31
0.0
  0
LINE
  5
11AB
330
1D
100
AcDbEntity
  8
0
100
AcDbLine
 10
415.3444
 20
127.422
 30
0.0
 11
416.8044
 21
127.422
 31
0.0
  0
LINE
  5
11AC
330
1D
100
AcDbEntity
  8
0
100
AcDbLine
 10
415.3444
 20
127.422
 30
0.0
 11
415.3444
 21
126.805
 31
0.0
  0
LINE
  5
11AD
330
1D
100
AcDbEntity
  8
0
100
AcDbLine
 10
415.3444
 20
156.448
 30
0.0
 11
415.3444
 21
155.831
 31
0.0
  0
LINE
  5
11AE
330
1D
100
AcDbEntity
  8
0
100
AcDbLine
 10
415.3444
 20
156.448
 30
0.0
 11
416.8044
 21
156.448
 31
0.0
  0
LINE
  5
11AF
330
1D
100
AcDbEntity
  8
0
100
AcDbLine
 10
415.3444
 20
155.831
 30
0.0
 11
416.8044
 21
155.831
 31
0.0
  0
LINE
  5
11B0
330
1D
100
AcDbEntity
  8
0
100
AcDbLine
 10
415.3444
 20
155.831
 30
0.0
 11
415.3444
 21
156.448
 31
0.0
  0
LINE
  5
11B1
330
1D
100
AcDbEntity
  8
0
100
AcDbLine
 10
415.1844
 20
141.029
 30
0.0
 11
415.1844
 21
140.412
 31
0.0
  0
LINE
  5
11B2
330
1D
100
AcDbEntity
  8
0
100
AcDbLine
 10
415.1844
 20
141.029
 30
0.0
 11
415.1844
 21
141.578094539448
 31
0.0
  0
LINE
  5
11B3
330
1D
100
AcDbEntity
  8
0
100
AcDbLine
 10
415.6954
 20
126.77
 30
0.0
 11
415.788604979734
 21
126.805
 31
0.0
  0
LINE
  5
11B4
330
1D
100
AcDbEntity
  8
0
100
AcDbLine
 10
416.8044
 20
126.805
 30
0.0
 11
416.8044
 21
127.422
 31
0.0
  0
LINE
  5
11B5
330
1D
100
AcDbEntity
  8
0
100
AcDbLine
 10
416.4814
 20
132.985068842076
 30
0.0
 11
416.4814
 21
132.7
 31
0.0
  0
LINE
  5
11B6
330
1D
100
AcDbEntity
  8
0
100
AcDbLine
 10
416.4814
 20
132.7
 30
0.0
 11
416.4814
 21
133.317
 31
0.0
  0
LINE
  5
11B7
330
1D
100
AcDbEntity
  8
0
100
AcDbLine
 10
416.4814
 20
132.7
 30
0.0
 11
417.9414
 21
132.7
 31
0.0
  0
LINE
  5
11B8
330
1D
100
AcDbEntity
  8
0
100
AcDbLine
 10
416.4814
 20
132.7
 30
0.0
 11
416.4814
 21
132.985068842076
 31
0.0
  0
LINE
  5
11B9
330
1D
100
AcDbEntity
  8
0
100
AcDbLine
 10
416.4814
 20
133.317
 30
0.0
 11
417.9414
 21
133.317
 31
0.0
  0
LINE
  5
11BA
330
1D
100
AcDbEntity
  8
0
100
AcDbLine
 10
416.4814
 20
133.317
 30
0.0
 11
416.4814
 21
132.7
 31
0.0
  0
LINE
  5
11BB
330
1D
100
AcDbEntity
  8
0
100
AcDbLine
 10
416.8044
 20
127.422
 30
0.0
 11
416.8044
 21
126.805
 31
0.0
  0
LINE
  5
11BC
330
1D
100
AcDbEntity
  8
0
100
AcDbLine
 10
416.8044
 20
127.186447706023
 30
0.0
 11
420.2944
 21
128.497
 31
0.0
  0
LINE
  5
11BD
330
1D
100
AcDbEntity
  8
0
100
AcDbLine
 10
417.0094
 20
126.029
 30
0.0
 11
421.9004
 21
127.819
 31
0.0
  0
LINE
  5
11BE
330
1D
100
AcDbEntity
  8
0
100
AcDbLine
 10
416.4814
 20
150.658375189316
 30
0.0
 11
416.4814
 21
149.647
 31
0.0
  0
LINE
  5
11BF
330
1D
100
AcDbEntity
  8
0
100
AcDbLine
 10
416.4814
 20
149.647
 30
0.0
 11
416.4814
 21
149.03
 31
0.0
  0
LINE
  5
11C0
330
1D
100
AcDbEntity
  8
0
100
AcDbLine
 10
416.4814
 20
149.647
 30
0.0
 11
417.9414
 21
149.647
 31
0.0
  0
LINE
  5
11C1
330
1D
100
AcDbEntity
  8
0
100
AcDbLine
 10
416.4814
 20
149.647
 30
0.0
 11
416.4814
 21
150.658375189316
 31
0.0
  0
LINE
  5
11C2
330
1D
100
AcDbEntity
  8
0
100
AcDbLine
 10
416.8044
 20
157.879552293977
 30
0.0
 11
416.8044
 21
156.448
 31
0.0
  0
LINE
  5
11C3
330
1D
100
AcDbEntity
  8
0
100
AcDbLine
 10
416.8044
 20
156.448
 30
0.0
 11
416.8044
 21
157.879552293977
 31
0.0
  0
LINE
  5
11C4
330
1D
100
AcDbEntity
  8
0
100
AcDbLine
 10
416.8044
 20
156.448
 30
0.0
 11
416.8044
 21
155.831
 31
0.0
  0
LINE
  5
11C5
330
1D
100
AcDbEntity
  8
0
100
AcDbLine
 10
416.8044
 20
155.831
 30
0.0
 11
416.8044
 21
156.448
 31
0.0
  0
LINE
  5
11C6
330
1D
100
AcDbEntity
  8
0
100
AcDbLine
 10
416.4814
 20
149.03
 30
0.0
 11
417.9414
 21
149.03
 31
0.0
  0
LINE
  5
11C7
330
1D
100
AcDbEntity
  8
0
100
AcDbLine
 10
416.4814
 20
149.03
 30
0.0
 11
416.4814
 21
149.647
 31
0.0
  0
LINE
  5
11C8
330
1D
100
AcDbEntity
  8
0
100
AcDbLine
 10
415.6954
 20
158.296
 30
0.0
 11
420.2944
 21
156.569
 31
0.0
  0
LINE
  5
11C9
330
1D
100
AcDbEntity
  8
0
100
AcDbLine
 10
417.0094
 20
159.037
 30
0.0
 11
421.9004
 21
157.247
 31
0.0
  0
LINE
  5
11CA
330
1D
100
AcDbEntity
  8
0
100
AcDbLine
 10
411.6074
 20
160.579
 30
0.0
 11
417.0094
 21
159.037
 31
0.0
  0
LINE
  5
11CB
330
1D
100
AcDbEntity
  8
0
100
AcDbLine
 10
411.9734
 20
161.732
 30
0.0
 11
417.4474
 21
160.19
 31
0.0
  0
LINE
  5
11CC
330
1D
100
AcDbEntity
  8
0
100
AcDbLine
 10
406.2064
 20
162.935
 30
0.0
 11
411.9734
 21
161.732
 31
0.0
  0
LINE
  5
11CD
330
1D
100
AcDbEntity
  8
0
100
AcDbLine
 10
411.9734
 20
180.765
 30
0.0
 11
417.4474
 21
179.223
 31
0.0
  0
LINE
  5
11CE
330
1D
100
AcDbEntity
  8
0
100
AcDbLine
 10
421.7524
 20
129.653
 30
0.0
 11
421.7524
 21
130.27
 31
0.0
  0
LINE
  5
11CF
330
1D
100
AcDbEntity
  8
0
100
AcDbLine
 10
421.7524
 20
129.653
 30
0.0
 11
423.2124
 21
129.653
 31
0.0
  0
LINE
  5
11D0
330
1D
100
AcDbEntity
  8
0
100
AcDbLine
 10
421.7524
 20
129.653
 30
0.0
 11
421.7524
 21
130.684222310355
 31
0.0
  0
LINE
  5
11D1
330
1D
100
AcDbEntity
  8
0
100
AcDbLine
 10
420.2944
 20
128.497
 30
0.0
 11
422.724735390947
 21
129.653
 31
0.0
  0
LINE
  5
11D2
330
1D
100
AcDbEntity
  8
0
100
AcDbLine
 10
423.2124
 20
129.653
 30
0.0
 11
423.2124
 21
130.27
 31
0.0
  0
LINE
  5
11D3
330
1D
100
AcDbEntity
  8
0
100
AcDbLine
 10
423.2124
 20
129.884959872767
 30
0.0
 11
424.3814
 21
130.441
 31
0.0
  0
LINE
  5
11D4
330
1D
100
AcDbEntity
  8
0
100
AcDbLine
 10
421.9004
 20
127.819
 30
0.0
 11
426.1334
 21
129.885
 31
0.0
  0
LINE
  5
11D5
330
1D
100
AcDbEntity
  8
0
100
AcDbLine
 10
421.7524
 20
130.27
 30
0.0
 11
423.2124
 21
130.27
 31
0.0
  0
LINE
  5
11D6
330
1D
100
AcDbEntity
  8
0
100
AcDbLine
 10
421.7524
 20
130.27
 30
0.0
 11
421.7524
 21
131.070939121757
 31
0.0
  0
LINE
  5
11D7
330
1D
100
AcDbEntity
  8
0
100
AcDbLine
 10
421.7524
 20
130.27
 30
0.0
 11
421.7524
 21
129.653
 31
0.0
  0
LINE
  5
11D8
330
1D
100
AcDbEntity
  8
0
100
AcDbLine
 10
423.2124
 20
130.27
 30
0.0
 11
423.2124
 21
129.653
 31
0.0
  0
LINE
  5
11D9
330
1D
100
AcDbEntity
  8
0
100
AcDbLine
 10
423.2124
 20
130.27
 30
0.0
 11
423.2124
 21
130.721106060606
 31
0.0
  0
LINE
  5
11DA
330
1D
100
AcDbEntity
  8
0
100
AcDbLine
 10
421.7524
 20
130.684222310355
 30
0.0
 11
421.7524
 21
129.653
 31
0.0
  0
LINE
  5
11DB
330
1D
100
AcDbEntity
  8
0
100
AcDbLine
 10
417.9414
 20
132.7
 30
0.0
 11
417.9414
 21
133.317
 31
0.0
  0
LINE
  5
11DC
330
1D
100
AcDbEntity
  8
0
100
AcDbLine
 10
417.9414
 20
134.276499169711
 30
0.0
 11
417.9414
 21
133.317
 31
0.0
  0
LINE
  5
11DD
330
1D
100
AcDbEntity
  8
0
100
AcDbLine
 10
417.9414
 20
133.317
 30
0.0
 11
417.9414
 21
132.7
 31
0.0
  0
LINE
  5
11DE
330
1D
100
AcDbEntity
  8
0
100
AcDbLine
 10
417.9414
 20
133.317
 30
0.0
 11
417.9414
 21
134.276499169711
 31
0.0
  0
LINE
  5
11DF
330
1D
100
AcDbEntity
  8
0
100
AcDbLine
 10
421.7524
 20
131.070939121757
 30
0.0
 11
421.7524
 21
130.27
 31
0.0
  0
LINE
  5
11E0
330
1D
100
AcDbEntity
  8
0
100
AcDbLine
 10
426.5384
 20
133.084
 30
0.0
 11
426.5384
 21
133.701
 31
0.0
  0
LINE
  5
11E1
330
1D
100
AcDbEntity
  8
0
100
AcDbLine
 10
426.5384
 20
133.084
 30
0.0
 11
427.9984
 21
133.084
 31
0.0
  0
LINE
  5
11E2
330
1D
100
AcDbEntity
  8
0
100
AcDbLine
 10
426.5384
 20
133.701
 30
0.0
 11
427.9984
 21
133.701
 31
0.0
  0
LINE
  5
11E3
330
1D
100
AcDbEntity
  8
0
100
AcDbLine
 10
426.5384
 20
133.701
 30
0.0
 11
426.5384
 21
134.85803332879
 31
0.0
  0
LINE
  5
11E4
330
1D
100
AcDbEntity
  8
0
100
AcDbLine
 10
426.5384
 20
133.701
 30
0.0
 11
426.5384
 21
133.084
 31
0.0
  0
LINE
  5
11E5
330
1D
100
AcDbEntity
  8
0
100
AcDbLine
 10
423.2124
 20
130.721106060606
 30
0.0
 11
423.2124
 21
130.27
 31
0.0
  0
LINE
  5
11E6
330
1D
100
AcDbEntity
  8
0
100
AcDbLine
 10
424.3814
 20
130.441
 30
0.0
 11
427.8854
 21
132.631
 31
0.0
  0
LINE
  5
11E7
330
1D
100
AcDbEntity
  8
0
100
AcDbLine
 10
427.9984
 20
133.084
 30
0.0
 11
427.9984
 21
133.701
 31
0.0
  0
LINE
  5
11E8
330
1D
100
AcDbEntity
  8
0
100
AcDbLine
 10
427.9984
 20
133.701
 30
0.0
 11
427.9984
 21
133.084
 31
0.0
  0
LINE
  5
11E9
330
1D
100
AcDbEntity
  8
0
100
AcDbLine
 10
427.9984
 20
133.701
 30
0.0
 11
427.9984
 21
134.889975804253
 31
0.0
  0
LINE
  5
11EA
330
1D
100
AcDbEntity
  8
0
100
AcDbLine
 10
427.8854
 20
132.631
 30
0.0
 11
430.5134
 21
134.945
 31
0.0
  0
LINE
  5
11EB
330
1D
100
AcDbEntity
  8
0
100
AcDbLine
 10
426.1334
 20
129.885
 30
0.0
 11
429.7834
 21
132.168
 31
0.0
  0
LINE
  5
11EC
330
1D
100
AcDbEntity
  8
0
100
AcDbLine
 10
429.7834
 20
132.168
 30
0.0
 11
432.4834
 21
134.575
 31
0.0
  0
LINE
  5
11ED
330
1D
100
AcDbEntity
  8
0
100
AcDbLine
 10
426.5384
 20
134.85803332879
 30
0.0
 11
426.5384
 21
133.701
 31
0.0
  0
LINE
  5
11EE
330
1D
100
AcDbEntity
  8
0
100
AcDbLine
 10
427.9984
 20
134.889975804253
 30
0.0
 11
427.9984
 21
133.701
 31
0.0
  0
LINE
  5
11EF
330
1D
100
AcDbEntity
  8
0
100
AcDbLine
 10
420.9424
 20
136.782
 30
0.0
 11
420.9424
 21
137.399
 31
0.0
  0
LINE
  5
11F0
330
1D
100
AcDbEntity
  8
0
100
AcDbLine
 10
420.9424
 20
136.782
 30
0.0
 11
422.4024
 21
136.782
 31
0.0
  0
LINE
  5
11F1
330
1D
100
AcDbEntity
  8
0
100
AcDbLine
 10
420.9424
 20
136.782
 30
0.0
 11
420.9424
 21
137.977620274014
 31
0.0
  0
LINE
  5
11F2
330
1D
100
AcDbEntity
  8
0
100
AcDbLine
 10
422.4024
 20
136.782
 30
0.0
 11
422.4024
 21
137.399
 31
0.0
  0
LINE
  5
11F3
330
1D
100
AcDbEntity
  8
0
100
AcDbLine
 10
420.9424
 20
137.399
 30
0.0
 11
422.4024
 21
137.399
 31
0.0
  0
LINE
  5
11F4
330
1D
100
AcDbEntity
  8
0
100
AcDbLine
 10
420.9424
 20
137.399
 30
0.0
 11
420.9424
 21
137.977620274014
 31
0.0
  0
LINE
  5
11F5
330
1D
100
AcDbEntity
  8
0
100
AcDbLine
 10
420.9424
 20
137.399
 30
0.0
 11
420.9424
 21
136.782
 31
0.0
  0
LINE
  5
11F6
330
1D
100
AcDbEntity
  8
0
100
AcDbLine
 10
420.9424
 20
137.977620274014
 30
0.0
 11
420.9424
 21
137.399
 31
0.0
  0
LINE
  5
11F7
330
1D
100
AcDbEntity
  8
0
100
AcDbLine
 10
420.9424
 20
137.977620274014
 30
0.0
 11
420.9424
 21
136.782
 31
0.0
  0
LINE
  5
11F8
330
1D
100
AcDbEntity
  8
0
100
AcDbLine
 10
422.4024
 20
137.945156397395
 30
0.0
 11
422.4024
 21
137.399
 31
0.0
  0
LINE
  5
11F9
330
1D
100
AcDbEntity
  8
0
100
AcDbLine
 10
422.4024
 20
137.399
 30
0.0
 11
422.4024
 21
136.782
 31
0.0
  0
LINE
  5
11FA
330
1D
100
AcDbEntity
  8
0
100
AcDbLine
 10
422.4024
 20
137.399
 30
0.0
 11
422.4024
 21
137.945156397395
 31
0.0
  0
LINE
  5
11FB
330
1D
100
AcDbEntity
  8
0
100
AcDbLine
 10
422.4844
 20
140.866
 30
0.0
 11
422.4844
 21
141.483
 31
0.0
  0
LINE
  5
11FC
330
1D
100
AcDbEntity
  8
0
100
AcDbLine
 10
422.4844
 20
140.866
 30
0.0
 11
423.9434
 21
140.866
 31
0.0
  0
LINE
  5
11FD
330
1D
100
AcDbEntity
  8
0
100
AcDbLine
 10
422.4844
 20
140.866
 30
0.0
 11
422.4844
 21
141.770073262186
 31
0.0
  0
LINE
  5
11FE
330
1D
100
AcDbEntity
  8
0
100
AcDbLine
 10
422.4844
 20
141.770073262186
 30
0.0
 11
422.4844
 21
141.483
 31
0.0
  0
LINE
  5
11FF
330
1D
100
AcDbEntity
  8
0
100
AcDbLine
 10
422.4844
 20
141.770073262186
 30
0.0
 11
422.4844
 21
140.866
 31
0.0
  0
LINE
  5
1200
330
1D
100
AcDbEntity
  8
0
100
AcDbLine
 10
423.9434
 20
140.866
 30
0.0
 11
423.9434
 21
141.483
 31
0.0
  0
LINE
  5
1201
330
1D
100
AcDbEntity
  8
0
100
AcDbLine
 10
422.4844
 20
141.483
 30
0.0
 11
423.9434
 21
141.483
 31
0.0
  0
LINE
  5
1202
330
1D
100
AcDbEntity
  8
0
100
AcDbLine
 10
422.4844
 20
141.483
 30
0.0
 11
422.4844
 21
141.770073262186
 31
0.0
  0
LINE
  5
1203
330
1D
100
AcDbEntity
  8
0
100
AcDbLine
 10
422.4844
 20
141.483
 30
0.0
 11
422.4844
 21
140.866
 31
0.0
  0
LINE
  5
1204
330
1D
100
AcDbEntity
  8
0
100
AcDbLine
 10
423.9434
 20
141.865390106721
 30
0.0
 11
423.9434
 21
141.483
 31
0.0
  0
LINE
  5
1205
330
1D
100
AcDbEntity
  8
0
100
AcDbLine
 10
429.8644
 20
137.779234858127
 30
0.0
 11
429.8644
 21
137.167
 31
0.0
  0
LINE
  5
1206
330
1D
100
AcDbEntity
  8
0
100
AcDbLine
 10
429.8644
 20
137.167
 30
0.0
 11
429.8644
 21
137.784
 31
0.0
  0
LINE
  5
1207
330
1D
100
AcDbEntity
  8
0
100
AcDbLine
 10
429.8644
 20
137.167
 30
0.0
 11
431.3234
 21
137.167
 31
0.0
  0
LINE
  5
1208
330
1D
100
AcDbEntity
  8
0
100
AcDbLine
 10
429.8644
 20
137.167
 30
0.0
 11
429.8644
 21
137.779234858127
 31
0.0
  0
LINE
  5
1209
330
1D
100
AcDbEntity
  8
0
100
AcDbLine
 10
429.8644
 20
137.784
 30
0.0
 11
431.3234
 21
137.784
 31
0.0
  0
LINE
  5
120A
330
1D
100
AcDbEntity
  8
0
100
AcDbLine
 10
429.8644
 20
137.784
 30
0.0
 11
429.8644
 21
137.167
 31
0.0
  0
LINE
  5
120B
330
1D
100
AcDbEntity
  8
0
100
AcDbLine
 10
423.9434
 20
141.483
 30
0.0
 11
423.9434
 21
140.866
 31
0.0
  0
LINE
  5
120C
330
1D
100
AcDbEntity
  8
0
100
AcDbLine
 10
423.9434
 20
141.483
 30
0.0
 11
423.9434
 21
141.865390106721
 31
0.0
  0
LINE
  5
120D
330
1D
100
AcDbEntity
  8
0
100
AcDbLine
 10
431.2434
 20
141.973728377714
 30
0.0
 11
431.2434
 21
141.319
 31
0.0
  0
LINE
  5
120E
330
1D
100
AcDbEntity
  8
0
100
AcDbLine
 10
431.2434
 20
141.319
 30
0.0
 11
431.2434
 21
141.936
 31
0.0
  0
LINE
  5
120F
330
1D
100
AcDbEntity
  8
0
100
AcDbLine
 10
431.2434
 20
141.319
 30
0.0
 11
432.7024
 21
141.319
 31
0.0
  0
LINE
  5
1210
330
1D
100
AcDbEntity
  8
0
100
AcDbLine
 10
431.2434
 20
141.319
 30
0.0
 11
431.2434
 21
141.973728377714
 31
0.0
  0
LINE
  5
1211
330
1D
100
AcDbEntity
  8
0
100
AcDbLine
 10
420.9424
 20
145.565
 30
0.0
 11
420.9424
 21
144.948
 31
0.0
  0
LINE
  5
1212
330
1D
100
AcDbEntity
  8
0
100
AcDbLine
 10
420.9424
 20
145.565
 30
0.0
 11
422.4024
 21
145.565
 31
0.0
  0
LINE
  5
1213
330
1D
100
AcDbEntity
  8
0
100
AcDbLine
 10
420.9424
 20
145.522736842105
 30
0.0
 11
420.9424
 21
144.948
 31
0.0
  0
LINE
  5
1214
330
1D
100
AcDbEntity
  8
0
100
AcDbLine
 10
420.9424
 20
144.948
 30
0.0
 11
422.4024
 21
144.948
 31
0.0
  0
LINE
  5
1215
330
1D
100
AcDbEntity
  8
0
100
AcDbLine
 10
420.9424
 20
144.948
 30
0.0
 11
420.9424
 21
145.522736842105
 31
0.0
  0
LINE
  5
1216
330
1D
100
AcDbEntity
  8
0
100
AcDbLine
 10
420.9424
 20
144.948
 30
0.0
 11
420.9424
 21
145.565
 31
0.0
  0
LINE
  5
1217
330
1D
100
AcDbEntity
  8
0
100
AcDbLine
 10
422.4024
 20
145.753263157895
 30
0.0
 11
422.4024
 21
145.565
 31
0.0
  0
LINE
  5
1218
330
1D
100
AcDbEntity
  8
0
100
AcDbLine
 10
422.4024
 20
145.565
 30
0.0
 11
422.4024
 21
145.753263157895
 31
0.0
  0
LINE
  5
1219
330
1D
100
AcDbEntity
  8
0
100
AcDbLine
 10
422.4024
 20
145.565
 30
0.0
 11
422.4024
 21
144.948
 31
0.0
  0
LINE
  5
121A
330
1D
100
AcDbEntity
  8
0
100
AcDbLine
 10
422.4024
 20
144.948
 30
0.0
 11
422.4024
 21
145.565
 31
0.0
  0
LINE
  5
121B
330
1D
100
AcDbEntity
  8
0
100
AcDbLine
 10
429.8644
 20
146.931473684211
 30
0.0
 11
429.8644
 21
146.087
 31
0.0
  0
LINE
  5
121C
330
1D
100
AcDbEntity
  8
0
100
AcDbLine
 10
429.8644
 20
146.087
 30
0.0
 11
429.8644
 21
145.47
 31
0.0
  0
LINE
  5
121D
330
1D
100
AcDbEntity
  8
0
100
AcDbLine
 10
429.8644
 20
146.087
 30
0.0
 11
431.3234
 21
146.087
 31
0.0
  0
LINE
  5
121E
330
1D
100
AcDbEntity
  8
0
100
AcDbLine
 10
429.8644
 20
146.087
 30
0.0
 11
429.8644
 21
146.931473684211
 31
0.0
  0
LINE
  5
121F
330
1D
100
AcDbEntity
  8
0
100
AcDbLine
 10
429.8644
 20
145.47
 30
0.0
 11
431.3234
 21
145.47
 31
0.0
  0
LINE
  5
1220
330
1D
100
AcDbEntity
  8
0
100
AcDbLine
 10
429.8644
 20
145.47
 30
0.0
 11
429.8644
 21
146.087
 31
0.0
  0
LINE
  5
1221
330
1D
100
AcDbEntity
  8
0
100
AcDbLine
 10
431.2434
 20
142.720449307946
 30
0.0
 11
431.2434
 21
141.936
 31
0.0
  0
LINE
  5
1222
330
1D
100
AcDbEntity
  8
0
100
AcDbLine
 10
431.3234
 20
137.167
 30
0.0
 11
431.3234
 21
137.784
 31
0.0
  0
LINE
  5
1223
330
1D
100
AcDbEntity
  8
0
100
AcDbLine
 10
431.3234
 20
137.784
 30
0.0
 11
431.3234
 21
137.167
 31
0.0
  0
LINE
  5
1224
330
1D
100
AcDbEntity
  8
0
100
AcDbLine
 10
431.3234
 20
147.161842105263
 30
0.0
 11
431.3234
 21
146.087
 31
0.0
  0
LINE
  5
1225
330
1D
100
AcDbEntity
  8
0
100
AcDbLine
 10
431.3234
 20
146.087
 30
0.0
 11
431.3234
 21
147.161842105263
 31
0.0
  0
LINE
  5
1226
330
1D
100
AcDbEntity
  8
0
100
AcDbLine
 10
431.3234
 20
146.087
 30
0.0
 11
431.3234
 21
145.47
 31
0.0
  0
LINE
  5
1227
330
1D
100
AcDbEntity
  8
0
100
AcDbLine
 10
431.3234
 20
145.47
 30
0.0
 11
431.3234
 21
146.087
 31
0.0
  0
LINE
  5
1228
330
1D
100
AcDbEntity
  8
0
100
AcDbLine
 10
431.2434
 20
141.936
 30
0.0
 11
432.7024
 21
141.936
 31
0.0
  0
LINE
  5
1229
330
1D
100
AcDbEntity
  8
0
100
AcDbLine
 10
431.2434
 20
141.936
 30
0.0
 11
431.2434
 21
142.720449307946
 31
0.0
  0
LINE
  5
122A
330
1D
100
AcDbEntity
  8
0
100
AcDbLine
 10
431.2434
 20
141.936
 30
0.0
 11
431.2434
 21
141.319
 31
0.0
  0
LINE
  5
122B
330
1D
100
AcDbEntity
  8
0
100
AcDbLine
 10
430.5134
 20
134.945
 30
0.0
 11
432.4834
 21
137.721
 31
0.0
  0
LINE
  5
122C
330
1D
100
AcDbEntity
  8
0
100
AcDbLine
 10
432.7024
 20
141.319
 30
0.0
 11
432.7024
 21
141.936
 31
0.0
  0
LINE
  5
122D
330
1D
100
AcDbEntity
  8
0
100
AcDbLine
 10
432.7024
 20
142.626756762453
 30
0.0
 11
432.7024
 21
141.936
 31
0.0
  0
LINE
  5
122E
330
1D
100
AcDbEntity
  8
0
100
AcDbLine
 10
432.7024
 20
141.936
 30
0.0
 11
432.7024
 21
141.319
 31
0.0
  0
LINE
  5
122F
330
1D
100
AcDbEntity
  8
0
100
AcDbLine
 10
432.7024
 20
141.936
 30
0.0
 11
432.7024
 21
142.626756762453
 31
0.0
  0
LINE
  5
1230
330
1D
100
AcDbEntity
  8
0
100
AcDbLine
 10
432.4834
 20
137.721
 30
0.0
 11
433.7244
 21
139.911
 31
0.0
  0
LINE
  5
1231
330
1D
100
AcDbEntity
  8
0
100
AcDbLine
 10
432.4834
 20
134.575
 30
0.0
 11
433.2134
 21
135.358
 31
0.0
  0
LINE
  5
1232
330
1D
100
AcDbEntity
  8
0
100
AcDbLine
 10
432.4834
 20
134.575
 30
0.0
 11
434.6004
 21
137.289
 31
0.0
  0
LINE
  5
1233
330
1D
100
AcDbEntity
  8
0
100
AcDbLine
 10
433.7244
 20
139.911
 30
0.0
 11
434.1624
 21
142.533
 31
0.0
  0
LINE
  5
1234
330
1D
100
AcDbEntity
  8
0
100
AcDbLine
 10
433.2134
 20
135.358
 30
0.0
 11
435.2574
 21
137.98
 31
0.0
  0
LINE
  5
1235
330
1D
100
AcDbEntity
  8
0
100
AcDbLine
 10
432.4834
 20
147.345
 30
0.0
 11
433.7244
 21
145.155
 31
0.0
  0
LINE
  5
1236
330
1D
100
AcDbEntity
  8
0
100
AcDbLine
 10
434.6004
 20
137.289
 30
0.0
 11
435.8414
 21
139.849
 31
0.0
  0
LINE
  5
1237
330
1D
100
AcDbEntity
  8
0
100
AcDbLine
 10
435.8414
 20
139.849
 30
0.0
 11
436.3524
 21
142.533
 31
0.0
  0
LINE
  5
1238
330
1D
100
AcDbEntity
  8
0
100
AcDbLine
 10
435.2574
 20
137.98
 30
0.0
 11
436.5714
 21
140.725
 31
0.0
  0
LINE
  5
1239
330
1D
100
AcDbEntity
  8
0
100
AcDbLine
 10
433.7244
 20
145.155
 30
0.0
 11
434.1624
 21
142.533
 31
0.0
  0
LINE
  5
123A
330
1D
100
AcDbEntity
  8
0
100
AcDbLine
 10
434.6004
 20
147.777
 30
0.0
 11
435.8414
 21
145.217
 31
0.0
  0
LINE
  5
123B
330
1D
100
AcDbEntity
  8
0
100
AcDbLine
 10
436.5714
 20
140.725
 30
0.0
 11
437.0824
 21
143.44
 31
0.0
  0
LINE
  5
123C
330
1D
100
AcDbEntity
  8
0
100
AcDbLine
 10
435.8414
 20
145.217
 30
0.0
 11
436.3524
 21
142.533
 31
0.0
  0
LINE
  5
123D
330
1D
100
AcDbEntity
  8
0
100
AcDbLine
 10
417.9414
 20
149.03
 30
0.0
 11
417.9414
 21
149.647
 31
0.0
  0
LINE
  5
123E
330
1D
100
AcDbEntity
  8
0
100
AcDbLine
 10
417.9414
 20
149.647
 30
0.0
 11
417.9414
 21
150.885828032493
 31
0.0
  0
LINE
  5
123F
330
1D
100
AcDbEntity
  8
0
100
AcDbLine
 10
417.9414
 20
149.647
 30
0.0
 11
417.9414
 21
149.03
 31
0.0
  0
LINE
  5
1240
330
1D
100
AcDbEntity
  8
0
100
AcDbLine
 10
417.9414
 20
150.885828032493
 30
0.0
 11
417.9414
 21
149.647
 31
0.0
  0
LINE
  5
1241
330
1D
100
AcDbEntity
  8
0
100
AcDbLine
 10
426.5384
 20
150.17
 30
0.0
 11
426.5384
 21
149.553
 31
0.0
  0
LINE
  5
1242
330
1D
100
AcDbEntity
  8
0
100
AcDbLine
 10
426.5384
 20
150.17
 30
0.0
 11
427.9984
 21
150.17
 31
0.0
  0
LINE
  5
1243
330
1D
100
AcDbEntity
  8
0
100
AcDbLine
 10
427.9984
 20
150.17
 30
0.0
 11
427.9984
 21
149.553
 31
0.0
  0
LINE
  5
1244
330
1D
100
AcDbEntity
  8
0
100
AcDbLine
 10
426.5384
 20
149.717510155398
 30
0.0
 11
426.5384
 21
149.553
 31
0.0
  0
LINE
  5
1245
330
1D
100
AcDbEntity
  8
0
100
AcDbLine
 10
426.5384
 20
149.553
 30
0.0
 11
427.9984
 21
149.553
 31
0.0
  0
LINE
  5
1246
330
1D
100
AcDbEntity
  8
0
100
AcDbLine
 10
426.5384
 20
149.553
 30
0.0
 11
426.5384
 21
149.717510155398
 31
0.0
  0
LINE
  5
1247
330
1D
100
AcDbEntity
  8
0
100
AcDbLine
 10
426.5384
 20
149.553
 30
0.0
 11
426.5384
 21
150.17
 31
0.0
  0
LINE
  5
1248
330
1D
100
AcDbEntity
  8
0
100
AcDbLine
 10
427.9984
 20
149.553
 30
0.0
 11
427.9984
 21
150.17
 31
0.0
  0
LINE
  5
1249
330
1D
100
AcDbEntity
  8
0
100
AcDbLine
 10
427.8854
 20
152.435
 30
0.0
 11
430.5134
 21
150.122
 31
0.0
  0
LINE
  5
124A
330
1D
100
AcDbEntity
  8
0
100
AcDbLine
 10
430.5134
 20
150.122
 30
0.0
 11
432.4834
 21
147.345
 31
0.0
  0
LINE
  5
124B
330
1D
100
AcDbEntity
  8
0
100
AcDbLine
 10
421.7524
 20
153.601
 30
0.0
 11
421.7524
 21
152.984
 31
0.0
  0
LINE
  5
124C
330
1D
100
AcDbEntity
  8
0
100
AcDbLine
 10
421.7524
 20
153.601
 30
0.0
 11
423.2124
 21
153.601
 31
0.0
  0
LINE
  5
124D
330
1D
100
AcDbEntity
  8
0
100
AcDbLine
 10
421.7524
 20
153.601
 30
0.0
 11
421.7524
 21
154.038081626767
 31
0.0
  0
LINE
  5
124E
330
1D
100
AcDbEntity
  8
0
100
AcDbLine
 10
421.7524
 20
153.562857285429
 30
0.0
 11
421.7524
 21
152.984
 31
0.0
  0
LINE
  5
124F
330
1D
100
AcDbEntity
  8
0
100
AcDbLine
 10
421.7524
 20
152.984
 30
0.0
 11
423.2124
 21
152.984
 31
0.0
  0
LINE
  5
1250
330
1D
100
AcDbEntity
  8
0
100
AcDbLine
 10
421.7524
 20
152.984
 30
0.0
 11
421.7524
 21
153.562857285429
 31
0.0
  0
LINE
  5
1251
330
1D
100
AcDbEntity
  8
0
100
AcDbLine
 10
421.7524
 20
152.984
 30
0.0
 11
421.7524
 21
153.601
 31
0.0
  0
LINE
  5
1252
330
1D
100
AcDbEntity
  8
0
100
AcDbLine
 10
423.2124
 20
153.601
 30
0.0
 11
423.2124
 21
154.364023363138
 31
0.0
  0
LINE
  5
1253
330
1D
100
AcDbEntity
  8
0
100
AcDbLine
 10
423.2124
 20
153.601
 30
0.0
 11
423.2124
 21
152.984
 31
0.0
  0
LINE
  5
1254
330
1D
100
AcDbEntity
  8
0
100
AcDbLine
 10
423.2124
 20
152.984
 30
0.0
 11
423.2124
 21
153.601
 31
0.0
  0
LINE
  5
1255
330
1D
100
AcDbEntity
  8
0
100
AcDbLine
 10
429.7834
 20
152.898
 30
0.0
 11
432.4834
 21
150.492
 31
0.0
  0
LINE
  5
1256
330
1D
100
AcDbEntity
  8
0
100
AcDbLine
 10
432.4834
 20
150.492
 30
0.0
 11
434.6004
 21
147.777
 31
0.0
  0
LINE
  5
1257
330
1D
100
AcDbEntity
  8
0
100
AcDbLine
 10
423.2124
 20
154.364023363138
 30
0.0
 11
423.2124
 21
153.601
 31
0.0
  0
LINE
  5
1258
330
1D
100
AcDbEntity
  8
0
100
AcDbLine
 10
421.7524
 20
154.038081626767
 30
0.0
 11
421.7524
 21
153.601
 31
0.0
  0
LINE
  5
1259
330
1D
100
AcDbEntity
  8
0
100
AcDbLine
 10
420.2944
 20
156.569
 30
0.0
 11
424.3814
 21
154.625
 31
0.0
  0
LINE
  5
125A
330
1D
100
AcDbEntity
  8
0
100
AcDbLine
 10
424.3814
 20
154.625
 30
0.0
 11
427.8854
 21
152.435
 31
0.0
  0
LINE
  5
125B
330
1D
100
AcDbEntity
  8
0
100
AcDbLine
 10
421.9004
 20
157.247
 30
0.0
 11
426.1334
 21
155.181
 31
0.0
  0
LINE
  5
125C
330
1D
100
AcDbEntity
  8
0
100
AcDbLine
 10
426.1334
 20
155.181
 30
0.0
 11
429.7834
 21
152.898
 31
0.0
  0
LINE
  5
125D
330
1D
100
AcDbEntity
  8
0
100
AcDbLine
 10
422.4114
 20
158.37
 30
0.0
 11
426.7174
 21
156.272
 31
0.0
  0
LINE
  5
125E
330
1D
100
AcDbEntity
  8
0
100
AcDbLine
 10
426.7174
 20
156.272
 30
0.0
 11
430.3674
 21
153.959
 31
0.0
  0
LINE
  5
125F
330
1D
100
AcDbEntity
  8
0
100
AcDbLine
 10
430.3674
 20
153.959
 30
0.0
 11
433.2134
 21
151.522
 31
0.0
  0
LINE
  5
1260
330
1D
100
AcDbEntity
  8
0
100
AcDbLine
 10
433.2134
 20
151.522
 30
0.0
 11
435.2574
 21
148.899
 31
0.0
  0
LINE
  5
1261
330
1D
100
AcDbEntity
  8
0
100
AcDbLine
 10
435.2574
 20
148.899
 30
0.0
 11
436.5714
 21
146.154
 31
0.0
  0
LINE
  5
1262
330
1D
100
AcDbEntity
  8
0
100
AcDbLine
 10
436.5714
 20
146.154
 30
0.0
 11
437.0824
 21
143.44
 31
0.0
  0
LINE
  5
1263
330
1D
100
AcDbEntity
  8
0
100
AcDbLine
 10
430.3674
 20
172.991
 30
0.0
 11
433.2134
 21
170.554
 31
0.0
  0
LINE
  5
1264
330
1D
100
AcDbEntity
  8
0
100
AcDbLine
 10
432.4834
 20
171.337
 30
0.0
 11
433.2134
 21
170.554
 31
0.0
  0
LINE
  5
1265
330
1D
100
AcDbEntity
  8
0
100
AcDbLine
 10
433.2134
 20
170.554
 30
0.0
 11
435.2574
 21
167.932
 31
0.0
  0
LINE
  5
1266
330
1D
100
AcDbEntity
  8
0
100
AcDbLine
 10
435.2574
 20
167.932
 30
0.0
 11
436.5714
 21
165.187
 31
0.0
  0
LINE
  5
1267
330
1D
100
AcDbEntity
  8
0
100
AcDbLine
 10
437.0824
 20
162.472
 30
0.0
 11
437.0824
 21
143.44
 31
0.0
  0
LINE
  5
1268
330
1D
100
AcDbEntity
  8
0
100
AcDbLine
 10
437.0824
 20
143.44
 30
0.0
 11
437.0824
 21
162.472
 31
0.0
  0
LINE
  5
1269
330
1D
100
AcDbEntity
  8
0
100
AcDbLine
 10
436.5714
 20
165.187
 30
0.0
 11
437.0824
 21
162.472
 31
0.0
  0
LINE
  5
126A
330
1D
100
AcDbEntity
  8
0
100
AcDbLine
 10
422.4114
 20
177.402
 30
0.0
 11
426.7174
 21
175.305
 31
0.0
  0
LINE
  5
126B
330
1D
100
AcDbEntity
  8
0
100
AcDbLine
 10
421.9004
 20
178.093
 30
0.0
 11
426.1334
 21
176.026
 31
0.0
  0
LINE
  5
126C
330
1D
100
AcDbEntity
  8
0
100
AcDbLine
 10
426.7174
 20
175.305
 30
0.0
 11
430.3674
 21
172.991
 31
0.0
  0
LINE
  5
126D
330
1D
100
AcDbEntity
  8
0
100
AcDbLine
 10
426.1334
 20
176.026
 30
0.0
 11
429.7834
 21
173.743
 31
0.0
  0
LINE
  5
126E
330
1D
100
AcDbEntity
  8
0
100
AcDbLine
 10
429.7834
 20
173.743
 30
0.0
 11
432.4834
 21
171.337
 31
0.0
  0
LINE
  5
126F
330
1D
100
AcDbEntity
  8
0
100
AcDbLine
 10
417.4474
 20
160.19
 30
0.0
 11
422.4114
 21
158.37
 31
0.0
  0
LINE
  5
1270
330
1D
100
AcDbEntity
  8
0
100
AcDbLine
 10
417.4474
 20
179.223
 30
0.0
 11
422.4114
 21
177.402
 31
0.0
  0
LINE
  5
1271
330
1D
100
AcDbEntity
  8
0
100
AcDbLine
 10
417.0094
 20
179.882
 30
0.0
 11
421.9004
 21
178.093
 31
0.0
  0
LINE
  5
1272
330
1D
100
AcDbEntity
  8
0
100
AcDbLine
 10
406.2064
 20
181.968
 30
0.0
 11
411.9734
 21
180.765
 31
0.0
  0
LINE
  5
1273
330
1D
100
AcDbEntity
  8
0
100
AcDbLine
 10
411.6074
 20
181.425
 30
0.0
 11
417.0094
 21
179.882
 31
0.0
  0
LINE
  5
1274
330
1D
100
AcDbEntity
  8
0
100
AcDbLine
 10
405.9144
 20
182.566
 30
0.0
 11
411.6074
 21
181.425
 31
0.0
  0
LINE
  5
1275
330
1D
100
AcDbEntity
  8
0
100
AcDbLine
 10
399.4914
 20
183.46
 30
0.0
 11
405.9144
 21
182.566
 31
0.0
  0
LINE
  5
1276
330
1D
100
AcDbEntity
  8
0
100
AcDbLine
 10
393.4324
 20
183.985
 30
0.0
 11
399.4914
 21
183.46
 31
0.0
  0
LINE
  5
1277
330
1D
100
AcDbEntity
  8
0
100
AcDbLine
 10
387.0824
 20
184.2
 30
0.0
 11
393.4324
 21
183.985
 31
0.0
  0
LINE
  5
1278
330
1D
100
AcDbEntity
  8
0
100
AcDbLine
 10
80.0824
 20
15.86
 30
0.0
 11
79.7824
 21
15.16
 31
0.0
  0
LINE
  5
1279
330
1D
100
AcDbEntity
  8
0
100
AcDbLine
 10
79.7824
 20
15.16
 30
0.0
 11
79.424356476988
 21
14.865662796153
 31
0.0
  0
LINE
  5
127A
330
1D
100
AcDbEntity
  8
0
100
AcDbLine
 10
145.8814
 20
63.56
 30
0.0
 11
144.0824
 21
73.86
 31
0.0
  0
LINE
  5
127B
330
1D
100
AcDbEntity
  8
0
100
AcDbLine
 10
153.053552719665
 20
59.426788702929
 30
0.0
 11
167.156369280086
 21
59.426788702929
 31
0.0
  0
LINE
  5
127C
330
1D
100
AcDbEntity
  8
0
100
AcDbLine
 10
317.9059
 20
14.86
 30
0.0
 11
167.0824
 21
14.86
 31
0.0
  0
LINE
  5
127D
330
1D
100
AcDbEntity
  8
0
100
AcDbLine
 10
317.9059
 20
14.86
 30
0.0
 11
167.0824
 21
14.86
 31
0.0
  0
LINE
  5
127E
330
1D
100
AcDbEntity
  8
0
100
AcDbLine
 10
334.0824
 20
37.86
 30
0.0
 11
334.0824
 21
20.86
 31
0.0
  0
LINE
  5
127F
330
1D
100
AcDbEntity
  8
0
100
AcDbLine
 10
254.0824
 20
37.86
 30
0.0
 11
254.0824
 21
15.86
 31
0.0
  0
LINE
  5
1280
330
1D
100
AcDbEntity
  8
0
100
AcDbLine
 10
330.5824
 20
37.86
 30
0.0
 11
330.5824
 21
20.86
 31
0.0
  0
LINE
  5
1281
330
1D
100
AcDbEntity
  8
0
100
AcDbLine
 10
281.5824
 20
37.86
 30
0.0
 11
281.5824
 21
20.86
 31
0.0
  0
LINE
  5
1282
330
1D
100
AcDbEntity
  8
0
100
AcDbLine
 10
281.5824
 20
20.86
 30
0.0
 11
281.5824
 21
37.86
 31
0.0
  0
LINE
  5
1283
330
1D
100
AcDbEntity
  8
0
100
AcDbLine
 10
254.0824
 20
15.86
 30
0.0
 11
254.0824
 21
37.86
 31
0.0
  0
LINE
  5
1284
330
1D
100
AcDbEntity
  8
0
100
AcDbLine
 10
330.5824
 20
20.86
 30
0.0
 11
330.5824
 21
37.86
 31
0.0
  0
LINE
  5
1285
330
1D
100
AcDbEntity
  8
0
100
AcDbLine
 10
334.0824
 20
20.86
 30
0.0
 11
334.0824
 21
37.86
 31
0.0
  0
LINE
  5
1286
330
1D
100
AcDbEntity
  8
0
100
AcDbLine
 10
328.0824
 20
14.86
 30
0.0
 11
317.9059
 21
14.86
 31
0.0
  0
LINE
  5
1287
330
1D
100
AcDbEntity
  8
0
100
AcDbLine
 10
328.0824
 20
18.36
 30
0.0
 11
284.0824
 21
18.36
 31
0.0
  0
LINE
  5
1288
330
1D
100
AcDbEntity
  8
0
100
AcDbLine
 10
328.0824
 20
18.36
 30
0.0
 11
284.0824
 21
18.36
 31
0.0
  0
LINE
  5
1289
330
1D
100
AcDbEntity
  8
0
100
AcDbLine
 10
330.50835
 20
20.2088
 30
0.0
 11
330.26554
 21
19.6196
 31
0.0
  0
LINE
  5
128A
330
1D
100
AcDbEntity
  8
0
100
AcDbLine
 10
334.0824
 20
20.86
 30
0.0
 11
333.7824
 21
19.36
 31
0.0
  0
LINE
  5
128B
330
1D
100
AcDbEntity
  8
0
100
AcDbLine
 10
329.37235
 20
18.6924
 30
0.0
 11
328.73063
 21
18.4411
 31
0.0
  0
LINE
  5
128C
330
1D
100
AcDbEntity
  8
0
100
AcDbLine
 10
329.5824
 20
15.16
 30
0.0
 11
328.0824
 21
14.86
 31
0.0
  0
LINE
  5
128D
330
1D
100
AcDbEntity
  8
0
100
AcDbLine
 10
332.2824
 20
16.66
 30
0.0
 11
330.9824
 21
15.76
 31
0.0
  0
LINE
  5
128E
330
1D
100
AcDbEntity
  8
0
100
AcDbLine
 10
330.9824
 20
15.76
 30
0.0
 11
329.5824
 21
15.16
 31
0.0
  0
LINE
  5
128F
330
1D
100
AcDbEntity
  8
0
100
AcDbLine
 10
333.7824
 20
19.36
 30
0.0
 11
333.1824
 21
17.96
 31
0.0
  0
LINE
  5
1290
330
1D
100
AcDbEntity
  8
0
100
AcDbLine
 10
333.7824
 20
19.36
 30
0.0
 11
333.1824
 21
17.96
 31
0.0
  0
LINE
  5
1291
330
1D
100
AcDbEntity
  8
0
100
AcDbLine
 10
329.84929
 20
19.091
 30
0.0
 11
329.37235
 21
18.6924
 31
0.0
  0
LINE
  5
1292
330
1D
100
AcDbEntity
  8
0
100
AcDbLine
 10
330.26554
 20
19.6196
 30
0.0
 11
329.84929
 21
19.091
 31
0.0
  0
LINE
  5
1293
330
1D
100
AcDbEntity
  8
0
100
AcDbLine
 10
333.1824
 20
17.96
 30
0.0
 11
332.2824
 21
16.66
 31
0.0
  0
LINE
  5
1294
330
1D
100
AcDbEntity
  8
0
100
AcDbLine
 10
328.73063
 20
18.4411
 30
0.0
 11
328.0824
 21
18.36
 31
0.0
  0
LINE
  5
1295
330
1D
100
AcDbEntity
  8
0
100
AcDbLine
 10
330.5824
 20
20.86
 30
0.0
 11
330.50835
 21
20.2088
 31
0.0
  0
LINE
  5
1296
330
1D
100
AcDbEntity
  8
0
100
AcDbLine
 10
281.8993
 20
19.6196
 30
0.0
 11
281.6564
 21
20.2088
 31
0.0
  0
LINE
  5
1297
330
1D
100
AcDbEntity
  8
0
100
AcDbLine
 10
282.3155
 20
19.091
 30
0.0
 11
281.8993
 21
19.6196
 31
0.0
  0
LINE
  5
1298
330
1D
100
AcDbEntity
  8
0
100
AcDbLine
 10
282.7925
 20
18.6924
 30
0.0
 11
282.3155
 21
19.091
 31
0.0
  0
LINE
  5
1299
330
1D
100
AcDbEntity
  8
0
100
AcDbLine
 10
283.4342
 20
18.4411
 30
0.0
 11
282.7925
 21
18.6924
 31
0.0
  0
LINE
  5
129A
330
1D
100
AcDbEntity
  8
0
100
AcDbLine
 10
284.0824
 20
18.36
 30
0.0
 11
283.4342
 21
18.4411
 31
0.0
  0
LINE
  5
129B
330
1D
100
AcDbEntity
  8
0
100
AcDbLine
 10
254.3824
 20
15.16
 30
0.0
 11
254.740443523012
 21
14.865662796153
 31
0.0
  0
LINE
  5
129C
330
1D
100
AcDbEntity
  8
0
100
AcDbLine
 10
254.0824
 20
15.86
 30
0.0
 11
254.3824
 21
15.16
 31
0.0
  0
LINE
  5
129D
330
1D
100
AcDbEntity
  8
0
100
AcDbLine
 10
281.6564
 20
20.2088
 30
0.0
 11
281.5824
 21
20.86
 31
0.0
  0
LINE
  5
129E
330
1D
100
AcDbEntity
  8
0
100
AcDbLine
 10
328.0824
 20
60.86
 30
0.0
 11
260.0824
 21
60.86
 31
0.0
  0
LINE
  5
129F
330
1D
100
AcDbEntity
  8
0
100
AcDbLine
 10
328.0824
 20
60.86
 30
0.0
 11
260.0824
 21
60.86
 31
0.0
  0
LINE
  5
12A0
330
1D
100
AcDbEntity
  8
0
100
AcDbLine
 10
328.0824
 20
57.36
 30
0.0
 11
284.0824
 21
57.36
 31
0.0
  0
LINE
  5
12A1
330
1D
100
AcDbEntity
  8
0
100
AcDbLine
 10
328.0824
 20
57.36
 30
0.0
 11
284.0824
 21
57.36
 31
0.0
  0
LINE
  5
12A2
330
1D
100
AcDbEntity
  8
0
100
AcDbLine
 10
334.0824
 20
54.86
 30
0.0
 11
334.0824
 21
37.86
 31
0.0
  0
LINE
  5
12A3
330
1D
100
AcDbEntity
  8
0
100
AcDbLine
 10
330.5824
 20
54.86
 30
0.0
 11
330.5824
 21
37.86
 31
0.0
  0
LINE
  5
12A4
330
1D
100
AcDbEntity
  8
0
100
AcDbLine
 10
334.0824
 20
37.86
 30
0.0
 11
334.0824
 21
54.86
 31
0.0
  0
LINE
  5
12A5
330
1D
100
AcDbEntity
  8
0
100
AcDbLine
 10
330.5824
 20
37.86
 30
0.0
 11
330.5824
 21
54.86
 31
0.0
  0
LINE
  5
12A6
330
1D
100
AcDbEntity
  8
0
100
AcDbLine
 10
334.0824
 20
54.86
 30
0.0
 11
333.7824
 21
56.36
 31
0.0
  0
LINE
  5
12A7
330
1D
100
AcDbEntity
  8
0
100
AcDbLine
 10
330.50835
 20
55.5112
 30
0.0
 11
330.26554
 21
56.1004
 31
0.0
  0
LINE
  5
12A8
330
1D
100
AcDbEntity
  8
0
100
AcDbLine
 10
330.5824
 20
54.86
 30
0.0
 11
330.50835
 21
55.5112
 31
0.0
  0
LINE
  5
12A9
330
1D
100
AcDbEntity
  8
0
100
AcDbLine
 10
329.5824
 20
60.56
 30
0.0
 11
328.0824
 21
60.86
 31
0.0
  0
LINE
  5
12AA
330
1D
100
AcDbEntity
  8
0
100
AcDbLine
 10
329.37235
 20
57.0276
 30
0.0
 11
328.73063
 21
57.2789
 31
0.0
  0
LINE
  5
12AB
330
1D
100
AcDbEntity
  8
0
100
AcDbLine
 10
332.2824
 20
59.06
 30
0.0
 11
330.9824
 21
59.96
 31
0.0
  0
LINE
  5
12AC
330
1D
100
AcDbEntity
  8
0
100
AcDbLine
 10
333.7824
 20
56.36
 30
0.0
 11
333.1824
 21
57.76
 31
0.0
  0
LINE
  5
12AD
330
1D
100
AcDbEntity
  8
0
100
AcDbLine
 10
333.7824
 20
56.36
 30
0.0
 11
333.1824
 21
57.76
 31
0.0
  0
LINE
  5
12AE
330
1D
100
AcDbEntity
  8
0
100
AcDbLine
 10
333.1824
 20
57.76
 30
0.0
 11
332.2824
 21
59.06
 31
0.0
  0
LINE
  5
12AF
330
1D
100
AcDbEntity
  8
0
100
AcDbLine
 10
329.84929
 20
56.629
 30
0.0
 11
329.37235
 21
57.0276
 31
0.0
  0
LINE
  5
12B0
330
1D
100
AcDbEntity
  8
0
100
AcDbLine
 10
330.26554
 20
56.1004
 30
0.0
 11
329.84929
 21
56.629
 31
0.0
  0
LINE
  5
12B1
330
1D
100
AcDbEntity
  8
0
100
AcDbLine
 10
330.9824
 20
59.96
 30
0.0
 11
329.5824
 21
60.56
 31
0.0
  0
LINE
  5
12B2
330
1D
100
AcDbEntity
  8
0
100
AcDbLine
 10
328.73063
 20
57.2789
 30
0.0
 11
328.0824
 21
57.36
 31
0.0
  0
LINE
  5
12B3
330
1D
100
AcDbEntity
  8
0
100
AcDbLine
 10
254.0824
 20
59.86
 30
0.0
 11
254.0824
 21
37.86
 31
0.0
  0
LINE
  5
12B4
330
1D
100
AcDbEntity
  8
0
100
AcDbLine
 10
281.5824
 20
54.86
 30
0.0
 11
281.5824
 21
37.86
 31
0.0
  0
LINE
  5
12B5
330
1D
100
AcDbEntity
  8
0
100
AcDbLine
 10
254.0824
 20
37.86
 30
0.0
 11
254.0824
 21
59.86
 31
0.0
  0
LINE
  5
12B6
330
1D
100
AcDbEntity
  8
0
100
AcDbLine
 10
281.5824
 20
37.86
 30
0.0
 11
281.5824
 21
54.86
 31
0.0
  0
LINE
  5
12B7
330
1D
100
AcDbEntity
  8
0
100
AcDbLine
 10
281.8993
 20
56.1004
 30
0.0
 11
281.6564
 21
55.5112
 31
0.0
  0
LINE
  5
12B8
330
1D
100
AcDbEntity
  8
0
100
AcDbLine
 10
281.6564
 20
55.5112
 30
0.0
 11
281.5824
 21
54.86
 31
0.0
  0
LINE
  5
12B9
330
1D
100
AcDbEntity
  8
0
100
AcDbLine
 10
282.3155
 20
56.629
 30
0.0
 11
281.8993
 21
56.1004
 31
0.0
  0
LINE
  5
12BA
330
1D
100
AcDbEntity
  8
0
100
AcDbLine
 10
283.4342
 20
57.2789
 30
0.0
 11
282.7925
 21
57.0276
 31
0.0
  0
LINE
  5
12BB
330
1D
100
AcDbEntity
  8
0
100
AcDbLine
 10
282.7925
 20
57.0276
 30
0.0
 11
282.3155
 21
56.629
 31
0.0
  0
LINE
  5
12BC
330
1D
100
AcDbEntity
  8
0
100
AcDbLine
 10
284.0824
 20
57.36
 30
0.0
 11
283.4342
 21
57.2789
 31
0.0
  0
LINE
  5
12BD
330
1D
100
AcDbEntity
  8
0
100
AcDbLine
 10
256.5824
 20
60.86
 30
0.0
 11
255.7824
 21
60.86
 31
0.0
  0
LINE
  5
12BE
330
1D
100
AcDbEntity
  8
0
100
AcDbLine
 10
258.8824
 20
60.86
 30
0.0
 11
256.5824
 21
60.86
 31
0.0
  0
LINE
  5
12BF
330
1D
100
AcDbEntity
  8
0
100
AcDbLine
 10
260.0824
 20
60.86
 30
0.0
 11
258.8824
 21
60.86
 31
0.0
  0
LINE
  5
12C0
330
1D
100
AcDbEntity
  8
0
100
AcDbLine
 10
255.0824
 20
60.86
 30
0.0
 11
254.3824
 21
60.56
 31
0.0
  0
LINE
  5
12C1
330
1D
100
AcDbEntity
  8
0
100
AcDbLine
 10
255.2824
 20
60.86
 30
0.0
 11
255.0824
 21
60.86
 31
0.0
  0
LINE
  5
12C2
330
1D
100
AcDbEntity
  8
0
100
AcDbLine
 10
255.7824
 20
60.86
 30
0.0
 11
255.2824
 21
60.86
 31
0.0
  0
LINE
  5
12C3
330
1D
100
AcDbEntity
  8
0
100
AcDbLine
 10
254.3824
 20
60.56
 30
0.0
 11
254.0824
 21
59.86
 31
0.0
  0
LINE
  5
12C4
330
1D
100
AcDbEntity
  8
0
100
AcDbLine
 10
190.0824
 20
34.86
 30
0.0
 11
190.0824
 21
14.86
 31
0.0
  0
LINE
  5
12C5
330
1D
100
AcDbEntity
  8
0
100
AcDbLine
 10
190.0824
 20
14.86
 30
0.0
 11
190.0824
 21
34.86
 31
0.0
  0
LINE
  5
12C6
330
1D
100
AcDbEntity
  8
0
100
AcDbLine
 10
184.3824
 20
74.86
 30
0.0
 11
182.5784
 21
74.86
 31
0.0
  0
LINE
  5
12C7
330
1D
100
AcDbEntity
  8
0
100
AcDbLine
 10
185.4324
 20
60.66
 30
0.0
 11
183.5834
 21
59.86
 31
0.0
  0
LINE
  5
12C8
330
1D
100
AcDbEntity
  8
0
100
AcDbLine
 10
190.0824
 20
70.86
 30
0.0
 11
190.0824
 21
34.86
 31
0.0
  0
LINE
  5
12C9
330
1D
100
AcDbEntity
  8
0
100
AcDbLine
 10
190.0824
 20
66.7345
 30
0.0
 11
190.0824
 21
58.36
 31
0.0
  0
LINE
  5
12CA
330
1D
100
AcDbEntity
  8
0
100
AcDbLine
 10
188.2834
 20
63.56
 30
0.0
 11
187.0884
 21
61.86
 31
0.0
  0
LINE
  5
12CB
330
1D
100
AcDbEntity
  8
0
100
AcDbLine
 10
190.0824
 20
58.36
 30
0.0
 11
190.0824
 21
66.7345
 31
0.0
  0
LINE
  5
12CC
330
1D
100
AcDbEntity
  8
0
100
AcDbLine
 10
190.0824
 20
34.86
 30
0.0
 11
190.074313505478
 21
63.971380278588
 31
0.0
  0
LINE
  5
12CD
330
1D
100
AcDbEntity
  8
0
100
AcDbLine
 10
190.0824
 20
58.36
 30
0.0
 11
190.0824
 21
47.0245
 31
0.0
  0
LINE
  5
12CE
330
1D
100
AcDbEntity
  8
0
100
AcDbLine
 10
190.0824
 20
47.0245
 30
0.0
 11
190.0824
 21
58.36
 31
0.0
  0
LINE
  5
12CF
330
1D
100
AcDbEntity
  8
0
100
AcDbLine
 10
190.0824
 20
34.86
 30
0.0
 11
190.0824
 21
47.0245
 31
0.0
  0
LINE
  5
12D0
330
1D
100
AcDbEntity
  8
0
100
AcDbLine
 10
190.0824
 20
47.0245
 30
0.0
 11
190.0824
 21
34.86
 31
0.0
  0
LINE
  5
12D1
330
1D
100
AcDbEntity
  8
0
100
AcDbLine
 10
187.0854
 20
61.86
 30
0.0
 11
185.4324
 21
60.66
 31
0.0
  0
LINE
  5
12D2
330
1D
100
AcDbEntity
  8
0
100
AcDbLine
 10
188.2834
 20
63.56
 30
0.0
 11
190.0824
 21
73.86
 31
0.0
  0
LINE
  5
12D3
330
1D
100
AcDbEntity
  8
0
100
AcDbLine
 10
190.0824
 20
71.3674
 30
0.0
 11
190.0824
 21
66.7345
 31
0.0
  0
LINE
  5
12D4
330
1D
100
AcDbEntity
  8
0
100
AcDbLine
 10
190.0824
 20
66.7345
 30
0.0
 11
190.0824
 21
71.3674
 31
0.0
  0
LINE
  5
12D5
330
1D
100
AcDbEntity
  8
0
100
AcDbLine
 10
190.0824
 20
73.86
 30
0.0
 11
189.7824
 21
74.56
 31
0.0
  0
LINE
  5
12D6
330
1D
100
AcDbEntity
  8
0
100
AcDbLine
 10
190.0824
 20
72.86
 30
0.0
 11
190.0824
 21
71.3674
 31
0.0
  0
LINE
  5
12D7
330
1D
100
AcDbEntity
  8
0
100
AcDbLine
 10
190.0824
 20
71.3674
 30
0.0
 11
190.0824
 21
72.86
 31
0.0
  0
LINE
  5
12D8
330
1D
100
AcDbEntity
  8
0
100
AcDbLine
 10
190.0824
 20
72.86
 30
0.0
 11
190.0824
 21
73.86
 31
0.0
  0
LINE
  5
12D9
330
1D
100
AcDbEntity
  8
0
100
AcDbLine
 10
190.0824
 20
73.86
 30
0.0
 11
190.0824
 21
72.86
 31
0.0
  0
LINE
  5
12DA
330
1D
100
AcDbEntity
  8
0
100
AcDbLine
 10
190.0824
 20
70.86
 30
0.0
 11
190.0824
 21
70.9662
 31
0.0
  0
LINE
  5
12DB
330
1D
100
AcDbEntity
  8
0
100
AcDbLine
 10
190.0824
 20
70.9662
 30
0.0
 11
190.0824
 21
70.86
 31
0.0
  0
LINE
  5
12DC
330
1D
100
AcDbEntity
  8
0
100
AcDbLine
 10
189.0824
 20
74.86
 30
0.0
 11
187.2824
 21
74.86
 31
0.0
  0
LINE
  5
12DD
330
1D
100
AcDbEntity
  8
0
100
AcDbLine
 10
189.7824
 20
74.56
 30
0.0
 11
189.0824
 21
74.86
 31
0.0
  0
LINE
  5
12DE
330
1D
100
AcDbEntity
  8
0
100
AcDbLine
 10
187.2824
 20
74.86
 30
0.0
 11
186.0824
 21
74.86
 31
0.0
  0
LINE
  5
12DF
330
1D
100
AcDbEntity
  8
0
100
AcDbLine
 10
186.0824
 20
74.86
 30
0.0
 11
184.3824
 21
74.86
 31
0.0
  0
LINE
  5
12E0
330
1D
100
AcDbEntity
  8
0
100
AcDbLine
 10
178.0824
 20
59.308522167488
 30
0.0
 11
178.0824
 21
54.8195
 31
0.0
  0
LINE
  5
12E1
330
1D
100
AcDbEntity
  8
0
100
AcDbLine
 10
177.6864
 20
55.7826
 30
0.0
 11
176.6304
 21
56.6856
 31
0.0
  0
LINE
  5
12E2
330
1D
100
AcDbEntity
  8
0
100
AcDbLine
 10
178.0824
 20
54.8195
 30
0.0
 11
178.0824
 21
59.308522167488
 31
0.0
  0
LINE
  5
12E3
330
1D
100
AcDbEntity
  8
0
100
AcDbLine
 10
177.4224
 20
55.4857
 30
0.0
 11
176.3664
 21
56.3585
 31
0.0
  0
LINE
  5
12E4
330
1D
100
AcDbEntity
  8
0
100
AcDbLine
 10
176.3664
 20
52.7167
 30
0.0
 11
174.6504
 21
51.9492
 31
0.0
  0
LINE
  5
12E5
330
1D
100
AcDbEntity
  8
0
100
AcDbLine
 10
178.0824
 20
54.8195
 30
0.0
 11
177.6864
 21
53.8564
 31
0.0
  0
LINE
  5
12E6
330
1D
100
AcDbEntity
  8
0
100
AcDbLine
 10
178.0824
 20
54.8195
 30
0.0
 11
177.6864
 21
55.7826
 31
0.0
  0
LINE
  5
12E7
330
1D
100
AcDbEntity
  8
0
100
AcDbLine
 10
177.8184
 20
54.5376
 30
0.0
 11
177.4224
 21
53.5895
 31
0.0
  0
LINE
  5
12E8
330
1D
100
AcDbEntity
  8
0
100
AcDbLine
 10
177.8184
 20
54.5376
 30
0.0
 11
177.4224
 21
55.4857
 31
0.0
  0
LINE
  5
12E9
330
1D
100
AcDbEntity
  8
0
100
AcDbLine
 10
177.4224
 20
53.5895
 30
0.0
 11
176.3664
 21
52.7167
 31
0.0
  0
LINE
  5
12EA
330
1D
100
AcDbEntity
  8
0
100
AcDbLine
 10
177.6864
 20
53.8564
 30
0.0
 11
177.4224
 21
53.5895
 31
0.0
  0
LINE
  5
12EB
330
1D
100
AcDbEntity
  8
0
100
AcDbLine
 10
172.4064
 20
51.3623
 30
0.0
 11
169.8544
 21
51.0011
 31
0.0
  0
LINE
  5
12EC
330
1D
100
AcDbEntity
  8
0
100
AcDbLine
 10
174.6504
 20
51.9492
 30
0.0
 11
172.4064
 21
51.3623
 31
0.0
  0
LINE
  5
12ED
330
1D
100
AcDbEntity
  8
0
100
AcDbLine
 10
169.8544
 20
51.0011
 30
0.0
 11
167.0824
 21
50.8657
 31
0.0
  0
LINE
  5
12EE
330
1D
100
AcDbEntity
  8
0
100
AcDbLine
 10
181.111247280335
 20
59.426788702929
 30
0.0
 11
167.008430719914
 21
59.426788702929
 31
0.0
  0
LINE
  5
12EF
330
1D
100
AcDbEntity
  8
0
100
AcDbLine
 10
176.6304
 20
56.6856
 30
0.0
 11
174.8704
 21
57.4832
 31
0.0
  0
LINE
  5
12F0
330
1D
100
AcDbEntity
  8
0
100
AcDbLine
 10
176.3664
 20
56.3585
 30
0.0
 11
174.6504
 21
57.126
 31
0.0
  0
LINE
  5
12F1
330
1D
100
AcDbEntity
  8
0
100
AcDbLine
 10
183.5834
 20
59.86
 30
0.0
 11
181.5414
 21
59.46
 31
0.0
  0
LINE
  5
12F2
330
1D
100
AcDbEntity
  8
0
100
AcDbLine
 10
181.4144
 20
59.46
 30
0.0
 11
181.111247280335
 21
59.426788702929
 31
0.0
  0
LINE
  5
12F3
330
1D
100
AcDbEntity
  8
0
100
AcDbLine
 10
181.5414
 20
59.46
 30
0.0
 11
181.4144
 21
59.46
 31
0.0
  0
LINE
  5
12F4
330
1D
100
AcDbEntity
  8
0
100
AcDbLine
 10
172.5384
 20
58.0851
 30
0.0
 11
169.8984
 21
58.4463
 31
0.0
  0
LINE
  5
12F5
330
1D
100
AcDbEntity
  8
0
100
AcDbLine
 10
172.4064
 20
57.7129
 30
0.0
 11
169.8544
 21
58.0741
 31
0.0
  0
LINE
  5
12F6
330
1D
100
AcDbEntity
  8
0
100
AcDbLine
 10
174.8704
 20
57.4832
 30
0.0
 11
172.5384
 21
58.0851
 31
0.0
  0
LINE
  5
12F7
330
1D
100
AcDbEntity
  8
0
100
AcDbLine
 10
174.6504
 20
57.126
 30
0.0
 11
172.4064
 21
57.7129
 31
0.0
  0
LINE
  5
12F8
330
1D
100
AcDbEntity
  8
0
100
AcDbLine
 10
169.8984
 20
58.4463
 30
0.0
 11
167.0824
 21
58.5817
 31
0.0
  0
LINE
  5
12F9
330
1D
100
AcDbEntity
  8
0
100
AcDbLine
 10
169.8544
 20
58.0741
 30
0.0
 11
167.0824
 21
58.2095
 31
0.0
  0
LINE
  5
12FA
330
1D
100
AcDbEntity
  8
0
100
AcDbLine
 10
175.9774
 20
74.86
 30
0.0
 11
172.4824
 21
74.86
 31
0.0
  0
LINE
  5
12FB
330
1D
100
AcDbEntity
  8
0
100
AcDbLine
 10
180.6974
 20
74.86
 30
0.0
 11
178.5484
 21
74.86
 31
0.0
  0
LINE
  5
12FC
330
1D
100
AcDbEntity
  8
0
100
AcDbLine
 10
182.5784
 20
74.86
 30
0.0
 11
180.6974
 21
74.86
 31
0.0
  0
LINE
  5
12FD
330
1D
100
AcDbEntity
  8
0
100
AcDbLine
 10
178.5484
 20
74.86
 30
0.0
 11
175.9774
 21
74.86
 31
0.0
  0
LINE
  5
12FE
330
1D
100
AcDbEntity
  8
0
100
AcDbLine
 10
172.4824
 20
74.86
 30
0.0
 11
169.3674
 21
74.86
 31
0.0
  0
LINE
  5
12FF
330
1D
100
AcDbEntity
  8
0
100
AcDbLine
 10
169.3674
 20
74.86
 30
0.0
 11
167.0824
 21
74.86
 31
0.0
  0
LINE
  5
1300
330
1D
100
AcDbEntity
  8
0
100
AcDbLine
 10
399.0824
 20
115.351
 30
0.0
 11
399.0824
 21
62.684165416667
 31
0.0
  0
LINE
  5
1301
330
1D
100
AcDbEntity
  8
0
100
AcDbLine
 10
375.0
 20
62.2559
 30
0.0
 11
375.0824
 21
115.351
 31
0.0
  0
ENDSEC
  0
SECTION
  2
OBJECTS
  0
DICTIONARY
  5
C
330
0
100
AcDbDictionary
281
     1
  3
ACAD_GROUP
350
D
  3
ACAD_LAYOUT
350
1A
  3
ACAD_MLEADERSTYLE
350
1304
  3
ACAD_MLINESTYLE
350
17
  3
ACAD_PLOTSETTINGS
350
19
  3
ACAD_PLOTSTYLENAME
350
E
  3
ACAD_SCALELIST
350
723
  3
AcDbVariableDictionary
350
1302
  3
DWGPROPS
350
1798
  0
DICTIONARY
  5
D
102
{ACAD_REACTORS
330
C
102
}
330
C
100
AcDbDictionary
281
     1
  0
DICTIONARY
  5
1A
102
{ACAD_REACTORS
330
C
102
}
330
C
100
AcDbDictionary
281
     1
  3
Layout1
350
1C
  3
Model
350
1E
  0
DICTIONARY
  5
1304
102
{ACAD_REACTORS
330
C
102
}
330
C
100
AcDbDictionary
281
     1
  0
DICTIONARY
  5
17
102
{ACAD_REACTORS
330
C
102
}
330
C
100
AcDbDictionary
281
     1
  3
Standard
350
18
  0
DICTIONARY
  5
19
102
{ACAD_REACTORS
330
C
102
}
330
C
100
AcDbDictionary
281
     1
  0
ACDBDICTIONARYWDFLT
  5
E
102
{ACAD_REACTORS
330
C
102
}
330
C
100
AcDbDictionary
281
     1
  3
Normal
350
F
100
AcDbDictionaryWithDefault
340
F
  0
DICTIONARY
  5
723
102
{ACAD_REACTORS
330
C
102
}
330
C
100
AcDbDictionary
281
     1
  3
A0
350
724
  3
A1
350
725
  3
A2
350
726
  3
A3
350
727
  3
A4
350
728
  3
A5
350
729
  3
A6
350
72A
  3
A7
350
72B
  3
A8
350
72C
  3
A9
350
72D
  3
B0
350
72E
  3
B1
350
72F
  3
B2
350
730
  3
B3
350
731
  3
B4
350
732
  3
B5
350
733
  3
B6
350
734
  3
B7
350
735
  3
B8
350
736
  3
B9
350
737
  3
C0
350
738
  3
C1
350
739
  3
C2
350
73A
  3
C3
350
73B
  3
C4
350
73C
  3
C5
350
73D
  3
C6
350
73E
  3
C7
350
73F
  3
C8
350
740
  3
C9
350
741
  3
D0
350
742
  3
D1
350
743
  3
D2
350
744
  0
DICTIONARY
  5
1302
102
{ACAD_REACTORS
330
C
102
}
330
C
100
AcDbDictionary
281
     1
  3
CANNOSCALE
350
1305
  0
XRECORD
  5
1798
102
{ACAD_REACTORS
330
C
102
}
330
C
100
AcDbXrecord
280
     1
  1
DWGPROPS COOKIE
  2

  3

  4

  6

  7

  8
MARTIN
  9

300
=
301
=
302
=
303
=
304
=
305
=
306
=
307
=
308
=
309
=
 40
0.0
 41
2455872.51875397
 42
2455872.522497106
  1

 90
        0
  0
LAYOUT
  5
1C
102
{ACAD_REACTORS
330
1A
102
}
330
1A
100
AcDbPlotSettings
  1

  2
none_device
  4

  6

 40
0.0
 41
0.0
 42
0.0
 43
0.0
 44
0.0
 45
0.0
 46
0.0
 47
0.0
 48
0.0
 49
0.0
140
0.0
141
0.0
142
1.0
143
1.0
 70
   688
 72
     0
 73
     0
 74
     5
  7

 75
    16
147
1.0
148
0.0
149
0.0
100
AcDbLayout
  1
Layout1
 70
     1
 71
     1
 10
0.0
 20
0.0
 11
12.0
 21
9.0
 12
0.0
 22
0.0
 32
0.0
 14
1.000000000000E+20
 24
1.000000000000E+20
 34
1.000000000000E+20
 15
-1.000000000000E+20
 25
-1.000000000000E+20
 35
-1.000000000000E+20
146
0.0
 13
0.0
 23
0.0
 33
0.0
 16
1.0
 26
0.0
 36
0.0
 17
0.0
 27
1.0
 37
0.0
 76
     0
330
1B
  0
LAYOUT
  5
1E
102
{ACAD_REACTORS
330
1A
102
}
330
1A
100
AcDbPlotSettings
  1

  2
none_device
  4

  6

 40
0.0
 41
0.0
 42
0.0
 43
0.0
 44
0.0
 45
0.0
 46
0.0
 47
0.0
 48
0.0
 49
0.0
140
0.0
141
0.0
142
1.0
143
1.0
 70
  1712
 72
     0
 73
     0
 74
     0
  7

 75
     0
147
1.0
148
0.0
149
0.0
100
AcDbLayout
  1
Model
 70
     1
 71
     0
 10
0.0
 20
0.0
 11
12.0
 21
9.0
 12
0.0
 22
0.0
 32
0.0
 14
0.0824
 24
-0.14
 34
0.0
 15
437.0824
 25
184.2
 35
0.0
146
0.0
 13
0.0
 23
0.0
 33
0.0
 16
1.0
 26
0.0
 36
0.0
 17
0.0
 27
1.0
 37
0.0
 76
     0
330
1D
331
71E
  0
MLINESTYLE
  5
18
102
{ACAD_REACTORS
330
17
102
}
330
17
100
AcDbMlineStyle
  2
Standard
 70
     0
  3

 62
   256
 51
90.0
 52
90.0
 71
     2
 49
0.5
 62
   256
  6
BYLAYER
 49
-0.5
 62
   256
  6
BYLAYER
  0
ACDBPLACEHOLDER
  5
F
102
{ACAD_REACTORS
330
E
102
}
330
E
  0
SCALE
  5
724
102
{ACAD_REACTORS
330
723
102
}
330
723
100
AcDbScale
 70
     0
300
1:1
140
1.0
141
1.0
290
     1
  0
SCALE
  5
725
102
{ACAD_REACTORS
330
723
102
}
330
723
100
AcDbScale
 70
     0
300
1:2
140
1.0
141
2.0
290
     0
  0
SCALE
  5
726
102
{ACAD_REACTORS
330
723
102
}
330
723
100
AcDbScale
 70
     0
300
1:4
140
1.0
141
4.0
290
     0
  0
SCALE
  5
727
102
{ACAD_REACTORS
330
723
102
}
330
723
100
AcDbScale
 70
     0
300
1:5
140
1.0
141
5.0
290
     0
  0
SCALE
  5
728
102
{ACAD_REACTORS
330
723
102
}
330
723
100
AcDbScale
 70
     0
300
1:8
140
1.0
141
8.0
290
     0
  0
SCALE
  5
729
102
{ACAD_REACTORS
330
723
102
}
330
723
100
AcDbScale
 70
     0
300
1:10
140
1.0
141
10.0
290
     0
  0
SCALE
  5
72A
102
{ACAD_REACTORS
330
723
102
}
330
723
100
AcDbScale
 70
     0
300
1:16
140
1.0
141
16.0
290
     0
  0
SCALE
  5
72B
102
{ACAD_REACTORS
330
723
102
}
330
723
100
AcDbScale
 70
     0
300
1:20
140
1.0
141
20.0
290
     0
  0
SCALE
  5
72C
102
{ACAD_REACTORS
330
723
102
}
330
723
100
AcDbScale
 70
     0
300
1:30
140
1.0
141
30.0
290
     0
  0
SCALE
  5
72D
102
{ACAD_REACTORS
330
723
102
}
330
723
100
AcDbScale
 70
     0
300
1:40
140
1.0
141
40.0
290
     0
  0
SCALE
  5
72E
102
{ACAD_REACTORS
330
723
102
}
330
723
100
AcDbScale
 70
     0
300
1:50
140
1.0
141
50.0
290
     0
  0
SCALE
  5
72F
102
{ACAD_REACTORS
330
723
102
}
330
723
100
AcDbScale
 70
     0
300
1:100
140
1.0
141
100.0
290
     0
  0
SCALE
  5
730
102
{ACAD_REACTORS
330
723
102
}
330
723
100
AcDbScale
 70
     0
300
2:1
140
2.0
141
1.0
290
     0
  0
SCALE
  5
731
102
{ACAD_REACTORS
330
723
102
}
330
723
100
AcDbScale
 70
     0
300
4:1
140
4.0
141
1.0
290
     0
  0
SCALE
  5
732
102
{ACAD_REACTORS
330
723
102
}
330
723
100
AcDbScale
 70
     0
300
8:1
140
8.0
141
1.0
290
     0
  0
SCALE
  5
733
102
{ACAD_REACTORS
330
723
102
}
330
723
100
AcDbScale
 70
     0
300
10:1
140
10.0
141
1.0
290
     0
  0
SCALE
  5
734
102
{ACAD_REACTORS
330
723
102
}
330
723
100
AcDbScale
 70
     0
300
100:1
140
100.0
141
1.0
290
     0
  0
SCALE
  5
735
102
{ACAD_REACTORS
330
723
102
}
330
723
100
AcDbScale
 70
     0
300
1/128" = 1'-0"
140
0.0078125
141
12.0
290
     0
  0
SCALE
  5
736
102
{ACAD_REACTORS
330
723
102
}
330
723
100
AcDbScale
 70
     0
300
1/64" = 1'-0"
140
0.015625
141
12.0
290
     0
  0
SCALE
  5
737
102
{ACAD_REACTORS
330
723
102
}
330
723
100
AcDbScale
 70
     0
300
1/32" = 1'-0"
140
0.03125
141
12.0
290
     0
  0
SCALE
  5
738
102
{ACAD_REACTORS
330
723
102
}
330
723
100
AcDbScale
 70
     0
300
1/16" = 1'-0"
140
0.0625
141
12.0
290
     0
  0
SCALE
  5
739
102
{ACAD_REACTORS
330
723
102
}
330
723
100
AcDbScale
 70
     0
300
3/32" = 1'-0"
140
0.09375
141
12.0
290
     0
  0
SCALE
  5
73A
102
{ACAD_REACTORS
330
723
102
}
330
723
100
AcDbScale
 70
     0
300
1/8" = 1'-0"
140
0.125
141
12.0
290
     0
  0
SCALE
  5
73B
102
{ACAD_REACTORS
330
723
102
}
330
723
100
AcDbScale
 70
     0
300
3/16" = 1'-0"
140
0.1875
141
12.0
290
     0
  0
SCALE
  5
73C
102
{ACAD_REACTORS
330
723
102
}
330
723
100
AcDbScale
 70
     0
300
1/4" = 1'-0"
140
0.25
141
12.0
290
     0
  0
SCALE
  5
73D
102
{ACAD_REACTORS
330
723
102
}
330
723
100
AcDbScale
 70
     0
300
3/8" = 1'-0"
140
0.375
141
12.0
290
     0
  0
SCALE
  5
73E
102
{ACAD_REACTORS
330
723
102
}
330
723
100
AcDbScale
 70
     0
300
1/2" = 1'-0"
140
0.5
141
12.0
290
     0
  0
SCALE
  5
73F
102
{ACAD_REACTORS
330
723
102
}
330
723
100
AcDbScale
 70
     0
300
3/4" = 1'-0"
140
0.75
141
12.0
290
     0
  0
SCALE
  5
740
102
{ACAD_REACTORS
330
723
102
}
330
723
100
AcDbScale
 70
     0
300
1" = 1'-0"
140
1.0
141
12.0
290
     0
  0
SCALE
  5
741
102
{ACAD_REACTORS
330
723
102
}
330
723
100
AcDbScale
 70
     0
300
1-1/2" = 1'-0"
140
1.5
141
12.0
290
     0
  0
SCALE
  5
742
102
{ACAD_REACTORS
330
723
102
}
330
723
100
AcDbScale
 70
     0
300
3" = 1'-0"
140
3.0
141
12.0
290
     0
  0
SCALE
  5
743
102
{ACAD_REACTORS
330
723
102
}
330
723
100
AcDbScale
 70
     0
300
6" = 1'-0"
140
6.0
141
12.0
290
     0
  0
SCALE
  5
744
102
{ACAD_REACTORS
330
723
102
}
330
723
100
AcDbScale
 70
     0
300
1'-0" = 1'-0"
140
12.0
141
12.0
290
     0
  0
DICTIONARYVAR
  5
1305
102
{ACAD_REACTORS
330
1302
102
}
330
1302
100
DictionaryVariables
280
     0
  1
1:1
  0
ENDSEC
  0
SECTION
  2
THUMBNAILIMAGE
 90
    16364
310
28000000B40000005500000001000800000000000000000000000000000000000000000000000000FFFFFF000000FF0000FFFF0000FF0000FFFF0000FF000000FF00FF000000000080808000C0C0C0000000FF007F7FFF000000A5005252A50000007F003F3F7F0000004C0026264C000000260013132600003FFF007F9FFF
310
000029A5005267A500001F7F003F4F7F0000134C00262F4C000009260013172600007FFF007FBFFF000052A500527CA500003F7F003F5F7F0000264C0026394C0000132600131C260000BFFF007FDFFF00007CA5005291A500005F7F003F6F7F0000394C0026424C00001C26001321260000FFFF007FFFFF0000A5A50052A5
310
A500007F7F003F7F7F00004C4C00264C4C00002626001326260000FFBF007FFFDF0000A57C0052A59100007F5F003F7F6F00004C3900264C420000261C001326210000FF7F007FFFBF0000A5520052A57C00007F3F003F7F5F00004C2600264C39000026130013261C0000FF3F007FFF9F0000A5290052A56700007F1F003F
310
7F4F00004C1300264C2F00002609001326170000FF00007FFF7F0000A5000052A55200007F00003F7F3F00004C0000264C260000260000132613003FFF00009FFF7F0029A5000067A552001F7F00004F7F3F00134C00002F4C260009260000172613007FFF0000BFFF7F0052A500007CA552003F7F00005F7F3F00264C0000
310
394C2600132600001C261300BFFF0000DFFF7F007CA5000091A552005F7F00006F7F3F00394C0000424C26001C26000021261300FFFF0000FFFF7F00A5A50000A5A552007F7F00007F7F3F004C4C00004C4C26002626000026261300FFBF0000FFDF7F00A57C0000A59152007F5F00007F6F3F004C3900004C422600261C00
310
0026211300FF7F0000FFBF7F00A5520000A57C52007F3F00007F5F3F004C2600004C39260026130000261C1300FF3F0000FF9F7F00A5290000A56752007F1F00007F4F3F004C1300004C2F26002609000026171300FF000000FF7F7F00A5000000A55252007F0000007F3F3F004C0000004C2626002600000026131300FF00
310
3F00FF7F9F00A5002900A55267007F001F007F3F4F004C0013004C262F002600090026131700FF007F00FF7FBF00A5005200A5527C007F003F007F3F5F004C0026004C2639002600130026131C00FF00BF00FF7FDF00A5007C00A55291007F005F007F3F6F004C0039004C26420026001C0026132100FF00FF00FF7FFF00A5
310
00A500A552A5007F007F007F3F7F004C004C004C264C002600260026132600BF00FF00DF7FFF007C00A5009152A5005F007F006F3F7F0039004C0042264C001C002600211326007F00FF00BF7FFF005200A5007C52A5003F007F005F3F7F0026004C0039264C00130026001C1326003F00FF009F7FFF002900A5006752A500
310
1F007F004F3F7F0013004C002F264C000900260017132600000000002D2D2D005B5B5B0089898900B7B7B700B3B3B30000000000000000000000000000000000000000000000000000000000000000000000000000000000000000000000000000000000000000000000000000000000000000000000000000000000000000
310
00000000000000000000000000000000000000000000000000000000000000000000000000000000000000000000000000000000000000000000000000000000000000000000000000000000000000000000000000000000000000000000000000000000000000000000000000000000000000000000000000000000000000
310
00000000000000000000000000000000000000000000000000000000000000000000000000000000000000000000000000000000000000000000000000000000000000000000000000000000000000000000000000000000000000000000000000000000000000000000000000000000000000000000000000000000000000
310
00000000000000000000000000000000000000000000000000000000000000000000000000000000000000000000000000000000000000000000000000000000000000000000000000000000000000000000000000000000000000000000000000000000000000000000000000000000000000000000000000000000000000
310
00000000000000000000000000000000000000000000000000000000000000000000000000000000000000000000000000000000000000000000000000000000000000000000000000000000000000000000000000000000000000000000000000000000000000000000000000000000000000000000000000000000000000
310
00000000000000000000000000000000000000000000000000000000000000000000000000000000000000000000000000000000000000000000000000000000000000000000000000000000000000000000000000000000000000000000000000000000000000000000000000000000000000000000000000000000000000
310
00000000000000000000000007070707070707070707070707070707070707070707070707070707070707070707070707070707070707070707070707070707070707070707070707070707070707070707070707070707070707070707070707070707070707070707070707070707070707070707070707070707070707
310
07070707070707070707070707070707070707070707070707070707070707070707070707070707070707070707070707070700000000000000000000000000000700000000000000000000000000000000000000000000000000000000000000000000000000000000000000000000000000000000000000000000000000
310
00000000000000000000000000000000000000000000000000000000000000000000000000000000000000000000000000000000000000000000000000000000000000000000000000000000000000000000000000000000000000000000000000000000000000070000000000000000000000000000070000000000000000
310
00000000000000000000000000000000000000000000000000000000000000000000000000000000000000000000000000000000000000000000000000000000000000000000000000000000000000000000000000000000000000000000000000000000000000000000000000000000000000000000000000000000000000
310
00000000000000000000000000000000000000000000000000000000000700000000000000000000000000000700000000000000000000000000000000000000000000000000000000000000000000000000000000000000000000000000000000000000000000000000000000000000000000000000000000000000000000
310
00000000000000000000000000000000000000000000000000000000000000000000000000000000000000000000000000000000000000000000000000000000000000000000000000000000000000000000070000000000000000000000000000070000000000000000000000000000000000000000000000000000000000
310
00000000000000000000000000000000000000000000000000000000000000000000000000000000000000000000000000000000000000000000000000000000000000000000000000000000000000000000000000000000000000000000000000000000000000000000000000000000000000000000000000000000000000
310
00000000000000000700000000000000000000000000000700000000000000000000000000000000000000000000000000000000000000000000000000000000000000000000000000000000000000000000000000000000000000000000000000000000000000000000000000000000000000000000000000000000000000
310
00000000000000000000000000000000000000000000000000000000000000000000000000000000000000000000000000000000000000000000000000070000000000000000000000000707070707070707070707070707070707070707070707070707070707070707070707070707070707070707070707070707070707
310
07070707070707070707070700070707070707070707070707070707070707070707070707070707070707070707070707070707070707070707070707070707070707070707070707070707070707070707070707070707070707070707070707070707070707070707070707070707070707000000000000000000000007
310
00000000000000000000000000000000000000000000000000000000000007000000000000000000000000000000000000000000000000000700000000000000000000000000000000000007000000000000000000000000000000000000000000000000070000000000000000000000000000000000000000000000000000
310
00000000070700000000000000000000000000000700000000000000000000000000070000000000000000000000000000000007070707070707070707070707070707070707070707000000000000000000000700000000000000000000000000000000000000000000000000070000000000000000000000000000000000
310
00070000000000000000000000000000000000000000000000000700000000000000000000000707070707070707070707070707070707070707070700000000000000000000000000000700000000000000000000000700000000000000000000000000000000000707000000000000000000000000000000000000000700
310
00000000000000000007000000000000000000000000000000000000000000000000000700000000000000000000000000000000000007000000000000000000000000000000000000000000000000070000000000000000000007000000000000000000000000000000000000000700070000000000000000000000000000
310
07000000000000000000000007000000000000000000000000000000000007070000000000000000000000000000000000000007000000000000000000000700000000000000000000000000000000000000000000000000070000000000000000000000000000000000000700000000000000000000000000000000000000
310
00000000000700000000000000000000070000000000000000000000000000000000000007000700000000000000000000000000000700000000000000000000000700000000000000000000000000000000000707000000000000000000000000000000000000000700000000000000000000070000000000000000000000
310
00000000000000000000000000000700000000000000000000000000000000000007000000000000000000000000000000000000000000000000070000000000000000000007000000000000000000000000000000000000000700070000000000000000000000000000070000000000000000000000070000000000000000
310
00000000000000000007070000000000000000000000000000000000000007000000000000000000000700000000000000000000000000000000000000000000000000070000000000000000000000000000000000000700000000000000000000000000000000000000000000000007000000000000000000000700000000
310
00000000000000000000000000000007000700000000000000000000000000000700000000000000000000000700000000000000000000000000000000000707000000000000000000000000000000000000000700000000000000000000070000000000000000000000000000000000000000000000000007000000000000
310
00000000000000000000000007000000000000000000000000000000000000000000000000070000000000000000000007000000000000000000000000000000000000000700070000000000000000000000000000070000000000000000000000070000000000000000000000000000000000070700000000000000000000
310
00000000000000000007000000000000000000000700000000000000000000000000000000000000000000000000070000000000000000000000000000000000000700000000000000000000000000000000000000000000000007000000000000000000000700000000000000000000000000000000000000070007000000
310
00000000000000000000000700000000000000000000000700000000000000000000000000000000000707000000000000000000000000000000000000000700000000000000000000070000000000000000000000000000000000000000000000000007000000000000000000000000000000000000070000000000000000
310
00000000000000000000000000000000070000000000000000000007000000000000000000000000000000000000000700070000000000000000000000000000070000000000000000000000070000000000000000000000000000000000070700000000000000000000000000000000000000070000000000000000000007
310
00000000000000000000000000000000000000000000000000070000000000000000000000000000000000000700000000000000000000000000000000000000000000000007000000000000000000000700000000000000000000000000000000000000070007000000000000000000000000000007000007070707070707
310
00000700000000000000000000000000000000000707000000000000000000000000000000000000000700000000000000000000070000000000000000000000000000000000000000000000000007000000000000000000000000000000000000070000000000000000000000000000000000000000000000000700000000
310
00000000000007000000000000000000000000000000000000000700070000000000000000000000000000070707000000000000000707070000000000000000000000000000000000070700000000000000000000000000000000000000070000000000000000000007000000000000000000000000000000000000000000
310
00000000070000000000000000000000000000000000000700000000000000000000000000000000000000000000000007000000000000000000000700000000000000000000000000000000000000070007000000000000000000000000000007070000000000000000000707000000000000000000000000000000000007
310
07000000000000000000000000000000000000000700000000000000000000070000000000000000000000000000000000000000000000000007000000000000000000000000000000000000070000000000000000000000000000000000000000000000000700000000000000000000070000000000000000000000000000
310
00000000000700070000000000000000000000000000070000000000000000000000070000000000000000000000000000000000070700000000000000000000000000000000000000070000000000000000000007000000000000000000000000000000000000000000000000000700000000000000000000000000000000
310
00000700000000000000000000000000000000000000000000000007000000000000000000000700000000000000000000000000000000000000070007000000000000000000000000000007000000000000000000000007000000000000000000000000000000000007070000000000000000000000000000000000000007
310
00000000000000000000070000000000000000000000000000000000000000000000000007000000000007070700070707000000000000070000000000000000000000000000000000000000000000000700000000000000000000070000000000000000000000000000000000000007000700000000000000000000000000
310
00070000000707070707000000070000000000000000000000000000000000070700000000000000000000000000000000000000070000000000000000000007000000000000000000000000000000000000000000000000000700000000070000000000000007070000000007000000000000000000000000000000000000
310
00000000000007000000000000000000000700000000000000000000000000000000000000070007000000000000000000000000000007000707000707070007070007000000000000000000000000000000000007070700000000000000000000000000000000000707000000000000000000000700000000000000000000
310
00000000000000000000000000000007000000000707000000000007070700000000070000000000000000000000000000000000000000000000000700000000000000000000070700000000000000000000000000000000000707000700000000000000000000000000000707000707000000070700070700000000000000
310
00000000000000000000070707070707070707070707070707070707070707000000000000000000000007000000000000000000000000000000000000000000000000000700000707070707070007070707070700000007000000000000000000000000000000000000000000000000070000000000000000000000070707
310
07070707070707070707070707070707000700000000000000000000000000000007000700000000000000070007000000000000000000000000000000000000070707070707070707070707070707070707070707070707070707070707070700000000000000000000000000000000000000000000000000070707070000
310
00000000000000000000070700070000000000000000000000000000000000000000000000000707070707070707070707070707070707070707070707070707070707070707000000000000000000000000000000000707000000000000000000070700000000000000000000000000000000000000000000000000000000
310
00000000000000000000000000000000000000000000000000000000000000000000000000000000000000000000000707000000000000000000000000000000000707000000000000000000000000000000000000000000000000000000000000000000000000000000000000000000000000000000000000000000000000
310
00000000000000000000000007070000000000000000000007000000000000000000000000000000000000000000000000000000000000000000000000000000000000000000000000000000000000000000000000000000000000000000000000000000070700000000000000000000000000000000070700000000000000
310
00000000000000000000000000000000000000000000000000000000000000000000000000000000000000000000000000000000000000000000000000000000000707000000000000000000070700000000000000000000000000000000000000000000000000000000000000000000000000000000000000000000000000
310
00000000000000000000000000000000000000000000000000000700000000000000000000000000000000000707000000000000000000000000000000000000000000000000000000000000000000000000000000000000000000000000000000000000000000000000000000000000000000000000000700000000000000
310
00000700000000000000000000000000000000000000000000000000000000000000000000000000000000000000000000000000000000000000000000000000000000000000000000000000000000070000000000000000000000000000000000000700000000000000000000000000000000000000000000000000000000
310
00000000000000000000000000000000000000000000000000000000000000000000000000000000000000000007000000000000000000070000000000000000000000000000000000000000000000000000000000000000000000000000000000000000000000000000000000000000000000000000000000000000000000
310
00000000000700000000000000000000000000000000000707000000000000000000000000000000000000000000000000000000000000000000000000000000000000000000000000000000000000000000000000000000000000000000000000000700000000000000000007000000000000000000000000000000000000
310
00000000000000000000000000000000000000000000000000000000000000000000000000000000000000000000000000000000000000000000070707070707070707000707070707070707070000000000000000000000000000000000000000000000000000000000000000000000000000000000000000000000000000
310
00000000000000000000000000000000000000000000000007000000000000000000070000000000000000000000000000000000000000000000000000000000000000000000000000000000000000000000000000000000000000000000000000000000000000000000000000000000000000000000000000000000000000
310
00000000000000000000000000000000000000000000000000000000000000000000000000000000000000000000000000000000000000000000000000000000000000000000000000000000000700000000000000000007000000000000000000000000000000000000000000000000000000000000000000000000000000
310
00000000000000000000000000000000000000000000000000000000000000000000000000000000000000000000000000000000000000000000000000000000000000000000000000000000000000000000000000000000000000000000000000000000000000000000000000000000000000000000000000000000000000
310
00000007000000000000000000070000000000000000000000000000000000000000000000000000000000000000000000000000000000000000000000000000000000000000000000000000000000000000000000000000000000000000000000000000000000000000000000000000000000000000000000000000000000
310
00000000000000000000000000000000000000000000000000000000000000000000000000000000000000000000000000000000000000000700000000000000000007000000000000000000000000000000000000000000000000000000000000000000000000000000000000000000000000000000000000000000000000
310
00000000000000000000000000000000000000000000000000000000000000000000000000000000000000000000000000000000000000000000000000000000000000000000000000000000000000000000000000000000000000000000000000000000000000000000000000070000000000000000000700000000000000
310
00000000000000000000000000000000000000000000000000000000000000000000000000000000000000000000000000000000000000000000000000000000000000000000000000000000000000000000000000000000000000000000000000000000000000000000000000000000000000000000000000000000000000
310
00000000000000000000000000000000000000000000000000000000000000000000000700000000000000000007000000000000000000000000000000000000000000000000000000000000000000000000000000000000000000000000000000000000000000000000000000000000000000000000000000000000000000
310
00000000000000000000000000000000000000000000000000000000000000000000000000000000000000000000000000000000000000000000000000000000000000000000000000000000000000000000000000000000070000000000000000000700000000000000000000000000000000000000000000000000000000
310
00000000000000000000000000000000000000000000000000000000000000000000000000000000000000000000000000000000000000000000000000000000000000000000000000000000000000000000000000000000000000000000000000000000000000000000000000000000000000000000000000000000000000
310
00000000000000000000000000000700000000000000000007000000000000000000000000000000000000000000000000000000000000000000000000000000000000000000000000000000000000000000000000000000000000000000000000000000000000000000000000000000000000000000000000000000000000
310
00000000000000000000000000000000000000000000000000000000000000000000000000000000000000000000000000000000000000000000000000000000000000070000000000000000000700000000000000000000000000000000000000000000000000000000000000000000000000000000000000000000000000
310
00000000000000000000000000000000000000000000000000000000000000000000000000000000000000000000000000000000000000000000000000000000000000000000000000000000000000000000000000000000000000000000000000000000000000000000000000000000000000000000000007000000000000
310
00000007000000000000000000000000000000000000000000000000000000000000000000000000000000000000000000000000000000000000000000000000000000000000000000000000000000000000000000000000000000000000000000000000000000000000000000000000000000000000000000000000000000
310
00000000000000000000000000000000000000000000000000000000000000000000000000000000000000000000070000000000000000000700000000000000000000000000000000000000000000000000000000000000000000000000000000000000000000000000000000000000000000000000000000000000000000
310
00000000000000000000000000000000000000000000000000000000000000000000000000000000000000000000000000000000000000000000000000000000000000000000000000000000000000000000000000000000000000000000000000000007000000070707000000070000000000000000000000000000000000
310
00000000000000000000000000000000000000000000000000000000000000000000000000000000000000000000000000000000000000000000000000000000000000000000000000000000000000000000000000000000000000000000000000000000000000000000000000000000000000000000000000000000000000
310
00000000000000000000000000000000000000000000000000070007070007000707000700000000000000000000000000000000000000000000000000000000000000000000000000000000000000000000000000000000000000000000000000000000000000000000000000000000000000000000000000000000000000
310
00000000000000000000000000000000000000000000000000000000000000000000000000000000000000000000000000000000000000000000000000000000000000000000000000000000000007070007070007070707070000000000000000000000000000000000000000000000000000000000000000000000000000
310
00000000000000000000000000000000000000000000000000000000000000000000000000000000000000000000000000000000000000000000000000000000000000000000000000000000000000000000000000000000000000000000000000000000000000000000000000000000000000000000000000000000000000
310
00000000070007000000000007070700000000000000000000000000000000000000000000000000000000000000000000000000000000000000000000000000000000000000000000000000000000000000000000000000000000000000000000000000000000000000000000000000000000000000000000000000000000
310
00000000000000000000000000000000000000000000000000000000000000000000000000000000000000000000000000000000000000000007000700000000000700070000000000000000000000000000000000000000000000000000000000000000000000000000000000000000000000000000000000000000000000
310
00000000000000000000000000000000000000000000000000000000000000000000000000000000000000000000000000000000000000000000000000000000000000000000000000000000000000000000000000000000000000000000000000000000000000000000000000000700070000000000000707000000000000
310
00000000000000000000000000000000000000000000000000000000000000000000000000000000000000000000000000000000000000000000000000000000000000000000000000000000000000000000000000000000000000000000000000000000000000000000000000000000000000000000000000000000000000
310
00000000000000000000000000000000000000000000000000000000000000000000000007000700000000000007070000000000000000000000000000000000000000000000000000000000000000000000000000000000000000000000000000000000000000000000000000000000000000000000000000000000000000
310
00000000000000000000000000000000000000000000000000000000000000000000000000000000000000000000000000000000000000000000000000000000000000000000000000000000000000000000000000000000000007070007070700000700000000000000000000000000000000000000000000000000000000
310
00000000000000000000000000000000000000000000000000000000000000000000000000000000000000000000000000000000000000000000000000000000000000000000000000000000000000000000000000000000000000000000000000000000000000000000000000000000000000000000000000000000000000
310
00000000000000000000000007070707070707070707070707070707070000000000000000000000000000000000000000000000000000000000000000000000000000000000000000000000000000000000000000000000000000000000000000000000000000000000000000000000000000000000000000000000000000
310
00000000000000000000000000000000000000000000000000000000000000000000000000000000000000000000000000000000000000000000000000070707070707070007000007070000070700000007070707070000000000000000000000000000000000000000000000000000000000000000000000000000000000
310
00000000000000000000000000000000000000000000000000000000000000000000000000000000000000000000000000000000000000000000000000000000000000000000000000000000000000000000000000000000000000000000000000000000000000000000000000000000070707070000070700000700000007
310
00000007000007070000070707070000000000000000000000000000000000000000000000000000000000000000000000000000000000000000000000000000000000000000000000000000000000000000000000000000000000000000000000000000000000000000000000000000000000000000000000000000000000
310
00000000000000000000000000000000000000000000000000000000000000000000000007070700000007000000070700070700000007000007070000000700000007070700000000000000000000000000000000000000000000000000000000000000000000000000000000000000000000000000000000000000000000
310
00000000000000000000000000000000000000000000000000000000000000000000000000000000000000000000000000000000000000000000000000000000000000000000000000000000000000000000000000000000070700000007000000070000000707000707000007070000000700000007070000070700000000
310
00000000000000000000000000000000000000000000000000000000000000000000000000000000000000000000000000000000000000000000000000000000000000000000000000000000000000000000000000000000000000000000000000000000000000000000000000000000000000000000000000000000000000
310
00000000000000000000000007070707000000070000000700070007000700000007000700070707000000000700000707070700000000000000000000000000000000000000000000000000000000000000000000000000000000000000000000000000000000000000000000000000000000000000000000000000000000
310
00000000000000000000000000000000000000000000000000000000000000000000000000000000000000000000000000000000000000000000000000000000000707070000070000000700000007000000070707070700000007070000070700000700000707070000000000000000000000000000000000000000000000
310
00000000000000000000000000000000000000000000000000000000000000000000000000000000000000000000000000000000000000000000000000000000000000000000000000000000000000000000000000000000000000000000000000000000000000000000000000000000000000000007070700000707000007
310
00000707000007000007070707000700000707000007000007070000070707000000000000000000000000000000000000000000000000000000000000000000000000000000000000000000000000000000000000000000000000000000000000000000000000000000000000000000000000000000000000000000000000
310
00000000000000000000000000000000000000000000000000000000000000000000000000000000000000070707000007070000070000000007000000070707070700000007070000000700000707000007000700000000000000000000000000000000000000000000000000000000000000000000000000000000000000
310
00000000000000000000000000000000000000000000000000000000000000000000000000000000000000000000000000000000000000000000000000000000000000000000000000000000000000000000000000000000000000000000000007070707000007000000070000000700000007000000070000000707000007
310
07000007000007070707000000000000000000000000000000000000000000000000000000000000000000000000000000000000000000000000000000000000000000000000000000000000000000000000000000000000000000000000000000000000000000000000000000000000000000000000000000000000000000
310
00000000000000000000000000000000000000000000070707070000000000000000070000000707000707000007070000000700000000000000000707070700000000000000000000000000000000000000000000000000000000000000000000000000000000000000000000000000000000000000000000000000000000
310
00000000000000000000000000000000000000000000000000000000000000000000000000000000000000000000000000000000000000000000000000000000000000000000000000000007070707070000000700000007000707000007000000070000070700070000000707000007070707070000000000000000000000
310
00000000000000000000000000000000000000000000000000000000000000000000000000000000000000000000000000000000000000000000000000000000000000000000000000000000000000000000000000000000000000000000000000000000000000000000000000000000000000000000000000000000000000
310
00070700070707070000000700000007070007070000000700000707000000070000000707000700070700000000000000000000000000000000000000000000000000000000000000000000000000000000000000000000000000000000000000000000000000000000000000000000000000000000000000000000000000
310
00000000000000000000000000000000000000000000000000000000000000000000000000000000000000000000000000000000000007000707070707000707000007070000070000070000000707000007070000070700070707070700070000000000000000000000000000000000000000000000000000000000000000
310
00000000000000000000000000000000000000000000000000000000000000000000000000000000000000000000000000000000000000000000000000000000000000000000000000000000000000000000000000000000000000000000000000000000000000000000000700000000070707070700070000000007000007
310
00000000000000000007070707070707000000000700000000000000000000000000000000000000000000000000000000000000000000000000000000000000000000000000000000000000000000000000000000000000000000000000000000000000000000000000000000000000000000000000000000000000000000
310
00000000000000000000000000000000000000000000000000000000000000000007000000000000070707070707070700000707000007000000070707070707070707000000000000070000000000000000000000000000000000000000000000000000000000000000000000000000000000000000000000000000000000
310
00000000000000000000000000000000000000000000000000000000000000000000000000000000000000000000000000000000000000000000000000000000000000000000000000000000000000000000000000000700000000000000000707070707070707070707070707070707070707070707000000000000000007
310
00000000000000000000000000000000000000000000000000000000000000000000000000000000000000000000000000000000000000000000000000000000000000000000000000000000000000000000000000000000000000000000000000000000000000000000000000000000000000000000000000000000000000
310
00000000000000000000000007000000000000000000000000000000070707070707070707000000000000000000000000000000070000000000000000000000000000000000000000000000000000000000000000000000000000000000000000000000000000000000000000000000000000000000000000000000000000
310
00000000000000000000000000000000000000000000000000000000000000000000000000000000000000000000000000000000000000000000000000000000000007000000000000000000000000000000000000000000000000000000000000000000000000000700000000000000000000000000000000000000000000
310
00000000000000000000000000000000000000000000000000000000000000000000000000000000000000000000000000000000000000000000000000000000000000000000000000000000000000000000000000000000000000000000000000000000000000000000000000000000000000000000000700000000000000
310
00000000000000000000000000000000000000000000000000000000000007000000000000000000000000000000000000000000000000000000000000000000000000000000000000000000000000000000000000000000000000000000000000000000000000000000000000000000000000000000000000000000000000
310
00000000000000000000000000000000000000000000000000000000000000000000000000000000000000000000070700000000000000000000000000000000000000000000000000000000000000000007070000000000000000000000000000000000000000000000000000000000000000000000000000000000000000
310
00000000000000000000000000000000000000000000000000000000000000000000000000000000000000000000000000000000000000000000000000000000000000000000000000000000000000000000000000000000000000000000000000000000000700000000000000000000000000000000000000000000000000
310
00000000000007070000000000000000000000000000000000000000000000000000000000000000000000000000000000000000000000000000000000000000000000000000000000000000000000000000000000000000000000000000000000000000000000000000000000000000000000000000000000000000000000
310
00000000000000000000000000000000000000000000000000000000070700000000000000000000000000000000000000000000000000000007070000000000000000000000000000000000000000000000000000000000000000000000000000000000000000000000000000000000000000000000000000000000000000
310
00000000000000000000000000000000000000000000000000000000000000000000000000000000000000000000000000000000000000000000000000000000000000000000000000000000000000000000000707070700000000000000000000000000000000000000070707070000000000000000000000000000000000
310
00000000000000000000000000000000000000000000000000000000000000000000000000000000000000000000000000000000000000000000000000000000000000000000000000000000000000000000000000000000000000000000000000000000000000000000000000000000000000000000000000000000000000
310
00000000000000000000000707070707070707070707070707070707070707070707000000000000000000000000000000000000000000000000000000000000000000000000000000000000000000000000000000000000000000000000000000000000000000000000000000000000000000000000000000000000000000
310
00000000000000000000000000000000000000000000000000000000000000000000000000000000000000000000000000000000000000000000000000000000000000000000000707070707070707070000000000000000000000000000000000000000000000000000000000000000000000000000000000000000000000
310
00000000000000000000000000000000000000000000000000000000000000000000000000000000000000000000000000000000000000000000000000000000000000000000000000000000000000000000000000000000000000000000000000000000000000000000000000000000000000000000000000000000000000
310
00000000000000000000000000000000000000000000000000000000000000000000000000000000000000000000000000000000000000000000000000000000000000000000000000000000000000000000000000000000000000000000000000000000000000000000000000000000000000000000000000000000000000
310
00000000000000000000000000000000000000000000000000000000000000000000000000000000000000000000000000000000000000000000000000000000000000000000000000000000000000000000000000000000000000000000000000000000000000000000000000000000000000000000000000000000000000
310
00000000000000000000000000000000000000000000000000000000000000000000000000000000000000000000000000000000000000000000000000000000000000000000000000000000000000000000000000000000000000000000000000000000000000000000000000000000000000000000000000000000000000
310
00000000000000000000000000000000000000000000000000000000000000000000000000000000000000000000000000000000000000000000000000000000000000000000000000000000000000000000000000000000000000000000000000000000000000000000000000000000000000000000000000000000000000
310
00000000000000000000000000000000000000000000000000000000000000000000000000000000000000000000000000000000000000000000000000000000000000000000000000000000000000000000000000000000000000000000000000000000000000000000000000000000000000000000000000000000000000
310
000000000000000000000000000000000000000000000000000000000000000000000000000000000000000000000000000000000000000000000000000000000000000000000000000000000000000000000000000000000000000000000000000000000000000000000000
  0
ENDSEC
  0
EOF
