  0
SECTION
  2
HEADER
  9
$ACADVER
  1
AC1015
  9
$ACADMAINTVER
 70
     6
  9
$DWGCODEPAGE
  3
ANSI_1252
  9
$INSBASE
 10
0.0
 20
0.0
 30
0.0
  9
$EXTMIN
 10
0.0
 20
0.1305
 30
0.0
  9
$EXTMAX
 10
108.0
 20
941.8695
 30
0.0
  9
$LIMMIN
 10
0.0
 20
0.0
  9
$LIMMAX
 10
12.0
 20
9.0
  9
$ORTHOMODE
 70
     0
  9
$REGENMODE
 70
     1
  9
$FILLMODE
 70
     1
  9
$QTEXTMODE
 70
     0
  9
$MIRRTEXT
 70
     1
  9
$LTSCALE
 40
1.0
  9
$ATTMODE
 70
     1
  9
$TEXTSIZE
 40
0.2
  9
$TRACEWID
 40
0.05
  9
$TEXTSTYLE
  7
Standard
  9
$CLAYER
  8
0
  9
$CELTYPE
  6
ByBlock
  9
$CECOLOR
 62
   256
  9
$CELTSCALE
 40
1.0
  9
$DISPSILH
 70
     0
  9
$DIMSCALE
 40
1.0
  9
$DIMASZ
 40
0.18
  9
$DIMEXO
 40
0.0625
  9
$DIMDLI
 40
0.38
  9
$DIMRND
 40
0.0
  9
$DIMDLE
 40
0.0
  9
$DIMEXE
 40
0.18
  9
$DIMTP
 40
0.0
  9
$DIMTM
 40
0.0
  9
$DIMTXT
 40
0.18
  9
$DIMCEN
 40
0.09
  9
$DIMTSZ
 40
0.0
  9
$DIMTOL
 70
     0
  9
$DIMLIM
 70
     0
  9
$DIMTIH
 70
     1
  9
$DIMTOH
 70
     1
  9
$DIMSE1
 70
     0
  9
$DIMSE2
 70
     0
  9
$DIMTAD
 70
     0
  9
$DIMZIN
 70
     0
  9
$DIMBLK
  1

  9
$DIMASO
 70
     1
  9
$DIMSHO
 70
     1
  9
$DIMPOST
  1

  9
$DIMAPOST
  1

  9
$DIMALT
 70
     0
  9
$DIMALTD
 70
     2
  9
$DIMALTF
 40
25.4
  9
$DIMLFAC
 40
1.0
  9
$DIMTOFL
 70
     0
  9
$DIMTVP
 40
0.0
  9
$DIMTIX
 70
     0
  9
$DIMSOXD
 70
     0
  9
$DIMSAH
 70
     0
  9
$DIMBLK1
  1

  9
$DIMBLK2
  1

  9
$DIMSTYLE
  2
Standard
  9
$DIMCLRD
 70
     0
  9
$DIMCLRE
 70
     0
  9
$DIMCLRT
 70
     0
  9
$DIMTFAC
 40
1.0
  9
$DIMGAP
 40
0.09
  9
$DIMJUST
 70
     0
  9
$DIMSD1
 70
     0
  9
$DIMSD2
 70
     0
  9
$DIMTOLJ
 70
     1
  9
$DIMTZIN
 70
     0
  9
$DIMALTZ
 70
     0
  9
$DIMALTTZ
 70
     0
  9
$DIMUPT
 70
     0
  9
$DIMDEC
 70
     4
  9
$DIMTDEC
 70
     4
  9
$DIMALTU
 70
     2
  9
$DIMALTTD
 70
     2
  9
$DIMTXSTY
  7
Standard
  9
$DIMAUNIT
 70
     0
  9
$DIMADEC
 70
     0
  9
$DIMALTRND
 40
0.0
  9
$DIMAZIN
 70
     0
  9
$DIMDSEP
 70
    46
  9
$DIMATFIT
 70
     3
  9
$DIMFRAC
 70
     0
  9
$DIMLDRBLK
  1

  9
$DIMLUNIT
 70
     2
  9
$DIMLWD
 70
    -2
  9
$DIMLWE
 70
    -2
  9
$DIMTMOVE
 70
     2
  9
$LUNITS
 70
     2
  9
$LUPREC
 70
     4
  9
$SKETCHINC
 40
0.1
  9
$FILLETRAD
 40
0.5
  9
$AUNITS
 70
     0
  9
$AUPREC
 70
     0
  9
$MENU
  1
.
  9
$ELEVATION
 40
0.0
  9
$PELEVATION
 40
0.0
  9
$THICKNESS
 40
0.0
  9
$LIMCHECK
 70
     0
  9
$CHAMFERA
 40
0.5
  9
$CHAMFERB
 40
0.5
  9
$CHAMFERC
 40
1.0
  9
$CHAMFERD
 40
0.0
  9
$SKPOLY
 70
     0
  9
$TDCREATE
 40
2455820.852044445
  9
$TDUCREATE
 40
2455820.768711111
  9
$TDUPDATE
 40
2455820.854278241
  9
$TDUUPDATE
 40
2455820.770944907
  9
$TDINDWG
 40
0.0022334491
  9
$TDUSRTIMER
 40
0.0022334491
  9
$USRTIMER
 70
     1
  9
$ANGBASE
 50
0.0
  9
$ANGDIR
 70
     0
  9
$PDMODE
 70
     0
  9
$PDSIZE
 40
0.0
  9
$PLINEWID
 40
0.0
  9
$SPLFRAME
 70
     0
  9
$SPLINETYPE
 70
     6
  9
$SPLINESEGS
 70
     8
  9
$HANDSEED
  5
561
  9
$SURFTAB1
 70
     6
  9
$SURFTAB2
 70
     6
  9
$SURFTYPE
 70
     6
  9
$SURFU
 70
     6
  9
$SURFV
 70
     6
  9
$UCSBASE
  2

  9
$UCSNAME
  2

  9
$UCSORG
 10
0.0
 20
0.0
 30
0.0
  9
$UCSXDIR
 10
1.0
 20
0.0
 30
0.0
  9
$UCSYDIR
 10
0.0
 20
1.0
 30
0.0
  9
$UCSORTHOREF
  2

  9
$UCSORTHOVIEW
 70
     0
  9
$UCSORGTOP
 10
0.0
 20
0.0
 30
0.0
  9
$UCSORGBOTTOM
 10
0.0
 20
0.0
 30
0.0
  9
$UCSORGLEFT
 10
0.0
 20
0.0
 30
0.0
  9
$UCSORGRIGHT
 10
0.0
 20
0.0
 30
0.0
  9
$UCSORGFRONT
 10
0.0
 20
0.0
 30
0.0
  9
$UCSORGBACK
 10
0.0
 20
0.0
 30
0.0
  9
$PUCSBASE
  2

  9
$PUCSNAME
  2

  9
$PUCSORG
 10
0.0
 20
0.0
 30
0.0
  9
$PUCSXDIR
 10
1.0
 20
0.0
 30
0.0
  9
$PUCSYDIR
 10
0.0
 20
1.0
 30
0.0
  9
$PUCSORTHOREF
  2

  9
$PUCSORTHOVIEW
 70
     0
  9
$PUCSORGTOP
 10
0.0
 20
0.0
 30
0.0
  9
$PUCSORGBOTTOM
 10
0.0
 20
0.0
 30
0.0
  9
$PUCSORGLEFT
 10
0.0
 20
0.0
 30
0.0
  9
$PUCSORGRIGHT
 10
0.0
 20
0.0
 30
0.0
  9
$PUCSORGFRONT
 10
0.0
 20
0.0
 30
0.0
  9
$PUCSORGBACK
 10
0.0
 20
0.0
 30
0.0
  9
$USERI1
 70
     0
  9
$USERI2
 70
     0
  9
$USERI3
 70
     0
  9
$USERI4
 70
     0
  9
$USERI5
 70
     0
  9
$USERR1
 40
0.0
  9
$USERR2
 40
0.0
  9
$USERR3
 40
0.0
  9
$USERR4
 40
0.0
  9
$USERR5
 40
0.0
  9
$WORLDVIEW
 70
     1
  9
$SHADEDGE
 70
     3
  9
$SHADEDIF
 70
    70
  9
$TILEMODE
 70
     1
  9
$MAXACTVP
 70
    64
  9
$PINSBASE
 10
0.0
 20
0.0
 30
0.0
  9
$PLIMCHECK
 70
     0
  9
$PEXTMIN
 10
1.000000000000E+20
 20
1.000000000000E+20
 30
1.000000000000E+20
  9
$PEXTMAX
 10
-1.000000000000E+20
 20
-1.000000000000E+20
 30
-1.000000000000E+20
  9
$PLIMMIN
 10
0.0
 20
0.0
  9
$PLIMMAX
 10
12.0
 20
9.0
  9
$UNITMODE
 70
     0
  9
$VISRETAIN
 70
     1
  9
$PLINEGEN
 70
     0
  9
$PSLTSCALE
 70
     1
  9
$TREEDEPTH
 70
  3020
  9
$CMLSTYLE
  2
Standard
  9
$CMLJUST
 70
     0
  9
$CMLSCALE
 40
1.0
  9
$PROXYGRAPHICS
 70
     1
  9
$MEASUREMENT
 70
     0
  9
$CELWEIGHT
370
    -1
  9
$ENDCAPS
280
     0
  9
$JOINSTYLE
280
     0
  9
$LWDISPLAY
290
     0
  9
$INSUNITS
 70
     0
  9
$HYPERLINKBASE
  1

  9
$STYLESHEET
  1

  9
$XEDIT
290
     1
  9
$CEPSNTYPE
380
     0
  9
$PSTYLEMODE
290
     1
  9
$FINGERPRINTGUID
  2
{C14B0C44-E342-4260-A922-27A8E57624CB}
  9
$VERSIONGUID
  2
{FAEB1C32-E019-11D5-929B-00C0DF256EC4}
  9
$EXTNAMES
290
     1
  9
$PSVPSCALE
 40
0.0
  9
$OLESTARTUP
290
     0
  0
ENDSEC
  0
SECTION
  2
CLASSES
  0
CLASS
  1
ACDBDICTIONARYWDFLT
  2
AcDbDictionaryWithDefault
  3
ObjectDBX Classes
 90
        0
280
     0
281
     0
  0
CLASS
  1
SCALE
  2
AcDbScale
  3
ObjectDBX Classes
 90
     1153
280
     0
281
     0
  0
CLASS
  1
DICTIONARYVAR
  2
AcDbDictionaryVar
  3
ObjectDBX Classes
 90
        0
280
     0
281
     0
  0
CLASS
  1
ACDBPLACEHOLDER
  2
AcDbPlaceHolder
  3
ObjectDBX Classes
 90
        0
280
     0
281
     0
  0
CLASS
  1
LAYOUT
  2
AcDbLayout
  3
ObjectDBX Classes
 90
        0
280
     0
281
     0
  0
ENDSEC
  0
SECTION
  2
TABLES
  0
TABLE
  2
VPORT
  5
8
330
0
100
AcDbSymbolTable
 70
     1
  0
VPORT
  5
532
330
8
100
AcDbSymbolTableRecord
100
AcDbViewportTableRecord
  2
*Active
 70
     0
 10
0.0
 20
0.0
 11
1.0
 21
1.0
 12
54.0
 22
471.0
 13
0.0
 23
0.0
 14
0.5
 24
0.5
 15
0.5
 25
0.5
 16
0.0
 26
0.0
 36
1.0
 17
0.0
 27
0.0
 37
0.0
 40
960.57378
 41
1.790857142857
 42
50.0
 43
0.0
 44
0.0
 50
0.0
 51
0.0
 71
    16
 72
   100
 73
     1
 74
     3
 75
     0
 76
     0
 77
     0
 78
     0
281
     0
 65
     1
110
0.0
120
0.0
130
0.0
111
1.0
121
0.0
131
0.0
112
0.0
122
1.0
132
0.0
 79
     0
146
0.0
  0
ENDTAB
  0
TABLE
  2
LTYPE
  5
5
330
0
100
AcDbSymbolTable
 70
     1
  0
LTYPE
  5
14
330
5
100
AcDbSymbolTableRecord
100
AcDbLinetypeTableRecord
  2
ByBlock
 70
     0
  3

 72
    65
 73
     0
 40
0.0
  0
LTYPE
  5
15
330
5
100
AcDbSymbolTableRecord
100
AcDbLinetypeTableRecord
  2
ByLayer
 70
     0
  3

 72
    65
 73
     0
 40
0.0
  0
LTYPE
  5
16
330
5
100
AcDbSymbolTableRecord
100
AcDbLinetypeTableRecord
  2
Continuous
 70
     0
  3
Solid line
 72
    65
 73
     0
 40
0.0
  0
ENDTAB
  0
TABLE
  2
LAYER
  5
2
330
0
100
AcDbSymbolTable
 70
     1
  0
LAYER
  5
10
330
2
100
AcDbSymbolTableRecord
100
AcDbLayerTableRecord
  2
0
 70
     0
 62
     7
  6
Continuous
370
    -3
390
F
  0
ENDTAB
  0
TABLE
  2
STYLE
  5
3
330
0
100
AcDbSymbolTable
 70
     1
  0
STYLE
  5
11
330
3
100
AcDbSymbolTableRecord
100
AcDbTextStyleTableRecord
  2
Standard
 70
     0
 40
0.0
 41
1.0
 50
0.0
 71
     0
 42
0.2
  3
txt
  4

  0
ENDTAB
  0
TABLE
  2
VIEW
  5
6
330
0
100
AcDbSymbolTable
 70
     0
  0
ENDTAB
  0
TABLE
  2
UCS
  5
7
330
0
100
AcDbSymbolTable
 70
     0
  0
ENDTAB
  0
TABLE
  2
APPID
  5
9
330
0
100
AcDbSymbolTable
 70
     1
  0
APPID
  5
12
330
9
100
AcDbSymbolTableRecord
100
AcDbRegAppTableRecord
  2
ACAD
 70
     0
  0
ENDTAB
  0
TABLE
  2
DIMSTYLE
  5
A
330
0
100
AcDbSymbolTable
 70
     1
100
AcDbDimStyleTable
  0
DIMSTYLE
105
20
330
A
100
AcDbSymbolTableRecord
100
AcDbDimStyleTableRecord
  2
Standard
 70
     0
340
11
  0
ENDTAB
  0
TABLE
  2
BLOCK_RECORD
  5
1
330
0
100
AcDbSymbolTable
 70
     0
  0
BLOCK_RECORD
  5
1D
330
1
100
AcDbSymbolTableRecord
100
AcDbBlockTableRecord
  2
*Model_Space
340
1E
  0
BLOCK_RECORD
  5
1B
330
1
100
AcDbSymbolTableRecord
100
AcDbBlockTableRecord
  2
*Paper_Space
340
1C
  0
ENDTAB
  0
ENDSEC
  0
SECTION
  2
BLOCKS
  0
BLOCK
  5
535
330
1D
100
AcDbEntity
  8
0
100
AcDbBlockBegin
  2
*Model_Space
 70
     0
 10
0.0
 20
0.0
 30
0.0
  3
*Model_Space
  1
*Model_Space
  0
ENDBLK
  5
536
330
1D
100
AcDbEntity
  8
0
100
AcDbBlockEnd
  0
BLOCK
  5
533
330
1B
100
AcDbEntity
 67
     1
  8
0
100
AcDbBlockBegin
  2
*Paper_Space
 70
     0
 10
0.0
 20
0.0
 30
0.0
  3
*Paper_Space
  1
*Paper_Space
  0
ENDBLK
  5
534
330
1B
100
AcDbEntity
 67
     1
  8
0
100
AcDbBlockEnd
  0
ENDSEC
  0
SECTION
  2
ENTITIES
  0
LINE
  5
21
330
1D
100
AcDbEntity
  8
0
100
AcDbLine
 10
29.0
 20
28.2673
 30
0.0
 11
29.0
 21
39.7779
 31
0.0
  0
LINE
  5
22
330
1D
100
AcDbEntity
  8
0
100
AcDbLine
 10
29.0
 20
28.2673
 30
0.0
 11
29.0
 21
18.1779
 31
0.0
  0
LINE
  5
23
330
1D
100
AcDbEntity
  8
0
100
AcDbLine
 10
29.0
 20
18.1779
 30
0.0
 11
29.0
 21
28.2673
 31
0.0
  0
LINE
  5
24
330
1D
100
AcDbEntity
  8
0
100
AcDbLine
 10
29.0
 20
18.1779
 30
0.0
 11
29.0
 21
10.6463
 31
0.0
  0
LINE
  5
25
330
1D
100
AcDbEntity
  8
0
100
AcDbLine
 10
29.0
 20
10.6463
 30
0.0
 11
29.0
 21
18.1779
 31
0.0
  0
LINE
  5
26
330
1D
100
AcDbEntity
  8
0
100
AcDbLine
 10
29.0
 20
10.6463
 30
0.0
 11
29.0
 21
4.96208
 31
0.0
  0
LINE
  5
27
330
1D
100
AcDbEntity
  8
0
100
AcDbLine
 10
29.0
 20
4.96208
 30
0.0
 11
29.0
 21
10.6463
 31
0.0
  0
LINE
  5
28
330
1D
100
AcDbEntity
  8
0
100
AcDbLine
 10
29.0
 20
4.96208
 30
0.0
 11
29.0
 21
1.55155
 31
0.0
  0
LINE
  5
29
330
1D
100
AcDbEntity
  8
0
100
AcDbLine
 10
29.0
 20
1.55155
 30
0.0
 11
29.0
 21
4.96208
 31
0.0
  0
LINE
  5
2A
330
1D
100
AcDbEntity
  8
0
100
AcDbLine
 10
29.0
 20
1.55155
 30
0.0
 11
29.0
 21
0.1305
 31
0.0
  0
LINE
  5
2B
330
1D
100
AcDbEntity
  8
0
100
AcDbLine
 10
29.0
 20
0.1305
 30
0.0
 11
29.0
 21
1.55155
 31
0.0
  0
LINE
  5
2C
330
1D
100
AcDbEntity
  8
0
100
AcDbLine
 10
29.0
 20
0.1305
 30
0.0
 11
30.0
 21
0.1305
 31
0.0
  0
LINE
  5
2D
330
1D
100
AcDbEntity
  8
0
100
AcDbLine
 10
29.0
 20
39.7779
 30
0.0
 11
29.0
 21
52.9937
 31
0.0
  0
LINE
  5
2E
330
1D
100
AcDbEntity
  8
0
100
AcDbLine
 10
29.0
 20
39.7779
 30
0.0
 11
29.0
 21
28.2673
 31
0.0
  0
LINE
  5
2F
330
1D
100
AcDbEntity
  8
0
100
AcDbLine
 10
0.0
 20
74.1305
 30
0.0
 11
0.0
 21
74.7726
 31
0.0
  0
LINE
  5
30
330
1D
100
AcDbEntity
  8
0
100
AcDbLine
 10
0.0
 20
74.1305
 30
0.0
 11
29.0
 21
74.1305
 31
0.0
  0
LINE
  5
31
330
1D
100
AcDbEntity
  8
0
100
AcDbLine
 10
0.0
 20
74.1305
 30
0.0
 11
29.0
 21
74.1305
 31
0.0
  0
LINE
  5
32
330
1D
100
AcDbEntity
  8
0
100
AcDbLine
 10
0.0
 20
74.7726
 30
0.0
 11
0.0
 21
76.3137
 31
0.0
  0
LINE
  5
33
330
1D
100
AcDbEntity
  8
0
100
AcDbLine
 10
0.0
 20
78.2421
 30
0.0
 11
0.0
 21
80.7263
 31
0.0
  0
LINE
  5
34
330
1D
100
AcDbEntity
  8
0
100
AcDbLine
 10
0.0
 20
82.2852
 30
0.0
 11
0.0
 21
86.8442
 31
0.0
  0
LINE
  5
35
330
1D
100
AcDbEntity
  8
0
100
AcDbLine
 10
0.0
 20
80.7263
 30
0.0
 11
0.0
 21
84.0179
 31
0.0
  0
LINE
  5
36
330
1D
100
AcDbEntity
  8
0
100
AcDbLine
 10
0.0
 20
78.8821
 30
0.0
 11
0.0
 21
82.2852
 31
0.0
  0
LINE
  5
37
330
1D
100
AcDbEntity
  8
0
100
AcDbLine
 10
0.0
 20
78.2421
 30
0.0
 11
0.0
 21
78.8821
 31
0.0
  0
LINE
  5
38
330
1D
100
AcDbEntity
  8
0
100
AcDbLine
 10
0.0
 20
84.0179
 30
0.0
 11
0.0
 21
88.4273
 31
0.0
  0
LINE
  5
39
330
1D
100
AcDbEntity
  8
0
100
AcDbLine
 10
0.0
 20
76.7515
 30
0.0
 11
0.0
 21
78.2421
 31
0.0
  0
LINE
  5
3A
330
1D
100
AcDbEntity
  8
0
100
AcDbLine
 10
0.0
 20
76.3137
 30
0.0
 11
0.0
 21
76.7515
 31
0.0
  0
LINE
  5
3B
330
1D
100
AcDbEntity
  8
0
100
AcDbLine
 10
0.0
 20
76.3137
 30
0.0
 11
0.0
 21
78.8821
 31
0.0
  0
LINE
  5
3C
330
1D
100
AcDbEntity
  8
0
100
AcDbLine
 10
0.0
 20
88.4273
 30
0.0
 11
0.0
 21
92.0452
 31
0.0
  0
LINE
  5
3D
330
1D
100
AcDbEntity
  8
0
100
AcDbLine
 10
0.0
 20
88.4273
 30
0.0
 11
0.0
 21
92.0452
 31
0.0
  0
LINE
  5
3E
330
1D
100
AcDbEntity
  8
0
100
AcDbLine
 10
0.0
 20
86.8442
 30
0.0
 11
0.0
 21
88.4273
 31
0.0
  0
LINE
  5
3F
330
1D
100
AcDbEntity
  8
0
100
AcDbLine
 10
0.0
 20
86.8442
 30
0.0
 11
0.0
 21
92.0452
 31
0.0
  0
LINE
  5
40
330
1D
100
AcDbEntity
  8
0
100
AcDbLine
 10
0.0
 20
84.0179
 30
0.0
 11
0.0
 21
86.8442
 31
0.0
  0
LINE
  5
41
330
1D
100
AcDbEntity
  8
0
100
AcDbLine
 10
0.0
 20
93.4579
 30
0.0
 11
0.0
 21
98.0168
 31
0.0
  0
LINE
  5
42
330
1D
100
AcDbEntity
  8
0
100
AcDbLine
 10
0.0
 20
93.4579
 30
0.0
 11
0.0
 21
99.2337
 31
0.0
  0
LINE
  5
43
330
1D
100
AcDbEntity
  8
0
100
AcDbLine
 10
0.0
 20
98.0168
 30
0.0
 11
0.0
 21
104.7585
 31
0.0
  0
LINE
  5
44
330
1D
100
AcDbEntity
  8
0
100
AcDbLine
 10
0.0
 20
92.0452
 30
0.0
 11
0.0
 21
93.4579
 31
0.0
  0
LINE
  5
45
330
1D
100
AcDbEntity
  8
0
100
AcDbLine
 10
0.0
 20
92.0452
 30
0.0
 11
0.0
 21
98.0168
 31
0.0
  0
LINE
  5
46
330
1D
100
AcDbEntity
  8
0
100
AcDbLine
 10
0.0
 20
99.2337
 30
0.0
 11
0.0
 21
105.7545
 31
0.0
  0
LINE
  5
47
330
1D
100
AcDbEntity
  8
0
100
AcDbLine
 10
0.0
 20
99.2337
 30
0.0
 11
0.0
 21
104.7585
 31
0.0
  0
LINE
  5
48
330
1D
100
AcDbEntity
  8
0
100
AcDbLine
 10
29.0
 20
83.5463
 30
0.0
 11
29.0
 21
67.9147
 31
0.0
  0
LINE
  5
49
330
1D
100
AcDbEntity
  8
0
100
AcDbLine
 10
29.0
 20
83.5463
 30
0.0
 11
29.0
 21
100.3145
 31
0.0
  0
LINE
  5
4A
330
1D
100
AcDbEntity
  8
0
100
AcDbLine
 10
0.0
 20
111.8225
 30
0.0
 11
0.0
 21
119.3985
 31
0.0
  0
LINE
  5
4B
330
1D
100
AcDbEntity
  8
0
100
AcDbLine
 10
0.0
 20
105.7545
 30
0.0
 11
0.0
 21
112.5865
 31
0.0
  0
LINE
  5
4C
330
1D
100
AcDbEntity
  8
0
100
AcDbLine
 10
0.0
 20
104.7585
 30
0.0
 11
0.0
 21
111.8225
 31
0.0
  0
LINE
  5
4D
330
1D
100
AcDbEntity
  8
0
100
AcDbLine
 10
0.0
 20
119.3985
 30
0.0
 11
0.0
 21
127.1685
 31
0.0
  0
LINE
  5
4E
330
1D
100
AcDbEntity
  8
0
100
AcDbLine
 10
0.0
 20
112.5865
 30
0.0
 11
0.0
 21
119.9145
 31
0.0
  0
LINE
  5
4F
330
1D
100
AcDbEntity
  8
0
100
AcDbLine
 10
0.0
 20
112.5865
 30
0.0
 11
0.0
 21
119.3985
 31
0.0
  0
LINE
  5
50
330
1D
100
AcDbEntity
  8
0
100
AcDbLine
 10
0.0
 20
127.1685
 30
0.0
 11
0.0
 21
127.4295
 31
0.0
  0
LINE
  5
51
330
1D
100
AcDbEntity
  8
0
100
AcDbLine
 10
0.0
 20
127.1685
 30
0.0
 11
0.0
 21
135.1305
 31
0.0
  0
LINE
  5
52
330
1D
100
AcDbEntity
  8
0
100
AcDbLine
 10
0.0
 20
119.9145
 30
0.0
 11
0.0
 21
127.4295
 31
0.0
  0
LINE
  5
53
330
1D
100
AcDbEntity
  8
0
100
AcDbLine
 10
0.0
 20
135.1305
 30
0.0
 11
0.0
 21
143.0925
 31
0.0
  0
LINE
  5
54
330
1D
100
AcDbEntity
  8
0
100
AcDbLine
 10
0.0
 20
127.4295
 30
0.0
 11
0.0
 21
135.1305
 31
0.0
  0
LINE
  5
55
330
1D
100
AcDbEntity
  8
0
100
AcDbLine
 10
0.0
 20
127.4295
 30
0.0
 11
0.0
 21
135.1305
 31
0.0
  0
LINE
  5
56
330
1D
100
AcDbEntity
  8
0
100
AcDbLine
 10
29.0
 20
100.3145
 30
0.0
 11
29.0
 21
83.5463
 31
0.0
  0
LINE
  5
57
330
1D
100
AcDbEntity
  8
0
100
AcDbLine
 10
29.0
 20
100.3145
 30
0.0
 11
29.0
 21
117.5095
 31
0.0
  0
LINE
  5
58
330
1D
100
AcDbEntity
  8
0
100
AcDbLine
 10
29.0
 20
117.5095
 30
0.0
 11
29.0
 21
100.3145
 31
0.0
  0
LINE
  5
59
330
1D
100
AcDbEntity
  8
0
100
AcDbLine
 10
29.0
 20
117.5095
 30
0.0
 11
29.0
 21
135.1305
 31
0.0
  0
LINE
  5
5A
330
1D
100
AcDbEntity
  8
0
100
AcDbLine
 10
0.0
 20
142.8315
 30
0.0
 11
0.0
 21
150.3465
 31
0.0
  0
LINE
  5
5B
330
1D
100
AcDbEntity
  8
0
100
AcDbLine
 10
0.0
 20
150.8625
 30
0.0
 11
0.0
 21
158.4385
 31
0.0
  0
LINE
  5
5C
330
1D
100
AcDbEntity
  8
0
100
AcDbLine
 10
0.0
 20
150.3465
 30
0.0
 11
0.0
 21
150.8625
 31
0.0
  0
LINE
  5
5D
330
1D
100
AcDbEntity
  8
0
100
AcDbLine
 10
0.0
 20
157.6745
 30
0.0
 11
0.0
 21
158.4385
 31
0.0
  0
LINE
  5
5E
330
1D
100
AcDbEntity
  8
0
100
AcDbLine
 10
0.0
 20
143.0925
 30
0.0
 11
0.0
 21
150.3465
 31
0.0
  0
LINE
  5
5F
330
1D
100
AcDbEntity
  8
0
100
AcDbLine
 10
0.0
 20
143.0925
 30
0.0
 11
0.0
 21
150.8625
 31
0.0
  0
LINE
  5
60
330
1D
100
AcDbEntity
  8
0
100
AcDbLine
 10
0.0
 20
165.5025
 30
0.0
 11
0.0
 21
172.2445
 31
0.0
  0
LINE
  5
61
330
1D
100
AcDbEntity
  8
0
100
AcDbLine
 10
0.0
 20
171.0275
 30
0.0
 11
0.0
 21
176.8035
 31
0.0
  0
LINE
  5
62
330
1D
100
AcDbEntity
  8
0
100
AcDbLine
 10
0.0
 20
164.5065
 30
0.0
 11
0.0
 21
171.0275
 31
0.0
  0
LINE
  5
63
330
1D
100
AcDbEntity
  8
0
100
AcDbLine
 10
0.0
 20
158.4385
 30
0.0
 11
0.0
 21
164.5065
 31
0.0
  0
LINE
  5
64
330
1D
100
AcDbEntity
  8
0
100
AcDbLine
 10
0.0
 20
172.2445
 30
0.0
 11
0.0
 21
178.2155
 31
0.0
  0
LINE
  5
65
330
1D
100
AcDbEntity
  8
0
100
AcDbLine
 10
0.0
 20
158.4385
 30
0.0
 11
0.0
 21
165.5025
 31
0.0
  0
LINE
  5
66
330
1D
100
AcDbEntity
  8
0
100
AcDbLine
 10
0.0
 20
178.2155
 30
0.0
 11
0.0
 21
181.8335
 31
0.0
  0
LINE
  5
67
330
1D
100
AcDbEntity
  8
0
100
AcDbLine
 10
0.0
 20
178.2155
 30
0.0
 11
0.0
 21
181.8335
 31
0.0
  0
LINE
  5
68
330
1D
100
AcDbEntity
  8
0
100
AcDbLine
 10
0.0
 20
178.2155
 30
0.0
 11
0.0
 21
183.4165
 31
0.0
  0
LINE
  5
69
330
1D
100
AcDbEntity
  8
0
100
AcDbLine
 10
0.0
 20
181.8335
 30
0.0
 11
0.0
 21
183.4165
 31
0.0
  0
LINE
  5
6A
330
1D
100
AcDbEntity
  8
0
100
AcDbLine
 10
0.0
 20
183.4165
 30
0.0
 11
0.0
 21
187.9755
 31
0.0
  0
LINE
  5
6B
330
1D
100
AcDbEntity
  8
0
100
AcDbLine
 10
0.0
 20
181.8335
 30
0.0
 11
0.0
 21
186.2435
 31
0.0
  0
LINE
  5
6C
330
1D
100
AcDbEntity
  8
0
100
AcDbLine
 10
0.0
 20
187.9755
 30
0.0
 11
0.0
 21
189.5345
 31
0.0
  0
LINE
  5
6D
330
1D
100
AcDbEntity
  8
0
100
AcDbLine
 10
0.0
 20
187.9755
 30
0.0
 11
0.0
 21
189.5345
 31
0.0
  0
LINE
  5
6E
330
1D
100
AcDbEntity
  8
0
100
AcDbLine
 10
0.0
 20
187.9755
 30
0.0
 11
0.0
 21
191.3785
 31
0.0
  0
LINE
  5
6F
330
1D
100
AcDbEntity
  8
0
100
AcDbLine
 10
0.0
 20
189.5345
 30
0.0
 11
0.0
 21
191.3785
 31
0.0
  0
LINE
  5
70
330
1D
100
AcDbEntity
  8
0
100
AcDbLine
 10
0.0
 20
191.3785
 30
0.0
 11
0.0
 21
193.9475
 31
0.0
  0
LINE
  5
71
330
1D
100
AcDbEntity
  8
0
100
AcDbLine
 10
0.0
 20
189.5345
 30
0.0
 11
0.0
 21
192.0185
 31
0.0
  0
LINE
  5
72
330
1D
100
AcDbEntity
  8
0
100
AcDbLine
 10
0.0
 20
192.0185
 30
0.0
 11
0.0
 21
193.5095
 31
0.0
  0
LINE
  5
73
330
1D
100
AcDbEntity
  8
0
100
AcDbLine
 10
0.0
 20
193.9475
 30
0.0
 11
0.0
 21
194.1305
 31
0.0
  0
LINE
  5
74
330
1D
100
AcDbEntity
  8
0
100
AcDbLine
 10
0.0
 20
193.9475
 30
0.0
 11
0.0
 21
195.4885
 31
0.0
  0
LINE
  5
75
330
1D
100
AcDbEntity
  8
0
100
AcDbLine
 10
0.0
 20
194.1305
 30
0.0
 11
0.0
 21
195.4885
 31
0.0
  0
LINE
  5
76
330
1D
100
AcDbEntity
  8
0
100
AcDbLine
 10
0.0
 20
196.1305
 30
0.0
 11
29.0
 21
196.1305
 31
0.0
  0
LINE
  5
77
330
1D
100
AcDbEntity
  8
0
100
AcDbLine
 10
0.0
 20
196.1305
 30
0.0
 11
29.0
 21
196.1305
 31
0.0
  0
LINE
  5
78
330
1D
100
AcDbEntity
  8
0
100
AcDbLine
 10
0.0
 20
195.4885
 30
0.0
 11
0.0
 21
196.1305
 31
0.0
  0
LINE
  5
79
330
1D
100
AcDbEntity
  8
0
100
AcDbLine
 10
0.0
 20
193.5095
 30
0.0
 11
0.0
 21
194.1305
 31
0.0
  0
LINE
  5
7A
330
1D
100
AcDbEntity
  8
0
100
AcDbLine
 10
24.0
 20
653.5975
 30
0.0
 11
24.0
 21
662.3805
 31
0.0
  0
LINE
  5
7B
330
1D
100
AcDbEntity
  8
0
100
AcDbLine
 10
24.0
 20
653.5975
 30
0.0
 11
24.0
 21
645.8995
 31
0.0
  0
LINE
  5
7C
330
1D
100
AcDbEntity
  8
0
100
AcDbLine
 10
24.0
 20
645.8995
 30
0.0
 11
24.0
 21
653.5975
 31
0.0
  0
LINE
  5
7D
330
1D
100
AcDbEntity
  8
0
100
AcDbLine
 10
24.0
 20
645.8995
 30
0.0
 11
24.0
 21
640.1535
 31
0.0
  0
LINE
  5
7E
330
1D
100
AcDbEntity
  8
0
100
AcDbLine
 10
24.0
 20
640.1535
 30
0.0
 11
24.0
 21
645.8995
 31
0.0
  0
LINE
  5
7F
330
1D
100
AcDbEntity
  8
0
100
AcDbLine
 10
24.0
 20
640.1535
 30
0.0
 11
24.0
 21
635.8165
 31
0.0
  0
LINE
  5
80
330
1D
100
AcDbEntity
  8
0
100
AcDbLine
 10
24.0
 20
635.8165
 30
0.0
 11
24.0
 21
640.1535
 31
0.0
  0
LINE
  5
81
330
1D
100
AcDbEntity
  8
0
100
AcDbLine
 10
24.0
 20
635.8165
 30
0.0
 11
24.0
 21
633.2145
 31
0.0
  0
LINE
  5
82
330
1D
100
AcDbEntity
  8
0
100
AcDbLine
 10
24.0
 20
633.2145
 30
0.0
 11
24.0
 21
635.8165
 31
0.0
  0
LINE
  5
83
330
1D
100
AcDbEntity
  8
0
100
AcDbLine
 10
24.0
 20
633.2145
 30
0.0
 11
24.0
 21
632.1305
 31
0.0
  0
LINE
  5
84
330
1D
100
AcDbEntity
  8
0
100
AcDbLine
 10
24.0
 20
632.1305
 30
0.0
 11
24.0
 21
633.2145
 31
0.0
  0
LINE
  5
85
330
1D
100
AcDbEntity
  8
0
100
AcDbLine
 10
24.0
 20
632.1305
 30
0.0
 11
25.0
 21
632.1305
 31
0.0
  0
LINE
  5
86
330
1D
100
AcDbEntity
  8
0
100
AcDbLine
 10
24.0
 20
662.3805
 30
0.0
 11
24.0
 21
672.4635
 31
0.0
  0
LINE
  5
87
330
1D
100
AcDbEntity
  8
0
100
AcDbLine
 10
24.0
 20
672.4635
 30
0.0
 11
24.0
 21
683.8475
 31
0.0
  0
LINE
  5
88
330
1D
100
AcDbEntity
  8
0
100
AcDbLine
 10
24.0
 20
672.4635
 30
0.0
 11
24.0
 21
662.3805
 31
0.0
  0
LINE
  5
89
330
1D
100
AcDbEntity
  8
0
100
AcDbLine
 10
4.000017747901
 20
707.115600679406
 30
0.0
 11
4.00002
 21
706.9405
 31
0.0
  0
LINE
  5
8A
330
1D
100
AcDbEntity
  8
0
100
AcDbLine
 10
3.99999
 20
707.1385
 30
0.0
 11
4.00189
 21
705.5705
 31
0.0
  0
LINE
  5
8B
330
1D
100
AcDbEntity
  8
0
100
AcDbLine
 10
4.00189
 20
705.5705
 30
0.0
 11
24.0
 21
705.294507774516
 31
0.0
  0
LINE
  5
8C
330
1D
100
AcDbEntity
  8
0
100
AcDbLine
 10
4.00189
 20
705.5705
 30
0.0
 11
24.0
 21
705.294507774516
 31
0.0
  0
LINE
  5
8D
330
1D
100
AcDbEntity
  8
0
100
AcDbLine
 10
3.99942
 20
743.4075
 30
0.0
 11
3.99998
 21
736.2135
 31
0.0
  0
LINE
  5
8E
330
1D
100
AcDbEntity
  8
0
100
AcDbLine
 10
3.99897
 20
752.6825
 30
0.0
 11
3.999349760711
 21
754.946823238844
 31
0.0
  0
LINE
  5
8F
330
1D
100
AcDbEntity
  8
0
100
AcDbLine
 10
3.99897
 20
752.6825
 30
0.0
 11
3.99942
 21
743.4075
 31
0.0
  0
LINE
  5
90
330
1D
100
AcDbEntity
  8
0
100
AcDbLine
 10
3.99777
 20
760.2595
 30
0.0
 11
3.99993
 21
752.9955
 31
0.0
  0
LINE
  5
91
330
1D
100
AcDbEntity
  8
0
100
AcDbLine
 10
3.99777
 20
760.2595
 30
0.0
 11
3.999888775876
 21
763.04811309169
 31
0.0
  0
LINE
  5
92
330
1D
100
AcDbEntity
  8
0
100
AcDbLine
 10
3.999338703334
 20
762.32413869291
 30
0.0
 11
3.999805765012
 21
763.603750320588
 31
0.0
  0
LINE
  5
93
330
1D
100
AcDbEntity
  8
0
100
AcDbLine
 10
3.99967
 20
764.5125
 30
0.0
 11
24.0
 21
764.723167825321
 31
0.0
  0
LINE
  5
94
330
1D
100
AcDbEntity
  8
0
100
AcDbLine
 10
3.99967
 20
720.2695
 30
0.0
 11
3.999762794968
 21
721.983465233861
 31
0.0
  0
LINE
  5
95
330
1D
100
AcDbEntity
  8
0
100
AcDbLine
 10
3.99967
 20
720.2695
 30
0.0
 11
3.999838269513
 21
717.481694836565
 31
0.0
  0
LINE
  5
96
330
1D
100
AcDbEntity
  8
0
100
AcDbLine
 10
3.99982
 20
709.3135
 30
0.0
 11
3.99999
 21
707.1385
 31
0.0
  0
LINE
  5
97
330
1D
100
AcDbEntity
  8
0
100
AcDbLine
 10
3.99982
 20
709.3135
 30
0.0
 11
4.00024
 21
714.5975
 31
0.0
  0
LINE
  5
98
330
1D
100
AcDbEntity
  8
0
100
AcDbLine
 10
3.99975
 20
722.1815
 30
0.0
 11
4.00013
 21
729.5555
 31
0.0
  0
LINE
  5
99
330
1D
100
AcDbEntity
  8
0
100
AcDbLine
 10
3.99975
 20
722.1815
 30
0.0
 11
4.00024
 21
714.5975
 31
0.0
  0
LINE
  5
9A
330
1D
100
AcDbEntity
  8
0
100
AcDbLine
 10
3.999918167173
 20
725.444828247618
 30
0.0
 11
3.99992
 21
725.6275
 31
0.0
  0
LINE
  5
9B
330
1D
100
AcDbEntity
  8
0
100
AcDbLine
 10
3.99983
 20
716.6575
 30
0.0
 11
3.999867221113
 21
720.36720424549
 31
0.0
  0
LINE
  5
9C
330
1D
100
AcDbEntity
  8
0
100
AcDbLine
 10
3.99983
 20
716.6575
 30
0.0
 11
4.000002167493
 21
711.605340558304
 31
0.0
  0
LINE
  5
9D
330
1D
100
AcDbEntity
  8
0
100
AcDbLine
 10
3.99999
 20
711.962388888873
 30
0.0
 11
3.99999
 21
711.6475
 31
0.0
  0
LINE
  5
9E
330
1D
100
AcDbEntity
  8
0
100
AcDbLine
 10
3.99998
 20
736.2135
 30
0.0
 11
4.00003874638
 21
732.681034976507
 31
0.0
  0
LINE
  5
9F
330
1D
100
AcDbEntity
  8
0
100
AcDbLine
 10
3.99992
 20
725.6275
 30
0.0
 11
4.000055865474
 21
733.697909181903
 31
0.0
  0
LINE
  5
A0
330
1D
100
AcDbEntity
  8
0
100
AcDbLine
 10
3.99999
 20
711.45226190476
 30
0.0
 11
3.99999
 21
711.6475
 31
0.0
  0
LINE
  5
A1
330
1D
100
AcDbEntity
  8
0
100
AcDbLine
 10
3.99999
 20
711.6475
 30
0.0
 11
3.99999
 21
711.962388888873
 31
0.0
  0
LINE
  5
A2
330
1D
100
AcDbEntity
  8
0
100
AcDbLine
 10
3.99999
 20
711.6475
 30
0.0
 11
3.99999
 21
711.45226190476
 31
0.0
  0
LINE
  5
A3
330
1D
100
AcDbEntity
  8
0
100
AcDbLine
 10
3.99993
 20
752.9955
 30
0.0
 11
3.999980756955
 21
751.216257245948
 31
0.0
  0
LINE
  5
A4
330
1D
100
AcDbEntity
  8
0
100
AcDbLine
 10
3.99998
 20
762.4375
 30
0.0
 11
4.0
 21
757.5655
 31
0.0
  0
LINE
  5
A5
330
1D
100
AcDbEntity
  8
0
100
AcDbLine
 10
3.99998
 20
750.9665
 30
0.0
 11
4.0
 21
757.5655
 31
0.0
  0
LINE
  5
A6
330
1D
100
AcDbEntity
  8
0
100
AcDbLine
 10
4.0
 20
736.8195
 30
0.0
 11
4.00013
 21
729.5555
 31
0.0
  0
LINE
  5
A7
330
1D
100
AcDbEntity
  8
0
100
AcDbLine
 10
3.99995
 20
743.1335
 30
0.0
 11
4.0
 21
736.8195
 31
0.0
  0
LINE
  5
A8
330
1D
100
AcDbEntity
  8
0
100
AcDbLine
 10
3.99995
 20
743.1335
 30
0.0
 11
3.99998
 21
750.9665
 31
0.0
  0
LINE
  5
A9
330
1D
100
AcDbEntity
  8
0
100
AcDbLine
 10
3.99985
 20
736.2605
 30
0.0
 11
4.000019200357
 21
731.520001213699
 31
0.0
  0
LINE
  5
AA
330
1D
100
AcDbEntity
  8
0
100
AcDbLine
 10
3.99985
 20
736.2605
 30
0.0
 11
3.999884669753
 21
737.438153212649
 31
0.0
  0
LINE
  5
AB
330
1D
100
AcDbEntity
  8
0
100
AcDbLine
 10
3.99967
 20
764.5125
 30
0.0
 11
3.99998
 21
762.4375
 31
0.0
  0
LINE
  5
AC
330
1D
100
AcDbEntity
  8
0
100
AcDbLine
 10
3.99967
 20
764.5125
 30
0.0
 11
24.0
 21
764.723167825321
 31
0.0
  0
LINE
  5
AD
330
1D
100
AcDbEntity
  8
0
100
AcDbLine
 10
24.0
 20
708.5675
 30
0.0
 11
24.0
 21
721.6865
 31
0.0
  0
LINE
  5
AE
330
1D
100
AcDbEntity
  8
0
100
AcDbLine
 10
24.0
 20
708.5675
 30
0.0
 11
24.0
 21
695.7735
 31
0.0
  0
LINE
  5
AF
330
1D
100
AcDbEntity
  8
0
100
AcDbLine
 10
24.0
 20
705.294507774516
 30
0.0
 11
24.0
 21
695.7735
 31
0.0
  0
LINE
  5
B0
330
1D
100
AcDbEntity
  8
0
100
AcDbLine
 10
24.0
 20
683.8475
 30
0.0
 11
24.0
 21
695.7735
 31
0.0
  0
LINE
  5
B1
330
1D
100
AcDbEntity
  8
0
100
AcDbLine
 10
24.0
 20
683.8475
 30
0.0
 11
24.0
 21
672.4635
 31
0.0
  0
LINE
  5
B2
330
1D
100
AcDbEntity
  8
0
100
AcDbLine
 10
25.0
 20
632.1305
 30
0.0
 11
25.0
 21
633.2145
 31
0.0
  0
LINE
  5
B3
330
1D
100
AcDbEntity
  8
0
100
AcDbLine
 10
24.0
 20
748.5745
 30
0.0
 11
24.0
 21
735.1305
 31
0.0
  0
LINE
  5
B4
330
1D
100
AcDbEntity
  8
0
100
AcDbLine
 10
24.0
 20
748.5745
 30
0.0
 11
24.0
 21
761.6935
 31
0.0
  0
LINE
  5
B5
330
1D
100
AcDbEntity
  8
0
100
AcDbLine
 10
24.0
 20
721.6865
 30
0.0
 11
24.0
 21
735.1305
 31
0.0
  0
LINE
  5
B6
330
1D
100
AcDbEntity
  8
0
100
AcDbLine
 10
24.0
 20
761.6935
 30
0.0
 11
24.0
 21
774.4875
 31
0.0
  0
LINE
  5
B7
330
1D
100
AcDbEntity
  8
0
100
AcDbLine
 10
24.0
 20
797.7975
 30
0.0
 11
24.0
 21
807.8815
 31
0.0
  0
LINE
  5
B8
330
1D
100
AcDbEntity
  8
0
100
AcDbLine
 10
24.0
 20
797.7975
 30
0.0
 11
24.0
 21
786.4135
 31
0.0
  0
LINE
  5
B9
330
1D
100
AcDbEntity
  8
0
100
AcDbLine
 10
24.0
 20
786.4135
 30
0.0
 11
24.0
 21
797.7975
 31
0.0
  0
LINE
  5
BA
330
1D
100
AcDbEntity
  8
0
100
AcDbLine
 10
24.0
 20
786.4135
 30
0.0
 11
24.0
 21
774.4875
 31
0.0
  0
LINE
  5
BB
330
1D
100
AcDbEntity
  8
0
100
AcDbLine
 10
24.0
 20
774.4875
 30
0.0
 11
24.0
 21
786.4135
 31
0.0
  0
LINE
  5
BC
330
1D
100
AcDbEntity
  8
0
100
AcDbLine
 10
24.0
 20
774.4875
 30
0.0
 11
24.0
 21
764.723167825321
 31
0.0
  0
LINE
  5
BD
330
1D
100
AcDbEntity
  8
0
100
AcDbLine
 10
24.0
 20
774.4875
 30
0.0
 11
24.0
 21
761.6935
 31
0.0
  0
LINE
  5
BE
330
1D
100
AcDbEntity
  8
0
100
AcDbLine
 10
24.0
 20
764.723167825321
 30
0.0
 11
24.0
 21
774.4875
 31
0.0
  0
LINE
  5
BF
330
1D
100
AcDbEntity
  8
0
100
AcDbLine
 10
24.0
 20
807.8815
 30
0.0
 11
24.0
 21
816.6635
 31
0.0
  0
LINE
  5
C0
330
1D
100
AcDbEntity
  8
0
100
AcDbLine
 10
24.0
 20
816.6635
 30
0.0
 11
24.0
 21
824.3615
 31
0.0
  0
LINE
  5
C1
330
1D
100
AcDbEntity
  8
0
100
AcDbLine
 10
24.0
 20
816.6635
 30
0.0
 11
24.0
 21
807.8815
 31
0.0
  0
LINE
  5
C2
330
1D
100
AcDbEntity
  8
0
100
AcDbLine
 10
24.0
 20
824.3615
 30
0.0
 11
24.0
 21
830.1075
 31
0.0
  0
LINE
  5
C3
330
1D
100
AcDbEntity
  8
0
100
AcDbLine
 10
24.0
 20
824.3615
 30
0.0
 11
24.0
 21
816.6635
 31
0.0
  0
LINE
  5
C4
330
1D
100
AcDbEntity
  8
0
100
AcDbLine
 10
24.0
 20
830.1075
 30
0.0
 11
24.0
 21
834.4445
 31
0.0
  0
LINE
  5
C5
330
1D
100
AcDbEntity
  8
0
100
AcDbLine
 10
24.0
 20
830.1075
 30
0.0
 11
24.0
 21
824.3615
 31
0.0
  0
LINE
  5
C6
330
1D
100
AcDbEntity
  8
0
100
AcDbLine
 10
24.0
 20
834.4445
 30
0.0
 11
24.0
 21
837.0465
 31
0.0
  0
LINE
  5
C7
330
1D
100
AcDbEntity
  8
0
100
AcDbLine
 10
24.0
 20
834.4445
 30
0.0
 11
24.0
 21
830.1075
 31
0.0
  0
LINE
  5
C8
330
1D
100
AcDbEntity
  8
0
100
AcDbLine
 10
25.0
 20
705.280706859055
 30
0.0
 11
33.9999
 21
705.1565
 31
0.0
  0
LINE
  5
C9
330
1D
100
AcDbEntity
  8
0
100
AcDbLine
 10
24.0
 20
837.0465
 30
0.0
 11
24.0
 21
838.1305
 31
0.0
  0
LINE
  5
CA
330
1D
100
AcDbEntity
  8
0
100
AcDbLine
 10
24.0
 20
837.0465
 30
0.0
 11
24.0
 21
834.4445
 31
0.0
  0
LINE
  5
CB
330
1D
100
AcDbEntity
  8
0
100
AcDbLine
 10
24.0
 20
838.1305
 30
0.0
 11
25.0
 21
838.1305
 31
0.0
  0
LINE
  5
CC
330
1D
100
AcDbEntity
  8
0
100
AcDbLine
 10
24.0
 20
838.1305
 30
0.0
 11
24.0
 21
837.0465
 31
0.0
  0
LINE
  5
CD
330
1D
100
AcDbEntity
  8
0
100
AcDbLine
 10
24.0
 20
735.1305
 30
0.0
 11
24.0
 21
721.6865
 31
0.0
  0
LINE
  5
CE
330
1D
100
AcDbEntity
  8
0
100
AcDbLine
 10
24.0
 20
735.1305
 30
0.0
 11
24.0
 21
748.5745
 31
0.0
  0
LINE
  5
CF
330
1D
100
AcDbEntity
  8
0
100
AcDbLine
 10
25.0
 20
653.5975
 30
0.0
 11
25.0
 21
645.8995
 31
0.0
  0
LINE
  5
D0
330
1D
100
AcDbEntity
  8
0
100
AcDbLine
 10
25.0
 20
653.5975
 30
0.0
 11
25.0
 21
662.3805
 31
0.0
  0
LINE
  5
D1
330
1D
100
AcDbEntity
  8
0
100
AcDbLine
 10
25.0
 20
645.8995
 30
0.0
 11
25.0
 21
640.1535
 31
0.0
  0
LINE
  5
D2
330
1D
100
AcDbEntity
  8
0
100
AcDbLine
 10
25.0
 20
645.8995
 30
0.0
 11
25.0
 21
653.5975
 31
0.0
  0
LINE
  5
D3
330
1D
100
AcDbEntity
  8
0
100
AcDbLine
 10
25.0
 20
640.1535
 30
0.0
 11
25.0
 21
635.8165
 31
0.0
  0
LINE
  5
D4
330
1D
100
AcDbEntity
  8
0
100
AcDbLine
 10
25.0
 20
640.1535
 30
0.0
 11
25.0
 21
645.8995
 31
0.0
  0
LINE
  5
D5
330
1D
100
AcDbEntity
  8
0
100
AcDbLine
 10
25.0
 20
662.3805
 30
0.0
 11
25.0
 21
672.4635
 31
0.0
  0
LINE
  5
D6
330
1D
100
AcDbEntity
  8
0
100
AcDbLine
 10
25.0
 20
672.4635
 30
0.0
 11
25.0
 21
662.3805
 31
0.0
  0
LINE
  5
D7
330
1D
100
AcDbEntity
  8
0
100
AcDbLine
 10
25.0
 20
672.4635
 30
0.0
 11
25.0
 21
683.8475
 31
0.0
  0
LINE
  5
D8
330
1D
100
AcDbEntity
  8
0
100
AcDbLine
 10
25.0
 20
683.8475
 30
0.0
 11
25.0
 21
672.4635
 31
0.0
  0
LINE
  5
D9
330
1D
100
AcDbEntity
  8
0
100
AcDbLine
 10
25.0
 20
683.8475
 30
0.0
 11
25.0
 21
695.7735
 31
0.0
  0
LINE
  5
DA
330
1D
100
AcDbEntity
  8
0
100
AcDbLine
 10
25.0
 20
705.280706859055
 30
0.0
 11
33.9999
 21
705.1565
 31
0.0
  0
LINE
  5
DB
330
1D
100
AcDbEntity
  8
0
100
AcDbLine
 10
25.0
 20
695.7735
 30
0.0
 11
25.0
 21
683.8475
 31
0.0
  0
LINE
  5
DC
330
1D
100
AcDbEntity
  8
0
100
AcDbLine
 10
25.0
 20
695.7735
 30
0.0
 11
25.0
 21
708.5675
 31
0.0
  0
LINE
  5
DD
330
1D
100
AcDbEntity
  8
0
100
AcDbLine
 10
25.0
 20
721.6865
 30
0.0
 11
25.0
 21
735.1305
 31
0.0
  0
LINE
  5
DE
330
1D
100
AcDbEntity
  8
0
100
AcDbLine
 10
25.0
 20
708.5675
 30
0.0
 11
25.0
 21
721.6865
 31
0.0
  0
LINE
  5
DF
330
1D
100
AcDbEntity
  8
0
100
AcDbLine
 10
25.0
 20
708.5675
 30
0.0
 11
25.0
 21
695.7735
 31
0.0
  0
LINE
  5
E0
330
1D
100
AcDbEntity
  8
0
100
AcDbLine
 10
25.0
 20
764.733701042789
 30
0.0
 11
34.0
 21
764.8285
 31
0.0
  0
LINE
  5
E1
330
1D
100
AcDbEntity
  8
0
100
AcDbLine
 10
25.0
 20
761.6935
 30
0.0
 11
25.0
 21
774.4875
 31
0.0
  0
LINE
  5
E2
330
1D
100
AcDbEntity
  8
0
100
AcDbLine
 10
25.0
 20
797.7975
 30
0.0
 11
25.0
 21
786.4135
 31
0.0
  0
LINE
  5
E3
330
1D
100
AcDbEntity
  8
0
100
AcDbLine
 10
25.0
 20
797.7975
 30
0.0
 11
25.0
 21
807.8815
 31
0.0
  0
LINE
  5
E4
330
1D
100
AcDbEntity
  8
0
100
AcDbLine
 10
25.0
 20
807.8815
 30
0.0
 11
25.0
 21
816.6635
 31
0.0
  0
LINE
  5
E5
330
1D
100
AcDbEntity
  8
0
100
AcDbLine
 10
25.0
 20
816.6635
 30
0.0
 11
25.0
 21
807.8815
 31
0.0
  0
LINE
  5
E6
330
1D
100
AcDbEntity
  8
0
100
AcDbLine
 10
25.0
 20
816.6635
 30
0.0
 11
25.0
 21
824.3615
 31
0.0
  0
LINE
  5
E7
330
1D
100
AcDbEntity
  8
0
100
AcDbLine
 10
25.0
 20
824.3615
 30
0.0
 11
25.0
 21
816.6635
 31
0.0
  0
LINE
  5
E8
330
1D
100
AcDbEntity
  8
0
100
AcDbLine
 10
25.0
 20
824.3615
 30
0.0
 11
25.0
 21
830.1075
 31
0.0
  0
LINE
  5
E9
330
1D
100
AcDbEntity
  8
0
100
AcDbLine
 10
25.0
 20
830.1075
 30
0.0
 11
25.0
 21
824.3615
 31
0.0
  0
LINE
  5
EA
330
1D
100
AcDbEntity
  8
0
100
AcDbLine
 10
25.0
 20
830.1075
 30
0.0
 11
25.0
 21
834.4445
 31
0.0
  0
LINE
  5
EB
330
1D
100
AcDbEntity
  8
0
100
AcDbLine
 10
25.0
 20
834.4445
 30
0.0
 11
25.0
 21
830.1075
 31
0.0
  0
LINE
  5
EC
330
1D
100
AcDbEntity
  8
0
100
AcDbLine
 10
25.0
 20
834.4445
 30
0.0
 11
25.0
 21
837.0465
 31
0.0
  0
LINE
  5
ED
330
1D
100
AcDbEntity
  8
0
100
AcDbLine
 10
25.0
 20
837.0465
 30
0.0
 11
25.0
 21
834.4445
 31
0.0
  0
LINE
  5
EE
330
1D
100
AcDbEntity
  8
0
100
AcDbLine
 10
25.0
 20
837.0465
 30
0.0
 11
25.0
 21
838.1305
 31
0.0
  0
LINE
  5
EF
330
1D
100
AcDbEntity
  8
0
100
AcDbLine
 10
25.0
 20
838.1305
 30
0.0
 11
25.0
 21
837.0465
 31
0.0
  0
LINE
  5
F0
330
1D
100
AcDbEntity
  8
0
100
AcDbLine
 10
25.0
 20
786.4135
 30
0.0
 11
25.0
 21
774.4875
 31
0.0
  0
LINE
  5
F1
330
1D
100
AcDbEntity
  8
0
100
AcDbLine
 10
25.0
 20
786.4135
 30
0.0
 11
25.0
 21
797.7975
 31
0.0
  0
LINE
  5
F2
330
1D
100
AcDbEntity
  8
0
100
AcDbLine
 10
25.0
 20
774.4875
 30
0.0
 11
25.0
 21
761.6935
 31
0.0
  0
LINE
  5
F3
330
1D
100
AcDbEntity
  8
0
100
AcDbLine
 10
25.0
 20
774.4875
 30
0.0
 11
25.0
 21
786.4135
 31
0.0
  0
LINE
  5
F4
330
1D
100
AcDbEntity
  8
0
100
AcDbLine
 10
25.0
 20
748.5745
 30
0.0
 11
25.0
 21
735.1305
 31
0.0
  0
LINE
  5
F5
330
1D
100
AcDbEntity
  8
0
100
AcDbLine
 10
25.0
 20
748.5745
 30
0.0
 11
25.0
 21
761.6935
 31
0.0
  0
LINE
  5
F6
330
1D
100
AcDbEntity
  8
0
100
AcDbLine
 10
25.0
 20
735.1305
 30
0.0
 11
25.0
 21
721.6865
 31
0.0
  0
LINE
  5
F7
330
1D
100
AcDbEntity
  8
0
100
AcDbLine
 10
25.0
 20
735.1305
 30
0.0
 11
25.0
 21
748.5745
 31
0.0
  0
LINE
  5
F8
330
1D
100
AcDbEntity
  8
0
100
AcDbLine
 10
25.0
 20
635.8165
 30
0.0
 11
25.0
 21
633.2145
 31
0.0
  0
LINE
  5
F9
330
1D
100
AcDbEntity
  8
0
100
AcDbLine
 10
25.0
 20
635.8165
 30
0.0
 11
25.0
 21
640.1535
 31
0.0
  0
LINE
  5
FA
330
1D
100
AcDbEntity
  8
0
100
AcDbLine
 10
25.0
 20
633.2145
 30
0.0
 11
25.0
 21
632.1305
 31
0.0
  0
LINE
  5
FB
330
1D
100
AcDbEntity
  8
0
100
AcDbLine
 10
25.0
 20
633.2145
 30
0.0
 11
25.0
 21
635.8165
 31
0.0
  0
LINE
  5
FC
330
1D
100
AcDbEntity
  8
0
100
AcDbLine
 10
24.0
 20
695.7735
 30
0.0
 11
24.0
 21
705.294507774516
 31
0.0
  0
LINE
  5
FD
330
1D
100
AcDbEntity
  8
0
100
AcDbLine
 10
24.0
 20
695.7735
 30
0.0
 11
24.0
 21
683.8475
 31
0.0
  0
LINE
  5
FE
330
1D
100
AcDbEntity
  8
0
100
AcDbLine
 10
24.0
 20
695.7735
 30
0.0
 11
24.0
 21
708.5675
 31
0.0
  0
LINE
  5
FF
330
1D
100
AcDbEntity
  8
0
100
AcDbLine
 10
29.0
 20
135.1305
 30
0.0
 11
29.0
 21
117.5095
 31
0.0
  0
LINE
  5
100
330
1D
100
AcDbEntity
  8
0
100
AcDbLine
 10
29.0
 20
135.1305
 30
0.0
 11
29.0
 21
152.7515
 31
0.0
  0
LINE
  5
101
330
1D
100
AcDbEntity
  8
0
100
AcDbLine
 10
29.0
 20
74.1305
 30
0.0
 11
29.0
 21
67.9147
 31
0.0
  0
LINE
  5
102
330
1D
100
AcDbEntity
  8
0
100
AcDbLine
 10
29.0
 20
52.9937
 30
0.0
 11
29.0
 21
67.9147
 31
0.0
  0
LINE
  5
103
330
1D
100
AcDbEntity
  8
0
100
AcDbLine
 10
30.0
 20
0.1305
 30
0.0
 11
30.0
 21
1.55155
 31
0.0
  0
LINE
  5
104
330
1D
100
AcDbEntity
  8
0
100
AcDbLine
 10
29.0
 20
152.7515
 30
0.0
 11
29.0
 21
169.9465
 31
0.0
  0
LINE
  5
105
330
1D
100
AcDbEntity
  8
0
100
AcDbLine
 10
29.0
 20
186.7145
 30
0.0
 11
29.0
 21
169.9465
 31
0.0
  0
LINE
  5
106
330
1D
100
AcDbEntity
  8
0
100
AcDbLine
 10
29.0
 20
186.7145
 30
0.0
 11
29.0
 21
202.3465
 31
0.0
  0
LINE
  5
107
330
1D
100
AcDbEntity
  8
0
100
AcDbLine
 10
29.0
 20
169.9465
 30
0.0
 11
29.0
 21
152.7515
 31
0.0
  0
LINE
  5
108
330
1D
100
AcDbEntity
  8
0
100
AcDbLine
 10
29.0
 20
169.9465
 30
0.0
 11
29.0
 21
186.7145
 31
0.0
  0
LINE
  5
109
330
1D
100
AcDbEntity
  8
0
100
AcDbLine
 10
29.0
 20
217.2675
 30
0.0
 11
29.0
 21
230.4835
 31
0.0
  0
LINE
  5
10A
330
1D
100
AcDbEntity
  8
0
100
AcDbLine
 10
29.0
 20
217.2675
 30
0.0
 11
29.0
 21
202.3465
 31
0.0
  0
LINE
  5
10B
330
1D
100
AcDbEntity
  8
0
100
AcDbLine
 10
29.0
 20
202.3465
 30
0.0
 11
29.0
 21
217.2675
 31
0.0
  0
LINE
  5
10C
330
1D
100
AcDbEntity
  8
0
100
AcDbLine
 10
29.0
 20
202.3465
 30
0.0
 11
29.0
 21
196.1305
 31
0.0
  0
LINE
  5
10D
330
1D
100
AcDbEntity
  8
0
100
AcDbLine
 10
29.0
 20
202.3465
 30
0.0
 11
29.0
 21
186.7145
 31
0.0
  0
LINE
  5
10E
330
1D
100
AcDbEntity
  8
0
100
AcDbLine
 10
29.0
 20
196.1305
 30
0.0
 11
29.0
 21
202.3465
 31
0.0
  0
LINE
  5
10F
330
1D
100
AcDbEntity
  8
0
100
AcDbLine
 10
29.0
 20
230.4835
 30
0.0
 11
29.0
 21
241.9935
 31
0.0
  0
LINE
  5
110
330
1D
100
AcDbEntity
  8
0
100
AcDbLine
 10
29.0
 20
230.4835
 30
0.0
 11
29.0
 21
217.2675
 31
0.0
  0
LINE
  5
111
330
1D
100
AcDbEntity
  8
0
100
AcDbLine
 10
29.0
 20
241.9935
 30
0.0
 11
29.0
 21
252.0835
 31
0.0
  0
LINE
  5
112
330
1D
100
AcDbEntity
  8
0
100
AcDbLine
 10
29.0
 20
241.9935
 30
0.0
 11
29.0
 21
230.4835
 31
0.0
  0
LINE
  5
113
330
1D
100
AcDbEntity
  8
0
100
AcDbLine
 10
29.0
 20
252.0835
 30
0.0
 11
29.0
 21
259.6145
 31
0.0
  0
LINE
  5
114
330
1D
100
AcDbEntity
  8
0
100
AcDbLine
 10
29.0
 20
259.6145
 30
0.0
 11
29.0
 21
265.2985
 31
0.0
  0
LINE
  5
115
330
1D
100
AcDbEntity
  8
0
100
AcDbLine
 10
29.0
 20
259.6145
 30
0.0
 11
29.0
 21
252.0835
 31
0.0
  0
LINE
  5
116
330
1D
100
AcDbEntity
  8
0
100
AcDbLine
 10
29.0
 20
265.2985
 30
0.0
 11
29.0
 21
268.7095
 31
0.0
  0
LINE
  5
117
330
1D
100
AcDbEntity
  8
0
100
AcDbLine
 10
29.0
 20
265.2985
 30
0.0
 11
29.0
 21
259.6145
 31
0.0
  0
LINE
  5
118
330
1D
100
AcDbEntity
  8
0
100
AcDbLine
 10
29.0
 20
268.7095
 30
0.0
 11
29.0
 21
270.1305
 31
0.0
  0
LINE
  5
119
330
1D
100
AcDbEntity
  8
0
100
AcDbLine
 10
29.0
 20
268.7095
 30
0.0
 11
29.0
 21
265.2985
 31
0.0
  0
LINE
  5
11A
330
1D
100
AcDbEntity
  8
0
100
AcDbLine
 10
29.0
 20
270.1305
 30
0.0
 11
30.0
 21
270.1305
 31
0.0
  0
LINE
  5
11B
330
1D
100
AcDbEntity
  8
0
100
AcDbLine
 10
29.0
 20
270.1305
 30
0.0
 11
29.0
 21
268.7095
 31
0.0
  0
LINE
  5
11C
330
1D
100
AcDbEntity
  8
0
100
AcDbLine
 10
30.0
 20
39.7779
 30
0.0
 11
30.0
 21
28.2673
 31
0.0
  0
LINE
  5
11D
330
1D
100
AcDbEntity
  8
0
100
AcDbLine
 10
30.0
 20
39.7779
 30
0.0
 11
30.0
 21
52.9937
 31
0.0
  0
LINE
  5
11E
330
1D
100
AcDbEntity
  8
0
100
AcDbLine
 10
30.0
 20
28.2673
 30
0.0
 11
30.0
 21
18.1779
 31
0.0
  0
LINE
  5
11F
330
1D
100
AcDbEntity
  8
0
100
AcDbLine
 10
30.0
 20
28.2673
 30
0.0
 11
30.0
 21
39.7779
 31
0.0
  0
LINE
  5
120
330
1D
100
AcDbEntity
  8
0
100
AcDbLine
 10
30.0
 20
18.1779
 30
0.0
 11
30.0
 21
10.6463
 31
0.0
  0
LINE
  5
121
330
1D
100
AcDbEntity
  8
0
100
AcDbLine
 10
30.0
 20
18.1779
 30
0.0
 11
30.0
 21
28.2673
 31
0.0
  0
LINE
  5
122
330
1D
100
AcDbEntity
  8
0
100
AcDbLine
 10
30.0
 20
10.6463
 30
0.0
 11
30.0
 21
4.96208
 31
0.0
  0
LINE
  5
123
330
1D
100
AcDbEntity
  8
0
100
AcDbLine
 10
30.0
 20
10.6463
 30
0.0
 11
30.0
 21
18.1779
 31
0.0
  0
LINE
  5
124
330
1D
100
AcDbEntity
  8
0
100
AcDbLine
 10
30.0
 20
52.9937
 30
0.0
 11
30.0
 21
67.9147
 31
0.0
  0
LINE
  5
125
330
1D
100
AcDbEntity
  8
0
100
AcDbLine
 10
30.0
 20
74.1305
 30
0.0
 11
35.0
 21
74.1305
 31
0.0
  0
LINE
  5
126
330
1D
100
AcDbEntity
  8
0
100
AcDbLine
 10
30.0
 20
67.9147
 30
0.0
 11
30.0
 21
52.9937
 31
0.0
  0
LINE
  5
127
330
1D
100
AcDbEntity
  8
0
100
AcDbLine
 10
30.0
 20
67.9147
 30
0.0
 11
30.0
 21
83.5463
 31
0.0
  0
LINE
  5
128
330
1D
100
AcDbEntity
  8
0
100
AcDbLine
 10
30.0
 20
83.5463
 30
0.0
 11
30.0
 21
67.9147
 31
0.0
  0
LINE
  5
129
330
1D
100
AcDbEntity
  8
0
100
AcDbLine
 10
30.0
 20
83.5463
 30
0.0
 11
30.0
 21
100.3145
 31
0.0
  0
LINE
  5
12A
330
1D
100
AcDbEntity
  8
0
100
AcDbLine
 10
30.0
 20
100.3145
 30
0.0
 11
30.0
 21
83.5463
 31
0.0
  0
LINE
  5
12B
330
1D
100
AcDbEntity
  8
0
100
AcDbLine
 10
30.0
 20
100.3145
 30
0.0
 11
30.0
 21
117.5095
 31
0.0
  0
LINE
  5
12C
330
1D
100
AcDbEntity
  8
0
100
AcDbLine
 10
35.0
 20
59.7745
 30
0.0
 11
35.0
 21
60.1585
 31
0.0
  0
LINE
  5
12D
330
1D
100
AcDbEntity
  8
0
100
AcDbLine
 10
35.0
 20
59.7745
 30
0.0
 11
35.0
 21
59.6305
 31
0.0
  0
LINE
  5
12E
330
1D
100
AcDbEntity
  8
0
100
AcDbLine
 10
35.0
 20
60.6305
 30
0.0
 11
35.0
 21
65.6305
 31
0.0
  0
LINE
  5
12F
330
1D
100
AcDbEntity
  8
0
100
AcDbLine
 10
35.0
 20
60.1585
 30
0.0
 11
35.0
 21
60.7985
 31
0.0
  0
LINE
  5
130
330
1D
100
AcDbEntity
  8
0
100
AcDbLine
 10
35.0
 20
60.1585
 30
0.0
 11
35.0
 21
59.7745
 31
0.0
  0
LINE
  5
131
330
1D
100
AcDbEntity
  8
0
100
AcDbLine
 10
35.0
 20
60.7985
 30
0.0
 11
35.0
 21
61.6465
 31
0.0
  0
LINE
  5
132
330
1D
100
AcDbEntity
  8
0
100
AcDbLine
 10
35.0
 20
60.7985
 30
0.0
 11
35.0
 21
60.1585
 31
0.0
  0
LINE
  5
133
330
1D
100
AcDbEntity
  8
0
100
AcDbLine
 10
35.0
 20
62.5679
 30
0.0
 11
35.0
 21
74.1305
 31
0.0
  0
LINE
  5
134
330
1D
100
AcDbEntity
  8
0
100
AcDbLine
 10
35.0
 20
62.5679
 30
0.0
 11
35.0
 21
63.826
 31
0.0
  0
LINE
  5
135
330
1D
100
AcDbEntity
  8
0
100
AcDbLine
 10
35.0
 20
62.5679
 30
0.0
 11
35.0
 21
86.2923
 31
0.0
  0
LINE
  5
136
330
1D
100
AcDbEntity
  8
0
100
AcDbLine
 10
35.0
 20
63.826
 30
0.0
 11
35.0
 21
62.5679
 31
0.0
  0
LINE
  5
137
330
1D
100
AcDbEntity
  8
0
100
AcDbLine
 10
35.0
 20
63.826
 30
0.0
 11
35.0
 21
74.1305
 31
0.0
  0
LINE
  5
138
330
1D
100
AcDbEntity
  8
0
100
AcDbLine
 10
35.0
 20
63.826
 30
0.0
 11
35.0
 21
84.9443
 31
0.0
  0
LINE
  5
139
330
1D
100
AcDbEntity
  8
0
100
AcDbLine
 10
35.0
 20
65.6305
 30
0.0
 11
35.0
 21
60.6305
 31
0.0
  0
LINE
  5
13A
330
1D
100
AcDbEntity
  8
0
100
AcDbLine
 10
35.0
 20
65.2408
 30
0.0
 11
35.0
 21
65.3848
 31
0.0
  0
LINE
  5
13B
330
1D
100
AcDbEntity
  8
0
100
AcDbLine
 10
35.0
 20
65.3848
 30
0.0
 11
35.0
 21
65.7688
 31
0.0
  0
LINE
  5
13C
330
1D
100
AcDbEntity
  8
0
100
AcDbLine
 10
35.0
 20
65.3848
 30
0.0
 11
35.0
 21
65.2408
 31
0.0
  0
LINE
  5
13D
330
1D
100
AcDbEntity
  8
0
100
AcDbLine
 10
35.0
 20
66.3154
 30
0.0
 11
35.0
 21
74.1305
 31
0.0
  0
LINE
  5
13E
330
1D
100
AcDbEntity
  8
0
100
AcDbLine
 10
35.0
 20
66.3154
 30
0.0
 11
35.0
 21
65.9729
 31
0.0
  0
LINE
  5
13F
330
1D
100
AcDbEntity
  8
0
100
AcDbLine
 10
35.0
 20
66.3154
 30
0.0
 11
35.0
 21
77.4855
 31
0.0
  0
LINE
  5
140
330
1D
100
AcDbEntity
  8
0
100
AcDbLine
 10
35.0
 20
65.9729
 30
0.0
 11
35.0
 21
66.3154
 31
0.0
  0
LINE
  5
141
330
1D
100
AcDbEntity
  8
0
100
AcDbLine
 10
35.0
 20
65.9729
 30
0.0
 11
35.0
 21
74.1305
 31
0.0
  0
LINE
  5
142
330
1D
100
AcDbEntity
  8
0
100
AcDbLine
 10
35.0
 20
65.9729
 30
0.0
 11
35.0
 21
76.6767
 31
0.0
  0
LINE
  5
143
330
1D
100
AcDbEntity
  8
0
100
AcDbLine
 10
35.0
 20
65.7688
 30
0.0
 11
35.0
 21
66.4088
 31
0.0
  0
LINE
  5
144
330
1D
100
AcDbEntity
  8
0
100
AcDbLine
 10
35.0
 20
65.7688
 30
0.0
 11
35.0
 21
65.3848
 31
0.0
  0
LINE
  5
145
330
1D
100
AcDbEntity
  8
0
100
AcDbLine
 10
35.0
 20
66.4088
 30
0.0
 11
35.0
 21
67.2568
 31
0.0
  0
LINE
  5
146
330
1D
100
AcDbEntity
  8
0
100
AcDbLine
 10
35.0
 20
66.4088
 30
0.0
 11
35.0
 21
65.7688
 31
0.0
  0
LINE
  5
147
330
1D
100
AcDbEntity
  8
0
100
AcDbLine
 10
35.0
 20
67.2568
 30
0.0
 11
35.0
 21
68.2168
 31
0.0
  0
LINE
  5
148
330
1D
100
AcDbEntity
  8
0
100
AcDbLine
 10
35.0
 20
67.2568
 30
0.0
 11
35.0
 21
66.4088
 31
0.0
  0
LINE
  5
149
330
1D
100
AcDbEntity
  8
0
100
AcDbLine
 10
35.0
 20
72.7128
 30
0.0
 11
35.0
 21
72.0728
 31
0.0
  0
LINE
  5
14A
330
1D
100
AcDbEntity
  8
0
100
AcDbLine
 10
35.0
 20
72.7128
 30
0.0
 11
35.0
 21
73.0968
 31
0.0
  0
LINE
  5
14B
330
1D
100
AcDbEntity
  8
0
100
AcDbLine
 10
35.0
 20
72.0728
 30
0.0
 11
35.0
 21
71.2248
 31
0.0
  0
LINE
  5
14C
330
1D
100
AcDbEntity
  8
0
100
AcDbLine
 10
35.0
 20
72.0728
 30
0.0
 11
35.0
 21
72.7128
 31
0.0
  0
LINE
  5
14D
330
1D
100
AcDbEntity
  8
0
100
AcDbLine
 10
35.0
 20
71.2248
 30
0.0
 11
35.0
 21
70.2648
 31
0.0
  0
LINE
  5
14E
330
1D
100
AcDbEntity
  8
0
100
AcDbLine
 10
35.0
 20
71.2248
 30
0.0
 11
35.0
 21
72.0728
 31
0.0
  0
LINE
  5
14F
330
1D
100
AcDbEntity
  8
0
100
AcDbLine
 10
35.0
 20
70.2648
 30
0.0
 11
35.0
 21
69.2408
 31
0.0
  0
LINE
  5
150
330
1D
100
AcDbEntity
  8
0
100
AcDbLine
 10
35.0
 20
70.2648
 30
0.0
 11
35.0
 21
71.2248
 31
0.0
  0
LINE
  5
151
330
1D
100
AcDbEntity
  8
0
100
AcDbLine
 10
35.0
 20
69.2408
 30
0.0
 11
35.0
 21
68.2168
 31
0.0
  0
LINE
  5
152
330
1D
100
AcDbEntity
  8
0
100
AcDbLine
 10
35.0
 20
69.2408
 30
0.0
 11
35.0
 21
70.2648
 31
0.0
  0
LINE
  5
153
330
1D
100
AcDbEntity
  8
0
100
AcDbLine
 10
35.0
 20
68.2168
 30
0.0
 11
35.0
 21
69.2408
 31
0.0
  0
LINE
  5
154
330
1D
100
AcDbEntity
  8
0
100
AcDbLine
 10
35.0
 20
68.2168
 30
0.0
 11
35.0
 21
67.2568
 31
0.0
  0
LINE
  5
155
330
1D
100
AcDbEntity
  8
0
100
AcDbLine
 10
35.0
 20
67.6305
 30
0.0
 11
35.0
 21
67.4865
 31
0.0
  0
LINE
  5
156
330
1D
100
AcDbEntity
  8
0
100
AcDbLine
 10
35.0
 20
67.4865
 30
0.0
 11
35.0
 21
67.1025
 31
0.0
  0
LINE
  5
157
330
1D
100
AcDbEntity
  8
0
100
AcDbLine
 10
35.0
 20
67.4865
 30
0.0
 11
35.0
 21
67.6305
 31
0.0
  0
LINE
  5
158
330
1D
100
AcDbEntity
  8
0
100
AcDbLine
 10
35.0
 20
67.1025
 30
0.0
 11
35.0
 21
66.4625
 31
0.0
  0
LINE
  5
159
330
1D
100
AcDbEntity
  8
0
100
AcDbLine
 10
35.0
 20
67.1025
 30
0.0
 11
35.0
 21
67.4865
 31
0.0
  0
LINE
  5
15A
330
1D
100
AcDbEntity
  8
0
100
AcDbLine
 10
35.0
 20
66.4625
 30
0.0
 11
35.0
 21
65.6145
 31
0.0
  0
LINE
  5
15B
330
1D
100
AcDbEntity
  8
0
100
AcDbLine
 10
35.0
 20
66.4625
 30
0.0
 11
35.0
 21
67.1025
 31
0.0
  0
LINE
  5
15C
330
1D
100
AcDbEntity
  8
0
100
AcDbLine
 10
35.0
 20
65.6145
 30
0.0
 11
35.0
 21
64.6545
 31
0.0
  0
LINE
  5
15D
330
1D
100
AcDbEntity
  8
0
100
AcDbLine
 10
35.0
 20
65.6145
 30
0.0
 11
35.0
 21
66.4625
 31
0.0
  0
LINE
  5
15E
330
1D
100
AcDbEntity
  8
0
100
AcDbLine
 10
35.0
 20
64.6545
 30
0.0
 11
35.0
 21
63.6305
 31
0.0
  0
LINE
  5
15F
330
1D
100
AcDbEntity
  8
0
100
AcDbLine
 10
35.0
 20
64.6545
 30
0.0
 11
35.0
 21
65.6145
 31
0.0
  0
LINE
  5
160
330
1D
100
AcDbEntity
  8
0
100
AcDbLine
 10
35.0
 20
63.6305
 30
0.0
 11
35.0
 21
62.6065
 31
0.0
  0
LINE
  5
161
330
1D
100
AcDbEntity
  8
0
100
AcDbLine
 10
35.0
 20
63.6305
 30
0.0
 11
35.0
 21
64.6545
 31
0.0
  0
LINE
  5
162
330
1D
100
AcDbEntity
  8
0
100
AcDbLine
 10
35.0
 20
61.6465
 30
0.0
 11
35.0
 21
62.6065
 31
0.0
  0
LINE
  5
163
330
1D
100
AcDbEntity
  8
0
100
AcDbLine
 10
35.0
 20
61.6465
 30
0.0
 11
35.0
 21
60.7985
 31
0.0
  0
LINE
  5
164
330
1D
100
AcDbEntity
  8
0
100
AcDbLine
 10
35.0
 20
62.6065
 30
0.0
 11
35.0
 21
63.6305
 31
0.0
  0
LINE
  5
165
330
1D
100
AcDbEntity
  8
0
100
AcDbLine
 10
35.0
 20
62.6065
 30
0.0
 11
35.0
 21
61.6465
 31
0.0
  0
LINE
  5
166
330
1D
100
AcDbEntity
  8
0
100
AcDbLine
 10
35.0
 20
61.6305
 30
0.0
 11
35.0
 21
59.6305
 31
0.0
  0
LINE
  5
167
330
1D
100
AcDbEntity
  8
0
100
AcDbLine
 10
35.0
 20
61.6305
 30
0.0
 11
35.0
 21
74.1305
 31
0.0
  0
LINE
  5
168
330
1D
100
AcDbEntity
  8
0
100
AcDbLine
 10
35.0
 20
59.6305
 30
0.0
 11
39.0
 21
59.6305
 31
0.0
  0
LINE
  5
169
330
1D
100
AcDbEntity
  8
0
100
AcDbLine
 10
35.0
 20
59.6305
 30
0.0
 11
35.0
 21
61.6305
 31
0.0
  0
LINE
  5
16A
330
1D
100
AcDbEntity
  8
0
100
AcDbLine
 10
35.0
 20
59.6305
 30
0.0
 11
35.0
 21
74.1305
 31
0.0
  0
LINE
  5
16B
330
1D
100
AcDbEntity
  8
0
100
AcDbLine
 10
35.0
 20
59.6305
 30
0.0
 11
35.0
 21
59.7745
 31
0.0
  0
LINE
  5
16C
330
1D
100
AcDbEntity
  8
0
100
AcDbLine
 10
35.0
 20
59.6305
 30
0.0
 11
35.0
 21
109.6305
 31
0.0
  0
LINE
  5
16D
330
1D
100
AcDbEntity
  8
0
100
AcDbLine
 10
35.0
 20
73.2408
 30
0.0
 11
35.0
 21
73.0968
 31
0.0
  0
LINE
  5
16E
330
1D
100
AcDbEntity
  8
0
100
AcDbLine
 10
35.0
 20
73.0968
 30
0.0
 11
35.0
 21
72.7128
 31
0.0
  0
LINE
  5
16F
330
1D
100
AcDbEntity
  8
0
100
AcDbLine
 10
35.0
 20
73.0968
 30
0.0
 11
35.0
 21
73.2408
 31
0.0
  0
LINE
  5
170
330
1D
100
AcDbEntity
  8
0
100
AcDbLine
 10
35.0
 20
74.1305
 30
0.0
 11
35.0
 21
72.8865
 31
0.0
  0
LINE
  5
171
330
1D
100
AcDbEntity
  8
0
100
AcDbLine
 10
35.0
 20
74.1305
 30
0.0
 11
35.0
 21
59.6305
 31
0.0
  0
LINE
  5
172
330
1D
100
AcDbEntity
  8
0
100
AcDbLine
 10
35.0
 20
74.1305
 30
0.0
 11
35.0
 21
63.826
 31
0.0
  0
LINE
  5
173
330
1D
100
AcDbEntity
  8
0
100
AcDbLine
 10
35.0
 20
74.1305
 30
0.0
 11
35.0
 21
62.5679
 31
0.0
  0
LINE
  5
174
330
1D
100
AcDbEntity
  8
0
100
AcDbLine
 10
35.0
 20
74.1305
 30
0.0
 11
35.0
 21
65.9729
 31
0.0
  0
LINE
  5
175
330
1D
100
AcDbEntity
  8
0
100
AcDbLine
 10
35.0
 20
74.1305
 30
0.0
 11
35.0
 21
66.3154
 31
0.0
  0
LINE
  5
176
330
1D
100
AcDbEntity
  8
0
100
AcDbLine
 10
35.0
 20
72.8865
 30
0.0
 11
35.0
 21
74.1305
 31
0.0
  0
LINE
  5
177
330
1D
100
AcDbEntity
  8
0
100
AcDbLine
 10
35.0
 20
72.8865
 30
0.0
 11
35.0
 21
72.1305
 31
0.0
  0
LINE
  5
178
330
1D
100
AcDbEntity
  8
0
100
AcDbLine
 10
35.0
 20
72.8865
 30
0.0
 11
35.0
 21
74.3985
 31
0.0
  0
LINE
  5
179
330
1D
100
AcDbEntity
  8
0
100
AcDbLine
 10
39.0
 20
61.6465
 30
0.0
 11
39.0
 21
60.7985
 31
0.0
  0
LINE
  5
17A
330
1D
100
AcDbEntity
  8
0
100
AcDbLine
 10
39.0
 20
60.1585
 30
0.0
 11
39.0
 21
60.7985
 31
0.0
  0
LINE
  5
17B
330
1D
100
AcDbEntity
  8
0
100
AcDbLine
 10
39.0
 20
60.7985
 30
0.0
 11
39.0
 21
61.6465
 31
0.0
  0
LINE
  5
17C
330
1D
100
AcDbEntity
  8
0
100
AcDbLine
 10
39.0
 20
60.7985
 30
0.0
 11
39.0
 21
60.1585
 31
0.0
  0
LINE
  5
17D
330
1D
100
AcDbEntity
  8
0
100
AcDbLine
 10
39.0
 20
59.6305
 30
0.0
 11
39.0
 21
109.6305
 31
0.0
  0
LINE
  5
17E
330
1D
100
AcDbEntity
  8
0
100
AcDbLine
 10
35.0
 20
72.1305
 30
0.0
 11
35.0
 21
72.8865
 31
0.0
  0
LINE
  5
17F
330
1D
100
AcDbEntity
  8
0
100
AcDbLine
 10
35.0
 20
76.6767
 30
0.0
 11
35.0
 21
65.9729
 31
0.0
  0
LINE
  5
180
330
1D
100
AcDbEntity
  8
0
100
AcDbLine
 10
35.0
 20
76.6767
 30
0.0
 11
35.0
 21
77.4855
 31
0.0
  0
LINE
  5
181
330
1D
100
AcDbEntity
  8
0
100
AcDbLine
 10
35.0
 20
84.6517
 30
0.0
 11
35.0
 21
84.7957
 31
0.0
  0
LINE
  5
182
330
1D
100
AcDbEntity
  8
0
100
AcDbLine
 10
35.0
 20
84.7957
 30
0.0
 11
35.0
 21
85.1797
 31
0.0
  0
LINE
  5
183
330
1D
100
AcDbEntity
  8
0
100
AcDbLine
 10
35.0
 20
84.7957
 30
0.0
 11
35.0
 21
84.6517
 31
0.0
  0
LINE
  5
184
330
1D
100
AcDbEntity
  8
0
100
AcDbLine
 10
35.0
 20
85.1797
 30
0.0
 11
35.0
 21
85.8197
 31
0.0
  0
LINE
  5
185
330
1D
100
AcDbEntity
  8
0
100
AcDbLine
 10
35.0
 20
85.1797
 30
0.0
 11
35.0
 21
84.7957
 31
0.0
  0
LINE
  5
186
330
1D
100
AcDbEntity
  8
0
100
AcDbLine
 10
35.0
 20
84.9443
 30
0.0
 11
35.0
 21
63.826
 31
0.0
  0
LINE
  5
187
330
1D
100
AcDbEntity
  8
0
100
AcDbLine
 10
35.0
 20
84.9443
 30
0.0
 11
35.0
 21
86.2923
 31
0.0
  0
LINE
  5
188
330
1D
100
AcDbEntity
  8
0
100
AcDbLine
 10
35.0
 20
77.4855
 30
0.0
 11
35.0
 21
76.6767
 31
0.0
  0
LINE
  5
189
330
1D
100
AcDbEntity
  8
0
100
AcDbLine
 10
35.0
 20
77.4855
 30
0.0
 11
35.0
 21
66.3154
 31
0.0
  0
LINE
  5
18A
330
1D
100
AcDbEntity
  8
0
100
AcDbLine
 10
35.0
 20
85.8197
 30
0.0
 11
35.0
 21
86.6677
 31
0.0
  0
LINE
  5
18B
330
1D
100
AcDbEntity
  8
0
100
AcDbLine
 10
35.0
 20
85.8197
 30
0.0
 11
35.0
 21
85.1797
 31
0.0
  0
LINE
  5
18C
330
1D
100
AcDbEntity
  8
0
100
AcDbLine
 10
35.0
 20
86.6677
 30
0.0
 11
35.0
 21
87.6277
 31
0.0
  0
LINE
  5
18D
330
1D
100
AcDbEntity
  8
0
100
AcDbLine
 10
35.0
 20
86.6677
 30
0.0
 11
35.0
 21
85.8197
 31
0.0
  0
LINE
  5
18E
330
1D
100
AcDbEntity
  8
0
100
AcDbLine
 10
35.0
 20
92.6517
 30
0.0
 11
35.0
 21
92.5077
 31
0.0
  0
LINE
  5
18F
330
1D
100
AcDbEntity
  8
0
100
AcDbLine
 10
35.0
 20
92.5077
 30
0.0
 11
35.0
 21
92.1237
 31
0.0
  0
LINE
  5
190
330
1D
100
AcDbEntity
  8
0
100
AcDbLine
 10
35.0
 20
92.5077
 30
0.0
 11
35.0
 21
92.6517
 31
0.0
  0
LINE
  5
191
330
1D
100
AcDbEntity
  8
0
100
AcDbLine
 10
35.0
 20
92.1237
 30
0.0
 11
35.0
 21
91.4837
 31
0.0
  0
LINE
  5
192
330
1D
100
AcDbEntity
  8
0
100
AcDbLine
 10
35.0
 20
92.1237
 30
0.0
 11
35.0
 21
92.5077
 31
0.0
  0
LINE
  5
193
330
1D
100
AcDbEntity
  8
0
100
AcDbLine
 10
35.0
 20
91.4837
 30
0.0
 11
35.0
 21
90.6357
 31
0.0
  0
LINE
  5
194
330
1D
100
AcDbEntity
  8
0
100
AcDbLine
 10
35.0
 20
91.4837
 30
0.0
 11
35.0
 21
92.1237
 31
0.0
  0
LINE
  5
195
330
1D
100
AcDbEntity
  8
0
100
AcDbLine
 10
35.0
 20
90.6357
 30
0.0
 11
35.0
 21
89.6757
 31
0.0
  0
LINE
  5
196
330
1D
100
AcDbEntity
  8
0
100
AcDbLine
 10
35.0
 20
90.6357
 30
0.0
 11
35.0
 21
91.4837
 31
0.0
  0
LINE
  5
197
330
1D
100
AcDbEntity
  8
0
100
AcDbLine
 10
35.0
 20
89.6757
 30
0.0
 11
35.0
 21
88.6517
 31
0.0
  0
LINE
  5
198
330
1D
100
AcDbEntity
  8
0
100
AcDbLine
 10
35.0
 20
89.6757
 30
0.0
 11
35.0
 21
90.6357
 31
0.0
  0
LINE
  5
199
330
1D
100
AcDbEntity
  8
0
100
AcDbLine
 10
35.0
 20
88.6517
 30
0.0
 11
35.0
 21
87.6277
 31
0.0
  0
LINE
  5
19A
330
1D
100
AcDbEntity
  8
0
100
AcDbLine
 10
35.0
 20
88.6517
 30
0.0
 11
35.0
 21
89.6757
 31
0.0
  0
LINE
  5
19B
330
1D
100
AcDbEntity
  8
0
100
AcDbLine
 10
35.0
 20
87.6277
 30
0.0
 11
35.0
 21
88.6517
 31
0.0
  0
LINE
  5
19C
330
1D
100
AcDbEntity
  8
0
100
AcDbLine
 10
35.0
 20
87.6277
 30
0.0
 11
35.0
 21
86.6677
 31
0.0
  0
LINE
  5
19D
330
1D
100
AcDbEntity
  8
0
100
AcDbLine
 10
35.0
 20
86.2923
 30
0.0
 11
35.0
 21
84.9443
 31
0.0
  0
LINE
  5
19E
330
1D
100
AcDbEntity
  8
0
100
AcDbLine
 10
35.0
 20
86.2923
 30
0.0
 11
35.0
 21
62.5679
 31
0.0
  0
LINE
  5
19F
330
1D
100
AcDbEntity
  8
0
100
AcDbLine
 10
35.0
 20
99.9696
 30
0.0
 11
35.0
 21
108.9605
 31
0.0
  0
LINE
  5
1A0
330
1D
100
AcDbEntity
  8
0
100
AcDbLine
 10
35.0
 20
99.9696
 30
0.0
 11
35.0
 21
97.2722
 31
0.0
  0
LINE
  5
1A1
330
1D
100
AcDbEntity
  8
0
100
AcDbLine
 10
35.0
 20
97.2722
 30
0.0
 11
35.0
 21
99.9696
 31
0.0
  0
LINE
  5
1A2
330
1D
100
AcDbEntity
  8
0
100
AcDbLine
 10
35.0
 20
97.2722
 30
0.0
 11
35.0
 21
107.7025
 31
0.0
  0
LINE
  5
1A3
330
1D
100
AcDbEntity
  8
0
100
AcDbLine
 10
35.0
 20
107.7025
 30
0.0
 11
35.0
 21
97.2722
 31
0.0
  0
LINE
  5
1A4
330
1D
100
AcDbEntity
  8
0
100
AcDbLine
 10
35.0
 20
107.7025
 30
0.0
 11
35.0
 21
108.9605
 31
0.0
  0
LINE
  5
1A5
330
1D
100
AcDbEntity
  8
0
100
AcDbLine
 10
35.0
 20
107.2805
 30
0.0
 11
35.0
 21
107.4245
 31
0.0
  0
LINE
  5
1A6
330
1D
100
AcDbEntity
  8
0
100
AcDbLine
 10
35.0
 20
108.9605
 30
0.0
 11
35.0
 21
107.7025
 31
0.0
  0
LINE
  5
1A7
330
1D
100
AcDbEntity
  8
0
100
AcDbLine
 10
35.0
 20
108.9605
 30
0.0
 11
35.0
 21
99.9696
 31
0.0
  0
LINE
  5
1A8
330
1D
100
AcDbEntity
  8
0
100
AcDbLine
 10
35.0
 20
110.2565
 30
0.0
 11
35.0
 21
109.2965
 31
0.0
  0
LINE
  5
1A9
330
1D
100
AcDbEntity
  8
0
100
AcDbLine
 10
35.0
 20
110.2565
 30
0.0
 11
35.0
 21
111.2805
 31
0.0
  0
LINE
  5
1AA
330
1D
100
AcDbEntity
  8
0
100
AcDbLine
 10
35.0
 20
109.2965
 30
0.0
 11
35.0
 21
108.4485
 31
0.0
  0
LINE
  5
1AB
330
1D
100
AcDbEntity
  8
0
100
AcDbLine
 10
35.0
 20
109.2965
 30
0.0
 11
35.0
 21
110.2565
 31
0.0
  0
LINE
  5
1AC
330
1D
100
AcDbEntity
  8
0
100
AcDbLine
 10
35.0
 20
108.4485
 30
0.0
 11
35.0
 21
107.8085
 31
0.0
  0
LINE
  5
1AD
330
1D
100
AcDbEntity
  8
0
100
AcDbLine
 10
35.0
 20
108.4485
 30
0.0
 11
35.0
 21
109.2965
 31
0.0
  0
LINE
  5
1AE
330
1D
100
AcDbEntity
  8
0
100
AcDbLine
 10
35.0
 20
107.8085
 30
0.0
 11
35.0
 21
107.4245
 31
0.0
  0
LINE
  5
1AF
330
1D
100
AcDbEntity
  8
0
100
AcDbLine
 10
35.0
 20
107.8085
 30
0.0
 11
35.0
 21
108.4485
 31
0.0
  0
LINE
  5
1B0
330
1D
100
AcDbEntity
  8
0
100
AcDbLine
 10
35.0
 20
107.4245
 30
0.0
 11
35.0
 21
107.2805
 31
0.0
  0
LINE
  5
1B1
330
1D
100
AcDbEntity
  8
0
100
AcDbLine
 10
35.0
 20
107.4245
 30
0.0
 11
35.0
 21
107.8085
 31
0.0
  0
LINE
  5
1B2
330
1D
100
AcDbEntity
  8
0
100
AcDbLine
 10
35.0
 20
110.4305
 30
0.0
 11
35.0
 21
109.6305
 31
0.0
  0
LINE
  5
1B3
330
1D
100
AcDbEntity
  8
0
100
AcDbLine
 10
35.0
 20
110.4305
 30
0.0
 11
35.0
 21
61.6305
 31
0.0
  0
LINE
  5
1B4
330
1D
100
AcDbEntity
  8
0
100
AcDbLine
 10
35.0
 20
110.4305
 30
0.0
 11
35.0
 21
136.1305
 31
0.0
  0
LINE
  5
1B5
330
1D
100
AcDbEntity
  8
0
100
AcDbLine
 10
35.0
 20
109.6305
 30
0.0
 11
35.0
 21
59.6305
 31
0.0
  0
LINE
  5
1B6
330
1D
100
AcDbEntity
  8
0
100
AcDbLine
 10
35.0
 20
109.6305
 30
0.0
 11
39.0
 21
109.6305
 31
0.0
  0
LINE
  5
1B7
330
1D
100
AcDbEntity
  8
0
100
AcDbLine
 10
35.0
 20
109.6305
 30
0.0
 11
35.0
 21
110.4305
 31
0.0
  0
LINE
  5
1B8
330
1D
100
AcDbEntity
  8
0
100
AcDbLine
 10
35.0
 20
109.6305
 30
0.0
 11
35.0
 21
160.6305
 31
0.0
  0
LINE
  5
1B9
330
1D
100
AcDbEntity
  8
0
100
AcDbLine
 10
35.0
 20
96.8265
 30
0.0
 11
35.0
 21
90.7785
 31
0.0
  0
LINE
  5
1BA
330
1D
100
AcDbEntity
  8
0
100
AcDbLine
 10
35.0
 20
96.8265
 30
0.0
 11
35.0
 21
103.8825
 31
0.0
  0
LINE
  5
1BB
330
1D
100
AcDbEntity
  8
0
100
AcDbLine
 10
35.0
 20
103.8825
 30
0.0
 11
35.0
 21
96.8265
 31
0.0
  0
LINE
  5
1BC
330
1D
100
AcDbEntity
  8
0
100
AcDbLine
 10
35.0
 20
103.8825
 30
0.0
 11
35.0
 21
111.1905
 31
0.0
  0
LINE
  5
1BD
330
1D
100
AcDbEntity
  8
0
100
AcDbLine
 10
35.0
 20
111.6845
 30
0.0
 11
35.0
 21
113.5465
 31
0.0
  0
LINE
  5
1BE
330
1D
100
AcDbEntity
  8
0
100
AcDbLine
 10
35.0
 20
111.6845
 30
0.0
 11
35.0
 21
113.6545
 31
0.0
  0
LINE
  5
1BF
330
1D
100
AcDbEntity
  8
0
100
AcDbLine
 10
35.0
 20
112.3045
 30
0.0
 11
35.0
 21
111.2805
 31
0.0
  0
LINE
  5
1C0
330
1D
100
AcDbEntity
  8
0
100
AcDbLine
 10
35.0
 20
112.3045
 30
0.0
 11
35.0
 21
113.2645
 31
0.0
  0
LINE
  5
1C1
330
1D
100
AcDbEntity
  8
0
100
AcDbLine
 10
35.0
 20
113.5465
 30
0.0
 11
35.0
 21
115.6145
 31
0.0
  0
LINE
  5
1C2
330
1D
100
AcDbEntity
  8
0
100
AcDbLine
 10
35.0
 20
113.5465
 30
0.0
 11
35.0
 21
111.6845
 31
0.0
  0
LINE
  5
1C3
330
1D
100
AcDbEntity
  8
0
100
AcDbLine
 10
35.0
 20
113.6545
 30
0.0
 11
35.0
 21
111.6845
 31
0.0
  0
LINE
  5
1C4
330
1D
100
AcDbEntity
  8
0
100
AcDbLine
 10
35.0
 20
113.6545
 30
0.0
 11
35.0
 21
115.6145
 31
0.0
  0
LINE
  5
1C5
330
1D
100
AcDbEntity
  8
0
100
AcDbLine
 10
35.0
 20
113.2645
 30
0.0
 11
35.0
 21
112.3045
 31
0.0
  0
LINE
  5
1C6
330
1D
100
AcDbEntity
  8
0
100
AcDbLine
 10
35.0
 20
113.2645
 30
0.0
 11
35.0
 21
114.1125
 31
0.0
  0
LINE
  5
1C7
330
1D
100
AcDbEntity
  8
0
100
AcDbLine
 10
35.0
 20
114.1125
 30
0.0
 11
35.0
 21
113.2645
 31
0.0
  0
LINE
  5
1C8
330
1D
100
AcDbEntity
  8
0
100
AcDbLine
 10
35.0
 20
114.1125
 30
0.0
 11
35.0
 21
114.7525
 31
0.0
  0
LINE
  5
1C9
330
1D
100
AcDbEntity
  8
0
100
AcDbLine
 10
35.0
 20
114.7525
 30
0.0
 11
35.0
 21
114.1125
 31
0.0
  0
LINE
  5
1CA
330
1D
100
AcDbEntity
  8
0
100
AcDbLine
 10
35.0
 20
114.7525
 30
0.0
 11
35.0
 21
115.1365
 31
0.0
  0
LINE
  5
1CB
330
1D
100
AcDbEntity
  8
0
100
AcDbLine
 10
35.0
 20
115.1365
 30
0.0
 11
35.0
 21
114.7525
 31
0.0
  0
LINE
  5
1CC
330
1D
100
AcDbEntity
  8
0
100
AcDbLine
 10
35.0
 20
115.1365
 30
0.0
 11
35.0
 21
115.2805
 31
0.0
  0
LINE
  5
1CD
330
1D
100
AcDbEntity
  8
0
100
AcDbLine
 10
35.0
 20
115.6145
 30
0.0
 11
35.0
 21
113.6545
 31
0.0
  0
LINE
  5
1CE
330
1D
100
AcDbEntity
  8
0
100
AcDbLine
 10
35.0
 20
115.6145
 30
0.0
 11
35.0
 21
113.5465
 31
0.0
  0
LINE
  5
1CF
330
1D
100
AcDbEntity
  8
0
100
AcDbLine
 10
35.0
 20
115.2805
 30
0.0
 11
35.0
 21
115.1365
 31
0.0
  0
LINE
  5
1D0
330
1D
100
AcDbEntity
  8
0
100
AcDbLine
 10
35.0
 20
111.2805
 30
0.0
 11
35.0
 21
110.2565
 31
0.0
  0
LINE
  5
1D1
330
1D
100
AcDbEntity
  8
0
100
AcDbLine
 10
35.0
 20
111.2805
 30
0.0
 11
35.0
 21
112.3045
 31
0.0
  0
LINE
  5
1D2
330
1D
100
AcDbEntity
  8
0
100
AcDbLine
 10
35.0
 20
111.1905
 30
0.0
 11
35.0
 21
103.8825
 31
0.0
  0
LINE
  5
1D3
330
1D
100
AcDbEntity
  8
0
100
AcDbLine
 10
35.0
 20
111.1905
 30
0.0
 11
35.0
 21
119.0025
 31
0.0
  0
LINE
  5
1D4
330
1D
100
AcDbEntity
  8
0
100
AcDbLine
 10
35.0
 20
90.7785
 30
0.0
 11
35.0
 21
85.2345
 31
0.0
  0
LINE
  5
1D5
330
1D
100
AcDbEntity
  8
0
100
AcDbLine
 10
35.0
 20
90.7785
 30
0.0
 11
35.0
 21
96.8265
 31
0.0
  0
LINE
  5
1D6
330
1D
100
AcDbEntity
  8
0
100
AcDbLine
 10
35.0
 20
85.2345
 30
0.0
 11
35.0
 21
80.4465
 31
0.0
  0
LINE
  5
1D7
330
1D
100
AcDbEntity
  8
0
100
AcDbLine
 10
35.0
 20
85.2345
 30
0.0
 11
35.0
 21
90.7785
 31
0.0
  0
LINE
  5
1D8
330
1D
100
AcDbEntity
  8
0
100
AcDbLine
 10
35.0
 20
80.4465
 30
0.0
 11
35.0
 21
77.1705
 31
0.0
  0
LINE
  5
1D9
330
1D
100
AcDbEntity
  8
0
100
AcDbLine
 10
35.0
 20
80.4465
 30
0.0
 11
35.0
 21
85.2345
 31
0.0
  0
LINE
  5
1DA
330
1D
100
AcDbEntity
  8
0
100
AcDbLine
 10
35.0
 20
77.1705
 30
0.0
 11
35.0
 21
74.3985
 31
0.0
  0
LINE
  5
1DB
330
1D
100
AcDbEntity
  8
0
100
AcDbLine
 10
35.0
 20
77.1705
 30
0.0
 11
35.0
 21
80.4465
 31
0.0
  0
LINE
  5
1DC
330
1D
100
AcDbEntity
  8
0
100
AcDbLine
 10
39.0
 20
107.8085
 30
0.0
 11
39.0
 21
108.4485
 31
0.0
  0
LINE
  5
1DD
330
1D
100
AcDbEntity
  8
0
100
AcDbLine
 10
39.0
 20
109.2965
 30
0.0
 11
39.0
 21
108.4485
 31
0.0
  0
LINE
  5
1DE
330
1D
100
AcDbEntity
  8
0
100
AcDbLine
 10
39.0
 20
108.4485
 30
0.0
 11
39.0
 21
107.8085
 31
0.0
  0
LINE
  5
1DF
330
1D
100
AcDbEntity
  8
0
100
AcDbLine
 10
39.0
 20
108.4485
 30
0.0
 11
39.0
 21
109.2965
 31
0.0
  0
LINE
  5
1E0
330
1D
100
AcDbEntity
  8
0
100
AcDbLine
 10
39.0
 20
109.6305
 30
0.0
 11
39.0
 21
59.6305
 31
0.0
  0
LINE
  5
1E1
330
1D
100
AcDbEntity
  8
0
100
AcDbLine
 10
39.0
 20
109.6305
 30
0.0
 11
39.0
 21
160.6305
 31
0.0
  0
LINE
  5
1E2
330
1D
100
AcDbEntity
  8
0
100
AcDbLine
 10
35.0
 20
74.3985
 30
0.0
 11
35.0
 21
72.8865
 31
0.0
  0
LINE
  5
1E3
330
1D
100
AcDbEntity
  8
0
100
AcDbLine
 10
35.0
 20
74.3985
 30
0.0
 11
35.0
 21
77.1705
 31
0.0
  0
LINE
  5
1E4
330
1D
100
AcDbEntity
  8
0
100
AcDbLine
 10
30.0
 20
74.1305
 30
0.0
 11
35.0
 21
74.1305
 31
0.0
  0
LINE
  5
1E5
330
1D
100
AcDbEntity
  8
0
100
AcDbLine
 10
66.0
 20
72.1305
 30
0.0
 11
66.72
 21
72.1305
 31
0.0
  0
LINE
  5
1E6
330
1D
100
AcDbEntity
  8
0
100
AcDbLine
 10
66.0
 20
72.1305
 30
0.0
 11
66.0
 21
74.1305
 31
0.0
  0
LINE
  5
1E7
330
1D
100
AcDbEntity
  8
0
100
AcDbLine
 10
68.64
 20
72.1305
 30
0.0
 11
71.84
 21
72.1305
 31
0.0
  0
LINE
  5
1E8
330
1D
100
AcDbEntity
  8
0
100
AcDbLine
 10
66.72
 20
72.1305
 30
0.0
 11
68.64
 21
72.1305
 31
0.0
  0
LINE
  5
1E9
330
1D
100
AcDbEntity
  8
0
100
AcDbLine
 10
71.84
 20
72.1305
 30
0.0
 11
76.08
 21
72.1305
 31
0.0
  0
LINE
  5
1EA
330
1D
100
AcDbEntity
  8
0
100
AcDbLine
 10
76.08
 20
72.1305
 30
0.0
 11
80.88
 21
72.1305
 31
0.0
  0
LINE
  5
1EB
330
1D
100
AcDbEntity
  8
0
100
AcDbLine
 10
73.964
 20
72.1305
 30
0.0
 11
77.568
 21
72.1305
 31
0.0
  0
LINE
  5
1EC
330
1D
100
AcDbEntity
  8
0
100
AcDbLine
 10
71.244
 20
72.1305
 30
0.0
 11
73.964
 21
72.1305
 31
0.0
  0
LINE
  5
1ED
330
1D
100
AcDbEntity
  8
0
100
AcDbLine
 10
69.612
 20
72.1305
 30
0.0
 11
71.244
 21
72.1305
 31
0.0
  0
LINE
  5
1EE
330
1D
100
AcDbEntity
  8
0
100
AcDbLine
 10
69.0
 20
72.1305
 30
0.0
 11
69.612
 21
72.1305
 31
0.0
  0
LINE
  5
1EF
330
1D
100
AcDbEntity
  8
0
100
AcDbLine
 10
80.88
 20
72.1305
 30
0.0
 11
86.0
 21
72.1305
 31
0.0
  0
LINE
  5
1F0
330
1D
100
AcDbEntity
  8
0
100
AcDbLine
 10
81.648
 20
72.1305
 30
0.0
 11
86.0
 21
72.1305
 31
0.0
  0
LINE
  5
1F1
330
1D
100
AcDbEntity
  8
0
100
AcDbLine
 10
77.568
 20
72.1305
 30
0.0
 11
81.648
 21
72.1305
 31
0.0
  0
LINE
  5
1F2
330
1D
100
AcDbEntity
  8
0
100
AcDbLine
 10
86.0
 20
72.1305
 30
0.0
 11
91.12
 21
72.1305
 31
0.0
  0
LINE
  5
1F3
330
1D
100
AcDbEntity
  8
0
100
AcDbLine
 10
86.0
 20
72.1305
 30
0.0
 11
90.352
 21
72.1305
 31
0.0
  0
LINE
  5
1F4
330
1D
100
AcDbEntity
  8
0
100
AcDbLine
 10
86.0
 20
74.1305
 30
0.0
 11
91.12
 21
74.1305
 31
0.0
  0
LINE
  5
1F5
330
1D
100
AcDbEntity
  8
0
100
AcDbLine
 10
80.88
 20
74.1305
 30
0.0
 11
86.0
 21
74.1305
 31
0.0
  0
LINE
  5
1F6
330
1D
100
AcDbEntity
  8
0
100
AcDbLine
 10
76.08
 20
74.1305
 30
0.0
 11
80.88
 21
74.1305
 31
0.0
  0
LINE
  5
1F7
330
1D
100
AcDbEntity
  8
0
100
AcDbLine
 10
71.84
 20
74.1305
 30
0.0
 11
76.08
 21
74.1305
 31
0.0
  0
LINE
  5
1F8
330
1D
100
AcDbEntity
  8
0
100
AcDbLine
 10
68.64
 20
74.1305
 30
0.0
 11
71.84
 21
74.1305
 31
0.0
  0
LINE
  5
1F9
330
1D
100
AcDbEntity
  8
0
100
AcDbLine
 10
66.72
 20
74.1305
 30
0.0
 11
68.64
 21
74.1305
 31
0.0
  0
LINE
  5
1FA
330
1D
100
AcDbEntity
  8
0
100
AcDbLine
 10
66.0
 20
74.1305
 30
0.0
 11
66.72
 21
74.5377
 31
0.0
  0
LINE
  5
1FB
330
1D
100
AcDbEntity
  8
0
100
AcDbLine
 10
66.0
 20
74.1305
 30
0.0
 11
66.72
 21
74.1305
 31
0.0
  0
LINE
  5
1FC
330
1D
100
AcDbEntity
  8
0
100
AcDbLine
 10
66.0
 20
74.1305
 30
0.0
 11
66.0
 21
72.1305
 31
0.0
  0
LINE
  5
1FD
330
1D
100
AcDbEntity
  8
0
100
AcDbLine
 10
86.0
 20
77.7805
 30
0.0
 11
91.12
 21
77.5268
 31
0.0
  0
LINE
  5
1FE
330
1D
100
AcDbEntity
  8
0
100
AcDbLine
 10
80.88
 20
77.5268
 30
0.0
 11
86.0
 21
77.7805
 31
0.0
  0
LINE
  5
1FF
330
1D
100
AcDbEntity
  8
0
100
AcDbLine
 10
76.08
 20
76.8706
 30
0.0
 11
80.88
 21
77.5268
 31
0.0
  0
LINE
  5
200
330
1D
100
AcDbEntity
  8
0
100
AcDbLine
 10
71.84
 20
76.0201
 30
0.0
 11
76.08
 21
76.8706
 31
0.0
  0
LINE
  5
201
330
1D
100
AcDbEntity
  8
0
100
AcDbLine
 10
68.64
 20
75.2181
 30
0.0
 11
71.84
 21
76.0201
 31
0.0
  0
LINE
  5
202
330
1D
100
AcDbEntity
  8
0
100
AcDbLine
 10
66.72
 20
74.5377
 30
0.0
 11
68.64
 21
75.2181
 31
0.0
  0
LINE
  5
203
330
1D
100
AcDbEntity
  8
0
100
AcDbLine
 10
39.0
 20
74.1305
 30
0.0
 11
66.0
 21
74.1305
 31
0.0
  0
LINE
  5
204
330
1D
100
AcDbEntity
  8
0
100
AcDbLine
 10
90.352
 20
72.1305
 30
0.0
 11
94.432
 21
72.1305
 31
0.0
  0
LINE
  5
205
330
1D
100
AcDbEntity
  8
0
100
AcDbLine
 10
91.12
 20
72.1305
 30
0.0
 11
95.92
 21
72.1305
 31
0.0
  0
LINE
  5
206
330
1D
100
AcDbEntity
  8
0
100
AcDbLine
 10
94.432
 20
72.1305
 30
0.0
 11
98.036
 21
72.1305
 31
0.0
  0
LINE
  5
207
330
1D
100
AcDbEntity
  8
0
100
AcDbLine
 10
95.92
 20
72.1305
 30
0.0
 11
100.16
 21
72.1305
 31
0.0
  0
LINE
  5
208
330
1D
100
AcDbEntity
  8
0
100
AcDbLine
 10
91.12
 20
74.1305
 30
0.0
 11
95.92
 21
74.1305
 31
0.0
  0
LINE
  5
209
330
1D
100
AcDbEntity
  8
0
100
AcDbLine
 10
91.12
 20
77.5268
 30
0.0
 11
95.92
 21
76.8706
 31
0.0
  0
LINE
  5
20A
330
1D
100
AcDbEntity
  8
0
100
AcDbLine
 10
95.92
 20
76.8706
 30
0.0
 11
100.16
 21
76.0201
 31
0.0
  0
LINE
  5
20B
330
1D
100
AcDbEntity
  8
0
100
AcDbLine
 10
95.92
 20
74.1305
 30
0.0
 11
100.16
 21
74.1305
 31
0.0
  0
LINE
  5
20C
330
1D
100
AcDbEntity
  8
0
100
AcDbLine
 10
86.0
 20
115.1305
 30
0.0
 11
91.12
 21
115.8265
 31
0.0
  0
LINE
  5
20D
330
1D
100
AcDbEntity
  8
0
100
AcDbLine
 10
86.0
 20
115.1305
 30
0.0
 11
91.12
 21
115.8505
 31
0.0
  0
LINE
  5
20E
330
1D
100
AcDbEntity
  8
0
100
AcDbLine
 10
80.88
 20
115.8265
 30
0.0
 11
86.0
 21
115.1305
 31
0.0
  0
LINE
  5
20F
330
1D
100
AcDbEntity
  8
0
100
AcDbLine
 10
39.0
 20
74.1305
 30
0.0
 11
66.0
 21
74.1305
 31
0.0
  0
LINE
  5
210
330
1D
100
AcDbEntity
  8
0
100
AcDbLine
 10
76.08
 20
117.7705
 30
0.0
 11
80.88
 21
115.8505
 31
0.0
  0
LINE
  5
211
330
1D
100
AcDbEntity
  8
0
100
AcDbLine
 10
80.88
 20
115.8505
 30
0.0
 11
86.0
 21
115.1305
 31
0.0
  0
LINE
  5
212
330
1D
100
AcDbEntity
  8
0
100
AcDbLine
 10
91.12
 20
115.8505
 30
0.0
 11
95.92
 21
117.7705
 31
0.0
  0
LINE
  5
213
330
1D
100
AcDbEntity
  8
0
100
AcDbLine
 10
76.08
 20
117.7695
 30
0.0
 11
80.88
 21
115.8265
 31
0.0
  0
LINE
  5
214
330
1D
100
AcDbEntity
  8
0
100
AcDbLine
 10
35.0
 20
119.0025
 30
0.0
 11
35.0
 21
111.1905
 31
0.0
  0
LINE
  5
215
330
1D
100
AcDbEntity
  8
0
100
AcDbLine
 10
35.0
 20
119.0025
 30
0.0
 11
35.0
 21
126.8145
 31
0.0
  0
LINE
  5
216
330
1D
100
AcDbEntity
  8
0
100
AcDbLine
 10
66.72
 20
130.0105
 30
0.0
 11
68.64
 21
125.2105
 31
0.0
  0
LINE
  5
217
330
1D
100
AcDbEntity
  8
0
100
AcDbLine
 10
35.0
 20
126.8145
 30
0.0
 11
35.0
 21
119.0025
 31
0.0
  0
LINE
  5
218
330
1D
100
AcDbEntity
  8
0
100
AcDbLine
 10
35.0
 20
126.8145
 30
0.0
 11
35.0
 21
135.1305
 31
0.0
  0
LINE
  5
219
330
1D
100
AcDbEntity
  8
0
100
AcDbLine
 10
71.84
 20
120.9705
 30
0.0
 11
76.08
 21
117.7705
 31
0.0
  0
LINE
  5
21A
330
1D
100
AcDbEntity
  8
0
100
AcDbLine
 10
81.648
 20
118.7425
 30
0.0
 11
86.0
 21
118.1305
 31
0.0
  0
LINE
  5
21B
330
1D
100
AcDbEntity
  8
0
100
AcDbLine
 10
82.2697
 20
121.0835
 30
0.0
 11
86.0
 21
120.5595
 31
0.0
  0
LINE
  5
21C
330
1D
100
AcDbEntity
  8
0
100
AcDbLine
 10
77.568
 20
120.3745
 30
0.0
 11
81.648
 21
118.7425
 31
0.0
  0
LINE
  5
21D
330
1D
100
AcDbEntity
  8
0
100
AcDbLine
 10
90.352
 20
118.7425
 30
0.0
 11
94.432
 21
120.3745
 31
0.0
  0
LINE
  5
21E
330
1D
100
AcDbEntity
  8
0
100
AcDbLine
 10
86.0
 20
120.5595
 30
0.0
 11
89.7303
 21
121.0835
 31
0.0
  0
LINE
  5
21F
330
1D
100
AcDbEntity
  8
0
100
AcDbLine
 10
86.0
 20
118.1305
 30
0.0
 11
90.352
 21
118.7425
 31
0.0
  0
LINE
  5
220
330
1D
100
AcDbEntity
  8
0
100
AcDbLine
 10
94.432
 20
120.3745
 30
0.0
 11
98.036
 21
123.0945
 31
0.0
  0
LINE
  5
221
330
1D
100
AcDbEntity
  8
0
100
AcDbLine
 10
73.964
 20
123.0945
 30
0.0
 11
77.568
 21
120.3745
 31
0.0
  0
LINE
  5
222
330
1D
100
AcDbEntity
  8
0
100
AcDbLine
 10
78.7726
 20
122.4825
 30
0.0
 11
82.2697
 21
121.0835
 31
0.0
  0
LINE
  5
223
330
1D
100
AcDbEntity
  8
0
100
AcDbLine
 10
75.6834
 20
124.8135
 30
0.0
 11
78.7726
 21
122.4825
 31
0.0
  0
LINE
  5
224
330
1D
100
AcDbEntity
  8
0
100
AcDbLine
 10
93.2274
 20
122.4825
 30
0.0
 11
96.3166
 21
124.8135
 31
0.0
  0
LINE
  5
225
330
1D
100
AcDbEntity
  8
0
100
AcDbLine
 10
89.7303
 20
121.0835
 30
0.0
 11
93.2274
 21
122.4825
 31
0.0
  0
LINE
  5
226
330
1D
100
AcDbEntity
  8
0
100
AcDbLine
 10
71.84
 20
120.9515
 30
0.0
 11
76.08
 21
117.7695
 31
0.0
  0
LINE
  5
227
330
1D
100
AcDbEntity
  8
0
100
AcDbLine
 10
71.244
 20
126.6985
 30
0.0
 11
73.964
 21
123.0945
 31
0.0
  0
LINE
  5
228
330
1D
100
AcDbEntity
  8
0
100
AcDbLine
 10
73.352
 20
127.9035
 30
0.0
 11
75.6834
 21
124.8135
 31
0.0
  0
LINE
  5
229
330
1D
100
AcDbEntity
  8
0
100
AcDbLine
 10
68.64
 20
125.2105
 30
0.0
 11
71.84
 21
120.9705
 31
0.0
  0
LINE
  5
22A
330
1D
100
AcDbEntity
  8
0
100
AcDbLine
 10
68.64
 20
125.2015
 30
0.0
 11
71.84
 21
120.9515
 31
0.0
  0
LINE
  5
22B
330
1D
100
AcDbEntity
  8
0
100
AcDbLine
 10
66.72
 20
129.9865
 30
0.0
 11
68.64
 21
125.2015
 31
0.0
  0
LINE
  5
22C
330
1D
100
AcDbEntity
  8
0
100
AcDbLine
 10
95.92
 20
117.7705
 30
0.0
 11
100.16
 21
120.9705
 31
0.0
  0
LINE
  5
22D
330
1D
100
AcDbEntity
  8
0
100
AcDbLine
 10
91.12
 20
115.8265
 30
0.0
 11
95.92
 21
117.7695
 31
0.0
  0
LINE
  5
22E
330
1D
100
AcDbEntity
  8
0
100
AcDbLine
 10
98.036
 20
72.1305
 30
0.0
 11
100.756
 21
72.1305
 31
0.0
  0
LINE
  5
22F
330
1D
100
AcDbEntity
  8
0
100
AcDbLine
 10
100.16
 20
72.1305
 30
0.0
 11
103.36
 21
72.1305
 31
0.0
  0
LINE
  5
230
330
1D
100
AcDbEntity
  8
0
100
AcDbLine
 10
100.756
 20
72.1305
 30
0.0
 11
102.388
 21
72.1305
 31
0.0
  0
LINE
  5
231
330
1D
100
AcDbEntity
  8
0
100
AcDbLine
 10
102.388
 20
72.1305
 30
0.0
 11
103.0
 21
72.1305
 31
0.0
  0
LINE
  5
232
330
1D
100
AcDbEntity
  8
0
100
AcDbLine
 10
103.36
 20
72.1305
 30
0.0
 11
105.28
 21
72.1305
 31
0.0
  0
LINE
  5
233
330
1D
100
AcDbEntity
  8
0
100
AcDbLine
 10
105.28
 20
72.1305
 30
0.0
 11
106.0
 21
72.1305
 31
0.0
  0
LINE
  5
234
330
1D
100
AcDbEntity
  8
0
100
AcDbLine
 10
100.16
 20
74.1305
 30
0.0
 11
103.36
 21
74.1305
 31
0.0
  0
LINE
  5
235
330
1D
100
AcDbEntity
  8
0
100
AcDbLine
 10
103.36
 20
74.1305
 30
0.0
 11
105.28
 21
74.1305
 31
0.0
  0
LINE
  5
236
330
1D
100
AcDbEntity
  8
0
100
AcDbLine
 10
106.0
 20
72.1305
 30
0.0
 11
106.0
 21
74.1305
 31
0.0
  0
LINE
  5
237
330
1D
100
AcDbEntity
  8
0
100
AcDbLine
 10
108.0
 20
74.1305
 30
0.0
 11
108.0
 21
74.7726
 31
0.0
  0
LINE
  5
238
330
1D
100
AcDbEntity
  8
0
100
AcDbLine
 10
105.28
 20
74.1305
 30
0.0
 11
106.0
 21
74.1305
 31
0.0
  0
LINE
  5
239
330
1D
100
AcDbEntity
  8
0
100
AcDbLine
 10
101.0
 20
75.5298
 30
0.0
 11
108.0
 21
75.5298
 31
0.0
  0
LINE
  5
23A
330
1D
100
AcDbEntity
  8
0
100
AcDbLine
 10
101.0
 20
75.5298
 30
0.0
 11
101.0
 21
75.7818
 31
0.0
  0
LINE
  5
23B
330
1D
100
AcDbEntity
  8
0
100
AcDbLine
 10
101.0
 20
75.7818
 30
0.0
 11
101.0
 21
75.5298
 31
0.0
  0
LINE
  5
279
330
1D
100
AcDbEntity
  8
0
100
AcDbLine
 10
100.16
 20
76.0201
 30
0.0
 11
101.0
 21
75.809575
 31
0.0
  0
LINE
  5
27A
330
1D
100
AcDbEntity
  8
0
100
AcDbLine
 10
102.116309226933
 20
75.5298
 30
0.0
 11
103.36
 21
75.2181
 31
0.0
  0
LINE
  5
27B
330
1D
100
AcDbEntity
  8
0
100
AcDbLine
 10
108.0
 20
75.5298
 30
0.0
 11
108.0
 21
75.7818
 31
0.0
  0
LINE
  5
27C
330
1D
100
AcDbEntity
  8
0
100
AcDbLine
 10
108.0
 20
75.5298
 30
0.0
 11
108.0
 21
74.7726
 31
0.0
  0
LINE
  5
27D
330
1D
100
AcDbEntity
  8
0
100
AcDbLine
 10
108.0
 20
75.7818
 30
0.0
 11
108.0
 21
76.4538
 31
0.0
  0
LINE
  5
27E
330
1D
100
AcDbEntity
  8
0
100
AcDbLine
 10
108.0
 20
75.7818
 30
0.0
 11
108.0
 21
75.5298
 31
0.0
  0
LINE
  5
27F
330
1D
100
AcDbEntity
  8
0
100
AcDbLine
 10
108.0
 20
76.4538
 30
0.0
 11
108.0
 21
77.5738
 31
0.0
  0
LINE
  5
280
330
1D
100
AcDbEntity
  8
0
100
AcDbLine
 10
108.0
 20
76.4538
 30
0.0
 11
108.0
 21
75.7818
 31
0.0
  0
LINE
  5
281
330
1D
100
AcDbEntity
  8
0
100
AcDbLine
 10
108.0
 20
77.5738
 30
0.0
 11
108.0
 21
79.0578
 31
0.0
  0
LINE
  5
282
330
1D
100
AcDbEntity
  8
0
100
AcDbLine
 10
108.0
 20
77.5738
 30
0.0
 11
108.0
 21
76.4538
 31
0.0
  0
LINE
  5
283
330
1D
100
AcDbEntity
  8
0
100
AcDbLine
 10
108.0
 20
88.6058
 30
0.0
 11
108.0
 21
87.4858
 31
0.0
  0
LINE
  5
284
330
1D
100
AcDbEntity
  8
0
100
AcDbLine
 10
108.0
 20
88.6058
 30
0.0
 11
108.0
 21
104.5405
 31
0.0
  0
LINE
  5
285
330
1D
100
AcDbEntity
  8
0
100
AcDbLine
 10
108.0
 20
87.4858
 30
0.0
 11
108.0
 21
86.0018
 31
0.0
  0
LINE
  5
286
330
1D
100
AcDbEntity
  8
0
100
AcDbLine
 10
108.0
 20
87.4858
 30
0.0
 11
108.0
 21
88.6058
 31
0.0
  0
LINE
  5
287
330
1D
100
AcDbEntity
  8
0
100
AcDbLine
 10
108.0
 20
86.0018
 30
0.0
 11
108.0
 21
84.3218
 31
0.0
  0
LINE
  5
288
330
1D
100
AcDbEntity
  8
0
100
AcDbLine
 10
108.0
 20
86.0018
 30
0.0
 11
108.0
 21
87.4858
 31
0.0
  0
LINE
  5
289
330
1D
100
AcDbEntity
  8
0
100
AcDbLine
 10
108.0
 20
84.3218
 30
0.0
 11
108.0
 21
82.5298
 31
0.0
  0
LINE
  5
28A
330
1D
100
AcDbEntity
  8
0
100
AcDbLine
 10
108.0
 20
84.3218
 30
0.0
 11
108.0
 21
86.0018
 31
0.0
  0
LINE
  5
28B
330
1D
100
AcDbEntity
  8
0
100
AcDbLine
 10
108.0
 20
82.5298
 30
0.0
 11
108.0
 21
80.7378
 31
0.0
  0
LINE
  5
28C
330
1D
100
AcDbEntity
  8
0
100
AcDbLine
 10
108.0
 20
82.5298
 30
0.0
 11
108.0
 21
84.3218
 31
0.0
  0
LINE
  5
28D
330
1D
100
AcDbEntity
  8
0
100
AcDbLine
 10
108.0
 20
79.0578
 30
0.0
 11
108.0
 21
80.7378
 31
0.0
  0
LINE
  5
28E
330
1D
100
AcDbEntity
  8
0
100
AcDbLine
 10
108.0
 20
79.0578
 30
0.0
 11
108.0
 21
77.5738
 31
0.0
  0
LINE
  5
28F
330
1D
100
AcDbEntity
  8
0
100
AcDbLine
 10
108.0
 20
80.7378
 30
0.0
 11
108.0
 21
82.5298
 31
0.0
  0
LINE
  5
290
330
1D
100
AcDbEntity
  8
0
100
AcDbLine
 10
108.0
 20
80.7378
 30
0.0
 11
108.0
 21
79.0578
 31
0.0
  0
LINE
  5
291
330
1D
100
AcDbEntity
  8
0
100
AcDbLine
 10
108.0
 20
74.7726
 30
0.0
 11
108.0
 21
75.5298
 31
0.0
  0
LINE
  5
292
330
1D
100
AcDbEntity
  8
0
100
AcDbLine
 10
108.0
 20
74.7726
 30
0.0
 11
108.0
 21
74.1305
 31
0.0
  0
LINE
  5
293
330
1D
100
AcDbEntity
  8
0
100
AcDbLine
 10
103.36
 20
75.2181
 30
0.0
 11
105.28
 21
74.5377
 31
0.0
  0
LINE
  5
294
330
1D
100
AcDbEntity
  8
0
100
AcDbLine
 10
105.28
 20
74.5377
 30
0.0
 11
106.0
 21
74.1305
 31
0.0
  0
LINE
  5
295
330
1D
100
AcDbEntity
  8
0
100
AcDbLine
 10
108.0
 20
104.5405
 30
0.0
 11
108.0
 21
104.7585
 31
0.0
  0
LINE
  5
296
330
1D
100
AcDbEntity
  8
0
100
AcDbLine
 10
108.0
 20
104.5405
 30
0.0
 11
108.0
 21
88.6058
 31
0.0
  0
LINE
  5
297
330
1D
100
AcDbEntity
  8
0
100
AcDbLine
 10
98.036
 20
123.0945
 30
0.0
 11
100.756
 21
126.6985
 31
0.0
  0
LINE
  5
298
330
1D
100
AcDbEntity
  8
0
100
AcDbLine
 10
100.16
 20
120.9705
 30
0.0
 11
103.36
 21
125.2105
 31
0.0
  0
LINE
  5
299
330
1D
100
AcDbEntity
  8
0
100
AcDbLine
 10
96.3166
 20
124.8135
 30
0.0
 11
98.648
 21
127.9035
 31
0.0
  0
LINE
  5
29A
330
1D
100
AcDbEntity
  8
0
100
AcDbLine
 10
100.16
 20
120.9515
 30
0.0
 11
103.36
 21
125.2015
 31
0.0
  0
LINE
  5
29B
330
1D
100
AcDbEntity
  8
0
100
AcDbLine
 10
98.648
 20
127.9035
 30
0.0
 11
100.047
 21
131.4005
 31
0.0
  0
LINE
  5
29C
330
1D
100
AcDbEntity
  8
0
100
AcDbLine
 10
103.36
 20
125.2105
 30
0.0
 11
105.28
 21
130.0105
 31
0.0
  0
LINE
  5
29D
330
1D
100
AcDbEntity
  8
0
100
AcDbLine
 10
100.756
 20
126.6985
 30
0.0
 11
102.388
 21
130.7785
 31
0.0
  0
LINE
  5
29E
330
1D
100
AcDbEntity
  8
0
100
AcDbLine
 10
103.36
 20
125.2015
 30
0.0
 11
105.28
 21
129.9865
 31
0.0
  0
LINE
  5
29F
330
1D
100
AcDbEntity
  8
0
100
AcDbLine
 10
108.0
 20
119.3985
 30
0.0
 11
108.0
 21
127.1685
 31
0.0
  0
LINE
  5
2A0
330
1D
100
AcDbEntity
  8
0
100
AcDbLine
 10
108.0
 20
119.3985
 30
0.0
 11
108.0
 21
111.8225
 31
0.0
  0
LINE
  5
2A1
330
1D
100
AcDbEntity
  8
0
100
AcDbLine
 10
108.0
 20
127.1685
 30
0.0
 11
108.0
 21
135.1305
 31
0.0
  0
LINE
  5
2A2
330
1D
100
AcDbEntity
  8
0
100
AcDbLine
 10
108.0
 20
127.1685
 30
0.0
 11
108.0
 21
119.3985
 31
0.0
  0
LINE
  5
2A3
330
1D
100
AcDbEntity
  8
0
100
AcDbLine
 10
105.28
 20
129.9865
 30
0.0
 11
106.0
 21
135.1305
 31
0.0
  0
LINE
  5
2A4
330
1D
100
AcDbEntity
  8
0
100
AcDbLine
 10
105.28
 20
129.9865
 30
0.0
 11
106.0
 21
135.1305
 31
0.0
  0
LINE
  5
2A5
330
1D
100
AcDbEntity
  8
0
100
AcDbLine
 10
108.0
 20
104.7585
 30
0.0
 11
108.0
 21
104.5405
 31
0.0
  0
LINE
  5
2A6
330
1D
100
AcDbEntity
  8
0
100
AcDbLine
 10
108.0
 20
104.7585
 30
0.0
 11
108.0
 21
111.8225
 31
0.0
  0
LINE
  5
2A7
330
1D
100
AcDbEntity
  8
0
100
AcDbLine
 10
108.0
 20
111.8225
 30
0.0
 11
108.0
 21
104.7585
 31
0.0
  0
LINE
  5
2A8
330
1D
100
AcDbEntity
  8
0
100
AcDbLine
 10
108.0
 20
111.8225
 30
0.0
 11
108.0
 21
119.3985
 31
0.0
  0
LINE
  5
2A9
330
1D
100
AcDbEntity
  8
0
100
AcDbLine
 10
106.0
 20
74.1305
 30
0.0
 11
108.0
 21
74.1305
 31
0.0
  0
LINE
  5
2AA
330
1D
100
AcDbEntity
  8
0
100
AcDbLine
 10
106.0
 20
74.1305
 30
0.0
 11
106.0
 21
72.1305
 31
0.0
  0
LINE
  5
2AB
330
1D
100
AcDbEntity
  8
0
100
AcDbLine
 10
95.92
 20
117.7695
 30
0.0
 11
100.16
 21
120.9515
 31
0.0
  0
LINE
  5
2AC
330
1D
100
AcDbEntity
  8
0
100
AcDbLine
 10
35.0
 20
134.1305
 30
0.0
 11
35.0
 21
136.1305
 31
0.0
  0
LINE
  5
2AD
330
1D
100
AcDbEntity
  8
0
100
AcDbLine
 10
35.0
 20
134.2015
 30
0.0
 11
35.0
 21
133.2415
 31
0.0
  0
LINE
  5
2AE
330
1D
100
AcDbEntity
  8
0
100
AcDbLine
 10
35.0
 20
134.2015
 30
0.0
 11
35.0
 21
135.2255
 31
0.0
  0
LINE
  5
2AF
330
1D
100
AcDbEntity
  8
0
100
AcDbLine
 10
35.0
 20
133.2415
 30
0.0
 11
35.0
 21
132.3935
 31
0.0
  0
LINE
  5
2B0
330
1D
100
AcDbEntity
  8
0
100
AcDbLine
 10
35.0
 20
133.2415
 30
0.0
 11
35.0
 21
134.2015
 31
0.0
  0
LINE
  5
2B1
330
1D
100
AcDbEntity
  8
0
100
AcDbLine
 10
35.0
 20
132.3935
 30
0.0
 11
35.0
 21
131.7535
 31
0.0
  0
LINE
  5
2B2
330
1D
100
AcDbEntity
  8
0
100
AcDbLine
 10
35.0
 20
132.3935
 30
0.0
 11
35.0
 21
133.2415
 31
0.0
  0
LINE
  5
2B3
330
1D
100
AcDbEntity
  8
0
100
AcDbLine
 10
35.0
 20
131.7535
 30
0.0
 11
35.0
 21
131.3695
 31
0.0
  0
LINE
  5
2B4
330
1D
100
AcDbEntity
  8
0
100
AcDbLine
 10
35.0
 20
131.7535
 30
0.0
 11
35.0
 21
132.3935
 31
0.0
  0
LINE
  5
2B5
330
1D
100
AcDbEntity
  8
0
100
AcDbLine
 10
35.0
 20
131.2255
 30
0.0
 11
35.0
 21
131.3695
 31
0.0
  0
LINE
  5
2B6
330
1D
100
AcDbEntity
  8
0
100
AcDbLine
 10
35.0
 20
131.3695
 30
0.0
 11
35.0
 21
131.2255
 31
0.0
  0
LINE
  5
2B7
330
1D
100
AcDbEntity
  8
0
100
AcDbLine
 10
35.0
 20
131.3695
 30
0.0
 11
35.0
 21
131.7535
 31
0.0
  0
LINE
  5
2B8
330
1D
100
AcDbEntity
  8
0
100
AcDbLine
 10
35.0
 20
135.1305
 30
0.0
 11
35.0
 21
126.8145
 31
0.0
  0
LINE
  5
2B9
330
1D
100
AcDbEntity
  8
0
100
AcDbLine
 10
35.0
 20
135.1305
 30
0.0
 11
35.0
 21
143.4465
 31
0.0
  0
LINE
  5
2BA
330
1D
100
AcDbEntity
  8
0
100
AcDbLine
 10
69.612
 20
130.7785
 30
0.0
 11
71.244
 21
126.6985
 31
0.0
  0
LINE
  5
2BB
330
1D
100
AcDbEntity
  8
0
100
AcDbLine
 10
69.0
 20
135.1305
 30
0.0
 11
69.612
 21
130.7785
 31
0.0
  0
LINE
  5
2BC
330
1D
100
AcDbEntity
  8
0
100
AcDbLine
 10
69.0
 20
135.1305
 30
0.0
 11
69.612
 21
139.4825
 31
0.0
  0
LINE
  5
2BD
330
1D
100
AcDbEntity
  8
0
100
AcDbLine
 10
71.9531
 20
131.4005
 30
0.0
 11
73.352
 21
127.9035
 31
0.0
  0
LINE
  5
2BE
330
1D
100
AcDbEntity
  8
0
100
AcDbLine
 10
71.4286
 20
135.1305
 30
0.0
 11
71.9531
 21
138.8605
 31
0.0
  0
LINE
  5
2BF
330
1D
100
AcDbEntity
  8
0
100
AcDbLine
 10
71.4286
 20
135.1305
 30
0.0
 11
71.9531
 21
131.4005
 31
0.0
  0
LINE
  5
2C0
330
1D
100
AcDbEntity
  8
0
100
AcDbLine
 10
102.388
 20
130.7785
 30
0.0
 11
103.0
 21
135.1305
 31
0.0
  0
LINE
  5
2C1
330
1D
100
AcDbEntity
  8
0
100
AcDbLine
 10
100.047
 20
131.4005
 30
0.0
 11
100.571
 21
135.1305
 31
0.0
  0
LINE
  5
2C2
330
1D
100
AcDbEntity
  8
0
100
AcDbLine
 10
108.0
 20
135.1305
 30
0.0
 11
108.0
 21
143.0925
 31
0.0
  0
LINE
  5
2C3
330
1D
100
AcDbEntity
  8
0
100
AcDbLine
 10
108.0
 20
135.1305
 30
0.0
 11
108.0
 21
127.1685
 31
0.0
  0
LINE
  5
2C4
330
1D
100
AcDbEntity
  8
0
100
AcDbLine
 10
66.0
 20
135.1305
 30
0.0
 11
66.72
 21
140.2745
 31
0.0
  0
LINE
  5
2C5
330
1D
100
AcDbEntity
  8
0
100
AcDbLine
 10
66.0
 20
135.1305
 30
0.0
 11
66.72
 21
129.9865
 31
0.0
  0
LINE
  5
2C6
330
1D
100
AcDbEntity
  8
0
100
AcDbLine
 10
66.0
 20
135.1305
 30
0.0
 11
66.72
 21
140.2505
 31
0.0
  0
LINE
  5
2C7
330
1D
100
AcDbEntity
  8
0
100
AcDbLine
 10
66.0
 20
135.1305
 30
0.0
 11
66.72
 21
130.0105
 31
0.0
  0
LINE
  5
2C8
330
1D
100
AcDbEntity
  8
0
100
AcDbLine
 10
105.28
 20
130.0105
 30
0.0
 11
106.0
 21
135.1305
 31
0.0
  0
LINE
  5
2C9
330
1D
100
AcDbEntity
  8
0
100
AcDbLine
 10
30.0
 20
117.5095
 30
0.0
 11
30.0
 21
100.3145
 31
0.0
  0
LINE
  5
2CA
330
1D
100
AcDbEntity
  8
0
100
AcDbLine
 10
30.0
 20
117.5095
 30
0.0
 11
30.0
 21
135.1305
 31
0.0
  0
LINE
  5
2CB
330
1D
100
AcDbEntity
  8
0
100
AcDbLine
 10
30.0
 20
152.7515
 30
0.0
 11
30.0
 21
169.9465
 31
0.0
  0
LINE
  5
2CC
330
1D
100
AcDbEntity
  8
0
100
AcDbLine
 10
30.0
 20
196.1305
 30
0.0
 11
35.0
 21
196.1305
 31
0.0
  0
LINE
  5
2CD
330
1D
100
AcDbEntity
  8
0
100
AcDbLine
 10
30.0
 20
196.1305
 30
0.0
 11
35.0
 21
196.1305
 31
0.0
  0
LINE
  5
2CE
330
1D
100
AcDbEntity
  8
0
100
AcDbLine
 10
30.0
 20
241.9935
 30
0.0
 11
30.0
 21
252.0835
 31
0.0
  0
LINE
  5
2CF
330
1D
100
AcDbEntity
  8
0
100
AcDbLine
 10
30.0
 20
241.9935
 30
0.0
 11
30.0
 21
230.4835
 31
0.0
  0
LINE
  5
2D0
330
1D
100
AcDbEntity
  8
0
100
AcDbLine
 10
30.0
 20
230.4835
 30
0.0
 11
30.0
 21
217.2675
 31
0.0
  0
LINE
  5
2D1
330
1D
100
AcDbEntity
  8
0
100
AcDbLine
 10
30.0
 20
230.4835
 30
0.0
 11
30.0
 21
241.9935
 31
0.0
  0
LINE
  5
2D2
330
1D
100
AcDbEntity
  8
0
100
AcDbLine
 10
30.0
 20
217.2675
 30
0.0
 11
30.0
 21
202.3465
 31
0.0
  0
LINE
  5
2D3
330
1D
100
AcDbEntity
  8
0
100
AcDbLine
 10
30.0
 20
217.2675
 30
0.0
 11
30.0
 21
230.4835
 31
0.0
  0
LINE
  5
2D4
330
1D
100
AcDbEntity
  8
0
100
AcDbLine
 10
30.0
 20
202.3465
 30
0.0
 11
30.0
 21
186.7145
 31
0.0
  0
LINE
  5
2D5
330
1D
100
AcDbEntity
  8
0
100
AcDbLine
 10
30.0
 20
202.3465
 30
0.0
 11
30.0
 21
217.2675
 31
0.0
  0
LINE
  5
2D6
330
1D
100
AcDbEntity
  8
0
100
AcDbLine
 10
30.0
 20
186.7145
 30
0.0
 11
30.0
 21
169.9465
 31
0.0
  0
LINE
  5
2D7
330
1D
100
AcDbEntity
  8
0
100
AcDbLine
 10
30.0
 20
186.7145
 30
0.0
 11
30.0
 21
202.3465
 31
0.0
  0
LINE
  5
2D8
330
1D
100
AcDbEntity
  8
0
100
AcDbLine
 10
30.0
 20
252.0835
 30
0.0
 11
30.0
 21
259.6145
 31
0.0
  0
LINE
  5
2D9
330
1D
100
AcDbEntity
  8
0
100
AcDbLine
 10
30.0
 20
259.6145
 30
0.0
 11
30.0
 21
252.0835
 31
0.0
  0
LINE
  5
2DA
330
1D
100
AcDbEntity
  8
0
100
AcDbLine
 10
30.0
 20
259.6145
 30
0.0
 11
30.0
 21
265.2985
 31
0.0
  0
LINE
  5
2DB
330
1D
100
AcDbEntity
  8
0
100
AcDbLine
 10
30.0
 20
265.2985
 30
0.0
 11
30.0
 21
259.6145
 31
0.0
  0
LINE
  5
2DC
330
1D
100
AcDbEntity
  8
0
100
AcDbLine
 10
30.0
 20
265.2985
 30
0.0
 11
30.0
 21
268.7095
 31
0.0
  0
LINE
  5
2DD
330
1D
100
AcDbEntity
  8
0
100
AcDbLine
 10
35.0
 20
136.1305
 30
0.0
 11
35.0
 21
134.1305
 31
0.0
  0
LINE
  5
2DE
330
1D
100
AcDbEntity
  8
0
100
AcDbLine
 10
35.0
 20
136.2495
 30
0.0
 11
35.0
 21
135.2255
 31
0.0
  0
LINE
  5
2DF
330
1D
100
AcDbEntity
  8
0
100
AcDbLine
 10
35.0
 20
136.2495
 30
0.0
 11
35.0
 21
137.2095
 31
0.0
  0
LINE
  5
2E0
330
1D
100
AcDbEntity
  8
0
100
AcDbLine
 10
35.0
 20
137.2095
 30
0.0
 11
35.0
 21
136.2495
 31
0.0
  0
LINE
  5
2E1
330
1D
100
AcDbEntity
  8
0
100
AcDbLine
 10
35.0
 20
137.2095
 30
0.0
 11
35.0
 21
138.0575
 31
0.0
  0
LINE
  5
2E2
330
1D
100
AcDbEntity
  8
0
100
AcDbLine
 10
35.0
 20
138.0575
 30
0.0
 11
35.0
 21
137.2095
 31
0.0
  0
LINE
  5
2E3
330
1D
100
AcDbEntity
  8
0
100
AcDbLine
 10
35.0
 20
138.0575
 30
0.0
 11
35.0
 21
138.6975
 31
0.0
  0
LINE
  5
2E4
330
1D
100
AcDbEntity
  8
0
100
AcDbLine
 10
35.0
 20
138.6975
 30
0.0
 11
35.0
 21
138.0575
 31
0.0
  0
LINE
  5
2E5
330
1D
100
AcDbEntity
  8
0
100
AcDbLine
 10
35.0
 20
138.6975
 30
0.0
 11
35.0
 21
139.0815
 31
0.0
  0
LINE
  5
2E6
330
1D
100
AcDbEntity
  8
0
100
AcDbLine
 10
35.0
 20
139.0815
 30
0.0
 11
35.0
 21
138.6975
 31
0.0
  0
LINE
  5
2E7
330
1D
100
AcDbEntity
  8
0
100
AcDbLine
 10
35.0
 20
139.0815
 30
0.0
 11
35.0
 21
139.2255
 31
0.0
  0
LINE
  5
2E8
330
1D
100
AcDbEntity
  8
0
100
AcDbLine
 10
35.0
 20
139.2255
 30
0.0
 11
35.0
 21
139.0815
 31
0.0
  0
LINE
  5
2E9
330
1D
100
AcDbEntity
  8
0
100
AcDbLine
 10
35.0
 20
135.2255
 30
0.0
 11
35.0
 21
134.2015
 31
0.0
  0
LINE
  5
2EA
330
1D
100
AcDbEntity
  8
0
100
AcDbLine
 10
35.0
 20
135.2255
 30
0.0
 11
35.0
 21
136.2495
 31
0.0
  0
LINE
  5
2EB
330
1D
100
AcDbEntity
  8
0
100
AcDbLine
 10
35.0
 20
154.6465
 30
0.0
 11
35.0
 21
156.6065
 31
0.0
  0
LINE
  5
2EC
330
1D
100
AcDbEntity
  8
0
100
AcDbLine
 10
35.0
 20
154.6465
 30
0.0
 11
35.0
 21
156.7145
 31
0.0
  0
LINE
  5
2ED
330
1D
100
AcDbEntity
  8
0
100
AcDbLine
 10
35.0
 20
156.7145
 30
0.0
 11
35.0
 21
154.6465
 31
0.0
  0
LINE
  5
2EE
330
1D
100
AcDbEntity
  8
0
100
AcDbLine
 10
35.0
 20
156.7145
 30
0.0
 11
35.0
 21
158.5765
 31
0.0
  0
LINE
  5
2EF
330
1D
100
AcDbEntity
  8
0
100
AcDbLine
 10
35.0
 20
156.6065
 30
0.0
 11
35.0
 21
158.5765
 31
0.0
  0
LINE
  5
2F0
330
1D
100
AcDbEntity
  8
0
100
AcDbLine
 10
35.0
 20
156.6065
 30
0.0
 11
35.0
 21
154.6465
 31
0.0
  0
LINE
  5
2F1
330
1D
100
AcDbEntity
  8
0
100
AcDbLine
 10
35.0
 20
158.5765
 30
0.0
 11
35.0
 21
156.7145
 31
0.0
  0
LINE
  5
2F2
330
1D
100
AcDbEntity
  8
0
100
AcDbLine
 10
35.0
 20
158.5765
 30
0.0
 11
35.0
 21
156.6065
 31
0.0
  0
LINE
  5
2F3
330
1D
100
AcDbEntity
  8
0
100
AcDbLine
 10
35.0
 20
157.9565
 30
0.0
 11
35.0
 21
158.9805
 31
0.0
  0
LINE
  5
2F4
330
1D
100
AcDbEntity
  8
0
100
AcDbLine
 10
35.0
 20
157.9565
 30
0.0
 11
35.0
 21
156.9965
 31
0.0
  0
LINE
  5
2F5
330
1D
100
AcDbEntity
  8
0
100
AcDbLine
 10
35.0
 20
156.9965
 30
0.0
 11
35.0
 21
157.9565
 31
0.0
  0
LINE
  5
2F6
330
1D
100
AcDbEntity
  8
0
100
AcDbLine
 10
35.0
 20
156.9965
 30
0.0
 11
35.0
 21
156.1485
 31
0.0
  0
LINE
  5
2F7
330
1D
100
AcDbEntity
  8
0
100
AcDbLine
 10
35.0
 20
156.1485
 30
0.0
 11
35.0
 21
156.9965
 31
0.0
  0
LINE
  5
2F8
330
1D
100
AcDbEntity
  8
0
100
AcDbLine
 10
35.0
 20
156.1485
 30
0.0
 11
35.0
 21
155.5085
 31
0.0
  0
LINE
  5
2F9
330
1D
100
AcDbEntity
  8
0
100
AcDbLine
 10
35.0
 20
155.5085
 30
0.0
 11
35.0
 21
156.1485
 31
0.0
  0
LINE
  5
2FA
330
1D
100
AcDbEntity
  8
0
100
AcDbLine
 10
35.0
 20
155.5085
 30
0.0
 11
35.0
 21
155.1245
 31
0.0
  0
LINE
  5
2FB
330
1D
100
AcDbEntity
  8
0
100
AcDbLine
 10
35.0
 20
155.1245
 30
0.0
 11
35.0
 21
155.5085
 31
0.0
  0
LINE
  5
2FC
330
1D
100
AcDbEntity
  8
0
100
AcDbLine
 10
35.0
 20
155.1245
 30
0.0
 11
35.0
 21
154.9805
 31
0.0
  0
LINE
  5
2FD
330
1D
100
AcDbEntity
  8
0
100
AcDbLine
 10
35.0
 20
154.9805
 30
0.0
 11
35.0
 21
155.1245
 31
0.0
  0
LINE
  5
2FE
330
1D
100
AcDbEntity
  8
0
100
AcDbLine
 10
35.0
 20
158.9805
 30
0.0
 11
35.0
 21
160.0045
 31
0.0
  0
LINE
  5
2FF
330
1D
100
AcDbEntity
  8
0
100
AcDbLine
 10
35.0
 20
158.9805
 30
0.0
 11
35.0
 21
157.9565
 31
0.0
  0
LINE
  5
300
330
1D
100
AcDbEntity
  8
0
100
AcDbLine
 10
35.0
 20
160.0045
 30
0.0
 11
35.0
 21
160.9645
 31
0.0
  0
LINE
  5
301
330
1D
100
AcDbEntity
  8
0
100
AcDbLine
 10
35.0
 20
160.0045
 30
0.0
 11
35.0
 21
158.9805
 31
0.0
  0
LINE
  5
302
330
1D
100
AcDbEntity
  8
0
100
AcDbLine
 10
35.0
 20
159.8305
 30
0.0
 11
35.0
 21
160.6305
 31
0.0
  0
LINE
  5
303
330
1D
100
AcDbEntity
  8
0
100
AcDbLine
 10
35.0
 20
159.8305
 30
0.0
 11
35.0
 21
136.1305
 31
0.0
  0
LINE
  5
304
330
1D
100
AcDbEntity
  8
0
100
AcDbLine
 10
35.0
 20
161.3005
 30
0.0
 11
35.0
 21
162.5585
 31
0.0
  0
LINE
  5
305
330
1D
100
AcDbEntity
  8
0
100
AcDbLine
 10
35.0
 20
161.3005
 30
0.0
 11
35.0
 21
170.2915
 31
0.0
  0
LINE
  5
306
330
1D
100
AcDbEntity
  8
0
100
AcDbLine
 10
35.0
 20
160.9645
 30
0.0
 11
35.0
 21
161.8125
 31
0.0
  0
LINE
  5
307
330
1D
100
AcDbEntity
  8
0
100
AcDbLine
 10
35.0
 20
160.9645
 30
0.0
 11
35.0
 21
160.0045
 31
0.0
  0
LINE
  5
308
330
1D
100
AcDbEntity
  8
0
100
AcDbLine
 10
35.0
 20
161.8125
 30
0.0
 11
35.0
 21
162.4525
 31
0.0
  0
LINE
  5
309
330
1D
100
AcDbEntity
  8
0
100
AcDbLine
 10
35.0
 20
161.8125
 30
0.0
 11
35.0
 21
160.9645
 31
0.0
  0
LINE
  5
30A
330
1D
100
AcDbEntity
  8
0
100
AcDbLine
 10
35.0
 20
162.5585
 30
0.0
 11
35.0
 21
172.9885
 31
0.0
  0
LINE
  5
30B
330
1D
100
AcDbEntity
  8
0
100
AcDbLine
 10
35.0
 20
162.5585
 30
0.0
 11
35.0
 21
161.3005
 31
0.0
  0
LINE
  5
30C
330
1D
100
AcDbEntity
  8
0
100
AcDbLine
 10
35.0
 20
162.9805
 30
0.0
 11
35.0
 21
162.8365
 31
0.0
  0
LINE
  5
30D
330
1D
100
AcDbEntity
  8
0
100
AcDbLine
 10
35.0
 20
162.4525
 30
0.0
 11
35.0
 21
162.8365
 31
0.0
  0
LINE
  5
30E
330
1D
100
AcDbEntity
  8
0
100
AcDbLine
 10
35.0
 20
162.4525
 30
0.0
 11
35.0
 21
161.8125
 31
0.0
  0
LINE
  5
30F
330
1D
100
AcDbEntity
  8
0
100
AcDbLine
 10
35.0
 20
162.8365
 30
0.0
 11
35.0
 21
162.9805
 31
0.0
  0
LINE
  5
310
330
1D
100
AcDbEntity
  8
0
100
AcDbLine
 10
35.0
 20
162.8365
 30
0.0
 11
35.0
 21
162.4525
 31
0.0
  0
LINE
  5
311
330
1D
100
AcDbEntity
  8
0
100
AcDbLine
 10
35.0
 20
160.6305
 30
0.0
 11
39.0
 21
160.6305
 31
0.0
  0
LINE
  5
312
330
1D
100
AcDbEntity
  8
0
100
AcDbLine
 10
35.0
 20
160.6305
 30
0.0
 11
35.0
 21
210.6305
 31
0.0
  0
LINE
  5
313
330
1D
100
AcDbEntity
  8
0
100
AcDbLine
 10
35.0
 20
160.6305
 30
0.0
 11
35.0
 21
159.8305
 31
0.0
  0
LINE
  5
314
330
1D
100
AcDbEntity
  8
0
100
AcDbLine
 10
35.0
 20
151.2585
 30
0.0
 11
35.0
 21
159.0705
 31
0.0
  0
LINE
  5
315
330
1D
100
AcDbEntity
  8
0
100
AcDbLine
 10
35.0
 20
170.2915
 30
0.0
 11
35.0
 21
161.3005
 31
0.0
  0
LINE
  5
316
330
1D
100
AcDbEntity
  8
0
100
AcDbLine
 10
35.0
 20
170.2915
 30
0.0
 11
35.0
 21
172.9885
 31
0.0
  0
LINE
  5
317
330
1D
100
AcDbEntity
  8
0
100
AcDbLine
 10
35.0
 20
172.9885
 30
0.0
 11
35.0
 21
170.2915
 31
0.0
  0
LINE
  5
318
330
1D
100
AcDbEntity
  8
0
100
AcDbLine
 10
35.0
 20
172.9885
 30
0.0
 11
35.0
 21
162.5585
 31
0.0
  0
LINE
  5
319
330
1D
100
AcDbEntity
  8
0
100
AcDbLine
 10
35.0
 20
177.6095
 30
0.0
 11
35.0
 21
177.7535
 31
0.0
  0
LINE
  5
31A
330
1D
100
AcDbEntity
  8
0
100
AcDbLine
 10
35.0
 20
177.7535
 30
0.0
 11
35.0
 21
178.1375
 31
0.0
  0
LINE
  5
31B
330
1D
100
AcDbEntity
  8
0
100
AcDbLine
 10
35.0
 20
177.7535
 30
0.0
 11
35.0
 21
177.6095
 31
0.0
  0
LINE
  5
31C
330
1D
100
AcDbEntity
  8
0
100
AcDbLine
 10
35.0
 20
178.1375
 30
0.0
 11
35.0
 21
178.7775
 31
0.0
  0
LINE
  5
31D
330
1D
100
AcDbEntity
  8
0
100
AcDbLine
 10
35.0
 20
178.1375
 30
0.0
 11
35.0
 21
177.7535
 31
0.0
  0
LINE
  5
31E
330
1D
100
AcDbEntity
  8
0
100
AcDbLine
 10
35.0
 20
178.7775
 30
0.0
 11
35.0
 21
179.6255
 31
0.0
  0
LINE
  5
31F
330
1D
100
AcDbEntity
  8
0
100
AcDbLine
 10
35.0
 20
178.7775
 30
0.0
 11
35.0
 21
178.1375
 31
0.0
  0
LINE
  5
320
330
1D
100
AcDbEntity
  8
0
100
AcDbLine
 10
35.0
 20
179.6255
 30
0.0
 11
35.0
 21
180.5855
 31
0.0
  0
LINE
  5
321
330
1D
100
AcDbEntity
  8
0
100
AcDbLine
 10
35.0
 20
179.6255
 30
0.0
 11
35.0
 21
178.7775
 31
0.0
  0
LINE
  5
322
330
1D
100
AcDbEntity
  8
0
100
AcDbLine
 10
35.0
 20
180.5855
 30
0.0
 11
35.0
 21
181.6095
 31
0.0
  0
LINE
  5
323
330
1D
100
AcDbEntity
  8
0
100
AcDbLine
 10
35.0
 20
180.5855
 30
0.0
 11
35.0
 21
179.6255
 31
0.0
  0
LINE
  5
324
330
1D
100
AcDbEntity
  8
0
100
AcDbLine
 10
35.0
 20
181.6095
 30
0.0
 11
35.0
 21
182.6335
 31
0.0
  0
LINE
  5
325
330
1D
100
AcDbEntity
  8
0
100
AcDbLine
 10
35.0
 20
181.6095
 30
0.0
 11
35.0
 21
180.5855
 31
0.0
  0
LINE
  5
326
330
1D
100
AcDbEntity
  8
0
100
AcDbLine
 10
35.0
 20
184.4415
 30
0.0
 11
35.0
 21
183.5935
 31
0.0
  0
LINE
  5
327
330
1D
100
AcDbEntity
  8
0
100
AcDbLine
 10
35.0
 20
184.4415
 30
0.0
 11
35.0
 21
185.0815
 31
0.0
  0
LINE
  5
328
330
1D
100
AcDbEntity
  8
0
100
AcDbLine
 10
35.0
 20
183.5935
 30
0.0
 11
35.0
 21
182.6335
 31
0.0
  0
LINE
  5
329
330
1D
100
AcDbEntity
  8
0
100
AcDbLine
 10
35.0
 20
183.5935
 30
0.0
 11
35.0
 21
184.4415
 31
0.0
  0
LINE
  5
32A
330
1D
100
AcDbEntity
  8
0
100
AcDbLine
 10
35.0
 20
182.6335
 30
0.0
 11
35.0
 21
181.6095
 31
0.0
  0
LINE
  5
32B
330
1D
100
AcDbEntity
  8
0
100
AcDbLine
 10
35.0
 20
182.6335
 30
0.0
 11
35.0
 21
183.5935
 31
0.0
  0
LINE
  5
32C
330
1D
100
AcDbEntity
  8
0
100
AcDbLine
 10
35.0
 20
183.9685
 30
0.0
 11
35.0
 21
185.3165
 31
0.0
  0
LINE
  5
32D
330
1D
100
AcDbEntity
  8
0
100
AcDbLine
 10
35.0
 20
183.9685
 30
0.0
 11
35.0
 21
207.6935
 31
0.0
  0
LINE
  5
32E
330
1D
100
AcDbEntity
  8
0
100
AcDbLine
 10
35.0
 20
185.0815
 30
0.0
 11
35.0
 21
184.4415
 31
0.0
  0
LINE
  5
32F
330
1D
100
AcDbEntity
  8
0
100
AcDbLine
 10
35.0
 20
185.0815
 30
0.0
 11
35.0
 21
185.4655
 31
0.0
  0
LINE
  5
330
330
1D
100
AcDbEntity
  8
0
100
AcDbLine
 10
35.0
 20
185.6095
 30
0.0
 11
35.0
 21
185.4655
 31
0.0
  0
LINE
  5
331
330
1D
100
AcDbEntity
  8
0
100
AcDbLine
 10
35.0
 20
185.4655
 30
0.0
 11
35.0
 21
185.0815
 31
0.0
  0
LINE
  5
332
330
1D
100
AcDbEntity
  8
0
100
AcDbLine
 10
35.0
 20
185.4655
 30
0.0
 11
35.0
 21
185.6095
 31
0.0
  0
LINE
  5
333
330
1D
100
AcDbEntity
  8
0
100
AcDbLine
 10
35.0
 20
185.3165
 30
0.0
 11
35.0
 21
206.4345
 31
0.0
  0
LINE
  5
334
330
1D
100
AcDbEntity
  8
0
100
AcDbLine
 10
35.0
 20
185.3165
 30
0.0
 11
35.0
 21
183.9685
 31
0.0
  0
LINE
  5
335
330
1D
100
AcDbEntity
  8
0
100
AcDbLine
 10
35.0
 20
192.7755
 30
0.0
 11
35.0
 21
193.5845
 31
0.0
  0
LINE
  5
336
330
1D
100
AcDbEntity
  8
0
100
AcDbLine
 10
35.0
 20
192.7755
 30
0.0
 11
35.0
 21
203.9455
 31
0.0
  0
LINE
  5
337
330
1D
100
AcDbEntity
  8
0
100
AcDbLine
 10
35.0
 20
185.0265
 30
0.0
 11
35.0
 21
179.4825
 31
0.0
  0
LINE
  5
338
330
1D
100
AcDbEntity
  8
0
100
AcDbLine
 10
35.0
 20
185.0265
 30
0.0
 11
35.0
 21
189.8145
 31
0.0
  0
LINE
  5
339
330
1D
100
AcDbEntity
  8
0
100
AcDbLine
 10
35.0
 20
189.8145
 30
0.0
 11
35.0
 21
185.0265
 31
0.0
  0
LINE
  5
33A
330
1D
100
AcDbEntity
  8
0
100
AcDbLine
 10
35.0
 20
189.8145
 30
0.0
 11
35.0
 21
193.0905
 31
0.0
  0
LINE
  5
33B
330
1D
100
AcDbEntity
  8
0
100
AcDbLine
 10
35.0
 20
193.5845
 30
0.0
 11
35.0
 21
204.2885
 31
0.0
  0
LINE
  5
33C
330
1D
100
AcDbEntity
  8
0
100
AcDbLine
 10
35.0
 20
193.5845
 30
0.0
 11
35.0
 21
192.7755
 31
0.0
  0
LINE
  5
33D
330
1D
100
AcDbEntity
  8
0
100
AcDbLine
 10
35.0
 20
193.0905
 30
0.0
 11
35.0
 21
189.8145
 31
0.0
  0
LINE
  5
33E
330
1D
100
AcDbEntity
  8
0
100
AcDbLine
 10
35.0
 20
193.0905
 30
0.0
 11
35.0
 21
195.8625
 31
0.0
  0
LINE
  5
33F
330
1D
100
AcDbEntity
  8
0
100
AcDbLine
 10
35.0
 20
195.8625
 30
0.0
 11
35.0
 21
193.0905
 31
0.0
  0
LINE
  5
340
330
1D
100
AcDbEntity
  8
0
100
AcDbLine
 10
35.0
 20
195.8625
 30
0.0
 11
35.0
 21
197.3745
 31
0.0
  0
LINE
  5
341
330
1D
100
AcDbEntity
  8
0
100
AcDbLine
 10
35.0
 20
179.4825
 30
0.0
 11
35.0
 21
173.4345
 31
0.0
  0
LINE
  5
342
330
1D
100
AcDbEntity
  8
0
100
AcDbLine
 10
35.0
 20
179.4825
 30
0.0
 11
35.0
 21
185.0265
 31
0.0
  0
LINE
  5
343
330
1D
100
AcDbEntity
  8
0
100
AcDbLine
 10
35.0
 20
173.4345
 30
0.0
 11
35.0
 21
166.3785
 31
0.0
  0
LINE
  5
344
330
1D
100
AcDbEntity
  8
0
100
AcDbLine
 10
35.0
 20
173.4345
 30
0.0
 11
35.0
 21
179.4825
 31
0.0
  0
LINE
  5
345
330
1D
100
AcDbEntity
  8
0
100
AcDbLine
 10
35.0
 20
166.3785
 30
0.0
 11
35.0
 21
159.0705
 31
0.0
  0
LINE
  5
346
330
1D
100
AcDbEntity
  8
0
100
AcDbLine
 10
35.0
 20
166.3785
 30
0.0
 11
35.0
 21
173.4345
 31
0.0
  0
LINE
  5
347
330
1D
100
AcDbEntity
  8
0
100
AcDbLine
 10
35.0
 20
159.0705
 30
0.0
 11
35.0
 21
151.2585
 31
0.0
  0
LINE
  5
348
330
1D
100
AcDbEntity
  8
0
100
AcDbLine
 10
35.0
 20
159.0705
 30
0.0
 11
35.0
 21
166.3785
 31
0.0
  0
LINE
  5
349
330
1D
100
AcDbEntity
  8
0
100
AcDbLine
 10
35.0
 20
143.4465
 30
0.0
 11
35.0
 21
135.1305
 31
0.0
  0
LINE
  5
34A
330
1D
100
AcDbEntity
  8
0
100
AcDbLine
 10
35.0
 20
143.4465
 30
0.0
 11
35.0
 21
151.2585
 31
0.0
  0
LINE
  5
34B
330
1D
100
AcDbEntity
  8
0
100
AcDbLine
 10
39.0
 20
162.4525
 30
0.0
 11
39.0
 21
161.8125
 31
0.0
  0
LINE
  5
34C
330
1D
100
AcDbEntity
  8
0
100
AcDbLine
 10
39.0
 20
160.9645
 30
0.0
 11
39.0
 21
161.8125
 31
0.0
  0
LINE
  5
34D
330
1D
100
AcDbEntity
  8
0
100
AcDbLine
 10
39.0
 20
161.8125
 30
0.0
 11
39.0
 21
162.4525
 31
0.0
  0
LINE
  5
34E
330
1D
100
AcDbEntity
  8
0
100
AcDbLine
 10
39.0
 20
161.8125
 30
0.0
 11
39.0
 21
160.9645
 31
0.0
  0
LINE
  5
34F
330
1D
100
AcDbEntity
  8
0
100
AcDbLine
 10
39.0
 20
160.6305
 30
0.0
 11
39.0
 21
210.6305
 31
0.0
  0
LINE
  5
350
330
1D
100
AcDbEntity
  8
0
100
AcDbLine
 10
35.0
 20
196.1305
 30
0.0
 11
35.0
 21
197.3745
 31
0.0
  0
LINE
  5
351
330
1D
100
AcDbEntity
  8
0
100
AcDbLine
 10
35.0
 20
196.1305
 30
0.0
 11
35.0
 21
210.6305
 31
0.0
  0
LINE
  5
352
330
1D
100
AcDbEntity
  8
0
100
AcDbLine
 10
35.0
 20
196.1305
 30
0.0
 11
35.0
 21
208.6305
 31
0.0
  0
LINE
  5
353
330
1D
100
AcDbEntity
  8
0
100
AcDbLine
 10
35.0
 20
196.1305
 30
0.0
 11
35.0
 21
206.4345
 31
0.0
  0
LINE
  5
354
330
1D
100
AcDbEntity
  8
0
100
AcDbLine
 10
35.0
 20
196.1305
 30
0.0
 11
35.0
 21
207.6935
 31
0.0
  0
LINE
  5
355
330
1D
100
AcDbEntity
  8
0
100
AcDbLine
 10
35.0
 20
196.1305
 30
0.0
 11
35.0
 21
204.2885
 31
0.0
  0
LINE
  5
356
330
1D
100
AcDbEntity
  8
0
100
AcDbLine
 10
35.0
 20
196.1305
 30
0.0
 11
35.0
 21
203.9455
 31
0.0
  0
LINE
  5
357
330
1D
100
AcDbEntity
  8
0
100
AcDbLine
 10
35.0
 20
197.0205
 30
0.0
 11
35.0
 21
197.1645
 31
0.0
  0
LINE
  5
358
330
1D
100
AcDbEntity
  8
0
100
AcDbLine
 10
35.0
 20
197.1645
 30
0.0
 11
35.0
 21
197.5485
 31
0.0
  0
LINE
  5
359
330
1D
100
AcDbEntity
  8
0
100
AcDbLine
 10
35.0
 20
197.1645
 30
0.0
 11
35.0
 21
197.0205
 31
0.0
  0
LINE
  5
35A
330
1D
100
AcDbEntity
  8
0
100
AcDbLine
 10
35.0
 20
197.5485
 30
0.0
 11
35.0
 21
198.1885
 31
0.0
  0
LINE
  5
35B
330
1D
100
AcDbEntity
  8
0
100
AcDbLine
 10
35.0
 20
197.5485
 30
0.0
 11
35.0
 21
197.1645
 31
0.0
  0
LINE
  5
35C
330
1D
100
AcDbEntity
  8
0
100
AcDbLine
 10
35.0
 20
198.1885
 30
0.0
 11
35.0
 21
199.0365
 31
0.0
  0
LINE
  5
35D
330
1D
100
AcDbEntity
  8
0
100
AcDbLine
 10
35.0
 20
198.1885
 30
0.0
 11
35.0
 21
197.5485
 31
0.0
  0
LINE
  5
35E
330
1D
100
AcDbEntity
  8
0
100
AcDbLine
 10
35.0
 20
199.0365
 30
0.0
 11
35.0
 21
199.9965
 31
0.0
  0
LINE
  5
35F
330
1D
100
AcDbEntity
  8
0
100
AcDbLine
 10
35.0
 20
199.0365
 30
0.0
 11
35.0
 21
198.1885
 31
0.0
  0
LINE
  5
360
330
1D
100
AcDbEntity
  8
0
100
AcDbLine
 10
35.0
 20
198.1305
 30
0.0
 11
35.0
 21
197.3745
 31
0.0
  0
LINE
  5
361
330
1D
100
AcDbEntity
  8
0
100
AcDbLine
 10
35.0
 20
197.3745
 30
0.0
 11
35.0
 21
198.1305
 31
0.0
  0
LINE
  5
362
330
1D
100
AcDbEntity
  8
0
100
AcDbLine
 10
35.0
 20
197.3745
 30
0.0
 11
35.0
 21
196.1305
 31
0.0
  0
LINE
  5
363
330
1D
100
AcDbEntity
  8
0
100
AcDbLine
 10
35.0
 20
197.3745
 30
0.0
 11
35.0
 21
195.8625
 31
0.0
  0
LINE
  5
364
330
1D
100
AcDbEntity
  8
0
100
AcDbLine
 10
39.0
 20
196.1305
 30
0.0
 11
66.0
 21
196.1305
 31
0.0
  0
LINE
  5
365
330
1D
100
AcDbEntity
  8
0
100
AcDbLine
 10
39.0
 20
196.1305
 30
0.0
 11
66.0
 21
196.1305
 31
0.0
  0
LINE
  5
366
330
1D
100
AcDbEntity
  8
0
100
AcDbLine
 10
35.0
 20
199.9965
 30
0.0
 11
35.0
 21
201.0205
 31
0.0
  0
LINE
  5
367
330
1D
100
AcDbEntity
  8
0
100
AcDbLine
 10
35.0
 20
199.9965
 30
0.0
 11
35.0
 21
199.0365
 31
0.0
  0
LINE
  5
36E
330
1D
100
AcDbEntity
  8
0
100
AcDbLine
 10
35.0
 20
201.0205
 30
0.0
 11
35.0
 21
202.0445
 31
0.0
  0
LINE
  5
36F
330
1D
100
AcDbEntity
  8
0
100
AcDbLine
 10
35.0
 20
201.0205
 30
0.0
 11
35.0
 21
199.9965
 31
0.0
  0
LINE
  5
372
330
1D
100
AcDbEntity
  8
0
100
AcDbLine
 10
54.5
 20
196.1305
 30
0.0
 11
54.3885
 21
261.9185
 31
0.0
  0
LINE
  5
373
330
1D
100
AcDbEntity
  8
0
100
AcDbLine
 10
66.72
 20
140.2745
 30
0.0
 11
68.64
 21
145.0595
 31
0.0
  0
LINE
  5
374
330
1D
100
AcDbEntity
  8
0
100
AcDbLine
 10
71.9531
 20
138.8605
 30
0.0
 11
73.352
 21
142.3575
 31
0.0
  0
LINE
  5
375
330
1D
100
AcDbEntity
  8
0
100
AcDbLine
 10
69.612
 20
139.4825
 30
0.0
 11
71.244
 21
143.5625
 31
0.0
  0
LINE
  5
376
330
1D
100
AcDbEntity
  8
0
100
AcDbLine
 10
68.64
 20
145.0505
 30
0.0
 11
71.84
 21
149.2905
 31
0.0
  0
LINE
  5
377
330
1D
100
AcDbEntity
  8
0
100
AcDbLine
 10
71.244
 20
143.5625
 30
0.0
 11
73.964
 21
147.1665
 31
0.0
  0
LINE
  5
378
330
1D
100
AcDbEntity
  8
0
100
AcDbLine
 10
103.36
 20
145.0505
 30
0.0
 11
105.28
 21
140.2505
 31
0.0
  0
LINE
  5
379
330
1D
100
AcDbEntity
  8
0
100
AcDbLine
 10
100.756
 20
143.5625
 30
0.0
 11
102.388
 21
139.4825
 31
0.0
  0
LINE
  5
37A
330
1D
100
AcDbEntity
  8
0
100
AcDbLine
 10
98.648
 20
142.3575
 30
0.0
 11
100.047
 21
138.8605
 31
0.0
  0
LINE
  5
37B
330
1D
100
AcDbEntity
  8
0
100
AcDbLine
 10
102.388
 20
139.4825
 30
0.0
 11
103.0
 21
135.1305
 31
0.0
  0
LINE
  5
37C
330
1D
100
AcDbEntity
  8
0
100
AcDbLine
 10
73.352
 20
142.3575
 30
0.0
 11
75.6834
 21
145.4475
 31
0.0
  0
LINE
  5
37D
330
1D
100
AcDbEntity
  8
0
100
AcDbLine
 10
100.047
 20
138.8605
 30
0.0
 11
100.571
 21
135.1305
 31
0.0
  0
LINE
  5
37E
330
1D
100
AcDbEntity
  8
0
100
AcDbLine
 10
103.36
 20
145.0595
 30
0.0
 11
105.28
 21
140.2745
 31
0.0
  0
LINE
  5
37F
330
1D
100
AcDbEntity
  8
0
100
AcDbLine
 10
68.64
 20
145.0595
 30
0.0
 11
71.84
 21
149.3095
 31
0.0
  0
LINE
  5
380
330
1D
100
AcDbEntity
  8
0
100
AcDbLine
 10
66.72
 20
140.2505
 30
0.0
 11
68.64
 21
145.0505
 31
0.0
  0
LINE
  5
381
330
1D
100
AcDbEntity
  8
0
100
AcDbLine
 10
73.964
 20
147.1665
 30
0.0
 11
77.568
 21
149.8865
 31
0.0
  0
LINE
  5
382
330
1D
100
AcDbEntity
  8
0
100
AcDbLine
 10
71.84
 20
149.2905
 30
0.0
 11
76.08
 21
152.4905
 31
0.0
  0
LINE
  5
383
330
1D
100
AcDbEntity
  8
0
100
AcDbLine
 10
75.6834
 20
145.4475
 30
0.0
 11
78.7726
 21
147.7785
 31
0.0
  0
LINE
  5
384
330
1D
100
AcDbEntity
  8
0
100
AcDbLine
 10
71.84
 20
149.3095
 30
0.0
 11
76.08
 21
152.4915
 31
0.0
  0
LINE
  5
385
330
1D
100
AcDbEntity
  8
0
100
AcDbLine
 10
82.2697
 20
149.1775
 30
0.0
 11
86.0
 21
149.7015
 31
0.0
  0
LINE
  5
386
330
1D
100
AcDbEntity
  8
0
100
AcDbLine
 10
89.7303
 20
149.1775
 30
0.0
 11
93.2274
 21
147.7785
 31
0.0
  0
LINE
  5
387
330
1D
100
AcDbEntity
  8
0
100
AcDbLine
 10
100.16
 20
149.2905
 30
0.0
 11
103.36
 21
145.0505
 31
0.0
  0
LINE
  5
388
330
1D
100
AcDbEntity
  8
0
100
AcDbLine
 10
98.036
 20
147.1665
 30
0.0
 11
100.756
 21
143.5625
 31
0.0
  0
LINE
  5
389
330
1D
100
AcDbEntity
  8
0
100
AcDbLine
 10
93.2274
 20
147.7785
 30
0.0
 11
96.3166
 21
145.4475
 31
0.0
  0
LINE
  5
38A
330
1D
100
AcDbEntity
  8
0
100
AcDbLine
 10
96.3166
 20
145.4475
 30
0.0
 11
98.648
 21
142.3575
 31
0.0
  0
LINE
  5
38B
330
1D
100
AcDbEntity
  8
0
100
AcDbLine
 10
78.7726
 20
147.7785
 30
0.0
 11
82.2697
 21
149.1775
 31
0.0
  0
LINE
  5
38C
330
1D
100
AcDbEntity
  8
0
100
AcDbLine
 10
77.568
 20
149.8865
 30
0.0
 11
81.648
 21
151.5185
 31
0.0
  0
LINE
  5
38D
330
1D
100
AcDbEntity
  8
0
100
AcDbLine
 10
86.0
 20
149.7015
 30
0.0
 11
89.7303
 21
149.1775
 31
0.0
  0
LINE
  5
38E
330
1D
100
AcDbEntity
  8
0
100
AcDbLine
 10
86.0
 20
152.1305
 30
0.0
 11
90.352
 21
151.5185
 31
0.0
  0
LINE
  5
38F
330
1D
100
AcDbEntity
  8
0
100
AcDbLine
 10
81.648
 20
151.5185
 30
0.0
 11
86.0
 21
152.1305
 31
0.0
  0
LINE
  5
390
330
1D
100
AcDbEntity
  8
0
100
AcDbLine
 10
95.92
 20
152.4905
 30
0.0
 11
100.16
 21
149.2905
 31
0.0
  0
LINE
  5
391
330
1D
100
AcDbEntity
  8
0
100
AcDbLine
 10
90.352
 20
151.5185
 30
0.0
 11
94.432
 21
149.8865
 31
0.0
  0
LINE
  5
392
330
1D
100
AcDbEntity
  8
0
100
AcDbLine
 10
94.432
 20
149.8865
 30
0.0
 11
98.036
 21
147.1665
 31
0.0
  0
LINE
  5
393
330
1D
100
AcDbEntity
  8
0
100
AcDbLine
 10
95.92
 20
152.4915
 30
0.0
 11
100.16
 21
149.3095
 31
0.0
  0
LINE
  5
394
330
1D
100
AcDbEntity
  8
0
100
AcDbLine
 10
100.16
 20
149.3095
 30
0.0
 11
103.36
 21
145.0595
 31
0.0
  0
LINE
  5
395
330
1D
100
AcDbEntity
  8
0
100
AcDbLine
 10
76.08
 20
152.4905
 30
0.0
 11
80.88
 21
154.4105
 31
0.0
  0
LINE
  5
396
330
1D
100
AcDbEntity
  8
0
100
AcDbLine
 10
105.28
 20
140.2505
 30
0.0
 11
106.0
 21
135.1305
 31
0.0
  0
LINE
  5
397
330
1D
100
AcDbEntity
  8
0
100
AcDbLine
 10
105.28
 20
140.2745
 30
0.0
 11
106.0
 21
135.1305
 31
0.0
  0
LINE
  5
398
330
1D
100
AcDbEntity
  8
0
100
AcDbLine
 10
80.88
 20
154.4105
 30
0.0
 11
86.0
 21
155.1305
 31
0.0
  0
LINE
  5
399
330
1D
100
AcDbEntity
  8
0
100
AcDbLine
 10
86.0
 20
155.1305
 30
0.0
 11
91.12
 21
154.4345
 31
0.0
  0
LINE
  5
39A
330
1D
100
AcDbEntity
  8
0
100
AcDbLine
 10
86.0
 20
155.1305
 30
0.0
 11
91.12
 21
154.4105
 31
0.0
  0
LINE
  5
39B
330
1D
100
AcDbEntity
  8
0
100
AcDbLine
 10
80.88
 20
154.4345
 30
0.0
 11
86.0
 21
155.1305
 31
0.0
  0
LINE
  5
39C
330
1D
100
AcDbEntity
  8
0
100
AcDbLine
 10
86.0
 20
192.4805
 30
0.0
 11
91.12
 21
192.7345
 31
0.0
  0
LINE
  5
39D
330
1D
100
AcDbEntity
  8
0
100
AcDbLine
 10
91.12
 20
192.7345
 30
0.0
 11
95.92
 21
193.3905
 31
0.0
  0
LINE
  5
39E
330
1D
100
AcDbEntity
  8
0
100
AcDbLine
 10
80.88
 20
192.7345
 30
0.0
 11
86.0
 21
192.4805
 31
0.0
  0
LINE
  5
39F
330
1D
100
AcDbEntity
  8
0
100
AcDbLine
 10
76.08
 20
193.3905
 30
0.0
 11
80.88
 21
192.7345
 31
0.0
  0
LINE
  5
3A0
330
1D
100
AcDbEntity
  8
0
100
AcDbLine
 10
71.84
 20
194.2405
 30
0.0
 11
76.08
 21
193.3905
 31
0.0
  0
LINE
  5
3A1
330
1D
100
AcDbEntity
  8
0
100
AcDbLine
 10
68.64
 20
195.0425
 30
0.0
 11
71.84
 21
194.2405
 31
0.0
  0
LINE
  5
3A2
330
1D
100
AcDbEntity
  8
0
100
AcDbLine
 10
80.88
 20
196.1305
 30
0.0
 11
86.0
 21
196.1305
 31
0.0
  0
LINE
  5
3A3
330
1D
100
AcDbEntity
  8
0
100
AcDbLine
 10
76.08
 20
196.1305
 30
0.0
 11
80.88
 21
196.1305
 31
0.0
  0
LINE
  5
3A4
330
1D
100
AcDbEntity
  8
0
100
AcDbLine
 10
71.84
 20
196.1305
 30
0.0
 11
76.08
 21
196.1305
 31
0.0
  0
LINE
  5
3A5
330
1D
100
AcDbEntity
  8
0
100
AcDbLine
 10
68.64
 20
196.1305
 30
0.0
 11
71.84
 21
196.1305
 31
0.0
  0
LINE
  5
3A6
330
1D
100
AcDbEntity
  8
0
100
AcDbLine
 10
66.72
 20
196.1305
 30
0.0
 11
68.64
 21
196.1305
 31
0.0
  0
LINE
  5
3A7
330
1D
100
AcDbEntity
  8
0
100
AcDbLine
 10
86.0
 20
196.1305
 30
0.0
 11
91.12
 21
196.1305
 31
0.0
  0
LINE
  5
3A8
330
1D
100
AcDbEntity
  8
0
100
AcDbLine
 10
91.12
 20
196.1305
 30
0.0
 11
95.92
 21
196.1305
 31
0.0
  0
LINE
  5
3A9
330
1D
100
AcDbEntity
  8
0
100
AcDbLine
 10
66.72
 20
195.7235
 30
0.0
 11
68.64
 21
195.0425
 31
0.0
  0
LINE
  5
3AA
330
1D
100
AcDbEntity
  8
0
100
AcDbLine
 10
66.0
 20
196.1305
 30
0.0
 11
66.72
 21
195.7235
 31
0.0
  0
LINE
  5
3AB
330
1D
100
AcDbEntity
  8
0
100
AcDbLine
 10
66.0
 20
196.1305
 30
0.0
 11
66.72
 21
196.1305
 31
0.0
  0
LINE
  5
3AD
330
1D
100
AcDbEntity
  8
0
100
AcDbLine
 10
91.12
 20
154.4105
 30
0.0
 11
95.92
 21
152.4905
 31
0.0
  0
LINE
  5
3AE
330
1D
100
AcDbEntity
  8
0
100
AcDbLine
 10
95.92
 20
193.3905
 30
0.0
 11
100.16
 21
194.2405
 31
0.0
  0
LINE
  5
3DF
330
1D
100
AcDbEntity
  8
0
100
AcDbLine
 10
101.0
 20
194.7315
 30
0.0
 11
108.0
 21
194.7315
 31
0.0
  0
LINE
  5
3E0
330
1D
100
AcDbEntity
  8
0
100
AcDbLine
 10
101.0
 20
194.7315
 30
0.0
 11
101.0
 21
194.4795
 31
0.0
  0
LINE
  5
3E1
330
1D
100
AcDbEntity
  8
0
100
AcDbLine
 10
101.0
 20
194.4795
 30
0.0
 11
101.0
 21
194.7315
 31
0.0
  0
LINE
  5
3E2
330
1D
100
AcDbEntity
  8
0
100
AcDbLine
 10
101.0
 20
194.4795
 30
0.0
 11
101.0
 21
193.8075
 31
0.0
  0
LINE
  5
3E3
330
1D
100
AcDbEntity
  8
0
100
AcDbLine
 10
101.0
 20
193.8075
 30
0.0
 11
101.0
 21
194.4795
 31
0.0
  0
LINE
  5
3F2
330
1D
100
AcDbEntity
  8
0
100
AcDbLine
 10
100.16
 20
194.2405
 30
0.0
 11
101.0
 21
194.451025
 31
0.0
  0
LINE
  5
3F3
330
1D
100
AcDbEntity
  8
0
100
AcDbLine
 10
102.119102244389
 20
194.7315
 30
0.0
 11
103.36
 21
195.0425
 31
0.0
  0
LINE
  5
3F4
330
1D
100
AcDbEntity
  8
0
100
AcDbLine
 10
103.36
 20
195.0425
 30
0.0
 11
105.28
 21
195.7235
 31
0.0
  0
LINE
  5
3F5
330
1D
100
AcDbEntity
  8
0
100
AcDbLine
 10
95.92
 20
196.1305
 30
0.0
 11
100.16
 21
196.1305
 31
0.0
  0
LINE
  5
3F6
330
1D
100
AcDbEntity
  8
0
100
AcDbLine
 10
100.16
 20
196.1305
 30
0.0
 11
103.36
 21
196.1305
 31
0.0
  0
LINE
  5
3F7
330
1D
100
AcDbEntity
  8
0
100
AcDbLine
 10
103.36
 20
196.1305
 30
0.0
 11
105.28
 21
196.1305
 31
0.0
  0
LINE
  5
3F8
330
1D
100
AcDbEntity
  8
0
100
AcDbLine
 10
105.28
 20
196.1305
 30
0.0
 11
106.0
 21
196.1305
 31
0.0
  0
LINE
  5
3F9
330
1D
100
AcDbEntity
  8
0
100
AcDbLine
 10
105.28
 20
195.7235
 30
0.0
 11
106.0
 21
196.1305
 31
0.0
  0
LINE
  5
3FA
330
1D
100
AcDbEntity
  8
0
100
AcDbLine
 10
91.12
 20
154.4345
 30
0.0
 11
95.92
 21
152.4915
 31
0.0
  0
LINE
  5
3FB
330
1D
100
AcDbEntity
  8
0
100
AcDbLine
 10
76.08
 20
152.4915
 30
0.0
 11
80.88
 21
154.4345
 31
0.0
  0
LINE
  5
3FC
330
1D
100
AcDbEntity
  8
0
100
AcDbLine
 10
108.0
 20
150.8625
 30
0.0
 11
108.0
 21
158.4385
 31
0.0
  0
LINE
  5
3FD
330
1D
100
AcDbEntity
  8
0
100
AcDbLine
 10
108.0
 20
150.8625
 30
0.0
 11
108.0
 21
143.0925
 31
0.0
  0
LINE
  5
3FE
330
1D
100
AcDbEntity
  8
0
100
AcDbLine
 10
108.0
 20
143.0925
 30
0.0
 11
108.0
 21
150.8625
 31
0.0
  0
LINE
  5
3FF
330
1D
100
AcDbEntity
  8
0
100
AcDbLine
 10
108.0
 20
143.0925
 30
0.0
 11
108.0
 21
135.1305
 31
0.0
  0
LINE
  5
400
330
1D
100
AcDbEntity
  8
0
100
AcDbLine
 10
108.0
 20
158.4385
 30
0.0
 11
108.0
 21
165.5025
 31
0.0
  0
LINE
  5
401
330
1D
100
AcDbEntity
  8
0
100
AcDbLine
 10
108.0
 20
158.4385
 30
0.0
 11
108.0
 21
150.8625
 31
0.0
  0
LINE
  5
402
330
1D
100
AcDbEntity
  8
0
100
AcDbLine
 10
108.0
 20
181.6555
 30
0.0
 11
108.0
 21
182.7755
 31
0.0
  0
LINE
  5
403
330
1D
100
AcDbEntity
  8
0
100
AcDbLine
 10
108.0
 20
181.6555
 30
0.0
 11
108.0
 21
165.7205
 31
0.0
  0
LINE
  5
404
330
1D
100
AcDbEntity
  8
0
100
AcDbLine
 10
108.0
 20
182.7755
 30
0.0
 11
108.0
 21
184.2595
 31
0.0
  0
LINE
  5
405
330
1D
100
AcDbEntity
  8
0
100
AcDbLine
 10
108.0
 20
182.7755
 30
0.0
 11
108.0
 21
181.6555
 31
0.0
  0
LINE
  5
406
330
1D
100
AcDbEntity
  8
0
100
AcDbLine
 10
108.0
 20
184.2595
 30
0.0
 11
108.0
 21
185.9395
 31
0.0
  0
LINE
  5
407
330
1D
100
AcDbEntity
  8
0
100
AcDbLine
 10
108.0
 20
184.2595
 30
0.0
 11
108.0
 21
182.7755
 31
0.0
  0
LINE
  5
408
330
1D
100
AcDbEntity
  8
0
100
AcDbLine
 10
108.0
 20
185.9395
 30
0.0
 11
108.0
 21
187.7315
 31
0.0
  0
LINE
  5
409
330
1D
100
AcDbEntity
  8
0
100
AcDbLine
 10
108.0
 20
185.9395
 30
0.0
 11
108.0
 21
184.2595
 31
0.0
  0
LINE
  5
40A
330
1D
100
AcDbEntity
  8
0
100
AcDbLine
 10
108.0
 20
187.7315
 30
0.0
 11
108.0
 21
189.5235
 31
0.0
  0
LINE
  5
40B
330
1D
100
AcDbEntity
  8
0
100
AcDbLine
 10
108.0
 20
187.7315
 30
0.0
 11
108.0
 21
185.9395
 31
0.0
  0
LINE
  5
40C
330
1D
100
AcDbEntity
  8
0
100
AcDbLine
 10
108.0
 20
194.4795
 30
0.0
 11
108.0
 21
193.8075
 31
0.0
  0
LINE
  5
40D
330
1D
100
AcDbEntity
  8
0
100
AcDbLine
 10
108.0
 20
194.4795
 30
0.0
 11
108.0
 21
194.7315
 31
0.0
  0
LINE
  5
40E
330
1D
100
AcDbEntity
  8
0
100
AcDbLine
 10
108.0
 20
193.8075
 30
0.0
 11
108.0
 21
192.6875
 31
0.0
  0
LINE
  5
40F
330
1D
100
AcDbEntity
  8
0
100
AcDbLine
 10
108.0
 20
193.8075
 30
0.0
 11
108.0
 21
194.4795
 31
0.0
  0
LINE
  5
410
330
1D
100
AcDbEntity
  8
0
100
AcDbLine
 10
108.0
 20
192.6875
 30
0.0
 11
108.0
 21
191.2035
 31
0.0
  0
LINE
  5
411
330
1D
100
AcDbEntity
  8
0
100
AcDbLine
 10
108.0
 20
192.6875
 30
0.0
 11
108.0
 21
193.8075
 31
0.0
  0
LINE
  5
412
330
1D
100
AcDbEntity
  8
0
100
AcDbLine
 10
108.0
 20
191.2035
 30
0.0
 11
108.0
 21
189.5235
 31
0.0
  0
LINE
  5
413
330
1D
100
AcDbEntity
  8
0
100
AcDbLine
 10
108.0
 20
191.2035
 30
0.0
 11
108.0
 21
192.6875
 31
0.0
  0
LINE
  5
414
330
1D
100
AcDbEntity
  8
0
100
AcDbLine
 10
108.0
 20
189.5235
 30
0.0
 11
108.0
 21
187.7315
 31
0.0
  0
LINE
  5
415
330
1D
100
AcDbEntity
  8
0
100
AcDbLine
 10
108.0
 20
189.5235
 30
0.0
 11
108.0
 21
191.2035
 31
0.0
  0
LINE
  5
416
330
1D
100
AcDbEntity
  8
0
100
AcDbLine
 10
108.0
 20
194.7315
 30
0.0
 11
108.0
 21
195.4885
 31
0.0
  0
LINE
  5
417
330
1D
100
AcDbEntity
  8
0
100
AcDbLine
 10
108.0
 20
194.7315
 30
0.0
 11
108.0
 21
194.4795
 31
0.0
  0
LINE
  5
418
330
1D
100
AcDbEntity
  8
0
100
AcDbLine
 10
108.0
 20
195.4885
 30
0.0
 11
108.0
 21
196.1305
 31
0.0
  0
LINE
  5
419
330
1D
100
AcDbEntity
  8
0
100
AcDbLine
 10
108.0
 20
195.4885
 30
0.0
 11
108.0
 21
194.7315
 31
0.0
  0
LINE
  5
41A
330
1D
100
AcDbEntity
  8
0
100
AcDbLine
 10
108.0
 20
165.7205
 30
0.0
 11
108.0
 21
165.5025
 31
0.0
  0
LINE
  5
41B
330
1D
100
AcDbEntity
  8
0
100
AcDbLine
 10
108.0
 20
165.7205
 30
0.0
 11
108.0
 21
181.6555
 31
0.0
  0
LINE
  5
41C
330
1D
100
AcDbEntity
  8
0
100
AcDbLine
 10
108.0
 20
165.5025
 30
0.0
 11
108.0
 21
158.4385
 31
0.0
  0
LINE
  5
41D
330
1D
100
AcDbEntity
  8
0
100
AcDbLine
 10
108.0
 20
165.5025
 30
0.0
 11
108.0
 21
165.7205
 31
0.0
  0
LINE
  5
41E
330
1D
100
AcDbEntity
  8
0
100
AcDbLine
 10
106.0
 20
196.1305
 30
0.0
 11
108.0
 21
196.1305
 31
0.0
  0
LINE
  5
41F
330
1D
100
AcDbEntity
  8
0
100
AcDbLine
 10
106.0
 20
196.1305
 30
0.0
 11
106.0
 21
198.1305
 31
0.0
  0
LINE
  5
422
330
1D
100
AcDbEntity
  8
0
100
AcDbLine
 10
74.5
 20
198.1305
 30
0.0
 11
76.08
 21
198.1305
 31
0.0
  0
LINE
  5
42B
330
1D
100
AcDbEntity
  8
0
100
AcDbLine
 10
86.0
 20
198.1305
 30
0.0
 11
91.12
 21
198.1305
 31
0.0
  0
LINE
  5
42C
330
1D
100
AcDbEntity
  8
0
100
AcDbLine
 10
91.12
 20
198.1305
 30
0.0
 11
95.92
 21
198.1305
 31
0.0
  0
LINE
  5
42D
330
1D
100
AcDbEntity
  8
0
100
AcDbLine
 10
95.92
 20
198.1305
 30
0.0
 11
100.16
 21
198.1305
 31
0.0
  0
LINE
  5
42E
330
1D
100
AcDbEntity
  8
0
100
AcDbLine
 10
100.16
 20
198.1305
 30
0.0
 11
103.36
 21
198.1305
 31
0.0
  0
LINE
  5
42F
330
1D
100
AcDbEntity
  8
0
100
AcDbLine
 10
106.0
 20
198.1305
 30
0.0
 11
106.0
 21
196.1305
 31
0.0
  0
LINE
  5
430
330
1D
100
AcDbEntity
  8
0
100
AcDbLine
 10
103.36
 20
198.1305
 30
0.0
 11
105.28
 21
198.1305
 31
0.0
  0
LINE
  5
431
330
1D
100
AcDbEntity
  8
0
100
AcDbLine
 10
105.28
 20
198.1305
 30
0.0
 11
106.0
 21
198.1305
 31
0.0
  0
LINE
  5
432
330
1D
100
AcDbEntity
  8
0
100
AcDbLine
 10
80.88
 20
198.1305
 30
0.0
 11
86.0
 21
198.1305
 31
0.0
  0
LINE
  5
433
330
1D
100
AcDbEntity
  8
0
100
AcDbLine
 10
76.08
 20
198.1305
 30
0.0
 11
80.88
 21
198.1305
 31
0.0
  0
LINE
  5
437
330
1D
100
AcDbEntity
  8
0
100
AcDbLine
 10
35.0
 20
202.0445
 30
0.0
 11
35.0
 21
201.0205
 31
0.0
  0
LINE
  5
438
330
1D
100
AcDbEntity
  8
0
100
AcDbLine
 10
35.0
 20
202.0445
 30
0.0
 11
35.0
 21
203.0045
 31
0.0
  0
LINE
  5
439
330
1D
100
AcDbEntity
  8
0
100
AcDbLine
 10
35.0
 20
203.0045
 30
0.0
 11
35.0
 21
202.0445
 31
0.0
  0
LINE
  5
43A
330
1D
100
AcDbEntity
  8
0
100
AcDbLine
 10
35.0
 20
203.0045
 30
0.0
 11
35.0
 21
203.8525
 31
0.0
  0
LINE
  5
43B
330
1D
100
AcDbEntity
  8
0
100
AcDbLine
 10
35.0
 20
202.6305
 30
0.0
 11
35.0
 21
202.7745
 31
0.0
  0
LINE
  5
43C
330
1D
100
AcDbEntity
  8
0
100
AcDbLine
 10
35.0
 20
202.7745
 30
0.0
 11
35.0
 21
203.1585
 31
0.0
  0
LINE
  5
43D
330
1D
100
AcDbEntity
  8
0
100
AcDbLine
 10
35.0
 20
202.7745
 30
0.0
 11
35.0
 21
202.6305
 31
0.0
  0
LINE
  5
43E
330
1D
100
AcDbEntity
  8
0
100
AcDbLine
 10
35.0
 20
203.8525
 30
0.0
 11
35.0
 21
203.0045
 31
0.0
  0
LINE
  5
43F
330
1D
100
AcDbEntity
  8
0
100
AcDbLine
 10
35.0
 20
203.8525
 30
0.0
 11
35.0
 21
204.4925
 31
0.0
  0
LINE
  5
440
330
1D
100
AcDbEntity
  8
0
100
AcDbLine
 10
35.0
 20
204.4925
 30
0.0
 11
35.0
 21
203.8525
 31
0.0
  0
LINE
  5
441
330
1D
100
AcDbEntity
  8
0
100
AcDbLine
 10
35.0
 20
204.4925
 30
0.0
 11
35.0
 21
204.8765
 31
0.0
  0
LINE
  5
442
330
1D
100
AcDbEntity
  8
0
100
AcDbLine
 10
35.0
 20
204.6305
 30
0.0
 11
35.0
 21
209.6305
 31
0.0
  0
LINE
  5
443
330
1D
100
AcDbEntity
  8
0
100
AcDbLine
 10
35.0
 20
203.9455
 30
0.0
 11
35.0
 21
196.1305
 31
0.0
  0
LINE
  5
444
330
1D
100
AcDbEntity
  8
0
100
AcDbLine
 10
35.0
 20
203.9455
 30
0.0
 11
35.0
 21
204.2885
 31
0.0
  0
LINE
  5
445
330
1D
100
AcDbEntity
  8
0
100
AcDbLine
 10
35.0
 20
203.9455
 30
0.0
 11
35.0
 21
192.7755
 31
0.0
  0
LINE
  5
446
330
1D
100
AcDbEntity
  8
0
100
AcDbLine
 10
35.0
 20
204.2885
 30
0.0
 11
35.0
 21
203.9455
 31
0.0
  0
LINE
  5
447
330
1D
100
AcDbEntity
  8
0
100
AcDbLine
 10
35.0
 20
204.2885
 30
0.0
 11
35.0
 21
196.1305
 31
0.0
  0
LINE
  5
448
330
1D
100
AcDbEntity
  8
0
100
AcDbLine
 10
35.0
 20
204.2885
 30
0.0
 11
35.0
 21
193.5845
 31
0.0
  0
LINE
  5
449
330
1D
100
AcDbEntity
  8
0
100
AcDbLine
 10
35.0
 20
203.1585
 30
0.0
 11
35.0
 21
203.7985
 31
0.0
  0
LINE
  5
44A
330
1D
100
AcDbEntity
  8
0
100
AcDbLine
 10
35.0
 20
203.1585
 30
0.0
 11
35.0
 21
202.7745
 31
0.0
  0
LINE
  5
44B
330
1D
100
AcDbEntity
  8
0
100
AcDbLine
 10
35.0
 20
203.7985
 30
0.0
 11
35.0
 21
204.6465
 31
0.0
  0
LINE
  5
44C
330
1D
100
AcDbEntity
  8
0
100
AcDbLine
 10
35.0
 20
203.7985
 30
0.0
 11
35.0
 21
203.1585
 31
0.0
  0
LINE
  5
44D
330
1D
100
AcDbEntity
  8
0
100
AcDbLine
 10
35.0
 20
205.0205
 30
0.0
 11
35.0
 21
204.8765
 31
0.0
  0
LINE
  5
44E
330
1D
100
AcDbEntity
  8
0
100
AcDbLine
 10
35.0
 20
204.8765
 30
0.0
 11
35.0
 21
204.4925
 31
0.0
  0
LINE
  5
44F
330
1D
100
AcDbEntity
  8
0
100
AcDbLine
 10
35.0
 20
204.8765
 30
0.0
 11
35.0
 21
205.0205
 31
0.0
  0
LINE
  5
450
330
1D
100
AcDbEntity
  8
0
100
AcDbLine
 10
35.0
 20
204.6465
 30
0.0
 11
35.0
 21
205.6065
 31
0.0
  0
LINE
  5
451
330
1D
100
AcDbEntity
  8
0
100
AcDbLine
 10
35.0
 20
204.6465
 30
0.0
 11
35.0
 21
203.7985
 31
0.0
  0
LINE
  5
452
330
1D
100
AcDbEntity
  8
0
100
AcDbLine
 10
35.0
 20
205.6065
 30
0.0
 11
35.0
 21
206.6305
 31
0.0
  0
LINE
  5
453
330
1D
100
AcDbEntity
  8
0
100
AcDbLine
 10
35.0
 20
205.6065
 30
0.0
 11
35.0
 21
204.6465
 31
0.0
  0
LINE
  5
454
330
1D
100
AcDbEntity
  8
0
100
AcDbLine
 10
35.0
 20
206.6305
 30
0.0
 11
35.0
 21
207.6545
 31
0.0
  0
LINE
  5
455
330
1D
100
AcDbEntity
  8
0
100
AcDbLine
 10
35.0
 20
206.6305
 30
0.0
 11
35.0
 21
205.6065
 31
0.0
  0
LINE
  5
456
330
1D
100
AcDbEntity
  8
0
100
AcDbLine
 10
35.0
 20
207.6545
 30
0.0
 11
35.0
 21
206.6305
 31
0.0
  0
LINE
  5
457
330
1D
100
AcDbEntity
  8
0
100
AcDbLine
 10
35.0
 20
207.6545
 30
0.0
 11
35.0
 21
208.6145
 31
0.0
  0
LINE
  5
458
330
1D
100
AcDbEntity
  8
0
100
AcDbLine
 10
35.0
 20
208.6145
 30
0.0
 11
35.0
 21
207.6545
 31
0.0
  0
LINE
  5
459
330
1D
100
AcDbEntity
  8
0
100
AcDbLine
 10
35.0
 20
208.6145
 30
0.0
 11
35.0
 21
209.4625
 31
0.0
  0
LINE
  5
45A
330
1D
100
AcDbEntity
  8
0
100
AcDbLine
 10
35.0
 20
207.6935
 30
0.0
 11
35.0
 21
196.1305
 31
0.0
  0
LINE
  5
45B
330
1D
100
AcDbEntity
  8
0
100
AcDbLine
 10
35.0
 20
207.6935
 30
0.0
 11
35.0
 21
206.4345
 31
0.0
  0
LINE
  5
45C
330
1D
100
AcDbEntity
  8
0
100
AcDbLine
 10
35.0
 20
207.6935
 30
0.0
 11
35.0
 21
183.9685
 31
0.0
  0
LINE
  5
45D
330
1D
100
AcDbEntity
  8
0
100
AcDbLine
 10
35.0
 20
206.4345
 30
0.0
 11
35.0
 21
207.6935
 31
0.0
  0
LINE
  5
45E
330
1D
100
AcDbEntity
  8
0
100
AcDbLine
 10
35.0
 20
206.4345
 30
0.0
 11
35.0
 21
196.1305
 31
0.0
  0
LINE
  5
45F
330
1D
100
AcDbEntity
  8
0
100
AcDbLine
 10
35.0
 20
206.4345
 30
0.0
 11
35.0
 21
185.3165
 31
0.0
  0
LINE
  5
460
330
1D
100
AcDbEntity
  8
0
100
AcDbLine
 10
35.0
 20
209.6305
 30
0.0
 11
35.0
 21
204.6305
 31
0.0
  0
LINE
  5
461
330
1D
100
AcDbEntity
  8
0
100
AcDbLine
 10
35.0
 20
210.4865
 30
0.0
 11
35.0
 21
210.1025
 31
0.0
  0
LINE
  5
462
330
1D
100
AcDbEntity
  8
0
100
AcDbLine
 10
35.0
 20
210.4865
 30
0.0
 11
35.0
 21
210.6305
 31
0.0
  0
LINE
  5
463
330
1D
100
AcDbEntity
  8
0
100
AcDbLine
 10
35.0
 20
210.1025
 30
0.0
 11
35.0
 21
209.4625
 31
0.0
  0
LINE
  5
464
330
1D
100
AcDbEntity
  8
0
100
AcDbLine
 10
35.0
 20
210.1025
 30
0.0
 11
35.0
 21
210.4865
 31
0.0
  0
LINE
  5
465
330
1D
100
AcDbEntity
  8
0
100
AcDbLine
 10
35.0
 20
209.4625
 30
0.0
 11
35.0
 21
208.6145
 31
0.0
  0
LINE
  5
466
330
1D
100
AcDbEntity
  8
0
100
AcDbLine
 10
35.0
 20
209.4625
 30
0.0
 11
35.0
 21
210.1025
 31
0.0
  0
LINE
  5
467
330
1D
100
AcDbEntity
  8
0
100
AcDbLine
 10
35.0
 20
208.6305
 30
0.0
 11
35.0
 21
159.8305
 31
0.0
  0
LINE
  5
468
330
1D
100
AcDbEntity
  8
0
100
AcDbLine
 10
35.0
 20
208.6305
 30
0.0
 11
35.0
 21
210.6305
 31
0.0
  0
LINE
  5
469
330
1D
100
AcDbEntity
  8
0
100
AcDbLine
 10
39.0
 20
208.6145
 30
0.0
 11
39.0
 21
209.4625
 31
0.0
  0
LINE
  5
46A
330
1D
100
AcDbEntity
  8
0
100
AcDbLine
 10
39.0
 20
210.1025
 30
0.0
 11
39.0
 21
209.4625
 31
0.0
  0
LINE
  5
46B
330
1D
100
AcDbEntity
  8
0
100
AcDbLine
 10
39.0
 20
209.4625
 30
0.0
 11
39.0
 21
208.6145
 31
0.0
  0
LINE
  5
46C
330
1D
100
AcDbEntity
  8
0
100
AcDbLine
 10
39.0
 20
209.4625
 30
0.0
 11
39.0
 21
210.1025
 31
0.0
  0
LINE
  5
46D
330
1D
100
AcDbEntity
  8
0
100
AcDbLine
 10
39.0
 20
210.6305
 30
0.0
 11
39.0
 21
160.6305
 31
0.0
  0
LINE
  5
46E
330
1D
100
AcDbEntity
  8
0
100
AcDbLine
 10
35.0
 20
210.6305
 30
0.0
 11
35.0
 21
160.6305
 31
0.0
  0
LINE
  5
46F
330
1D
100
AcDbEntity
  8
0
100
AcDbLine
 10
35.0
 20
210.6305
 30
0.0
 11
39.0
 21
210.6305
 31
0.0
  0
LINE
  5
470
330
1D
100
AcDbEntity
  8
0
100
AcDbLine
 10
35.0
 20
210.6305
 30
0.0
 11
35.0
 21
208.6305
 31
0.0
  0
LINE
  5
471
330
1D
100
AcDbEntity
  8
0
100
AcDbLine
 10
35.0
 20
210.6305
 30
0.0
 11
35.0
 21
196.1305
 31
0.0
  0
LINE
  5
472
330
1D
100
AcDbEntity
  8
0
100
AcDbLine
 10
35.0
 20
210.6305
 30
0.0
 11
35.0
 21
210.4865
 31
0.0
  0
LINE
  5
474
330
1D
100
AcDbEntity
  8
0
100
AcDbLine
 10
54.3885
 20
261.9185
 30
0.0
 11
54.5
 21
196.1305
 31
0.0
  0
LINE
  5
479
330
1D
100
AcDbEntity
  8
0
100
AcDbLine
 10
30.0
 20
268.7095
 30
0.0
 11
30.0
 21
265.2985
 31
0.0
  0
LINE
  5
47A
330
1D
100
AcDbEntity
  8
0
100
AcDbLine
 10
30.0
 20
268.7095
 30
0.0
 11
30.0
 21
270.1305
 31
0.0
  0
LINE
  5
47B
330
1D
100
AcDbEntity
  8
0
100
AcDbLine
 10
45.0
 20
707.096730769232
 30
0.0
 11
45.0
 21
707.483569449449
 31
0.0
  0
LINE
  5
47C
330
1D
100
AcDbEntity
  8
0
100
AcDbLine
 10
45.0
 20
707.483569449449
 30
0.0
 11
45.0
 21
707.096730769232
 31
0.0
  0
LINE
  5
47D
330
1D
100
AcDbEntity
  8
0
100
AcDbLine
 10
33.9999
 20
705.1565
 30
0.0
 11
45.005
 21
704.9475
 31
0.0
  0
LINE
  5
47E
330
1D
100
AcDbEntity
  8
0
100
AcDbLine
 10
44.9988
 20
713.4005
 30
0.0
 11
45.0
 21
710.1865
 31
0.0
  0
LINE
  5
47F
330
1D
100
AcDbEntity
  8
0
100
AcDbLine
 10
44.9988
 20
713.4005
 30
0.0
 11
45.0
 21
719.2335
 31
0.0
  0
LINE
  5
480
330
1D
100
AcDbEntity
  8
0
100
AcDbLine
 10
45.0
 20
713.137051724138
 30
0.0
 11
45.0
 21
711.2815
 31
0.0
  0
LINE
  5
481
330
1D
100
AcDbEntity
  8
0
100
AcDbLine
 10
45.0
 20
711.2815
 30
0.0
 11
45.0
 21
713.137051724138
 31
0.0
  0
LINE
  5
482
330
1D
100
AcDbEntity
  8
0
100
AcDbLine
 10
44.9985
 20
707.7415
 30
0.0
 11
45.005
 21
704.9475
 31
0.0
  0
LINE
  5
483
330
1D
100
AcDbEntity
  8
0
100
AcDbLine
 10
44.9934
 20
713.5635
 30
0.0
 11
45.0006
 21
722.5755
 31
0.0
  0
LINE
  5
484
330
1D
100
AcDbEntity
  8
0
100
AcDbLine
 10
44.9934
 20
713.5635
 30
0.0
 11
44.9985
 21
707.7415
 31
0.0
  0
LINE
  5
485
330
1D
100
AcDbEntity
  8
0
100
AcDbLine
 10
45.0
 20
710.1865
 30
0.0
 11
45.005158048944
 21
709.64400170058
 31
0.0
  0
LINE
  5
486
330
1D
100
AcDbEntity
  8
0
100
AcDbLine
 10
45.0
 20
710.1865
 30
0.0
 11
45.003
 21
707.9425
 31
0.0
  0
LINE
  5
48A
330
1D
100
AcDbEntity
  8
0
100
AcDbLine
 10
34.0
 20
765.0705
 30
0.0
 11
45.0
 21
765.1045
 31
0.0
  0
LINE
  5
48B
330
1D
100
AcDbEntity
  8
0
100
AcDbLine
 10
34.0
 20
765.0705
 30
0.0
 11
34.0
 21
764.8085
 31
0.0
  0
LINE
  5
48C
330
1D
100
AcDbEntity
  8
0
100
AcDbLine
 10
44.999875062284
 20
721.668119625496
 30
0.0
 11
45.0
 21
719.2335
 31
0.0
  0
LINE
  5
48D
330
1D
100
AcDbEntity
  8
0
100
AcDbLine
 10
44.988529387191
 20
762.5473105413
 30
0.0
 11
45.0821
 21
757.9855
 31
0.0
  0
LINE
  5
48E
330
1D
100
AcDbEntity
  8
0
100
AcDbLine
 10
44.989389119278
 20
762.69520275236
 30
0.0
 11
45.3082
 21
764.4955
 31
0.0
  0
LINE
  5
48F
330
1D
100
AcDbEntity
  8
0
100
AcDbLine
 10
44.9718
 20
759.6695
 30
0.0
 11
45.0
 21
764.5205
 31
0.0
  0
LINE
  5
490
330
1D
100
AcDbEntity
  8
0
100
AcDbLine
 10
44.9718
 20
759.6695
 30
0.0
 11
45.0011
 21
751.5125
 31
0.0
  0
LINE
  5
491
330
1D
100
AcDbEntity
  8
0
100
AcDbLine
 10
44.9992
 20
743.2495
 30
0.0
 11
45.0011
 21
751.5125
 31
0.0
  0
LINE
  5
492
330
1D
100
AcDbEntity
  8
0
100
AcDbLine
 10
44.9992
 20
743.2495
 30
0.0
 11
45.0006
 21
733.3705
 31
0.0
  0
LINE
  5
493
330
1D
100
AcDbEntity
  8
0
100
AcDbLine
 10
34.0
 20
764.8085
 30
0.0
 11
34.0
 21
765.0705
 31
0.0
  0
LINE
  5
494
330
1D
100
AcDbEntity
  8
0
100
AcDbLine
 10
45.0
 20
719.1955
 30
0.0
 11
45.0
 21
714.161227272728
 31
0.0
  0
LINE
  5
495
330
1D
100
AcDbEntity
  8
0
100
AcDbLine
 10
45.0559
 20
705.2065
 30
0.0
 11
45.9132
 21
704.5945
 31
0.0
  0
LINE
  5
498
330
1D
100
AcDbEntity
  8
0
100
AcDbLine
 10
45.9132
 20
704.5945
 30
0.0
 11
46.0849
 21
691.2505
 31
0.0
  0
LINE
  5
49A
330
1D
100
AcDbEntity
  8
0
100
AcDbLine
 10
45.0054
 20
717.5845
 30
0.0
 11
45.0075
 21
711.4905
 31
0.0
  0
LINE
  5
49B
330
1D
100
AcDbEntity
  8
0
100
AcDbLine
 10
45.0054
 20
717.5845
 30
0.0
 11
45.0151
 21
723.4995
 31
0.0
  0
LINE
  5
49D
330
1D
100
AcDbEntity
  8
0
100
AcDbLine
 10
45.003
 20
707.9425
 30
0.0
 11
45.0075
 21
711.4905
 31
0.0
  0
LINE
  5
4A0
330
1D
100
AcDbEntity
  8
0
100
AcDbLine
 10
46.0849
 20
691.2505
 30
0.0
 11
47.794
 21
691.1675
 31
0.0
  0
LINE
  5
4A1
330
1D
100
AcDbEntity
  8
0
100
AcDbLine
 10
47.794
 20
691.1675
 30
0.0
 11
49.751
 21
691.143096902277
 31
0.0
  0
LINE
  5
4A2
330
1D
100
AcDbEntity
  8
0
100
AcDbLine
 10
48.2722
 20
691.1595
 30
0.0
 11
49.062318941717
 21
691.151684511457
 31
0.0
  0
LINE
  5
4A3
330
1D
100
AcDbEntity
  8
0
100
AcDbLine
 10
48.2722
 20
691.1595
 30
0.0
 11
49.751
 21
691.142150214419
 31
0.0
  0
LINE
  5
4A4
330
1D
100
AcDbEntity
  8
0
100
AcDbLine
 10
45.0
 20
762.755121470679
 30
0.0
 11
45.0
 21
763.1505
 31
0.0
  0
LINE
  5
4A5
330
1D
100
AcDbEntity
  8
0
100
AcDbLine
 10
45.0
 20
765.1045
 30
0.0
 11
45.0
 21
764.5205
 31
0.0
  0
LINE
  5
4A6
330
1D
100
AcDbEntity
  8
0
100
AcDbLine
 10
45.0
 20
764.5205
 30
0.0
 11
45.0
 21
763.1505
 31
0.0
  0
LINE
  5
4A7
330
1D
100
AcDbEntity
  8
0
100
AcDbLine
 10
45.0
 20
764.5205
 30
0.0
 11
45.0
 21
765.1045
 31
0.0
  0
LINE
  5
4A8
330
1D
100
AcDbEntity
  8
0
100
AcDbLine
 10
45.0151
 20
723.4995
 30
0.0
 11
45.0229
 21
730.4975
 31
0.0
  0
LINE
  5
4A9
330
1D
100
AcDbEntity
  8
0
100
AcDbLine
 10
45.0007
 20
732.5855
 30
0.0
 11
45.0018
 21
740.4065
 31
0.0
  0
LINE
  5
4AA
330
1D
100
AcDbEntity
  8
0
100
AcDbLine
 10
45.0006
 20
731.834899999991
 30
0.0
 11
45.0007
 21
732.5855
 31
0.0
  0
LINE
  5
4AB
330
1D
100
AcDbEntity
  8
0
100
AcDbLine
 10
45.0027
 20
737.2705
 30
0.0
 11
45.0229
 21
730.4975
 31
0.0
  0
LINE
  5
4AC
330
1D
100
AcDbEntity
  8
0
100
AcDbLine
 10
45.0027
 20
737.2705
 30
0.0
 11
45.009
 21
744.7795
 31
0.0
  0
LINE
  5
4AD
330
1D
100
AcDbEntity
  8
0
100
AcDbLine
 10
45.0029
 20
751.4705
 30
0.0
 11
45.0065
 21
758.8635
 31
0.0
  0
LINE
  5
4AE
330
1D
100
AcDbEntity
  8
0
100
AcDbLine
 10
45.0018
 20
740.4065
 30
0.0
 11
45.0029
 21
751.4705
 31
0.0
  0
LINE
  5
4AF
330
1D
100
AcDbEntity
  8
0
100
AcDbLine
 10
45.3082
 20
764.4955
 30
0.0
 11
45.7789
 21
765.3125
 31
0.0
  0
LINE
  5
4B0
330
1D
100
AcDbEntity
  8
0
100
AcDbLine
 10
46.6447
 20
765.5965
 30
0.0
 11
49.751
 21
764.127723158056
 31
0.0
  0
LINE
  5
4B1
330
1D
100
AcDbEntity
  8
0
100
AcDbLine
 10
45.7789
 20
765.3125
 30
0.0
 11
46.6447
 21
765.5965
 31
0.0
  0
LINE
  5
4B2
330
1D
100
AcDbEntity
  8
0
100
AcDbLine
 10
45.7789
 20
765.3125
 30
0.0
 11
46.0217
 21
778.9125
 31
0.0
  0
LINE
  5
4B3
330
1D
100
AcDbEntity
  8
0
100
AcDbLine
 10
45.0059
 20
753.3425
 30
0.0
 11
45.0821
 21
757.9855
 31
0.0
  0
LINE
  5
4B4
330
1D
100
AcDbEntity
  8
0
100
AcDbLine
 10
45.0059
 20
753.3425
 30
0.0
 11
45.009
 21
744.7795
 31
0.0
  0
LINE
  5
4B5
330
1D
100
AcDbEntity
  8
0
100
AcDbLine
 10
45.005650705548
 20
757.119379476698
 30
0.0
 11
45.006291979459
 21
756.949364316959
 31
0.0
  0
LINE
  5
4B6
330
1D
100
AcDbEntity
  8
0
100
AcDbLine
 10
46.0217
 20
778.9125
 30
0.0
 11
47.7456
 21
779.1215
 31
0.0
  0
LINE
  5
4B7
330
1D
100
AcDbEntity
  8
0
100
AcDbLine
 10
46.0217
 20
778.9125
 30
0.0
 11
47.8143
 21
779.1165
 31
0.0
  0
LINE
  5
4B8
330
1D
100
AcDbEntity
  8
0
100
AcDbLine
 10
47.8143
 20
779.1165
 30
0.0
 11
49.751
 21
779.091462299092
 31
0.0
  0
LINE
  5
4B9
330
1D
100
AcDbEntity
  8
0
100
AcDbLine
 10
47.7456
 20
779.1215
 30
0.0
 11
49.751
 21
779.13547609343
 31
0.0
  0
LINE
  5
4BA
330
1D
100
AcDbEntity
  8
0
100
AcDbLine
 10
45.0006
 20
733.3705
 30
0.0
 11
45.0006
 21
722.5755
 31
0.0
  0
LINE
  5
4BB
330
1D
100
AcDbEntity
  8
0
100
AcDbLine
 10
45.0
 20
763.1505
 30
0.0
 11
45.0
 21
762.755121470679
 31
0.0
  0
LINE
  5
4BC
330
1D
100
AcDbEntity
  8
0
100
AcDbLine
 10
45.0
 20
763.1505
 30
0.0
 11
45.0
 21
764.5205
 31
0.0
  0
LINE
  5
4BD
330
1D
100
AcDbEntity
  8
0
100
AcDbLine
 10
45.0006
 20
722.5755
 30
0.0
 11
45.0006
 21
733.3705
 31
0.0
  0
LINE
  5
4BE
330
1D
100
AcDbEntity
  8
0
100
AcDbLine
 10
49.5295
 20
420.1595
 30
0.0
 11
49.751
 21
435.1305
 31
0.0
  0
LINE
  5
4BF
330
1D
100
AcDbEntity
  8
0
100
AcDbLine
 10
49.5295
 20
420.1595
 30
0.0
 11
49.8314
 21
380.4765
 31
0.0
  0
LINE
  5
4C2
330
1D
100
AcDbEntity
  8
0
100
AcDbLine
 10
53.0241
 20
313.7275
 30
0.0
 11
53.9178
 21
291.8935
 31
0.0
  0
LINE
  5
4C3
330
1D
100
AcDbEntity
  8
0
100
AcDbLine
 10
73.1518
 20
311.6215
 30
0.0
 11
74.0029
 21
287.5085
 31
0.0
  0
LINE
  5
4C4
330
1D
100
AcDbEntity
  8
0
100
AcDbLine
 10
53.9178
 20
291.8935
 30
0.0
 11
54.3885
 21
261.9185
 31
0.0
  0
LINE
  5
4C6
330
1D
100
AcDbEntity
  8
0
100
AcDbLine
 10
74.0029
 20
287.5085
 30
0.0
 11
74.4051
 21
198.1305
 31
0.0
  0
LINE
  5
4C8
330
1D
100
AcDbEntity
  8
0
100
AcDbLine
 10
49.8314
 20
380.4765
 30
0.0
 11
50.5391
 21
353.9585
 31
0.0
  0
LINE
  5
4C9
330
1D
100
AcDbEntity
  8
0
100
AcDbLine
 10
69.9543
 20
374.0025
 30
0.0
 11
70.5166
 21
354.1965
 31
0.0
  0
LINE
  5
4CA
330
1D
100
AcDbEntity
  8
0
100
AcDbLine
 10
69.5492
 20
404.5485
 30
0.0
 11
69.9543
 21
374.0025
 31
0.0
  0
LINE
  5
4CB
330
1D
100
AcDbEntity
  8
0
100
AcDbLine
 10
71.3638
 20
337.9105
 30
0.0
 11
73.1518
 21
311.6215
 31
0.0
  0
LINE
  5
4CC
330
1D
100
AcDbEntity
  8
0
100
AcDbLine
 10
70.5166
 20
354.1965
 30
0.0
 11
71.3638
 21
337.9105
 31
0.0
  0
LINE
  5
4CD
330
1D
100
AcDbEntity
  8
0
100
AcDbLine
 10
69.249
 20
713.237580930595
 30
0.0
 11
76.105
 21
713.6365
 31
0.0
  0
LINE
  5
4D1
330
1D
100
AcDbEntity
  8
0
100
AcDbLine
 10
69.515214823677
 20
691.13265837219
 30
0.0
 11
70.2286
 21
691.1305
 31
0.0
  0
LINE
  5
4D2
330
1D
100
AcDbEntity
  8
0
100
AcDbLine
 10
70.2286
 20
691.1305
 30
0.0
 11
72.4614
 21
691.4335
 31
0.0
  0
LINE
  5
4D9
330
1D
100
AcDbEntity
  8
0
100
AcDbLine
 10
76.105
 20
713.6365
 30
0.0
 11
77.5663
 21
713.7675
 31
0.0
  0
LINE
  5
4DA
330
1D
100
AcDbEntity
  8
0
100
AcDbLine
 10
72.6705
 20
691.7235
 30
0.0
 11
73.054607655777
 21
713.459011715975
 31
0.0
  0
LINE
  5
4DB
330
1D
100
AcDbEntity
  8
0
100
AcDbLine
 10
72.4614
 20
691.4335
 30
0.0
 11
72.6705
 21
691.7235
 31
0.0
  0
LINE
  5
4DD
330
1D
100
AcDbEntity
  8
0
100
AcDbLine
 10
69.249
 20
778.639380357533
 30
0.0
 11
70.2967
 21
778.8745
 31
0.0
  0
LINE
  5
4DF
330
1D
100
AcDbEntity
  8
0
100
AcDbLine
 10
69.249
 20
778.885633277405
 30
0.0
 11
70.2967
 21
778.8745
 31
0.0
  0
LINE
  5
4E0
330
1D
100
AcDbEntity
  8
0
100
AcDbLine
 10
69.249
 20
779.151785882156
 30
0.0
 11
70.148435830314
 21
779.131654141787
 31
0.0
  0
LINE
  5
4E2
330
1D
100
AcDbEntity
  8
0
100
AcDbLine
 10
72.7884
 20
778.1315
 30
0.0
 11
73.78402466874
 21
756.425045128219
 31
0.0
  0
LINE
  5
4E3
330
1D
100
AcDbEntity
  8
0
100
AcDbLine
 10
72.5914
 20
778.9585
 30
0.0
 11
72.7884
 21
778.1315
 31
0.0
  0
LINE
  5
4E4
330
1D
100
AcDbEntity
  8
0
100
AcDbLine
 10
73.771094852109
 20
756.706938988432
 30
0.0
 11
76.105
 21
756.6245
 31
0.0
  0
LINE
  5
4E5
330
1D
100
AcDbEntity
  8
0
100
AcDbLine
 10
76.105
 20
756.6245
 30
0.0
 11
76.5555
 21
756.4505
 31
0.0
  0
LINE
  5
4E6
330
1D
100
AcDbEntity
  8
0
100
AcDbLine
 10
76.5555
 20
756.4505
 30
0.0
 11
77.005584620099
 21
756.171293917014
 31
0.0
  0
LINE
  5
4E7
330
1D
100
AcDbEntity
  8
0
100
AcDbLine
 10
70.2967
 20
778.8745
 30
0.0
 11
71.0265
 21
778.9245
 31
0.0
  0
LINE
  5
4E8
330
1D
100
AcDbEntity
  8
0
100
AcDbLine
 10
70.975
 20
779.2155
 30
0.0
 11
72.5914
 21
778.9585
 31
0.0
  0
LINE
  5
4E9
330
1D
100
AcDbEntity
  8
0
100
AcDbLine
 10
70.975
 20
779.2155
 30
0.0
 11
71.0265
 21
778.9245
 31
0.0
  0
LINE
  5
4EA
330
1D
100
AcDbEntity
  8
0
100
AcDbLine
 10
70.1272
 20
779.1295
 30
0.0
 11
70.975
 21
779.2155
 31
0.0
  0
LINE
  5
4EB
330
1D
100
AcDbEntity
  8
0
100
AcDbLine
 10
69.249
 20
779.128804630124
 30
0.0
 11
70.1272
 21
779.1295
 31
0.0
  0
LINE
  5
4F4
330
1D
100
AcDbEntity
  8
0
100
AcDbLine
 10
78.22284315923
 20
714.664551183346
 30
0.0
 11
78.828
 21
715.0355
 31
0.0
  0
LINE
  5
4F7
330
1D
100
AcDbEntity
  8
0
100
AcDbLine
 10
77.5663
 20
713.7675
 30
0.0
 11
78.222843159231
 21
714.664551183347
 31
0.0
  0
LINE
  5
4FD
330
1D
100
AcDbEntity
  8
0
100
AcDbLine
 10
78.1796
 20
726.5715
 30
0.0
 11
78.6986
 21
724.7395
 31
0.0
  0
LINE
  5
4FE
330
1D
100
AcDbEntity
  8
0
100
AcDbLine
 10
78.1796
 20
726.5715
 30
0.0
 11
78.5047
 21
743.2655
 31
0.0
  0
LINE
  5
506
330
1D
100
AcDbEntity
  8
0
100
AcDbLine
 10
78.6986
 20
724.7395
 30
0.0
 11
78.9357
 21
719.5545
 31
0.0
  0
LINE
  5
50A
330
1D
100
AcDbEntity
  8
0
100
AcDbLine
 10
69.492
 20
886.8945
 30
0.0
 11
69.5492
 21
404.5485
 31
0.0
  0
LINE
  5
50B
330
1D
100
AcDbEntity
  8
0
100
AcDbLine
 10
50.5391
 20
353.9585
 30
0.0
 11
51.3704
 21
337.8625
 31
0.0
  0
LINE
  5
50C
330
1D
100
AcDbEntity
  8
0
100
AcDbLine
 10
51.3704
 20
337.8625
 30
0.0
 11
53.0241
 21
313.7275
 31
0.0
  0
LINE
  5
50E
330
1D
100
AcDbEntity
  8
0
100
AcDbLine
 10
49.494
 20
921.5305
 30
0.0
 11
49.5022
 21
930.3615
 31
0.0
  0
LINE
  5
50F
330
1D
100
AcDbEntity
  8
0
100
AcDbLine
 10
49.494
 20
921.5305
 30
0.0
 11
49.5108
 21
906.4485
 31
0.0
  0
LINE
  5
510
330
1D
100
AcDbEntity
  8
0
100
AcDbLine
 10
49.5108
 20
906.4485
 30
0.0
 11
49.5162
 21
882.3615
 31
0.0
  0
LINE
  5
511
330
1D
100
AcDbEntity
  8
0
100
AcDbLine
 10
49.5022
 20
930.3615
 30
0.0
 11
49.5114
 21
931.2695
 31
0.0
  0
LINE
  5
513
330
1D
100
AcDbEntity
  8
0
100
AcDbLine
 10
49.5114
 20
931.2695
 30
0.0
 11
49.9345
 21
935.3735
 31
0.0
  0
LINE
  5
514
330
1D
100
AcDbEntity
  8
0
100
AcDbLine
 10
49.5188
 20
891.0535
 30
0.0
 11
49.751
 21
435.1305
 31
0.0
  0
LINE
  5
515
330
1D
100
AcDbEntity
  8
0
100
AcDbLine
 10
49.5188
 20
891.0535
 30
0.0
 11
49.5265
 21
915.4885
 31
0.0
  0
LINE
  5
516
330
1D
100
AcDbEntity
  8
0
100
AcDbLine
 10
67.1673
 20
938.6695
 30
0.0
 11
69.1761
 21
934.5765
 31
0.0
  0
LINE
  5
517
330
1D
100
AcDbEntity
  8
0
100
AcDbLine
 10
66.9995
 20
938.8385
 30
0.0
 11
67.1673
 21
938.6695
 31
0.0
  0
LINE
  5
518
330
1D
100
AcDbEntity
  8
0
100
AcDbLine
 10
63.3351
 20
941.5775
 30
0.0
 11
66.9995
 21
938.8385
 31
0.0
  0
LINE
  5
519
330
1D
100
AcDbEntity
  8
0
100
AcDbLine
 10
60.7765
 20
941.7565
 30
0.0
 11
63.3351
 21
941.5775
 31
0.0
  0
LINE
  5
51A
330
1D
100
AcDbEntity
  8
0
100
AcDbLine
 10
58.8531
 20
941.8695
 30
0.0
 11
60.7765
 21
941.7565
 31
0.0
  0
LINE
  5
51B
330
1D
100
AcDbEntity
  8
0
100
AcDbLine
 10
54.2265
 20
940.7585
 30
0.0
 11
58.8531
 21
941.8695
 31
0.0
  0
LINE
  5
51C
330
1D
100
AcDbEntity
  8
0
100
AcDbLine
 10
51.8332
 20
938.8455
 30
0.0
 11
54.2265
 21
940.7585
 31
0.0
  0
LINE
  5
51D
330
1D
100
AcDbEntity
  8
0
100
AcDbLine
 10
49.9345
 20
935.3735
 30
0.0
 11
51.8332
 21
938.8455
 31
0.0
  0
LINE
  5
51E
330
1D
100
AcDbEntity
  8
0
100
AcDbLine
 10
69.1761
 20
934.5765
 30
0.0
 11
69.4999
 21
932.0325
 31
0.0
  0
LINE
  5
51F
330
1D
100
AcDbEntity
  8
0
100
AcDbLine
 10
69.498485926216
 20
915.02622455329
 30
0.0
 11
69.5086
 21
924.2365
 31
0.0
  0
LINE
  5
520
330
1D
100
AcDbEntity
  8
0
100
AcDbLine
 10
69.493891130819
 20
927.978897774463
 30
0.0
 11
69.5086
 21
924.2365
 31
0.0
  0
LINE
  5
521
330
1D
100
AcDbEntity
  8
0
100
AcDbLine
 10
69.492
 20
886.8945
 30
0.0
 11
69.5053
 21
909.8445
 31
0.0
  0
LINE
  5
522
330
1D
100
AcDbEntity
  8
0
100
AcDbLine
 10
69.4873
 20
923.5325
 30
0.0
 11
69.5053
 21
909.8445
 31
0.0
  0
LINE
  5
523
330
1D
100
AcDbEntity
  8
0
100
AcDbLine
 10
69.4873
 20
923.5325
 30
0.0
 11
69.4999
 21
932.0325
 31
0.0
  0
LINE
  5
525
330
1D
100
AcDbEntity
  8
0
100
AcDbLine
 10
45.0
 20
714.161227272728
 30
0.0
 11
45.0
 21
719.1955
 31
0.0
  0
LINE
  5
526
330
1D
100
AcDbEntity
  8
0
100
AcDbLine
 10
30.0
 20
270.1305
 30
0.0
 11
30.0
 21
268.7095
 31
0.0
  0
LINE
  5
527
330
1D
100
AcDbEntity
  8
0
100
AcDbLine
 10
30.0
 20
169.9465
 30
0.0
 11
30.0
 21
152.7515
 31
0.0
  0
LINE
  5
528
330
1D
100
AcDbEntity
  8
0
100
AcDbLine
 10
30.0
 20
169.9465
 30
0.0
 11
30.0
 21
186.7145
 31
0.0
  0
LINE
  5
529
330
1D
100
AcDbEntity
  8
0
100
AcDbLine
 10
30.0
 20
135.1305
 30
0.0
 11
30.0
 21
117.5095
 31
0.0
  0
LINE
  5
52A
330
1D
100
AcDbEntity
  8
0
100
AcDbLine
 10
30.0
 20
135.1305
 30
0.0
 11
30.0
 21
152.7515
 31
0.0
  0
LINE
  5
52B
330
1D
100
AcDbEntity
  8
0
100
AcDbLine
 10
30.0
 20
4.96208
 30
0.0
 11
30.0
 21
1.55155
 31
0.0
  0
LINE
  5
52C
330
1D
100
AcDbEntity
  8
0
100
AcDbLine
 10
30.0
 20
4.96208
 30
0.0
 11
30.0
 21
10.6463
 31
0.0
  0
LINE
  5
52D
330
1D
100
AcDbEntity
  8
0
100
AcDbLine
 10
30.0
 20
1.55155
 30
0.0
 11
30.0
 21
0.1305
 31
0.0
  0
LINE
  5
52E
330
1D
100
AcDbEntity
  8
0
100
AcDbLine
 10
30.0
 20
1.55155
 30
0.0
 11
30.0
 21
4.96208
 31
0.0
  0
LINE
  5
52F
330
1D
100
AcDbEntity
  8
0
100
AcDbLine
 10
29.0
 20
67.9147
 30
0.0
 11
29.0
 21
74.1305
 31
0.0
  0
LINE
  5
530
330
1D
100
AcDbEntity
  8
0
100
AcDbLine
 10
29.0
 20
67.9147
 30
0.0
 11
29.0
 21
52.9937
 31
0.0
  0
LINE
  5
531
330
1D
100
AcDbEntity
  8
0
100
AcDbLine
 10
29.0
 20
67.9147
 30
0.0
 11
29.0
 21
83.5463
 31
0.0
  0
LINE
  5
559
330
1D
100
AcDbEntity
  8
0
100
AcDbLine
 10
78.9357
 20
719.5545
 30
0.0
 11
78.828
 21
715.0355
 31
0.0
  0
LINE
  5
55A
330
1D
100
AcDbEntity
  8
0
100
AcDbLine
 10
78.5047
 20
743.2655
 30
0.0
 11
77.005584620099
 21
756.171293917014
 31
0.0
  0
ENDSEC
  0
SECTION
  2
OBJECTS
  0
DICTIONARY
  5
C
330
0
100
AcDbDictionary
281
     1
  3
ACAD_GROUP
350
D
  3
ACAD_LAYOUT
350
1A
  3
ACAD_MLEADERSTYLE
350
55D
  3
ACAD_MLINESTYLE
350
17
  3
ACAD_PLOTSETTINGS
350
19
  3
ACAD_PLOTSTYLENAME
350
E
  3
ACAD_SCALELIST
350
537
  3
AcDbVariableDictionary
350
55B
  3
DWGPROPS
350
560
  0
DICTIONARY
  5
D
102
{ACAD_REACTORS
330
C
102
}
330
C
100
AcDbDictionary
281
     1
  0
DICTIONARY
  5
1A
102
{ACAD_REACTORS
330
C
102
}
330
C
100
AcDbDictionary
281
     1
  3
Layout1
350
1C
  3
Model
350
1E
  0
DICTIONARY
  5
55D
102
{ACAD_REACTORS
330
C
102
}
330
C
100
AcDbDictionary
281
     1
  0
DICTIONARY
  5
17
102
{ACAD_REACTORS
330
C
102
}
330
C
100
AcDbDictionary
281
     1
  3
Standard
350
18
  0
DICTIONARY
  5
19
102
{ACAD_REACTORS
330
C
102
}
330
C
100
AcDbDictionary
281
     1
  0
ACDBDICTIONARYWDFLT
  5
E
102
{ACAD_REACTORS
330
C
102
}
330
C
100
AcDbDictionary
281
     1
  3
Normal
350
F
100
AcDbDictionaryWithDefault
340
F
  0
DICTIONARY
  5
537
102
{ACAD_REACTORS
330
C
102
}
330
C
100
AcDbDictionary
281
     1
  3
A0
350
538
  3
A1
350
539
  3
A2
350
53A
  3
A3
350
53B
  3
A4
350
53C
  3
A5
350
53D
  3
A6
350
53E
  3
A7
350
53F
  3
A8
350
540
  3
A9
350
541
  3
B0
350
542
  3
B1
350
543
  3
B2
350
544
  3
B3
350
545
  3
B4
350
546
  3
B5
350
547
  3
B6
350
548
  3
B7
350
549
  3
B8
350
54A
  3
B9
350
54B
  3
C0
350
54C
  3
C1
350
54D
  3
C2
350
54E
  3
C3
350
54F
  3
C4
350
550
  3
C5
350
551
  3
C6
350
552
  3
C7
350
553
  3
C8
350
554
  3
C9
350
555
  3
D0
350
556
  3
D1
350
557
  3
D2
350
558
  0
DICTIONARY
  5
55B
102
{ACAD_REACTORS
330
C
102
}
330
C
100
AcDbDictionary
281
     1
  3
CANNOSCALE
350
55E
  0
XRECORD
  5
560
102
{ACAD_REACTORS
330
C
102
}
330
C
100
AcDbXrecord
280
     1
  1
DWGPROPS COOKIE
  2

  3

  4

  6

  7

  8
MARTIN
  9

300
=
301
=
302
=
303
=
304
=
305
=
306
=
307
=
308
=
309
=
 40
0.0
 41
2455820.768711111
 42
2455820.770944907
  1

 90
        0
  0
LAYOUT
  5
1C
102
{ACAD_REACTORS
330
1A
102
}
330
1A
100
AcDbPlotSettings
  1

  2
none_device
  4

  6

 40
0.0
 41
0.0
 42
0.0
 43
0.0
 44
0.0
 45
0.0
 46
0.0
 47
0.0
 48
0.0
 49
0.0
140
0.0
141
0.0
142
1.0
143
1.0
 70
   688
 72
     0
 73
     0
 74
     5
  7

 75
    16
147
1.0
148
0.0
149
0.0
100
AcDbLayout
  1
Layout1
 70
     1
 71
     1
 10
0.0
 20
0.0
 11
12.0
 21
9.0
 12
0.0
 22
0.0
 32
0.0
 14
1.000000000000E+20
 24
1.000000000000E+20
 34
1.000000000000E+20
 15
-1.000000000000E+20
 25
-1.000000000000E+20
 35
-1.000000000000E+20
146
0.0
 13
0.0
 23
0.0
 33
0.0
 16
1.0
 26
0.0
 36
0.0
 17
0.0
 27
1.0
 37
0.0
 76
     0
330
1B
  0
LAYOUT
  5
1E
102
{ACAD_REACTORS
330
1A
102
}
330
1A
100
AcDbPlotSettings
  1

  2
none_device
  4

  6

 40
0.0
 41
0.0
 42
0.0
 43
0.0
 44
0.0
 45
0.0
 46
0.0
 47
0.0
 48
0.0
 49
0.0
140
0.0
141
0.0
142
1.0
143
1.0
 70
  1712
 72
     0
 73
     0
 74
     0
  7

 75
     0
147
1.0
148
0.0
149
0.0
100
AcDbLayout
  1
Model
 70
     1
 71
     0
 10
0.0
 20
0.0
 11
12.0
 21
9.0
 12
0.0
 22
0.0
 32
0.0
 14
0.0
 24
0.1305
 34
0.0
 15
108.0
 25
941.8695
 35
0.0
146
0.0
 13
0.0
 23
0.0
 33
0.0
 16
1.0
 26
0.0
 36
0.0
 17
0.0
 27
1.0
 37
0.0
 76
     0
330
1D
331
532
  0
MLINESTYLE
  5
18
102
{ACAD_REACTORS
330
17
102
}
330
17
100
AcDbMlineStyle
  2
Standard
 70
     0
  3

 62
   256
 51
90.0
 52
90.0
 71
     2
 49
0.5
 62
   256
  6
BYLAYER
 49
-0.5
 62
   256
  6
BYLAYER
  0
ACDBPLACEHOLDER
  5
F
102
{ACAD_REACTORS
330
E
102
}
330
E
  0
SCALE
  5
538
102
{ACAD_REACTORS
330
537
102
}
330
537
100
AcDbScale
 70
     0
300
1:1
140
1.0
141
1.0
290
     1
  0
SCALE
  5
539
102
{ACAD_REACTORS
330
537
102
}
330
537
100
AcDbScale
 70
     0
300
1:2
140
1.0
141
2.0
290
     0
  0
SCALE
  5
53A
102
{ACAD_REACTORS
330
537
102
}
330
537
100
AcDbScale
 70
     0
300
1:4
140
1.0
141
4.0
290
     0
  0
SCALE
  5
53B
102
{ACAD_REACTORS
330
537
102
}
330
537
100
AcDbScale
 70
     0
300
1:5
140
1.0
141
5.0
290
     0
  0
SCALE
  5
53C
102
{ACAD_REACTORS
330
537
102
}
330
537
100
AcDbScale
 70
     0
300
1:8
140
1.0
141
8.0
290
     0
  0
SCALE
  5
53D
102
{ACAD_REACTORS
330
537
102
}
330
537
100
AcDbScale
 70
     0
300
1:10
140
1.0
141
10.0
290
     0
  0
SCALE
  5
53E
102
{ACAD_REACTORS
330
537
102
}
330
537
100
AcDbScale
 70
     0
300
1:16
140
1.0
141
16.0
290
     0
  0
SCALE
  5
53F
102
{ACAD_REACTORS
330
537
102
}
330
537
100
AcDbScale
 70
     0
300
1:20
140
1.0
141
20.0
290
     0
  0
SCALE
  5
540
102
{ACAD_REACTORS
330
537
102
}
330
537
100
AcDbScale
 70
     0
300
1:30
140
1.0
141
30.0
290
     0
  0
SCALE
  5
541
102
{ACAD_REACTORS
330
537
102
}
330
537
100
AcDbScale
 70
     0
300
1:40
140
1.0
141
40.0
290
     0
  0
SCALE
  5
542
102
{ACAD_REACTORS
330
537
102
}
330
537
100
AcDbScale
 70
     0
300
1:50
140
1.0
141
50.0
290
     0
  0
SCALE
  5
543
102
{ACAD_REACTORS
330
537
102
}
330
537
100
AcDbScale
 70
     0
300
1:100
140
1.0
141
100.0
290
     0
  0
SCALE
  5
544
102
{ACAD_REACTORS
330
537
102
}
330
537
100
AcDbScale
 70
     0
300
2:1
140
2.0
141
1.0
290
     0
  0
SCALE
  5
545
102
{ACAD_REACTORS
330
537
102
}
330
537
100
AcDbScale
 70
     0
300
4:1
140
4.0
141
1.0
290
     0
  0
SCALE
  5
546
102
{ACAD_REACTORS
330
537
102
}
330
537
100
AcDbScale
 70
     0
300
8:1
140
8.0
141
1.0
290
     0
  0
SCALE
  5
547
102
{ACAD_REACTORS
330
537
102
}
330
537
100
AcDbScale
 70
     0
300
10:1
140
10.0
141
1.0
290
     0
  0
SCALE
  5
548
102
{ACAD_REACTORS
330
537
102
}
330
537
100
AcDbScale
 70
     0
300
100:1
140
100.0
141
1.0
290
     0
  0
SCALE
  5
549
102
{ACAD_REACTORS
330
537
102
}
330
537
100
AcDbScale
 70
     0
300
1/128" = 1'-0"
140
0.0078125
141
12.0
290
     0
  0
SCALE
  5
54A
102
{ACAD_REACTORS
330
537
102
}
330
537
100
AcDbScale
 70
     0
300
1/64" = 1'-0"
140
0.015625
141
12.0
290
     0
  0
SCALE
  5
54B
102
{ACAD_REACTORS
330
537
102
}
330
537
100
AcDbScale
 70
     0
300
1/32" = 1'-0"
140
0.03125
141
12.0
290
     0
  0
SCALE
  5
54C
102
{ACAD_REACTORS
330
537
102
}
330
537
100
AcDbScale
 70
     0
300
1/16" = 1'-0"
140
0.0625
141
12.0
290
     0
  0
SCALE
  5
54D
102
{ACAD_REACTORS
330
537
102
}
330
537
100
AcDbScale
 70
     0
300
3/32" = 1'-0"
140
0.09375
141
12.0
290
     0
  0
SCALE
  5
54E
102
{ACAD_REACTORS
330
537
102
}
330
537
100
AcDbScale
 70
     0
300
1/8" = 1'-0"
140
0.125
141
12.0
290
     0
  0
SCALE
  5
54F
102
{ACAD_REACTORS
330
537
102
}
330
537
100
AcDbScale
 70
     0
300
3/16" = 1'-0"
140
0.1875
141
12.0
290
     0
  0
SCALE
  5
550
102
{ACAD_REACTORS
330
537
102
}
330
537
100
AcDbScale
 70
     0
300
1/4" = 1'-0"
140
0.25
141
12.0
290
     0
  0
SCALE
  5
551
102
{ACAD_REACTORS
330
537
102
}
330
537
100
AcDbScale
 70
     0
300
3/8" = 1'-0"
140
0.375
141
12.0
290
     0
  0
SCALE
  5
552
102
{ACAD_REACTORS
330
537
102
}
330
537
100
AcDbScale
 70
     0
300
1/2" = 1'-0"
140
0.5
141
12.0
290
     0
  0
SCALE
  5
553
102
{ACAD_REACTORS
330
537
102
}
330
537
100
AcDbScale
 70
     0
300
3/4" = 1'-0"
140
0.75
141
12.0
290
     0
  0
SCALE
  5
554
102
{ACAD_REACTORS
330
537
102
}
330
537
100
AcDbScale
 70
     0
300
1" = 1'-0"
140
1.0
141
12.0
290
     0
  0
SCALE
  5
555
102
{ACAD_REACTORS
330
537
102
}
330
537
100
AcDbScale
 70
     0
300
1-1/2" = 1'-0"
140
1.5
141
12.0
290
     0
  0
SCALE
  5
556
102
{ACAD_REACTORS
330
537
102
}
330
537
100
AcDbScale
 70
     0
300
3" = 1'-0"
140
3.0
141
12.0
290
     0
  0
SCALE
  5
557
102
{ACAD_REACTORS
330
537
102
}
330
537
100
AcDbScale
 70
     0
300
6" = 1'-0"
140
6.0
141
12.0
290
     0
  0
SCALE
  5
558
102
{ACAD_REACTORS
330
537
102
}
330
537
100
AcDbScale
 70
     0
300
1'-0" = 1'-0"
140
12.0
141
12.0
290
     0
  0
DICTIONARYVAR
  5
55E
102
{ACAD_REACTORS
330
55B
102
}
330
55B
100
DictionaryVariables
280
     0
  1
1:1
  0
ENDSEC
  0
SECTION
  2
THUMBNAILIMAGE
 90
    16364
310
28000000B40000005500000001000800000000000000000000000000000000000000000000000000FFFFFF000000FF0000FFFF0000FF0000FFFF0000FF000000FF00FF000000000080808000C0C0C0000000FF007F7FFF000000A5005252A50000007F003F3F7F0000004C0026264C000000260013132600003FFF007F9FFF
310
000029A5005267A500001F7F003F4F7F0000134C00262F4C000009260013172600007FFF007FBFFF000052A500527CA500003F7F003F5F7F0000264C0026394C0000132600131C260000BFFF007FDFFF00007CA5005291A500005F7F003F6F7F0000394C0026424C00001C26001321260000FFFF007FFFFF0000A5A50052A5
310
A500007F7F003F7F7F00004C4C00264C4C00002626001326260000FFBF007FFFDF0000A57C0052A59100007F5F003F7F6F00004C3900264C420000261C001326210000FF7F007FFFBF0000A5520052A57C00007F3F003F7F5F00004C2600264C39000026130013261C0000FF3F007FFF9F0000A5290052A56700007F1F003F
310
7F4F00004C1300264C2F00002609001326170000FF00007FFF7F0000A5000052A55200007F00003F7F3F00004C0000264C260000260000132613003FFF00009FFF7F0029A5000067A552001F7F00004F7F3F00134C00002F4C260009260000172613007FFF0000BFFF7F0052A500007CA552003F7F00005F7F3F00264C0000
310
394C2600132600001C261300BFFF0000DFFF7F007CA5000091A552005F7F00006F7F3F00394C0000424C26001C26000021261300FFFF0000FFFF7F00A5A50000A5A552007F7F00007F7F3F004C4C00004C4C26002626000026261300FFBF0000FFDF7F00A57C0000A59152007F5F00007F6F3F004C3900004C422600261C00
310
0026211300FF7F0000FFBF7F00A5520000A57C52007F3F00007F5F3F004C2600004C39260026130000261C1300FF3F0000FF9F7F00A5290000A56752007F1F00007F4F3F004C1300004C2F26002609000026171300FF000000FF7F7F00A5000000A55252007F0000007F3F3F004C0000004C2626002600000026131300FF00
310
3F00FF7F9F00A5002900A55267007F001F007F3F4F004C0013004C262F002600090026131700FF007F00FF7FBF00A5005200A5527C007F003F007F3F5F004C0026004C2639002600130026131C00FF00BF00FF7FDF00A5007C00A55291007F005F007F3F6F004C0039004C26420026001C0026132100FF00FF00FF7FFF00A5
310
00A500A552A5007F007F007F3F7F004C004C004C264C002600260026132600BF00FF00DF7FFF007C00A5009152A5005F007F006F3F7F0039004C0042264C001C002600211326007F00FF00BF7FFF005200A5007C52A5003F007F005F3F7F0026004C0039264C00130026001C1326003F00FF009F7FFF002900A5006752A500
310
1F007F004F3F7F0013004C002F264C000900260017132600000000002D2D2D005B5B5B0089898900B7B7B700B3B3B30000000000000000000000000000000000000000000000000000000000000000000000000000000000000000000000000000000000000000000000000000000000000000000000000000000000000000
310
00000000000000000007000000000000000000000000000000000000000000000000000000000000000000000000000000000000000000000000000000000000000000000000000000000000000000000000000000000000000000000000000000000000000000000000000000000000000000000000000000000000000000
310
00000000000000000000000000000000000000000000000000000000000000000000000000000000000000000000000000000000000000000000000000000700000000000000000000000000000000000000000000000000000000000000000000000000000000000000000000000000000000000000000000000000000000
310
00000000000000000000000000000000000000000000000000000000000000000000000000000000000000000000000000000000000000000000000000000000000000000000000000000000000000000000000000000000000000000000000000000000000000000000000000000000000000070000000000000000000000
310
00000000000000000000000000000000000000000000000000000000000000000000000000000000000000000000000000000000000000000000000000000000000000000000000000000000000000000000000000000000000000000000000000000000000000000000000000000000000000000000000000000000000000
310
00000000000000000000000000000000000000000000000000000000000000000000000000000000000700000000000000000000000000000000000000000000000000000000000000000000000000000000000000000000000000000000000000000000000000000000000000000000000000000000000000000000000000
310
00000000000000000000000000000000000000000000000000000000000000000000000000000000000000000000000000000000000000000000000000000000000000000000000000000000000000000000000000000000000000000000070000000000000000000000000000000000000000000000000000000000000000
310
00000000000000000000000000000000000000000000000000000000000000000000000000000000000000000000000000000000000000000000000000000000000000000000000000000000000000000000000000000000000000000000000000000000000000000000000000000000000000000000000000000000000000
310
00000000000000000000000000000000000000000707000000000000000000000000000000000000000000000000000000000000000000000000000000000000000000000000000000000000000000000000000000000000000000000000000000000000000000000000000000000000000000000000000000000000000000
310
00000000000000000000000000000000000000000000000000000000000000000000000000000000000000000000000000000000000000000000000000000000000000000000070707070707070707070700000000000000000000000000000000000000000000000000000000000000000000000000000000000000000000
310
00000000000000000000000000000000000000000000000000000000000000000000000000000000000000000000000000000000000000000000000000000000000000000000000000000000000000000000000000000000000000000000000000000000000000000000000000000000000000000000000000000007000007
310
07000007070707000000000000000000000000000000000000000000000000000000000000000000000000000000000000000000000000000000000000000000000000000000000000000000000000000000000000000000000000000000000000000000000000000000000000000000000000000000000000000000000000
310
00000000000000000000000000000000000000000000000000000000000000000000000000000000000000000000000000070000070700000000000700000000000000000000000000000000000000000000000000000000000000000000000000000000000000000000000000000000000000000000000000000000000000
310
00000000000000000000000000000000000000000000000000000000000000000000000000000000000000000000000000000000000000000000000000000000000000000000000000000000000000000000000000000000000000000000000000000000000007000007070000000000070000000000000000000000000000
310
00000000000000000000000000000000000000000000000000000000000000000000000000000000000000000000000000000000000000000000000000000000000000000000000000000000000000000000000000000000000000000000000000000000000000000000000000000000000000000000000000000000000000
310
00000000000000000000000000000000000000000000000000000000070000070700000707070700000000000000000000000000000000000000000000000000000000000000000000000000000000000000000000000000000000000000000000000000000000000000000000000000000000000000000000000000000000
310
00000000000000000000000000000000000000000000000000000000000000000000000000000000000000000000000000000000000000000000000000000000000000000000000000000000000000000007000007070007070707070000000000000000000000000000000000000000000000000000000000000000000000
310
00000000000000000000000000000000000000000000000000000000000000000000000000000000000000000000000000000000000000000000000000000000000000000000000000000000000000000000000000000000000000000000000000000000000000000000000000000000000000000000000000000000000000
310
00000000000000070000070700070700070700000000000000000000000000000000000000000000000000000000000000000000000000000000000000000000000000000000000000000000000000000000000000000000000000000000000000000000000000000000000000000000000000000000000000000000000000
310
00000000000000000000000000000000000000000000000000000000000000000000000000000000000000000000000000000000000000000000000007000007070007070707070000000000000000000000000000000000000000000000000000000000000000000000000000000000000000000000000000000000000000
310
00000000000000000000000000000000000000000000000000000000000000000000000000000000000000000000000000000000000000000000000000000000000000000000000000000000000000000000000000000000000000000000000000000000000000000000000000000000000700000707000000070007000000
310
00000000000000000000000000000000000000000000000000000000000000000000000000000000000000000000000000000000000000000000000000000000000000000000000000000000000000000000000000000000000000000000000000000000000000000000000000000000000000000000000000000000000000
310
00000000000000000000000000000000000000000000000000000000000000000000000000000007000007070000000000070000000000000000000000000000000000000000000000000000000000000000000000000000000000000000000000000000000000000000000000000000000000000000000000000000000000
310
00000000000000000000000000000000000000000000000000000000000000000000000000000000000000000000000000000000000000000000000000000000000000000000000000000000000000000000000000000000000000000700000707000000000007000000000000000000000000000000000000000000000000
310
00000000000000000000000000000000000000000000000000000000000000000000000000000000000000000000000000000000000000000000000000000000000000000000000000000000000000000000000000000000000000000000000000000000000000000000000000000000000000000000000000000000000000
310
00000000000000000000000000000000000007070707070707070707070000000000000000000000000000000000000000000000000000000000000000000000000000000000000000000000000000000000000000000000000000000000000000000000000000000000000000000000000000000000000000000000000000
310
00000000000000000000000000000000000000000000000000000000000000000000000000000000000000000000000000000000000000000000000000000000000000000000000000000707070007000000000000000000000000000000000000000000000000000000000000000000000000000000000000000000000000
310
00000000000000000000000000000000000000000000000000000000000000000000000000000000000000000000000000000000000000000000000000000000000000000000000000000000000000000000000000000000000000000000000000000000000000000000000000000000000000000000000000000000000000
310
07000700070000000000000000000000000000000000000000000000000000000000000000000000000000000000000000000000000000000000000000000000000000000000000000000000000000000000000000000000000000000000000000000000000000000000000000000000000000000000000000000000000000
310
00000000000000000000000000000000000000000000000000000000000000000000000000000000000000000000000000000000000700070007000000000000000000000000000000000000000000000000000000000000000000000000000000000000000000000000000000000000000000000000000000000000000000
310
00000000000000000000000000000000000000000000000000000000000000000000000000000000000000000000000000000000000000000000000000000000000000000000000000000000000000000000000000000000000000000000000000000000000000000000070007000700000000000000000000000000000000
310
00000000000000000000000000000000000000000000000000000000000000000000000000000000000000000000000000000000000000000000000000000000000000000000000000000000000000000000000000000000000000000000000000000000000000000000000000000000000000000000000000000000000000
310
00000000000000000000000000000000000000000000000000000000000000000700070007000000000000000000000000000000000000000000000000000000000000000000000000000000000000000000000000000000000000000000000000000000000000000000000000000000000000000000000000000000000000
310
00000000000000000000000000000000000000000000000000000000000000000000000000000000000000000000000000000000000000000000000000000000000000000000000000000000000000000000000000070007000700000000000000000000000000000000000000000000000000000000000000000000000000
310
00000000000000000000000000000000000000000000000000000000000000000000000000000000000000000000000000000000000000000000000000000000000000000000000000000000000000000000000000000000000000000000000000000000000000000000000000000000000000000000000000000000000000
310
00000000000000000000000700070007000000000000000000000000000000000000000000000000000000000000000000000000000000000000000000000000000000000000000000000000000000000000000000000000000000000000000000000000000000000000000000000000000000000000000000000000000000
310
00000000000000000000000000000000000000000000000000000000000000000000000000000000000000000000000000000000000000000000000000000000000007000700000000000000000000000000000000000000000000000000000000000000000000000000000000000000000000000000000000000000000000
310
00000000000000000000000000000000000000000000000000000000000000000000000000000000000000000000000000000000000000000000000000000000000000000000000000000000000000000000000000000000000000000000000000000000000000000000000000000000000000000000000700070000000000
310
00000000000000000000000000000000000000000000000000000000000000000000000000000000000000000000000000000000000000000000000000000000000000000000000000000000000000000000000000000000000000000000000000000000000000000000000000000000000000000000000000000000000000
310
00000000000000000000000000000000000000000000000000000000000000000000000000000000000000000007000700000000000000000000000000000000000000000000000000000000000000000000000000000000000000000000000000000000000000000000000000000000000000000000000000000000000000
310
00000000000000000000000000000000000000000000000000000000000000000000000000000000000000000000000000000000000000000000000000000000000000000000000000000000000000000000000000000000000000000000000000000700070000000000000000000000000000000000000000000000000000
310
00000000000000000000000000000000000000000000000000000000000000000000000000000000000000000000000000000000000000000000000000000000000000000000000000000000000000000000000000000000000000000000000000000000000000000000000000000000000000000000000000000000000000
310
00000000000000000000000000000000000000000000000007000700000000000000000000000000000000000000000000000000000000000000000000000000000000000000000000000000000000000000000000000000000000000000000000000000000000000000000000000000000000000000000000000000000000
310
00000000000000000000000000000000000000000000000000000000000000000000000000000000000000000000000000000000000000000000000000000000000000000000000000000000000700070000000000000000000000000000000000000000000000000000000000000000000000000000000000000000000000
310
00000000000000000000000000000000000000000000000000000000000000000000000000000000000000000000000000000000000000000000000000000000000000000000000000000000000000000000000000000000000000000000000000000000000000000000000000000000000000000000000000000000000000
310
00000007070000000000000000000000000000000000000000000000000000000000000000000000000000000000000000000000000000000000000000000000000000000000000000000000000000000000000000000000000000000000000000000000000000000000000000000000000000000000000000000000000000
310
00000000000000000000000000000000000000000000000000000000000000000000000000000000000000000000000000000000000000000707000000000000000000000000000000000000000000000000000000000000000000000000000000000000000000000000000000000000000000000000000000000000000000
310
00000000000000000000000000000000000000000000000000000000000000000000000000000000000000000000000000000000000000000000000000000000000000000000000000000000000000000000000000000000000000000000000000000000000000000000000000070700000000000000000000000000000000
310
00000000000000000000000000000000000000000000000000000000000000000000000000000000000000000000000000000000000000000000000000000000000000000000000000000000000000000000000000000000000000000000000000000000000000000000000000000000000000000000000000000000000000
310
00000000000000000000000000000000000000000000000000000000000000000000000707000000000000000000000000000000000000000000000000000000000000000000000000000000000000000000000000000000000000000000000000000000000000000000000000000000000000000000000000000000000000
310
00000000000000000000000000000000000000000000000000000000000000000000000000000000000000000000000000000000000000000000000000000000000000000000000000000000000000000000000000000000070700000000000000000000000000000000000000000000000000000000000000000000000000
310
00000000000000000000000000000000000000000000000000000000000000000000000000000000000000000000000000000000000000000000000000000000000000000000000000000000000000000000000000000000000000000000000000000000000000000000000000000000000000000000000000000000000000
310
00000000000000000000000000000707000000000000000000000000000000000000000000000000000000000000000000000000000000000000000000000000000000000000000000000000000000000000000000000000000000000000000000000000000000000000000000000000000000000000000000000000000000
310
00000000000000000000000000000000000000000000000000000000000000000000000000000000000000000000000000000000000000000000000000000000000000070700000000000000000000000000000000000000000000000000000000000000000000000000000000000000000000000000000000000000000000
310
00000000000000000000000000000000000000000000000000000000000000000000000000000000000000000000000000000000000000000000000000000000000000000000000000000000000000000000000000000000000000000000000000000000000000000000000000000000000000000000000000070000000000
310
00000000000000000000000000000000000000000000000000000000000000000000000000000000000000000000000000000000000000000000000000000000000000000000000000000000000000000000000000000000000000000000000000000000000000000000000000000000000000000000000000000000000000
310
00000000000000000000000000000000000000000000000000000000000000000000000000000000000000000000070700000000000000000000000000000000000000000000000000000000000000000000000000000000000000000000000000000000000000000000000000000000000000000000000000000000000000
310
00000000000000000000000000000000000000000000000000000000000000000000000000000000000000000000000000000000000000000000000000000000000000000000000000000000000000000000000000000000000000000000000000000007070000000000000000000000000000000000000000000000000000
310
00000000000000000000000000000000000000000000000000000000000000000000000000000000000000000000000000000000000000000000000000000000000000000000000000000000000000000000000000000000000000000000000000000000000000000000000000000000000000000000000000000000000000
310
00000000000000000000000000000000000000000000000000070700000000000000000000000000000000000000000000000000000000000000000000000000000000000000000000000000000000000000000000000000000000000000000000000000000000000000000000000000000000000000000000000000000000
310
00000000000000000000000000000000000000000000000000000000000000000000000000000000000000000000000000000000000000000000000000000000000000000000000000000000000007070000000000000000000000000000000000000000000000000000000000000000000000000000000000000000000000
310
00000000000000000000000000000000000000000000000000000000000000000000000000000000000000000000000000000000000000000000000000000000000000000000000000000000000000000000000000000000000000000000000000000000000000000000000000000000000000000000000000000000000000
310
00000000070700000000000000000000000000000000000000000000000000000000000000000000000000000000000000000000000000000000000000000000000000000000000000000000000000000000000000000000000000000000000000000000000000000000000000000000000000000000000000000000000000
310
00000000000000000000000000000000000000000000000000000000000000000000000000000000000000000000000000000000000000000007070000000000000000000000000000000000000000000000000000000000000000000000000000000000000000000000000000000000000000000000000000000000000000
310
00000000000000000000000000000000000000000000000000000000000000000000000000000000000000000000000000000000000000000000000000000000000000000000000000000000000000000000000000000000000000000000000000000000000000000000000000000707000000000000000000000000000000
310
00000000000000000000000000000000000000000000000000000000000000000000000000000000000000000000000000000000000000000000000000000000000000000000000000000000000000000000000000000000000000000000000000000000000000000000000000000000000000000000000000000000000000
310
00000000000000000000000000000000000000000000000000000000000000000000000007070000000000000000000000000000000000000000000000000000000000000000000000000000000000000000000000000000000000000000000000000000000000000000000000000000000000000000000000000000000000
310
00000000000000000000000000000000000000000000000000000000000000000000000000000000000000000000000000000000000000000000000000000000000000000000000000000000000000000000000000000000000707000000000000000000000000000000000000000000000000000000000000000000000000
310
00000000000000000000000000000000000000000000000000000000000000000000000000000000000000000000000000000000000000000000000000000000000000000000000000000000000000000000000000000000000000000000000000000000000000000000000000000000000000000000000000000000000000
310
00000000000000000000000000000007070000000000000000000000000000000000000000000000000000000000000000000000000000000000000000000000000000000000000000000000000000000000000000000000000000000000000000000000000000000000000000000000000000000000000000000000000000
310
00000000000000000000000000000000000000000000000000000000000000000000000000000000000000000000000000000000000000000000000000000000000000000707000000000000000000000000000000000000000000000000000000000000000000000000000000000000000000000000000000000000000000
310
00000000000000000000000000000000000000000000000000000000000000000000000000000000000000000000000000000000000000000000000000000000000000000000000000000000000000000000000000000000000000000000000000000000000000000000000000000000000000000000000000070700000000
310
00000000000000000000000000000000000000000000000000000000000000000000000000000000000000000000000000000000000000000000000000000000000000000000000000000000000000000000000000000000000000000000000000000000000000000000000000000000000000000000000000000000000000
310
00000000000000000000000000000000000000000000000000000000000000000000000000000000000000000000000707000000000000000000000000000000000000000000000000000000000000000000000000000000000000000000000000000000000000000000000000000000000000000000000000000000000000
310
00000000000000000000000000000000000000000000000000000000000000000000000000000000000000000000000000000000000000000000000000000000000000000000000000000000000000000000000000000000000000000000000000000000070700000000000000000000000000000000000000000000000000
310
00000000000000000000000000000000000000000000000000000000000000000000000000000000000000000000000000000000000000000000000000000000000000000000000000000000000000000000000000000000000000000000000000000000000000000000000000000000000000000000000000000000000000
310
00000000000000000000000000000000000000000000000000000707000000000000000000000000000000000000000000000000000000000000000000000000000000000000000000000000000000000000000000000000000000000000000000000000000000000000000000000000000000000000000000000000000000
310
00000000000000000000000000000000000000000000000000000000000000000000000000000000000000000000000000000000000000000000000000000000000000000000000000000000000000070700000000000000000000000000000000000000000000000000000000000000000000000000000000000000000000
310
00000000000000000000000000000000000000000000000000000000000000000000000000000000000000000000000000000000000000000000000000000000000000000000000000000000000000000000000000000000000000000000000000000000000000000000000000000000000000000000000000000000000000
310
00000000000707000000000000000000000000000000000000000000000000000000000000000000000000000000000000000000000000000000000000000000000000000000000000000000000000000000000000000000000000000000000000000000000000000000000000000000000000000000000000000000000000
310
00000000000000000000000000000000000000000000000000000000000000000000000000000000000000000000000000000000000000070000070700000000000000000000000000000000000000000000000000000000000000000000000000000000000000000000000000000000000000000000000000000000000000
310
00000000000000000000000000000000000000000000000000000000000000000000000000000000000000000000000000000000000000000000000000000000000000000000000000000000000000000000000000000000000000000000000000000000000000000000000007000007070000000000000000000000000000
310
00000000000000000000000000000000000000000000000000000000000000000000000000000000000000000000000000000000000000000000000000000000000000000000000000000000000000000000000000000000000000000000000000000000000000000000000000000000000000000000000000000000000000
310
00000000000000000000000000000000000000000000000000000000000000000000070000070700000000000000000000000000000000000000000000000000000000000000000000000000000000000000000000000000000000000000000000000000000000000000000000000000000000000000000000000000000000
310
00000000000000000000000000000000000000000000000000000000000000000000000000000000000000000000000000000000000000000000000000000000000000000000000000000000000000000000000000000007000007070000000000000000000000000000000000000000000000000000000000000000000000
310
00000000000000000000000000000000000000000000000000000000000000000000000000000000000000000000000000000000000000000000000000000000000000000000000000000000000000000000000000000000000000000000000000000000000000000000000000000000000000000000000000000000000000
310
00000000000000000000000000070000070700000000000000000000000000000000000000000000000000000000000000000000000000000000000000000000000000000000000000000000000000000000000000000000000000000000000000000000000000000000000000000000000000000000000000000000000000
310
00000000000000000000000000000000000000000000000000000000000000000000000000000000000000000000000000000000000000000000000000000000000007000707070700000000000000000000000000000000000000000000000000000000000000000000000000000000000000000000000000000000000000
310
00000000000000000000000000000000000000000000000000000000000000000000000000000000000000000000000000000000000000000000000000000000000000000000000000000000000000000000000000000000000000000000000000000000000000000000000000000000000000000000070707070707070000
310
00000000000000000000000000000000000000000000000000000000000000000000000000000000000000000000000000000000000000000000000000000000000000000000000000000000000000000000000000000000000000000000000000000000000000000000000000000000000000000000000000000000000000
310
00000000000000000000000000000000000000000000000000000000000000000000000000000000000000000707000707070700000000000000000000000000000000000000000000000000000000000000000000000000000000000000000000000000000000000000000000000000000000000000000000000000000000
310
00000000000000000000000000000000000000000000000000000000000000000000000000000000000000000000000000000000000000000000000000000000000000000000000000000000000000000000000000000000000000000000000000070700070707070000000000000000000000000000000000000000000000
310
00000000000000000000000000000000000000000000000000000000000000000000000000000000000000000000000000000000000000000000000000000000000000000000000000000000000000000000000000000000000000000000000000000000000000000000000000000000000000000000000000000000000000
310
00000000000000000000000000000000000000000000000707000707070700000000000000000000000000000000000000000000000000000000000000000000000000000000000000000000000000000000000000000000000000000000000000000000000000000000000000000000000000000000000000000000000000
310
00000000000000000000000000000000000000000000000000000000000000000000000000000000000000000000000000000000000000000000000000000000000000000000000000000000070700070707070000000000000000000000000000000000000000000000000000000000000000000000000000000000000000
310
00000000000000000000000000000000000000000000000000000000000000000000000000000000000000000000000000000000000000000000000000000000000000000000000000000000000000000000000000000000000000000000000000000000000000000000000000000000000000000000000000000000000000
310
00000707070707070700000000000000000000000000000000000000000000000000000000000000000000000000000000000000000000000000000000000000000000000000000000000000000000000000000000000000000000000000000000000000000000000000000000000000000000000000000000000000000000
310
00000000000000000000000000000000000000000000000000000000000000000000000000000000000000000000000000000000000000000707070707070000000000000000000000000000000000000000000000000000000000000000000000000000000000000000000000000000000000000000000000000000000000
310
00000000000000000000000000000000000000000000000000000000000000000000000000000000000000000000000000000000000000000000000000000000000000000000000000000000000000000000000000000000000000000000000000000000000000000000000000070007070707000000000000000000000000
310
00000000000000000000000000000000000000000000000000000000000000000000000000000000000000000000000000000000000000000000000000000000000000000000000000000000000000000000000000000000000000000000000000000000000000000000000000000000000000000000000000000000000000
310
00000000000000000000000000000000000000000000000000000000000000000000000700000707000000000000000000000000000000000000000000000000000000000000000000000000000000000000000000000000000000000000000000000000000000000000000000000000000000000000000000000000000000
310
00000000000000000000000000000000000000000000000000000000000000000000000000000000000000000000000000000000000000000000000000000000000000000000000000000000000000000000000000000000070000070700000000000000000000000000000000000000000000000000000000000000000000
310
00000000000000000000000000000000000000000000000000000000000000000000000000000000000000000000000000000000000000000000000000000000000000000000000000000000000000000000000000000000000000000000000000000000000000000000000000000000000000000000000000000000000000
310
00000000000000000000000000000700000707000000000000000000000000000000000000000000000000000000000000000000000000000000000000000000000000000000000000000000000000000000000000000000000000000000000000000000000000000000000000000000000000000000000000000000000000
310
00000000000000000000000000000000000000000000000000000000000000000000000000000000000000000000000000000000000000000000000000000000000000070000070700000000000000000000000000000000000000000000000000000000000000000000000000000000000000000000000000000000000000
310
00000000000000000000000000000000000000000000000000000000000000000000000000000000000000000000000000000000000000000000000000000000000000000000000000000000000000000000000000000000000000000000000000000000000000000000000000000000000000000000000007000007070000
310
00000000000000000000000000000000000000000000000000000000000000000000000000000000000000000000000000000000000000000000000000000000000000000000000000000000000000000000000000000000000000000000000000000000000000000000000000000000000000000000000000000000000000
310
00000000000000000000000000000000000000000000000000000000000000000000000000000000000000000000000000070700000000000000000000000000000000000000000000000000000000000000000000000000000000000000000000000000000000000000000000000000000000000000000000000000000000
310
00000000000000000000000000000000000000000000000000000000000000000000000000000000000000000000000000000000000000000000000000000000000000000000000000000000000000000000000000000000000000000000000000000000000007070000000000000000000000000000000000000000000000
310
00000000000000000000000000000000000000000000000000000000000000000000000000000000000000000000000000000000000000000000000000000000000000000000000000000000000000000000000000000000000000000000000000000000000000000000000000000000000000000000000000000000000000
310
00000000000000000000000000000000000000000000000000000000070700000000000000000000000000000000000000000000000000000000000000000000000000000000000000000000000000000000000000000000000000000000000000000000000000000000000000000000000000000000000000000000000000
310
00000000000000000000000000000000000000000000000000000000000000000000000000000000000000000000000000000000000000000000000000000000000000000000000000000000000000000007070000000000000000000000000000000000000000000000000000000000000000000000000000000000000000
310
00000000000000000000000000000000000000000000000000000000000000000000000000000000000000000000000000000000000000000000000000000000000000000000000000000000000000000000000000000000000000000000000000000000000000000000000000000000000000000000000000000000000000
310
00000000000000070700000000000000000000000000000000000000000000000000000000000000000000000000000000000000000000000000000000000000000000000000000000000000000000000000000000000000000000000000000000000000000000000000000000000000000000000000000000000000000000
310
00000000000000000000000000000000000000000000000000000000000000000000000000000000000000000000000000000000000000000000000007000000000000000000000000000000000000000000000000000000000000000000000000000000000000000000000000000000000000000000000000000000000000
310
00000000000000000000000000000000000000000000000000000000000000000000000000000000000000000000000000000000000000000000000000000000000000000000000000000000000000000000000000000000000000000000000000000000000000000000000000000000000707000000000000000000000000
310
00000000000000000000000000000000000000000000000000000000000000000000000000000000000000000000000000000000000000000000000000000000000000000000000000000000000000000000000000000000000000000000000000000000000000000000000000000000000000000000000000000000000000
310
00000000000000000000000000000000000000000000000000000000000000000000000000000007070000000000000000000000000000000000000000000000000000000000000000000000000000000000000000000000000000000000000000000000000000000000000000000000000000000000000000000000000000
310
00000000000000000000000000000000000000000000000000000000000000000000000000000000000000000000000000000000000000000000000000000000000000000000000000000000000000000000000000000000000000000707000000000000000000000000000000000000000000000000000000000000000000
310
00000000000000000000000000000000000000000000000000000000000000000000000000000000000000000000000000000000000000000000000000000000000000000000000000000000000000000000000000000000000000000000000000000000000000000000000000000000000000000000000000000000000000
310
000000000000000000000000000000000000000000000000000000000000000000000000000000000000000000000000000000000000000000000000000000000000000000000000000000000000000000000000000000000000000000000000000000000000000000000000
  0
ENDSEC
  0
EOF
