  0
SECTION
  2
HEADER
  9
$ACADVER
  1
AC1015
  9
$ACADMAINTVER
 70
     6
  9
$DWGCODEPAGE
  3
ANSI_1252
  9
$INSBASE
 10
0.0
 20
0.0
 30
0.0
  9
$EXTMIN
 10
-0.023070090905
 20
-0.2455
 30
0.0
  9
$EXTMAX
 10
272.023129909095
 20
235.2455
 30
0.0
  9
$LIMMIN
 10
0.0
 20
0.0
  9
$LIMMAX
 10
12.0
 20
9.0
  9
$ORTHOMODE
 70
     0
  9
$REGENMODE
 70
     1
  9
$FILLMODE
 70
     1
  9
$QTEXTMODE
 70
     0
  9
$MIRRTEXT
 70
     1
  9
$LTSCALE
 40
1.0
  9
$ATTMODE
 70
     1
  9
$TEXTSIZE
 40
0.2
  9
$TRACEWID
 40
0.05
  9
$TEXTSTYLE
  7
Standard
  9
$CLAYER
  8
0
  9
$CELTYPE
  6
ByBlock
  9
$CECOLOR
 62
   256
  9
$CELTSCALE
 40
1.0
  9
$DISPSILH
 70
     0
  9
$DIMSCALE
 40
1.0
  9
$DIMASZ
 40
0.18
  9
$DIMEXO
 40
0.0625
  9
$DIMDLI
 40
0.38
  9
$DIMRND
 40
0.0
  9
$DIMDLE
 40
0.0
  9
$DIMEXE
 40
0.18
  9
$DIMTP
 40
0.0
  9
$DIMTM
 40
0.0
  9
$DIMTXT
 40
0.18
  9
$DIMCEN
 40
0.09
  9
$DIMTSZ
 40
0.0
  9
$DIMTOL
 70
     0
  9
$DIMLIM
 70
     0
  9
$DIMTIH
 70
     1
  9
$DIMTOH
 70
     1
  9
$DIMSE1
 70
     0
  9
$DIMSE2
 70
     0
  9
$DIMTAD
 70
     0
  9
$DIMZIN
 70
     0
  9
$DIMBLK
  1

  9
$DIMASO
 70
     1
  9
$DIMSHO
 70
     1
  9
$DIMPOST
  1

  9
$DIMAPOST
  1

  9
$DIMALT
 70
     0
  9
$DIMALTD
 70
     2
  9
$DIMALTF
 40
25.4
  9
$DIMLFAC
 40
1.0
  9
$DIMTOFL
 70
     0
  9
$DIMTVP
 40
0.0
  9
$DIMTIX
 70
     0
  9
$DIMSOXD
 70
     0
  9
$DIMSAH
 70
     0
  9
$DIMBLK1
  1

  9
$DIMBLK2
  1

  9
$DIMSTYLE
  2
Standard
  9
$DIMCLRD
 70
     0
  9
$DIMCLRE
 70
     0
  9
$DIMCLRT
 70
     0
  9
$DIMTFAC
 40
1.0
  9
$DIMGAP
 40
0.09
  9
$DIMJUST
 70
     0
  9
$DIMSD1
 70
     0
  9
$DIMSD2
 70
     0
  9
$DIMTOLJ
 70
     1
  9
$DIMTZIN
 70
     0
  9
$DIMALTZ
 70
     0
  9
$DIMALTTZ
 70
     0
  9
$DIMUPT
 70
     0
  9
$DIMDEC
 70
     4
  9
$DIMTDEC
 70
     4
  9
$DIMALTU
 70
     2
  9
$DIMALTTD
 70
     2
  9
$DIMTXSTY
  7
Standard
  9
$DIMAUNIT
 70
     0
  9
$DIMADEC
 70
     0
  9
$DIMALTRND
 40
0.0
  9
$DIMAZIN
 70
     0
  9
$DIMDSEP
 70
    46
  9
$DIMATFIT
 70
     3
  9
$DIMFRAC
 70
     0
  9
$DIMLDRBLK
  1

  9
$DIMLUNIT
 70
     2
  9
$DIMLWD
 70
    -2
  9
$DIMLWE
 70
    -2
  9
$DIMTMOVE
 70
     2
  9
$LUNITS
 70
     2
  9
$LUPREC
 70
     4
  9
$SKETCHINC
 40
0.1
  9
$FILLETRAD
 40
0.5
  9
$AUNITS
 70
     0
  9
$AUPREC
 70
     0
  9
$MENU
  1
.
  9
$ELEVATION
 40
0.0
  9
$PELEVATION
 40
0.0
  9
$THICKNESS
 40
0.0
  9
$LIMCHECK
 70
     0
  9
$CHAMFERA
 40
0.5
  9
$CHAMFERB
 40
0.5
  9
$CHAMFERC
 40
1.0
  9
$CHAMFERD
 40
0.0
  9
$SKPOLY
 70
     0
  9
$TDCREATE
 40
2455824.923119387
  9
$TDUCREATE
 40
2455824.839786053
  9
$TDUPDATE
 40
2455824.923816366
  9
$TDUUPDATE
 40
2455824.840483033
  9
$TDINDWG
 40
0.0006968056
  9
$TDUSRTIMER
 40
0.0006968056
  9
$USRTIMER
 70
     1
  9
$ANGBASE
 50
0.0
  9
$ANGDIR
 70
     0
  9
$PDMODE
 70
     0
  9
$PDSIZE
 40
0.0
  9
$PLINEWID
 40
0.0
  9
$SPLFRAME
 70
     0
  9
$SPLINETYPE
 70
     6
  9
$SPLINESEGS
 70
     8
  9
$HANDSEED
  5
91F
  9
$SURFTAB1
 70
     6
  9
$SURFTAB2
 70
     6
  9
$SURFTYPE
 70
     6
  9
$SURFU
 70
     6
  9
$SURFV
 70
     6
  9
$UCSBASE
  2

  9
$UCSNAME
  2

  9
$UCSORG
 10
0.0
 20
0.0
 30
0.0
  9
$UCSXDIR
 10
1.0
 20
0.0
 30
0.0
  9
$UCSYDIR
 10
0.0
 20
1.0
 30
0.0
  9
$UCSORTHOREF
  2

  9
$UCSORTHOVIEW
 70
     0
  9
$UCSORGTOP
 10
0.0
 20
0.0
 30
0.0
  9
$UCSORGBOTTOM
 10
0.0
 20
0.0
 30
0.0
  9
$UCSORGLEFT
 10
0.0
 20
0.0
 30
0.0
  9
$UCSORGRIGHT
 10
0.0
 20
0.0
 30
0.0
  9
$UCSORGFRONT
 10
0.0
 20
0.0
 30
0.0
  9
$UCSORGBACK
 10
0.0
 20
0.0
 30
0.0
  9
$PUCSBASE
  2

  9
$PUCSNAME
  2

  9
$PUCSORG
 10
0.0
 20
0.0
 30
0.0
  9
$PUCSXDIR
 10
1.0
 20
0.0
 30
0.0
  9
$PUCSYDIR
 10
0.0
 20
1.0
 30
0.0
  9
$PUCSORTHOREF
  2

  9
$PUCSORTHOVIEW
 70
     0
  9
$PUCSORGTOP
 10
0.0
 20
0.0
 30
0.0
  9
$PUCSORGBOTTOM
 10
0.0
 20
0.0
 30
0.0
  9
$PUCSORGLEFT
 10
0.0
 20
0.0
 30
0.0
  9
$PUCSORGRIGHT
 10
0.0
 20
0.0
 30
0.0
  9
$PUCSORGFRONT
 10
0.0
 20
0.0
 30
0.0
  9
$PUCSORGBACK
 10
0.0
 20
0.0
 30
0.0
  9
$USERI1
 70
     0
  9
$USERI2
 70
     0
  9
$USERI3
 70
     0
  9
$USERI4
 70
     0
  9
$USERI5
 70
     0
  9
$USERR1
 40
0.0
  9
$USERR2
 40
0.0
  9
$USERR3
 40
0.0
  9
$USERR4
 40
0.0
  9
$USERR5
 40
0.0
  9
$WORLDVIEW
 70
     1
  9
$SHADEDGE
 70
     3
  9
$SHADEDIF
 70
    70
  9
$TILEMODE
 70
     1
  9
$MAXACTVP
 70
    64
  9
$PINSBASE
 10
0.0
 20
0.0
 30
0.0
  9
$PLIMCHECK
 70
     0
  9
$PEXTMIN
 10
1.000000000000E+20
 20
1.000000000000E+20
 30
1.000000000000E+20
  9
$PEXTMAX
 10
-1.000000000000E+20
 20
-1.000000000000E+20
 30
-1.000000000000E+20
  9
$PLIMMIN
 10
0.0
 20
0.0
  9
$PLIMMAX
 10
12.0
 20
9.0
  9
$UNITMODE
 70
     0
  9
$VISRETAIN
 70
     1
  9
$PLINEGEN
 70
     0
  9
$PSLTSCALE
 70
     1
  9
$TREEDEPTH
 70
  3020
  9
$CMLSTYLE
  2
Standard
  9
$CMLJUST
 70
     0
  9
$CMLSCALE
 40
1.0
  9
$PROXYGRAPHICS
 70
     1
  9
$MEASUREMENT
 70
     0
  9
$CELWEIGHT
370
    -1
  9
$ENDCAPS
280
     0
  9
$JOINSTYLE
280
     0
  9
$LWDISPLAY
290
     0
  9
$INSUNITS
 70
     0
  9
$HYPERLINKBASE
  1

  9
$STYLESHEET
  1

  9
$XEDIT
290
     1
  9
$CEPSNTYPE
380
     0
  9
$PSTYLEMODE
290
     1
  9
$FINGERPRINTGUID
  2
{2A442C76-3F2B-4DC1-8368-AB6D03EFBAA9}
  9
$VERSIONGUID
  2
{FAEB1C32-E019-11D5-929B-00C0DF256EC4}
  9
$EXTNAMES
290
     1
  9
$PSVPSCALE
 40
0.0
  9
$OLESTARTUP
290
     0
  0
ENDSEC
  0
SECTION
  2
CLASSES
  0
CLASS
  1
ACDBDICTIONARYWDFLT
  2
AcDbDictionaryWithDefault
  3
ObjectDBX Classes
 90
        0
280
     0
281
     0
  0
CLASS
  1
SCALE
  2
AcDbScale
  3
ObjectDBX Classes
 90
     1153
280
     0
281
     0
  0
CLASS
  1
DICTIONARYVAR
  2
AcDbDictionaryVar
  3
ObjectDBX Classes
 90
        0
280
     0
281
     0
  0
CLASS
  1
ACDBPLACEHOLDER
  2
AcDbPlaceHolder
  3
ObjectDBX Classes
 90
        0
280
     0
281
     0
  0
CLASS
  1
LAYOUT
  2
AcDbLayout
  3
ObjectDBX Classes
 90
        0
280
     0
281
     0
  0
ENDSEC
  0
SECTION
  2
TABLES
  0
TABLE
  2
VPORT
  5
8
330
0
100
AcDbSymbolTable
 70
     1
  0
VPORT
  5
4AD
330
8
100
AcDbSymbolTableRecord
100
AcDbViewportTableRecord
  2
*Active
 70
     0
 10
0.0
 20
0.0
 11
1.0
 21
1.0
 12
136.000029909095
 22
117.5
 13
0.0
 23
0.0
 14
0.5
 24
0.5
 15
0.5
 25
0.5
 16
0.0
 26
0.0
 36
1.0
 17
0.0
 27
0.0
 37
0.0
 40
240.20082
 41
1.790857142857
 42
50.0
 43
0.0
 44
0.0
 50
0.0
 51
0.0
 71
    16
 72
   100
 73
     1
 74
     3
 75
     0
 76
     0
 77
     0
 78
     0
281
     0
 65
     1
110
0.0
120
0.0
130
0.0
111
1.0
121
0.0
131
0.0
112
0.0
122
1.0
132
0.0
 79
     0
146
0.0
  0
ENDTAB
  0
TABLE
  2
LTYPE
  5
5
330
0
100
AcDbSymbolTable
 70
     1
  0
LTYPE
  5
14
330
5
100
AcDbSymbolTableRecord
100
AcDbLinetypeTableRecord
  2
ByBlock
 70
     0
  3

 72
    65
 73
     0
 40
0.0
  0
LTYPE
  5
15
330
5
100
AcDbSymbolTableRecord
100
AcDbLinetypeTableRecord
  2
ByLayer
 70
     0
  3

 72
    65
 73
     0
 40
0.0
  0
LTYPE
  5
16
330
5
100
AcDbSymbolTableRecord
100
AcDbLinetypeTableRecord
  2
Continuous
 70
     0
  3
Solid line
 72
    65
 73
     0
 40
0.0
  0
ENDTAB
  0
TABLE
  2
LAYER
  5
2
330
0
100
AcDbSymbolTable
 70
     1
  0
LAYER
  5
10
330
2
100
AcDbSymbolTableRecord
100
AcDbLayerTableRecord
  2
0
 70
     0
 62
     7
  6
Continuous
370
    -3
390
F
  0
ENDTAB
  0
TABLE
  2
STYLE
  5
3
330
0
100
AcDbSymbolTable
 70
     1
  0
STYLE
  5
11
330
3
100
AcDbSymbolTableRecord
100
AcDbTextStyleTableRecord
  2
Standard
 70
     0
 40
0.0
 41
1.0
 50
0.0
 71
     0
 42
0.2
  3
txt
  4

  0
ENDTAB
  0
TABLE
  2
VIEW
  5
6
330
0
100
AcDbSymbolTable
 70
     0
  0
ENDTAB
  0
TABLE
  2
UCS
  5
7
330
0
100
AcDbSymbolTable
 70
     0
  0
ENDTAB
  0
TABLE
  2
APPID
  5
9
330
0
100
AcDbSymbolTable
 70
     1
  0
APPID
  5
12
330
9
100
AcDbSymbolTableRecord
100
AcDbRegAppTableRecord
  2
ACAD
 70
     0
  0
ENDTAB
  0
TABLE
  2
DIMSTYLE
  5
A
330
0
100
AcDbSymbolTable
 70
     1
100
AcDbDimStyleTable
  0
DIMSTYLE
105
20
330
A
100
AcDbSymbolTableRecord
100
AcDbDimStyleTableRecord
  2
Standard
 70
     0
340
11
  0
ENDTAB
  0
TABLE
  2
BLOCK_RECORD
  5
1
330
0
100
AcDbSymbolTable
 70
     1
  0
BLOCK_RECORD
  5
1D
330
1
100
AcDbSymbolTableRecord
100
AcDbBlockTableRecord
  2
*Model_Space
340
1E
  0
BLOCK_RECORD
  5
1B
330
1
100
AcDbSymbolTableRecord
100
AcDbBlockTableRecord
  2
*Paper_Space
340
1C
  0
ENDTAB
  0
ENDSEC
  0
SECTION
  2
BLOCKS
  0
BLOCK
  5
4B0
330
1D
100
AcDbEntity
  8
0
100
AcDbBlockBegin
  2
*Model_Space
 70
     0
 10
0.0
 20
0.0
 30
0.0
  3
*Model_Space
  1
*Model_Space
  0
ENDBLK
  5
4B1
330
1D
100
AcDbEntity
  8
0
100
AcDbBlockEnd
  0
BLOCK
  5
4AE
330
1B
100
AcDbEntity
 67
     1
  8
0
100
AcDbBlockBegin
  2
*Paper_Space
 70
     0
 10
0.0
 20
0.0
 30
0.0
  3
*Paper_Space
  1
*Paper_Space
  0
ENDBLK
  5
4AF
330
1B
100
AcDbEntity
 67
     1
  8
0
100
AcDbBlockEnd
  0
ENDSEC
  0
SECTION
  2
ENTITIES
  0
LINE
  5
D5
330
1D
100
AcDbEntity
  8
0
100
AcDbLine
 10
5.9085
 20
235.2445
 30
0.0
 11
6.0367
 21
235.2455
 31
0.0
  0
LINE
  5
D7
330
1D
100
AcDbEntity
  8
0
100
AcDbLine
 10
6.0367
 20
235.2455
 30
0.0
 11
6.9923
 21
235.2445
 31
0.0
  0
LINE
  5
D8
330
1D
100
AcDbEntity
  8
0
100
AcDbLine
 10
6.9923
 20
235.2445
 30
0.0
 11
7.8074
 21
235.2445
 31
0.0
  0
LINE
  5
148
330
1D
100
AcDbEntity
  8
0
100
AcDbLine
 10
10.0057
 20
235.2445
 30
0.0
 11
12.0294
 21
235.2445
 31
0.0
  0
LINE
  5
14A
330
1D
100
AcDbEntity
  8
0
100
AcDbLine
 10
11.3353
 20
235.2445
 30
0.0
 11
14.2221
 21
235.2455
 31
0.0
  0
LINE
  5
14B
330
1D
100
AcDbEntity
  8
0
100
AcDbLine
 10
15.8475
 20
235.2445
 30
0.0
 11
56.1527
 21
235.2445
 31
0.0
  0
LINE
  5
14C
330
1D
100
AcDbEntity
  8
0
100
AcDbLine
 10
14.293
 20
235.2445
 30
0.0
 11
15.8475
 21
235.2445
 31
0.0
  0
LINE
  5
14E
330
1D
100
AcDbEntity
  8
0
100
AcDbLine
 10
12.0294
 20
235.2445
 30
0.0
 11
14.293
 21
235.2445
 31
0.0
  0
LINE
  5
150
330
1D
100
AcDbEntity
  8
0
100
AcDbLine
 10
14.2221
 20
235.2455
 30
0.0
 11
57.7072
 21
235.2445
 31
0.0
  0
LINE
  5
151
330
1D
100
AcDbEntity
  8
0
100
AcDbLine
 10
8.8195
 20
235.2445
 30
0.0
 11
10.0057
 21
235.2445
 31
0.0
  0
LINE
  5
152
330
1D
100
AcDbEntity
  8
0
100
AcDbLine
 10
7.8074
 20
235.2445
 30
0.0
 11
8.8195
 21
235.2445
 31
0.0
  0
LINE
  5
1AA
330
1D
100
AcDbEntity
  8
0
100
AcDbLine
 10
56.1527
 20
235.2445
 30
0.0
 11
58.4782
 21
235.2445
 31
0.0
  0
LINE
  5
1AB
330
1D
100
AcDbEntity
  8
0
100
AcDbLine
 10
58.4782
 20
235.2445
 30
0.0
 11
60.6649
 21
235.2445
 31
0.0
  0
LINE
  5
1BF
330
1D
100
AcDbEntity
  8
0
100
AcDbLine
 10
125.5824
 20
26.1095
 30
0.0
 11
125.5824
 21
23.6285
 31
0.0
  0
LINE
  5
1C0
330
1D
100
AcDbEntity
  8
0
100
AcDbLine
 10
125.5824
 20
26.1095
 30
0.0
 11
125.5824
 21
29.0855
 31
0.0
  0
LINE
  5
1C1
330
1D
100
AcDbEntity
  8
0
100
AcDbLine
 10
125.5824
 20
23.6285
 30
0.0
 11
125.5824
 21
21.6795
 31
0.0
  0
LINE
  5
1C2
330
1D
100
AcDbEntity
  8
0
100
AcDbLine
 10
125.5824
 20
23.6285
 30
0.0
 11
125.5824
 21
26.1095
 31
0.0
  0
LINE
  5
1C3
330
1D
100
AcDbEntity
  8
0
100
AcDbLine
 10
125.5824
 20
54.4215
 30
0.0
 11
125.5824
 21
49.6145
 31
0.0
  0
LINE
  5
1C4
330
1D
100
AcDbEntity
  8
0
100
AcDbLine
 10
125.5824
 20
54.4215
 30
0.0
 11
125.5824
 21
59.3005
 31
0.0
  0
LINE
  5
1C5
330
1D
100
AcDbEntity
  8
0
100
AcDbLine
 10
125.5824
 20
49.6145
 30
0.0
 11
125.5824
 21
44.9525
 31
0.0
  0
LINE
  5
1C6
330
1D
100
AcDbEntity
  8
0
100
AcDbLine
 10
125.5824
 20
49.6145
 30
0.0
 11
125.5824
 21
54.4215
 31
0.0
  0
LINE
  5
1C7
330
1D
100
AcDbEntity
  8
0
100
AcDbLine
 10
125.5824
 20
44.9525
 30
0.0
 11
125.5824
 21
40.5045
 31
0.0
  0
LINE
  5
1C8
330
1D
100
AcDbEntity
  8
0
100
AcDbLine
 10
125.5824
 20
44.9525
 30
0.0
 11
125.5824
 21
49.6145
 31
0.0
  0
LINE
  5
1C9
330
1D
100
AcDbEntity
  8
0
100
AcDbLine
 10
125.5824
 20
40.5045
 30
0.0
 11
125.5824
 21
36.3365
 31
0.0
  0
LINE
  5
1CA
330
1D
100
AcDbEntity
  8
0
100
AcDbLine
 10
125.5824
 20
40.5045
 30
0.0
 11
125.5824
 21
44.9525
 31
0.0
  0
LINE
  5
1CB
330
1D
100
AcDbEntity
  8
0
100
AcDbLine
 10
125.5824
 20
36.3365
 30
0.0
 11
125.5824
 21
32.5105
 31
0.0
  0
LINE
  5
1CC
330
1D
100
AcDbEntity
  8
0
100
AcDbLine
 10
125.5824
 20
36.3365
 30
0.0
 11
125.5824
 21
40.5045
 31
0.0
  0
LINE
  5
1CD
330
1D
100
AcDbEntity
  8
0
100
AcDbLine
 10
125.5824
 20
32.5105
 30
0.0
 11
125.5824
 21
29.0855
 31
0.0
  0
LINE
  5
1CE
330
1D
100
AcDbEntity
  8
0
100
AcDbLine
 10
125.5824
 20
32.5105
 30
0.0
 11
125.5824
 21
36.3365
 31
0.0
  0
LINE
  5
1CF
330
1D
100
AcDbEntity
  8
0
100
AcDbLine
 10
125.5824
 20
29.0855
 30
0.0
 11
125.5824
 21
26.1095
 31
0.0
  0
LINE
  5
1D0
330
1D
100
AcDbEntity
  8
0
100
AcDbLine
 10
125.5824
 20
29.0855
 30
0.0
 11
125.5824
 21
32.5105
 31
0.0
  0
LINE
  5
1D2
330
1D
100
AcDbEntity
  8
0
100
AcDbLine
 10
125.5824
 20
59.3005
 30
0.0
 11
125.5824
 21
54.4215
 31
0.0
  0
LINE
  5
1D3
330
1D
100
AcDbEntity
  8
0
100
AcDbLine
 10
125.5824
 20
21.6795
 30
0.0
 11
125.5824
 21
9.5815
 31
0.0
  0
LINE
  5
1D4
330
1D
100
AcDbEntity
  8
0
100
AcDbLine
 10
125.5824
 20
21.6795
 30
0.0
 11
125.5824
 21
23.6285
 31
0.0
  0
LINE
  5
1D5
330
1D
100
AcDbEntity
  8
0
100
AcDbLine
 10
125.5824
 20
9.5815
 30
0.0
 11
125.885
 21
7.2175
 31
0.0
  0
LINE
  5
1D6
330
1D
100
AcDbEntity
  8
0
100
AcDbLine
 10
125.5824
 20
9.5815
 30
0.0
 11
125.5824
 21
21.6795
 31
0.0
  0
LINE
  5
1D7
330
1D
100
AcDbEntity
  8
0
100
AcDbLine
 10
125.885
 20
7.2175
 30
0.0
 11
126.776
 21
4.9925
 31
0.0
  0
LINE
  5
1D8
330
1D
100
AcDbEntity
  8
0
100
AcDbLine
 10
126.776
 20
4.9925
 30
0.0
 11
128.2027
 21
3.0325
 31
0.0
  0
LINE
  5
1D9
330
1D
100
AcDbEntity
  8
0
100
AcDbLine
 10
128.2027
 20
3.0325
 30
0.0
 11
128.2523
 21
2.9895
 31
0.0
  0
LINE
  5
1DA
330
1D
100
AcDbEntity
  8
0
100
AcDbLine
 10
128.2523
 20
2.9895
 30
0.0
 11
130.1196
 21
1.4195
 31
0.0
  0
LINE
  5
1DB
330
1D
100
AcDbEntity
  8
0
100
AcDbLine
 10
130.1196
 20
1.4195
 30
0.0
 11
132.3291
 21
0.3205
 31
0.0
  0
LINE
  5
1DC
330
1D
100
AcDbEntity
  8
0
100
AcDbLine
 10
132.3291
 20
0.3205
 30
0.0
 11
134.752
 21
-0.2455
 31
0.0
  0
LINE
  5
1DD
330
1D
100
AcDbEntity
  8
0
100
AcDbLine
 10
137.2481
 20
-0.2455
 30
0.0
 11
139.6711
 21
0.3205
 31
0.0
  0
LINE
  5
1DE
330
1D
100
AcDbEntity
  8
0
100
AcDbLine
 10
141.8811
 20
1.4195
 30
0.0
 11
143.7481
 21
2.9895
 31
0.0
  0
LINE
  5
1DF
330
1D
100
AcDbEntity
  8
0
100
AcDbLine
 10
139.6711
 20
0.3205
 30
0.0
 11
141.8811
 21
1.4195
 31
0.0
  0
LINE
  5
1E0
330
1D
100
AcDbEntity
  8
0
100
AcDbLine
 10
136.0001
 20
-0.2455
 30
0.0
 11
137.2481
 21
-0.2455
 31
0.0
  0
LINE
  5
1E1
330
1D
100
AcDbEntity
  8
0
100
AcDbLine
 10
143.7481
 20
2.9895
 30
0.0
 11
143.7971
 21
3.0325
 31
0.0
  0
LINE
  5
1E2
330
1D
100
AcDbEntity
  8
0
100
AcDbLine
 10
143.7971
 20
3.0325
 30
0.0
 11
145.2241
 21
4.9925
 31
0.0
  0
LINE
  5
1E3
330
1D
100
AcDbEntity
  8
0
100
AcDbLine
 10
146.4181
 20
23.6285
 30
0.0
 11
146.4181
 21
26.1095
 31
0.0
  0
LINE
  5
1E4
330
1D
100
AcDbEntity
  8
0
100
AcDbLine
 10
146.4181
 20
23.6285
 30
0.0
 11
146.4181
 21
21.6795
 31
0.0
  0
LINE
  5
1E5
330
1D
100
AcDbEntity
  8
0
100
AcDbLine
 10
146.4181
 20
26.1095
 30
0.0
 11
146.4181
 21
23.6285
 31
0.0
  0
LINE
  5
1E6
330
1D
100
AcDbEntity
  8
0
100
AcDbLine
 10
146.4181
 20
26.1095
 30
0.0
 11
146.4181
 21
29.0855
 31
0.0
  0
LINE
  5
1E7
330
1D
100
AcDbEntity
  8
0
100
AcDbLine
 10
146.4181
 20
32.5105
 30
0.0
 11
146.4181
 21
29.0855
 31
0.0
  0
LINE
  5
1E8
330
1D
100
AcDbEntity
  8
0
100
AcDbLine
 10
146.4181
 20
32.5105
 30
0.0
 11
146.4181
 21
36.3365
 31
0.0
  0
LINE
  5
1E9
330
1D
100
AcDbEntity
  8
0
100
AcDbLine
 10
146.4181
 20
29.0855
 30
0.0
 11
146.4181
 21
32.5105
 31
0.0
  0
LINE
  5
1EA
330
1D
100
AcDbEntity
  8
0
100
AcDbLine
 10
146.4181
 20
29.0855
 30
0.0
 11
146.4181
 21
26.1095
 31
0.0
  0
LINE
  5
1EB
330
1D
100
AcDbEntity
  8
0
100
AcDbLine
 10
146.4181
 20
21.6795
 30
0.0
 11
146.4181
 21
9.5815
 31
0.0
  0
LINE
  5
1EC
330
1D
100
AcDbEntity
  8
0
100
AcDbLine
 10
146.4181
 20
21.6795
 30
0.0
 11
146.4181
 21
23.6285
 31
0.0
  0
LINE
  5
1ED
330
1D
100
AcDbEntity
  8
0
100
AcDbLine
 10
146.4181
 20
9.5815
 30
0.0
 11
146.4181
 21
21.6795
 31
0.0
  0
LINE
  5
1EE
330
1D
100
AcDbEntity
  8
0
100
AcDbLine
 10
146.1151
 20
7.2175
 30
0.0
 11
146.4181
 21
9.5815
 31
0.0
  0
LINE
  5
1EF
330
1D
100
AcDbEntity
  8
0
100
AcDbLine
 10
145.2241
 20
4.9925
 30
0.0
 11
146.1151
 21
7.2175
 31
0.0
  0
LINE
  5
1F0
330
1D
100
AcDbEntity
  8
0
100
AcDbLine
 10
146.4181
 20
49.6145
 30
0.0
 11
146.4181
 21
44.9525
 31
0.0
  0
LINE
  5
1F1
330
1D
100
AcDbEntity
  8
0
100
AcDbLine
 10
146.4181
 20
49.6145
 30
0.0
 11
146.4181
 21
54.4215
 31
0.0
  0
LINE
  5
1F2
330
1D
100
AcDbEntity
  8
0
100
AcDbLine
 10
146.4181
 20
44.9525
 30
0.0
 11
146.4181
 21
49.6145
 31
0.0
  0
LINE
  5
1F3
330
1D
100
AcDbEntity
  8
0
100
AcDbLine
 10
146.4181
 20
44.9525
 30
0.0
 11
146.4181
 21
40.5045
 31
0.0
  0
LINE
  5
1F4
330
1D
100
AcDbEntity
  8
0
100
AcDbLine
 10
146.4181
 20
54.4215
 30
0.0
 11
146.4181
 21
49.6145
 31
0.0
  0
LINE
  5
1F5
330
1D
100
AcDbEntity
  8
0
100
AcDbLine
 10
146.4181
 20
54.4215
 30
0.0
 11
146.4181
 21
59.3005
 31
0.0
  0
LINE
  5
1F7
330
1D
100
AcDbEntity
  8
0
100
AcDbLine
 10
146.4181
 20
59.3005
 30
0.0
 11
146.4181
 21
54.4215
 31
0.0
  0
LINE
  5
1F8
330
1D
100
AcDbEntity
  8
0
100
AcDbLine
 10
146.4181
 20
40.5045
 30
0.0
 11
146.4181
 21
36.3365
 31
0.0
  0
LINE
  5
1F9
330
1D
100
AcDbEntity
  8
0
100
AcDbLine
 10
146.4181
 20
40.5045
 30
0.0
 11
146.4181
 21
44.9525
 31
0.0
  0
LINE
  5
1FA
330
1D
100
AcDbEntity
  8
0
100
AcDbLine
 10
146.4181
 20
36.3365
 30
0.0
 11
146.4181
 21
40.5045
 31
0.0
  0
LINE
  5
1FB
330
1D
100
AcDbEntity
  8
0
100
AcDbLine
 10
146.4181
 20
36.3365
 30
0.0
 11
146.4181
 21
32.5105
 31
0.0
  0
LINE
  5
1FC
330
1D
100
AcDbEntity
  8
0
100
AcDbLine
 10
134.752
 20
-0.2455
 30
0.0
 11
136.0001
 21
-0.2455
 31
0.0
  0
LINE
  5
477
330
1D
100
AcDbEntity
  8
0
100
AcDbLine
 10
60.6649
 20
235.2445
 30
0.0
 11
61.9945
 21
235.2445
 31
0.0
  0
LINE
  5
478
330
1D
100
AcDbEntity
  8
0
100
AcDbLine
 10
61.9945
 20
235.2445
 30
0.0
 11
63.1807
 21
235.2445
 31
0.0
  0
LINE
  5
479
330
1D
100
AcDbEntity
  8
0
100
AcDbLine
 10
65.3625
 20
235.2445
 30
0.0
 11
65.9692
 21
235.2445
 31
0.0
  0
LINE
  5
47A
330
1D
100
AcDbEntity
  8
0
100
AcDbLine
 10
64.1928
 20
235.2445
 30
0.0
 11
65.3625
 21
235.2445
 31
0.0
  0
LINE
  5
47B
330
1D
100
AcDbEntity
  8
0
100
AcDbLine
 10
63.1807
 20
235.2445
 30
0.0
 11
64.1928
 21
235.2445
 31
0.0
  0
LINE
  5
4AA
330
1D
100
AcDbEntity
  8
0
100
AcDbLine
 10
65.9692
 20
235.2445
 30
0.0
 11
66.0917
 21
235.2445
 31
0.0
  0
LINE
  5
6F7
330
1D
100
AcDbEntity
  8
0
100
AcDbLine
 10
-0.023070090905
 20
188.31636581215
 30
0.0
 11
0.038029909095
 21
189.02236581215
 31
0.0
  0
LINE
  5
6F8
330
1D
100
AcDbEntity
  8
0
100
AcDbLine
 10
-0.023070090905
 20
188.31636581215
 30
0.0
 11
0.186229909095
 21
186.65636581215
 31
0.0
  0
LINE
  5
6F9
330
1D
100
AcDbEntity
  8
0
100
AcDbLine
 10
1.686529909095
 20
184.81536581215
 30
0.0
 11
36.219329909095
 21
184.74936581215
 31
0.0
  0
LINE
  5
6FA
330
1D
100
AcDbEntity
  8
0
100
AcDbLine
 10
1.064129909095
 20
184.98336581215
 30
0.0
 11
1.686529909095
 21
184.81536581215
 31
0.0
  0
LINE
  5
6FB
330
1D
100
AcDbEntity
  8
0
100
AcDbLine
 10
0.186229909095
 20
186.65636581215
 30
0.0
 11
0.692229909095
 21
185.41336581215
 31
0.0
  0
LINE
  5
6FC
330
1D
100
AcDbEntity
  8
0
100
AcDbLine
 10
0.692229909095
 20
185.41336581215
 30
0.0
 11
1.064129909095
 21
184.98336581215
 31
0.0
  0
LINE
  5
6FD
330
1D
100
AcDbEntity
  8
0
100
AcDbLine
 10
0.038029909095
 20
189.02236581215
 30
0.0
 11
0.171829909094
 21
189.97336581215
 31
0.0
  0
LINE
  5
6FE
330
1D
100
AcDbEntity
  8
0
100
AcDbLine
 10
1.100929909095
 20
192.17936581215
 30
0.0
 11
1.721629909095
 21
193.01436581215
 31
0.0
  0
LINE
  5
6FF
330
1D
100
AcDbEntity
  8
0
100
AcDbLine
 10
0.599429909095
 20
191.26636581215
 30
0.0
 11
1.100929909095
 21
192.17936581215
 31
0.0
  0
LINE
  5
700
330
1D
100
AcDbEntity
  8
0
100
AcDbLine
 10
1.721629909095
 20
193.01436581215
 30
0.0
 11
1.908929909094
 21
193.19336581215
 31
0.0
  0
LINE
  5
701
330
1D
100
AcDbEntity
  8
0
100
AcDbLine
 10
1.908929909094
 20
193.19336581215
 30
0.0
 11
2.357229909095
 21
193.62136581215
 31
0.0
  0
LINE
  5
702
330
1D
100
AcDbEntity
  8
0
100
AcDbLine
 10
3.339029909095
 20
194.14436581215
 30
0.0
 11
3.935129909095
 21
194.33136581215
 31
0.0
  0
LINE
  5
703
330
1D
100
AcDbEntity
  8
0
100
AcDbLine
 10
6.728576005541
 20
194.979479772702
 30
0.0
 11
16.988202568882
 21
197.5734378177
 31
0.0
  0
LINE
  5
704
330
1D
100
AcDbEntity
  8
0
100
AcDbLine
 10
6.728576005541
 20
194.979479772702
 30
0.0
 11
16.988202568882
 21
197.5734378177
 31
0.0
  0
LINE
  5
705
330
1D
100
AcDbEntity
  8
0
100
AcDbLine
 10
21.513329909095
 20
198.92336581215
 30
0.0
 11
22.491553431652
 21
199.609062345769
 31
0.0
  0
LINE
  5
706
330
1D
100
AcDbEntity
  8
0
100
AcDbLine
 10
25.304229909095
 20
207.97936581215
 30
0.0
 11
25.576629909094
 21
222.32836581215
 31
0.0
  0
LINE
  5
707
330
1D
100
AcDbEntity
  8
0
100
AcDbLine
 10
24.969229909095
 20
204.42636581215
 30
0.0
 11
25.176984719026
 21
206.199962888366
 31
0.0
  0
LINE
  5
708
330
1D
100
AcDbEntity
  8
0
100
AcDbLine
 10
24.969229909095
 20
204.42636581215
 30
0.0
 11
25.176984719026
 21
206.199962888366
 31
0.0
  0
LINE
  5
709
330
1D
100
AcDbEntity
  8
0
100
AcDbLine
 10
23.936129909095
 20
201.26736581215
 30
0.0
 11
24.685712316077
 21
203.238943644612
 31
0.0
  0
LINE
  5
70A
330
1D
100
AcDbEntity
  8
0
100
AcDbLine
 10
19.397329909095
 20
198.19236581215
 30
0.0
 11
20.304982817176
 21
198.428796704485
 31
0.0
  0
LINE
  5
70B
330
1D
100
AcDbEntity
  8
0
100
AcDbLine
 10
3.935129909095
 20
194.33136581215
 30
0.0
 11
8.409029909094
 21
195.36936581215
 31
0.0
  0
LINE
  5
70C
330
1D
100
AcDbEntity
  8
0
100
AcDbLine
 10
2.848229909094
 20
193.93336581215
 30
0.0
 11
3.339029909095
 21
194.14436581215
 31
0.0
  0
LINE
  5
70D
330
1D
100
AcDbEntity
  8
0
100
AcDbLine
 10
2.357229909095
 20
193.62136581215
 30
0.0
 11
2.848229909094
 21
193.93336581215
 31
0.0
  0
LINE
  5
70E
330
1D
100
AcDbEntity
  8
0
100
AcDbLine
 10
0.171829909094
 20
189.97336581215
 30
0.0
 11
0.599429909095
 21
191.26636581215
 31
0.0
  0
LINE
  5
70F
330
1D
100
AcDbEntity
  8
0
100
AcDbLine
 10
25.576629909094
 20
222.32836581215
 30
0.0
 11
25.874429909095
 21
222.61936581215
 31
0.0
  0
LINE
  5
710
330
1D
100
AcDbEntity
  8
0
100
AcDbLine
 10
36.219329909095
 20
184.74936581215
 30
0.0
 11
36.473829909094
 21
184.75536581215
 31
0.0
  0
LINE
  5
711
330
1D
100
AcDbEntity
  8
0
100
AcDbLine
 10
6.676829909095
 20
228.79436581215
 30
0.0
 11
7.017229909095
 21
228.79436581215
 31
0.0
  0
LINE
  5
712
330
1D
100
AcDbEntity
  8
0
100
AcDbLine
 10
6.562429909095
 20
228.79436581215
 30
0.0
 11
6.676829909095
 21
228.79436581215
 31
0.0
  0
LINE
  5
713
330
1D
100
AcDbEntity
  8
0
100
AcDbLine
 10
6.317629909095
 20
228.85936581215
 30
0.0
 11
6.562429909095
 21
228.79436581215
 31
0.0
  0
LINE
  5
714
330
1D
100
AcDbEntity
  8
0
100
AcDbLine
 10
6.136429909095
 20
229.03636581215
 30
0.0
 11
6.317629909095
 21
228.85936581215
 31
0.0
  0
LINE
  5
715
330
1D
100
AcDbEntity
  8
0
100
AcDbLine
 10
6.065829909095
 20
229.27836581215
 30
0.0
 11
6.136429909095
 21
229.03636581215
 31
0.0
  0
LINE
  5
716
330
1D
100
AcDbEntity
  8
0
100
AcDbLine
 10
5.908529909095
 20
235.24336581215
 30
0.0
 11
6.065829909095
 21
229.27836581215
 31
0.0
  0
LINE
  5
717
330
1D
100
AcDbEntity
  8
0
100
AcDbLine
 10
5.908529909095
 20
235.24336581215
 30
0.0
 11
6.036729909095
 21
235.24436581215
 31
0.0
  0
LINE
  5
718
330
1D
100
AcDbEntity
  8
0
100
AcDbLine
 10
6.036729909095
 20
235.24436581215
 30
0.0
 11
6.992329909095
 21
235.24336581215
 31
0.0
  0
LINE
  5
719
330
1D
100
AcDbEntity
  8
0
100
AcDbLine
 10
6.992329909095
 20
235.24336581215
 30
0.0
 11
7.807429909095
 21
235.24336581215
 31
0.0
  0
LINE
  5
71A
330
1D
100
AcDbEntity
  8
0
100
AcDbLine
 10
25.743829909095
 20
222.84236581215
 30
0.0
 11
25.903929909095
 21
222.84736581215
 31
0.0
  0
LINE
  5
71B
330
1D
100
AcDbEntity
  8
0
100
AcDbLine
 10
25.565029909095
 20
223.01436581215
 30
0.0
 11
25.743829909095
 21
222.84236581215
 31
0.0
  0
LINE
  5
71C
330
1D
100
AcDbEntity
  8
0
100
AcDbLine
 10
25.559129909095
 20
223.82336581215
 30
0.0
 11
25.565029909095
 21
223.01436581215
 31
0.0
  0
LINE
  5
71D
330
1D
100
AcDbEntity
  8
0
100
AcDbLine
 10
25.617829909094
 20
223.92136581215
 30
0.0
 11
25.753929909094
 21
223.83436581215
 31
0.0
  0
LINE
  5
71E
330
1D
100
AcDbEntity
  8
0
100
AcDbLine
 10
25.171429909095
 20
225.72836581215
 30
0.0
 11
25.428429909095
 21
224.93036581215
 31
0.0
  0
LINE
  5
71F
330
1D
100
AcDbEntity
  8
0
100
AcDbLine
 10
24.785429909095
 20
226.46736581215
 30
0.0
 11
25.171429909095
 21
225.72836581215
 31
0.0
  0
LINE
  5
720
330
1D
100
AcDbEntity
  8
0
100
AcDbLine
 10
18.092729909095
 20
228.79436581215
 30
0.0
 11
18.692229909095
 21
228.79436581215
 31
0.0
  0
LINE
  5
721
330
1D
100
AcDbEntity
  8
0
100
AcDbLine
 10
18.692229909095
 20
228.79436581215
 30
0.0
 11
19.143629909094
 21
228.79436581215
 31
0.0
  0
LINE
  5
722
330
1D
100
AcDbEntity
  8
0
100
AcDbLine
 10
19.043129909095
 20
228.79436581215
 30
0.0
 11
20.725929909095
 21
228.79436581215
 31
0.0
  0
LINE
  5
723
330
1D
100
AcDbEntity
  8
0
100
AcDbLine
 10
17.997129909094
 20
228.79436581215
 30
0.0
 11
18.092729909095
 21
228.79436581215
 31
0.0
  0
LINE
  5
724
330
1D
100
AcDbEntity
  8
0
100
AcDbLine
 10
18.765429909095
 20
228.79436581215
 30
0.0
 11
19.043129909095
 21
228.79436581215
 31
0.0
  0
LINE
  5
725
330
1D
100
AcDbEntity
  8
0
100
AcDbLine
 10
20.725929909095
 20
228.79436581215
 30
0.0
 11
21.340029909095
 21
228.74936581215
 31
0.0
  0
LINE
  5
726
330
1D
100
AcDbEntity
  8
0
100
AcDbLine
 10
23.693029909095
 20
227.70536581215
 30
0.0
 11
24.282729909095
 21
227.13536581215
 31
0.0
  0
LINE
  5
727
330
1D
100
AcDbEntity
  8
0
100
AcDbLine
 10
22.978629909095
 20
228.17436581215
 30
0.0
 11
23.693029909095
 21
227.70536581215
 31
0.0
  0
LINE
  5
728
330
1D
100
AcDbEntity
  8
0
100
AcDbLine
 10
22.183429909095
 20
228.51536581215
 30
0.0
 11
22.978629909095
 21
228.17436581215
 31
0.0
  0
LINE
  5
729
330
1D
100
AcDbEntity
  8
0
100
AcDbLine
 10
21.340029909095
 20
228.74936581215
 30
0.0
 11
22.183429909095
 21
228.51536581215
 31
0.0
  0
LINE
  5
72A
330
1D
100
AcDbEntity
  8
0
100
AcDbLine
 10
24.282729909095
 20
227.13536581215
 30
0.0
 11
24.785429909095
 21
226.46736581215
 31
0.0
  0
LINE
  5
72B
330
1D
100
AcDbEntity
  8
0
100
AcDbLine
 10
25.428429909095
 20
224.93036581215
 30
0.0
 11
25.617829909094
 21
223.92136581215
 31
0.0
  0
LINE
  5
72C
330
1D
100
AcDbEntity
  8
0
100
AcDbLine
 10
10.005729909094
 20
235.24336581215
 30
0.0
 11
12.029429909095
 21
235.24336581215
 31
0.0
  0
LINE
  5
72D
330
1D
100
AcDbEntity
  8
0
100
AcDbLine
 10
11.335329909094
 20
235.24336581215
 30
0.0
 11
14.222129909095
 21
235.24436581215
 31
0.0
  0
LINE
  5
72E
330
1D
100
AcDbEntity
  8
0
100
AcDbLine
 10
14.293029909095
 20
235.24336581215
 30
0.0
 11
15.847529909095
 21
235.24336581215
 31
0.0
  0
LINE
  5
72F
330
1D
100
AcDbEntity
  8
0
100
AcDbLine
 10
12.029429909095
 20
235.24336581215
 30
0.0
 11
14.293029909095
 21
235.24336581215
 31
0.0
  0
LINE
  5
730
330
1D
100
AcDbEntity
  8
0
100
AcDbLine
 10
8.819529909095
 20
235.24336581215
 30
0.0
 11
10.005729909094
 21
235.24336581215
 31
0.0
  0
LINE
  5
731
330
1D
100
AcDbEntity
  8
0
100
AcDbLine
 10
7.807429909095
 20
235.24336581215
 30
0.0
 11
8.819529909095
 21
235.24336581215
 31
0.0
  0
LINE
  5
751
330
1D
100
AcDbEntity
  8
0
100
AcDbLine
 10
107.105429909094
 20
228.39736581215
 30
0.0
 11
107.661029909095
 21
228.39736581215
 31
0.0
  0
LINE
  5
752
330
1D
100
AcDbEntity
  8
0
100
AcDbLine
 10
106.766029909095
 20
228.39736581215
 30
0.0
 11
107.105429909094
 21
228.39736581215
 31
0.0
  0
LINE
  5
753
330
1D
100
AcDbEntity
  8
0
100
AcDbLine
 10
107.661029909095
 20
228.39736581215
 30
0.0
 11
108.420029909095
 21
228.39736581215
 31
0.0
  0
LINE
  5
754
330
1D
100
AcDbEntity
  8
0
100
AcDbLine
 10
108.420029909095
 20
228.39736581215
 30
0.0
 11
109.363529909094
 21
228.39736581215
 31
0.0
  0
LINE
  5
755
330
1D
100
AcDbEntity
  8
0
100
AcDbLine
 10
106.651929909095
 20
228.39736581215
 30
0.0
 11
106.766029909095
 21
228.39736581215
 31
0.0
  0
LINE
  5
756
330
1D
100
AcDbEntity
  8
0
100
AcDbLine
 10
108.716629909095
 20
228.39736581215
 30
0.0
 11
108.823829909095
 21
228.39736581215
 31
0.0
  0
LINE
  5
757
330
1D
100
AcDbEntity
  8
0
100
AcDbLine
 10
108.716629909095
 20
228.39736581215
 30
0.0
 11
108.872429909095
 21
228.39736581215
 31
0.0
  0
LINE
  5
758
330
1D
100
AcDbEntity
  8
0
100
AcDbLine
 10
109.363529909094
 20
228.39736581215
 30
0.0
 11
110.467829909095
 21
228.39736581215
 31
0.0
  0
LINE
  5
759
330
1D
100
AcDbEntity
  8
0
100
AcDbLine
 10
109.290129909095
 20
228.39736581215
 30
0.0
 11
109.963829909094
 21
228.39736581215
 31
0.0
  0
LINE
  5
75A
330
1D
100
AcDbEntity
  8
0
100
AcDbLine
 10
108.872429909095
 20
228.39736581215
 30
0.0
 11
109.290129909095
 21
228.39736581215
 31
0.0
  0
LINE
  5
75B
330
1D
100
AcDbEntity
  8
0
100
AcDbLine
 10
108.823829909095
 20
228.39736581215
 30
0.0
 11
109.191929909094
 21
228.39736581215
 31
0.0
  0
LINE
  5
75C
330
1D
100
AcDbEntity
  8
0
100
AcDbLine
 10
109.191929909094
 20
228.39736581215
 30
0.0
 11
109.818929909094
 21
228.39736581215
 31
0.0
  0
LINE
  5
75D
330
1D
100
AcDbEntity
  8
0
100
AcDbLine
 10
109.365529909095
 20
228.39736581215
 30
0.0
 11
109.775329909095
 21
228.39736581215
 31
0.0
  0
LINE
  5
75E
330
1D
100
AcDbEntity
  8
0
100
AcDbLine
 10
109.317929909095
 20
228.39736581215
 30
0.0
 11
109.680029909095
 21
228.39736581215
 31
0.0
  0
LINE
  5
75F
330
1D
100
AcDbEntity
  8
0
100
AcDbLine
 10
109.963829909094
 20
228.39736581215
 30
0.0
 11
110.889529909095
 21
228.39736581215
 31
0.0
  0
LINE
  5
760
330
1D
100
AcDbEntity
  8
0
100
AcDbLine
 10
109.818929909094
 20
228.39736581215
 30
0.0
 11
110.698029909094
 21
228.39736581215
 31
0.0
  0
LINE
  5
761
330
1D
100
AcDbEntity
  8
0
100
AcDbLine
 10
110.467829909095
 20
228.39736581215
 30
0.0
 11
111.706029909095
 21
228.39736581215
 31
0.0
  0
LINE
  5
762
330
1D
100
AcDbEntity
  8
0
100
AcDbLine
 10
110.889529909095
 20
228.39736581215
 30
0.0
 11
112.055329909094
 21
228.39736581215
 31
0.0
  0
LINE
  5
763
330
1D
100
AcDbEntity
  8
0
100
AcDbLine
 10
110.698029909094
 20
228.39736581215
 30
0.0
 11
111.821129909095
 21
228.39736581215
 31
0.0
  0
LINE
  5
764
330
1D
100
AcDbEntity
  8
0
100
AcDbLine
 10
110.437129909094
 20
228.39736581215
 30
0.0
 11
111.345929909094
 21
228.39736581215
 31
0.0
  0
LINE
  5
765
330
1D
100
AcDbEntity
  8
0
100
AcDbLine
 10
109.775329909095
 20
228.39736581215
 30
0.0
 11
110.437129909094
 21
228.39736581215
 31
0.0
  0
LINE
  5
766
330
1D
100
AcDbEntity
  8
0
100
AcDbLine
 10
109.680029909095
 20
228.39736581215
 30
0.0
 11
110.295229909094
 21
228.39736581215
 31
0.0
  0
LINE
  5
767
330
1D
100
AcDbEntity
  8
0
100
AcDbLine
 10
110.295229909094
 20
228.39736581215
 30
0.0
 11
111.158329909095
 21
228.39736581215
 31
0.0
  0
LINE
  5
768
330
1D
100
AcDbEntity
  8
0
100
AcDbLine
 10
111.706029909095
 20
228.39736581215
 30
0.0
 11
113.048429909095
 21
228.39736581215
 31
0.0
  0
LINE
  5
769
330
1D
100
AcDbEntity
  8
0
100
AcDbLine
 10
111.345929909094
 20
228.39736581215
 30
0.0
 11
112.490829909094
 21
228.39736581215
 31
0.0
  0
LINE
  5
76A
330
1D
100
AcDbEntity
  8
0
100
AcDbLine
 10
111.158329909095
 20
228.39736581215
 30
0.0
 11
112.260629909095
 21
228.39736581215
 31
0.0
  0
LINE
  5
76B
330
1D
100
AcDbEntity
  8
0
100
AcDbLine
 10
109.212729909094
 20
228.39736581215
 30
0.0
 11
109.365529909095
 21
228.39736581215
 31
0.0
  0
LINE
  5
76C
330
1D
100
AcDbEntity
  8
0
100
AcDbLine
 10
109.212729909094
 20
228.39736581215
 30
0.0
 11
109.317929909095
 21
228.39736581215
 31
0.0
  0
LINE
  5
76D
330
1D
100
AcDbEntity
  8
0
100
AcDbLine
 10
112.055329909094
 20
228.39736581215
 30
0.0
 11
113.453229909094
 21
228.39736581215
 31
0.0
  0
LINE
  5
76E
330
1D
100
AcDbEntity
  8
0
100
AcDbLine
 10
113.048429909095
 20
228.39736581215
 30
0.0
 11
114.460329909095
 21
228.39736581215
 31
0.0
  0
LINE
  5
76F
330
1D
100
AcDbEntity
  8
0
100
AcDbLine
 10
113.453229909094
 20
228.39736581215
 30
0.0
 11
115.067529909095
 21
228.39736581215
 31
0.0
  0
LINE
  5
770
330
1D
100
AcDbEntity
  8
0
100
AcDbLine
 10
114.460329909095
 20
228.39736581215
 30
0.0
 11
115.908829909094
 21
228.39736581215
 31
0.0
  0
LINE
  5
771
330
1D
100
AcDbEntity
  8
0
100
AcDbLine
 10
115.908829909094
 20
228.39736581215
 30
0.0
 11
120.682129909094
 21
228.39736581215
 31
0.0
  0
LINE
  5
772
330
1D
100
AcDbEntity
  8
0
100
AcDbLine
 10
115.067529909095
 20
228.39736581215
 30
0.0
 11
116.884129909094
 21
228.39736581215
 31
0.0
  0
LINE
  5
773
330
1D
100
AcDbEntity
  8
0
100
AcDbLine
 10
114.752029909095
 20
228.39736581215
 30
0.0
 11
116.531929909095
 21
228.39736581215
 31
0.0
  0
LINE
  5
774
330
1D
100
AcDbEntity
  8
0
100
AcDbLine
 10
116.884129909094
 20
228.39736581215
 30
0.0
 11
118.884329909095
 21
228.39736581215
 31
0.0
  0
LINE
  5
775
330
1D
100
AcDbEntity
  8
0
100
AcDbLine
 10
116.531929909095
 20
228.39736581215
 30
0.0
 11
118.499429909094
 21
228.39736581215
 31
0.0
  0
LINE
  5
776
330
1D
100
AcDbEntity
  8
0
100
AcDbLine
 10
115.448529909095
 20
228.39736581215
 30
0.0
 11
117.231429909095
 21
228.39736581215
 31
0.0
  0
LINE
  5
777
330
1D
100
AcDbEntity
  8
0
100
AcDbLine
 10
113.863029909095
 20
228.39736581215
 30
0.0
 11
115.448529909095
 21
228.39736581215
 31
0.0
  0
LINE
  5
778
330
1D
100
AcDbEntity
  8
0
100
AcDbLine
 10
112.490829909094
 20
228.39736581215
 30
0.0
 11
113.863029909095
 21
228.39736581215
 31
0.0
  0
LINE
  5
779
330
1D
100
AcDbEntity
  8
0
100
AcDbLine
 10
117.231429909095
 20
228.39736581215
 30
0.0
 11
119.194929909095
 21
228.39736581215
 31
0.0
  0
LINE
  5
77A
330
1D
100
AcDbEntity
  8
0
100
AcDbLine
 10
116.886129909095
 20
228.39736581215
 30
0.0
 11
118.817829909094
 21
228.39736581215
 31
0.0
  0
LINE
  5
77B
330
1D
100
AcDbEntity
  8
0
100
AcDbLine
 10
113.591129909094
 20
228.39736581215
 30
0.0
 11
115.137929909095
 21
228.39736581215
 31
0.0
  0
LINE
  5
77C
330
1D
100
AcDbEntity
  8
0
100
AcDbLine
 10
112.260629909095
 20
228.39736581215
 30
0.0
 11
113.591129909094
 21
228.39736581215
 31
0.0
  0
LINE
  5
77D
330
1D
100
AcDbEntity
  8
0
100
AcDbLine
 10
115.137929909095
 20
228.39736581215
 30
0.0
 11
116.886129909095
 21
228.39736581215
 31
0.0
  0
LINE
  5
77E
330
1D
100
AcDbEntity
  8
0
100
AcDbLine
 10
118.499429909094
 20
228.39736581215
 30
0.0
 11
120.635529909094
 21
228.39736581215
 31
0.0
  0
LINE
  5
77F
330
1D
100
AcDbEntity
  8
0
100
AcDbLine
 10
118.978629909094
 20
228.39736581215
 30
0.0
 11
119.731629909095
 21
228.39736581215
 31
0.0
  0
LINE
  5
780
330
1D
100
AcDbEntity
  8
0
100
AcDbLine
 10
118.806929909094
 20
228.39736581215
 30
0.0
 11
118.978629909094
 21
228.39736581215
 31
0.0
  0
LINE
  5
781
330
1D
100
AcDbEntity
  8
0
100
AcDbLine
 10
118.884329909095
 20
228.39736581215
 30
0.0
 11
120.682129909094
 21
228.39736581215
 31
0.0
  0
LINE
  5
782
330
1D
100
AcDbEntity
  8
0
100
AcDbLine
 10
120.682129909094
 20
228.39736581215
 30
0.0
 11
122.197129909095
 21
228.15336581215
 31
0.0
  0
LINE
  5
783
330
1D
100
AcDbEntity
  8
0
100
AcDbLine
 10
119.731629909095
 20
228.39736581215
 30
0.0
 11
120.682129909094
 21
228.39736581215
 31
0.0
  0
LINE
  5
784
330
1D
100
AcDbEntity
  8
0
100
AcDbLine
 10
120.635529909094
 20
228.39736581215
 30
0.0
 11
122.919429909095
 21
228.39736581215
 31
0.0
  0
LINE
  5
785
330
1D
100
AcDbEntity
  8
0
100
AcDbLine
 10
119.194929909095
 20
228.39736581215
 30
0.0
 11
120.682129909094
 21
228.39736581215
 31
0.0
  0
LINE
  5
786
330
1D
100
AcDbEntity
  8
0
100
AcDbLine
 10
118.817829909094
 20
228.39736581215
 30
0.0
 11
120.914329909094
 21
228.39736581215
 31
0.0
  0
LINE
  5
787
330
1D
100
AcDbEntity
  8
0
100
AcDbLine
 10
120.914329909094
 20
228.39736581215
 30
0.0
 11
123.156629909094
 21
228.39736581215
 31
0.0
  0
LINE
  5
788
330
1D
100
AcDbEntity
  8
0
100
AcDbLine
 10
120.247529909095
 20
228.39736581215
 30
0.0
 11
121.399429909095
 21
228.39736581215
 31
0.0
  0
LINE
  5
789
330
1D
100
AcDbEntity
  8
0
100
AcDbLine
 10
122.197129909095
 20
228.15336581215
 30
0.0
 11
123.576229909095
 21
227.44136581215
 31
0.0
  0
LINE
  5
78A
330
1D
100
AcDbEntity
  8
0
100
AcDbLine
 10
123.576229909095
 20
227.44136581215
 30
0.0
 11
124.669629909095
 21
226.33436581215
 31
0.0
  0
LINE
  5
78B
330
1D
100
AcDbEntity
  8
0
100
AcDbLine
 10
122.919429909095
 20
228.39736581215
 30
0.0
 11
125.329429909095
 21
228.39736581215
 31
0.0
  0
LINE
  5
78C
330
1D
100
AcDbEntity
  8
0
100
AcDbLine
 10
123.156629909094
 20
228.39736581215
 30
0.0
 11
125.523929909094
 21
228.39736581215
 31
0.0
  0
LINE
  5
78D
330
1D
100
AcDbEntity
  8
0
100
AcDbLine
 10
121.399429909095
 20
228.39736581215
 30
0.0
 11
122.764729909095
 21
228.39736581215
 31
0.0
  0
LINE
  5
78E
330
1D
100
AcDbEntity
  8
0
100
AcDbLine
 10
122.764729909095
 20
228.39736581215
 30
0.0
 11
124.322429909095
 21
228.39736581215
 31
0.0
  0
LINE
  5
78F
330
1D
100
AcDbEntity
  8
0
100
AcDbLine
 10
125.373129909094
 20
224.93936581215
 30
0.0
 11
125.582429909095
 21
223.39336581215
 31
0.0
  0
LINE
  5
790
330
1D
100
AcDbEntity
  8
0
100
AcDbLine
 10
124.669629909095
 20
226.33436581215
 30
0.0
 11
125.373129909094
 21
224.93936581215
 31
0.0
  0
LINE
  5
792
330
1D
100
AcDbEntity
  8
0
100
AcDbLine
 10
125.329429909095
 20
228.39736581215
 30
0.0
 11
127.842529909095
 21
228.39736581215
 31
0.0
  0
LINE
  5
793
330
1D
100
AcDbEntity
  8
0
100
AcDbLine
 10
127.842529909095
 20
228.39736581215
 30
0.0
 11
130.433129909095
 21
228.39736581215
 31
0.0
  0
LINE
  5
794
330
1D
100
AcDbEntity
  8
0
100
AcDbLine
 10
125.523929909094
 20
228.39736581215
 30
0.0
 11
127.989429909094
 21
228.39736581215
 31
0.0
  0
LINE
  5
795
330
1D
100
AcDbEntity
  8
0
100
AcDbLine
 10
124.322429909095
 20
228.39736581215
 30
0.0
 11
126.050729909095
 21
228.39736581215
 31
0.0
  0
LINE
  5
796
330
1D
100
AcDbEntity
  8
0
100
AcDbLine
 10
126.050729909095
 20
228.39736581215
 30
0.0
 11
127.924929909094
 21
228.39736581215
 31
0.0
  0
LINE
  5
797
330
1D
100
AcDbEntity
  8
0
100
AcDbLine
 10
128.874429909094
 20
228.39736581215
 30
0.0
 11
131.670329909095
 21
228.39736581215
 31
0.0
  0
LINE
  5
798
330
1D
100
AcDbEntity
  8
0
100
AcDbLine
 10
131.670329909095
 20
228.39736581215
 30
0.0
 11
134.632929909095
 21
228.39736581215
 31
0.0
  0
LINE
  5
799
330
1D
100
AcDbEntity
  8
0
100
AcDbLine
 10
130.433129909095
 20
228.39736581215
 30
0.0
 11
133.078229909094
 21
228.39736581215
 31
0.0
  0
LINE
  5
79A
330
1D
100
AcDbEntity
  8
0
100
AcDbLine
 10
127.989429909094
 20
228.39736581215
 30
0.0
 11
130.534329909094
 21
228.39736581215
 31
0.0
  0
LINE
  5
79B
330
1D
100
AcDbEntity
  8
0
100
AcDbLine
 10
130.534329909094
 20
228.39736581215
 30
0.0
 11
133.131829909095
 21
228.39736581215
 31
0.0
  0
LINE
  5
79C
330
1D
100
AcDbEntity
  8
0
100
AcDbLine
 10
127.924929909094
 20
228.39736581215
 30
0.0
 11
129.916229909095
 21
228.39736581215
 31
0.0
  0
LINE
  5
79D
330
1D
100
AcDbEntity
  8
0
100
AcDbLine
 10
129.916229909095
 20
228.39736581215
 30
0.0
 11
131.995729909095
 21
228.39736581215
 31
0.0
  0
LINE
  5
79E
330
1D
100
AcDbEntity
  8
0
100
AcDbLine
 10
134.632929909095
 20
228.39736581215
 30
0.0
 11
136.000129909095
 21
228.39736581215
 31
0.0
  0
LINE
  5
79F
330
1D
100
AcDbEntity
  8
0
100
AcDbLine
 10
133.078229909094
 20
228.39736581215
 30
0.0
 11
135.751129909095
 21
228.39736581215
 31
0.0
  0
LINE
  5
7A0
330
1D
100
AcDbEntity
  8
0
100
AcDbLine
 10
135.751129909095
 20
228.39736581215
 30
0.0
 11
136.000129909095
 21
228.39736581215
 31
0.0
  0
LINE
  5
7A1
330
1D
100
AcDbEntity
  8
0
100
AcDbLine
 10
135.755029909095
 20
228.39736581215
 30
0.0
 11
136.000129909095
 21
228.39736581215
 31
0.0
  0
LINE
  5
7A2
330
1D
100
AcDbEntity
  8
0
100
AcDbLine
 10
136.000129909095
 20
228.39736581215
 30
0.0
 11
136.245129909095
 21
228.39736581215
 31
0.0
  0
LINE
  5
7A3
330
1D
100
AcDbEntity
  8
0
100
AcDbLine
 10
136.000129909095
 20
228.39736581215
 30
0.0
 11
136.249129909095
 21
228.39736581215
 31
0.0
  0
LINE
  5
7A4
330
1D
100
AcDbEntity
  8
0
100
AcDbLine
 10
133.131829909095
 20
228.39736581215
 30
0.0
 11
135.755029909095
 21
228.39736581215
 31
0.0
  0
LINE
  5
7A5
330
1D
100
AcDbEntity
  8
0
100
AcDbLine
 10
131.995729909095
 20
228.39736581215
 30
0.0
 11
134.133829909095
 21
228.39736581215
 31
0.0
  0
LINE
  5
7A6
330
1D
100
AcDbEntity
  8
0
100
AcDbLine
 10
134.133829909095
 20
228.39736581215
 30
0.0
 11
136.000129909095
 21
228.39736581215
 31
0.0
  0
LINE
  5
7A7
330
1D
100
AcDbEntity
  8
0
100
AcDbLine
 10
118.645229909094
 20
228.39736581215
 30
0.0
 11
119.324829909094
 21
228.39736581215
 31
0.0
  0
LINE
  5
7A8
330
1D
100
AcDbEntity
  8
0
100
AcDbLine
 10
118.219629909095
 20
228.39736581215
 30
0.0
 11
118.645229909094
 21
228.39736581215
 31
0.0
  0
LINE
  5
7A9
330
1D
100
AcDbEntity
  8
0
100
AcDbLine
 10
118.052929909094
 20
228.39736581215
 30
0.0
 11
118.219629909095
 21
228.39736581215
 31
0.0
  0
LINE
  5
7AA
330
1D
100
AcDbEntity
  8
0
100
AcDbLine
 10
119.324829909094
 20
228.39736581215
 30
0.0
 11
120.247529909095
 21
228.39736581215
 31
0.0
  0
LINE
  5
7AB
330
1D
100
AcDbEntity
  8
0
100
AcDbLine
 10
111.821129909095
 20
228.39736581215
 30
0.0
 11
113.176429909095
 21
228.39736581215
 31
0.0
  0
LINE
  5
7AC
330
1D
100
AcDbEntity
  8
0
100
AcDbLine
 10
106.407929909094
 20
228.46236581215
 30
0.0
 11
106.651929909095
 21
228.39736581215
 31
0.0
  0
LINE
  5
7AD
330
1D
100
AcDbEntity
  8
0
100
AcDbLine
 10
106.227329909095
 20
228.64036581215
 30
0.0
 11
106.407929909094
 21
228.46236581215
 31
0.0
  0
LINE
  5
7AE
330
1D
100
AcDbEntity
  8
0
100
AcDbLine
 10
113.176429909095
 20
228.39736581215
 30
0.0
 11
114.752029909095
 21
228.39736581215
 31
0.0
  0
LINE
  5
7AF
330
1D
100
AcDbEntity
  8
0
100
AcDbLine
 10
106.156929909095
 20
228.88436581215
 30
0.0
 11
106.227329909095
 21
228.64036581215
 31
0.0
  0
LINE
  5
7B0
330
1D
100
AcDbEntity
  8
0
100
AcDbLine
 10
115.908829909094
 20
234.89036581215
 30
0.0
 11
136.000129909095
 21
234.89036581215
 31
0.0
  0
LINE
  5
7B1
330
1D
100
AcDbEntity
  8
0
100
AcDbLine
 10
114.359129909095
 20
234.89036581215
 30
0.0
 11
115.908829909094
 21
234.89036581215
 31
0.0
  0
LINE
  5
7B2
330
1D
100
AcDbEntity
  8
0
100
AcDbLine
 10
112.847029909094
 20
234.89036581215
 30
0.0
 11
114.359129909095
 21
234.89036581215
 31
0.0
  0
LINE
  5
7B3
330
1D
100
AcDbEntity
  8
0
100
AcDbLine
 10
111.410429909094
 20
234.89036581215
 30
0.0
 11
112.847029909094
 21
234.89036581215
 31
0.0
  0
LINE
  5
7B4
330
1D
100
AcDbEntity
  8
0
100
AcDbLine
 10
110.084829909095
 20
234.89036581215
 30
0.0
 11
111.410429909094
 21
234.89036581215
 31
0.0
  0
LINE
  5
7B5
330
1D
100
AcDbEntity
  8
0
100
AcDbLine
 10
108.902229909095
 20
234.89036581215
 30
0.0
 11
110.084829909095
 21
234.89036581215
 31
0.0
  0
LINE
  5
7B6
330
1D
100
AcDbEntity
  8
0
100
AcDbLine
 10
107.893129909095
 20
234.89036581215
 30
0.0
 11
108.902229909095
 21
234.89036581215
 31
0.0
  0
LINE
  5
7B7
330
1D
100
AcDbEntity
  8
0
100
AcDbLine
 10
107.080629909095
 20
234.89036581215
 30
0.0
 11
107.893129909095
 21
234.89036581215
 31
0.0
  0
LINE
  5
7B8
330
1D
100
AcDbEntity
  8
0
100
AcDbLine
 10
106.485329909095
 20
234.89036581215
 30
0.0
 11
107.080629909095
 21
234.89036581215
 31
0.0
  0
LINE
  5
7B9
330
1D
100
AcDbEntity
  8
0
100
AcDbLine
 10
106.122129909094
 20
234.89036581215
 30
0.0
 11
106.485329909095
 21
234.89036581215
 31
0.0
  0
LINE
  5
7BA
330
1D
100
AcDbEntity
  8
0
100
AcDbLine
 10
106.000129909095
 20
234.89036581215
 30
0.0
 11
106.156929909095
 21
228.88436581215
 31
0.0
  0
LINE
  5
7BB
330
1D
100
AcDbEntity
  8
0
100
AcDbLine
 10
106.000129909095
 20
234.89036581215
 30
0.0
 11
106.122129909094
 21
234.89036581215
 31
0.0
  0
LINE
  5
7BC
330
1D
100
AcDbEntity
  8
0
100
AcDbLine
 10
16.988202568882
 20
197.5734378177
 30
0.0
 11
19.397329909095
 21
198.19236581215
 31
0.0
  0
LINE
  5
7BD
330
1D
100
AcDbEntity
  8
0
100
AcDbLine
 10
20.304982817176
 20
198.428796704485
 30
0.0
 11
21.513329909095
 21
198.92336581215
 31
0.0
  0
LINE
  5
7BE
330
1D
100
AcDbEntity
  8
0
100
AcDbLine
 10
22.491553431652
 20
199.609062345769
 30
0.0
 11
23.936129909095
 21
201.26736581215
 31
0.0
  0
LINE
  5
7BF
330
1D
100
AcDbEntity
  8
0
100
AcDbLine
 10
24.685712316077
 20
203.238943644612
 30
0.0
 11
24.969229909095
 21
204.42636581215
 31
0.0
  0
LINE
  5
7C0
330
1D
100
AcDbEntity
  8
0
100
AcDbLine
 10
25.176984719026
 20
206.199962888366
 30
0.0
 11
25.304229909095
 21
207.97936581215
 31
0.0
  0
LINE
  5
7C1
330
1D
100
AcDbEntity
  8
0
100
AcDbLine
 10
7.017229909095
 20
228.79436581215
 30
0.0
 11
17.997129909094
 21
228.79436581215
 31
0.0
  0
LINE
  5
7C2
330
1D
100
AcDbEntity
  8
0
100
AcDbLine
 10
65.271483812648
 20
194.979479772702
 30
0.0
 11
55.011857249307
 21
197.5734378177
 31
0.0
  0
LINE
  5
7C3
330
1D
100
AcDbEntity
  8
0
100
AcDbLine
 10
65.271483812648
 20
194.979479772702
 30
0.0
 11
55.011857249307
 21
197.5734378177
 31
0.0
  0
LINE
  5
7C4
330
1D
100
AcDbEntity
  8
0
100
AcDbLine
 10
70.313529909094
 20
184.81536581215
 30
0.0
 11
35.780729909095
 21
184.74936581215
 31
0.0
  0
LINE
  5
7C5
330
1D
100
AcDbEntity
  8
0
100
AcDbLine
 10
72.023129909095
 20
188.31636581215
 30
0.0
 11
71.962029909094
 21
189.02236581215
 31
0.0
  0
LINE
  5
7C6
330
1D
100
AcDbEntity
  8
0
100
AcDbLine
 10
72.023129909095
 20
188.31636581215
 30
0.0
 11
71.813829909094
 21
186.65636581215
 31
0.0
  0
LINE
  5
7C7
330
1D
100
AcDbEntity
  8
0
100
AcDbLine
 10
70.935929909095
 20
184.98336581215
 30
0.0
 11
70.313529909094
 21
184.81536581215
 31
0.0
  0
LINE
  5
7C8
330
1D
100
AcDbEntity
  8
0
100
AcDbLine
 10
71.813829909094
 20
186.65636581215
 30
0.0
 11
71.307829909094
 21
185.41336581215
 31
0.0
  0
LINE
  5
7C9
330
1D
100
AcDbEntity
  8
0
100
AcDbLine
 10
71.307829909094
 20
185.41336581215
 30
0.0
 11
70.935929909095
 21
184.98336581215
 31
0.0
  0
LINE
  5
7CA
330
1D
100
AcDbEntity
  8
0
100
AcDbLine
 10
71.962029909094
 20
189.02236581215
 30
0.0
 11
71.828229909094
 21
189.97336581215
 31
0.0
  0
LINE
  5
7CB
330
1D
100
AcDbEntity
  8
0
100
AcDbLine
 10
70.899129909095
 20
192.17936581215
 30
0.0
 11
70.278429909094
 21
193.01436581215
 31
0.0
  0
LINE
  5
7CC
330
1D
100
AcDbEntity
  8
0
100
AcDbLine
 10
71.400629909095
 20
191.26636581215
 30
0.0
 11
70.899129909095
 21
192.17936581215
 31
0.0
  0
LINE
  5
7CD
330
1D
100
AcDbEntity
  8
0
100
AcDbLine
 10
70.278429909094
 20
193.01436581215
 30
0.0
 11
70.091129909094
 21
193.19336581215
 31
0.0
  0
LINE
  5
7CE
330
1D
100
AcDbEntity
  8
0
100
AcDbLine
 10
70.091129909094
 20
193.19336581215
 30
0.0
 11
69.642829909095
 21
193.62136581215
 31
0.0
  0
LINE
  5
7CF
330
1D
100
AcDbEntity
  8
0
100
AcDbLine
 10
68.661029909095
 20
194.14436581215
 30
0.0
 11
68.064929909095
 21
194.33136581215
 31
0.0
  0
LINE
  5
7D0
330
1D
100
AcDbEntity
  8
0
100
AcDbLine
 10
68.064929909095
 20
194.33136581215
 30
0.0
 11
63.591029909095
 21
195.36936581215
 31
0.0
  0
LINE
  5
7D1
330
1D
100
AcDbEntity
  8
0
100
AcDbLine
 10
69.151829909094
 20
193.93336581215
 30
0.0
 11
68.661029909095
 21
194.14436581215
 31
0.0
  0
LINE
  5
7D2
330
1D
100
AcDbEntity
  8
0
100
AcDbLine
 10
69.642829909095
 20
193.62136581215
 30
0.0
 11
69.151829909094
 21
193.93336581215
 31
0.0
  0
LINE
  5
7D3
330
1D
100
AcDbEntity
  8
0
100
AcDbLine
 10
71.828229909094
 20
189.97336581215
 30
0.0
 11
71.400629909095
 21
191.26636581215
 31
0.0
  0
LINE
  5
7D4
330
1D
100
AcDbEntity
  8
0
100
AcDbLine
 10
35.780729909095
 20
184.74936581215
 30
0.0
 11
35.526229909095
 21
184.75536581215
 31
0.0
  0
LINE
  5
7D5
330
1D
100
AcDbEntity
  8
0
100
AcDbLine
 10
66.091529909095
 20
235.24336581215
 30
0.0
 11
65.934229909094
 21
229.27836581215
 31
0.0
  0
LINE
  5
7D6
330
1D
100
AcDbEntity
  8
0
100
AcDbLine
 10
64.982829909095
 20
228.79436581215
 30
0.0
 11
54.002929909095
 21
228.79436581215
 31
0.0
  0
LINE
  5
7D7
330
1D
100
AcDbEntity
  8
0
100
AcDbLine
 10
65.323229909094
 20
228.79436581215
 30
0.0
 11
64.982829909095
 21
228.79436581215
 31
0.0
  0
LINE
  5
7D8
330
1D
100
AcDbEntity
  8
0
100
AcDbLine
 10
65.437629909095
 20
228.79436581215
 30
0.0
 11
65.323229909094
 21
228.79436581215
 31
0.0
  0
LINE
  5
7D9
330
1D
100
AcDbEntity
  8
0
100
AcDbLine
 10
65.682429909094
 20
228.85936581215
 30
0.0
 11
65.437629909095
 21
228.79436581215
 31
0.0
  0
LINE
  5
7DA
330
1D
100
AcDbEntity
  8
0
100
AcDbLine
 10
65.863629909095
 20
229.03636581215
 30
0.0
 11
65.682429909094
 21
228.85936581215
 31
0.0
  0
LINE
  5
7DB
330
1D
100
AcDbEntity
  8
0
100
AcDbLine
 10
65.934229909094
 20
229.27836581215
 30
0.0
 11
65.863629909095
 21
229.03636581215
 31
0.0
  0
LINE
  5
7DC
330
1D
100
AcDbEntity
  8
0
100
AcDbLine
 10
46.695829909095
 20
207.97936581215
 30
0.0
 11
46.423429909095
 21
222.32836581215
 31
0.0
  0
LINE
  5
7DD
330
1D
100
AcDbEntity
  8
0
100
AcDbLine
 10
50.486729909094
 20
198.92336581215
 30
0.0
 11
49.508506386537
 21
199.609062345769
 31
0.0
  0
LINE
  5
7DE
330
1D
100
AcDbEntity
  8
0
100
AcDbLine
 10
47.030829909095
 20
204.42636581215
 30
0.0
 11
46.823075099163
 21
206.199962888366
 31
0.0
  0
LINE
  5
7DF
330
1D
100
AcDbEntity
  8
0
100
AcDbLine
 10
47.030829909095
 20
204.42636581215
 30
0.0
 11
46.823075099163
 21
206.199962888366
 31
0.0
  0
LINE
  5
7E0
330
1D
100
AcDbEntity
  8
0
100
AcDbLine
 10
48.063929909094
 20
201.26736581215
 30
0.0
 11
47.314347502112
 21
203.238943644612
 31
0.0
  0
LINE
  5
7E1
330
1D
100
AcDbEntity
  8
0
100
AcDbLine
 10
52.602729909094
 20
198.19236581215
 30
0.0
 11
51.695077001013
 21
198.428796704485
 31
0.0
  0
LINE
  5
7E2
330
1D
100
AcDbEntity
  8
0
100
AcDbLine
 10
55.011857249307
 20
197.5734378177
 30
0.0
 11
52.602729909094
 21
198.19236581215
 31
0.0
  0
LINE
  5
7E3
330
1D
100
AcDbEntity
  8
0
100
AcDbLine
 10
51.695077001013
 20
198.428796704485
 30
0.0
 11
50.486729909094
 21
198.92336581215
 31
0.0
  0
LINE
  5
7E4
330
1D
100
AcDbEntity
  8
0
100
AcDbLine
 10
49.508506386537
 20
199.609062345769
 30
0.0
 11
48.063929909094
 21
201.26736581215
 31
0.0
  0
LINE
  5
7E5
330
1D
100
AcDbEntity
  8
0
100
AcDbLine
 10
47.314347502112
 20
203.238943644612
 30
0.0
 11
47.030829909095
 21
204.42636581215
 31
0.0
  0
LINE
  5
7E6
330
1D
100
AcDbEntity
  8
0
100
AcDbLine
 10
46.823075099163
 20
206.199962888366
 30
0.0
 11
46.695829909095
 21
207.97936581215
 31
0.0
  0
LINE
  5
7E7
330
1D
100
AcDbEntity
  8
0
100
AcDbLine
 10
46.571629909094
 20
224.93036581215
 30
0.0
 11
46.382229909095
 21
223.92136581215
 31
0.0
  0
LINE
  5
7E8
330
1D
100
AcDbEntity
  8
0
100
AcDbLine
 10
46.828629909095
 20
225.72836581215
 30
0.0
 11
46.571629909094
 21
224.93036581215
 31
0.0
  0
LINE
  5
7E9
330
1D
100
AcDbEntity
  8
0
100
AcDbLine
 10
47.214629909095
 20
226.46736581215
 30
0.0
 11
46.828629909095
 21
225.72836581215
 31
0.0
  0
LINE
  5
7EA
330
1D
100
AcDbEntity
  8
0
100
AcDbLine
 10
53.907329909095
 20
228.79436581215
 30
0.0
 11
53.307829909094
 21
228.79436581215
 31
0.0
  0
LINE
  5
7EB
330
1D
100
AcDbEntity
  8
0
100
AcDbLine
 10
53.307829909094
 20
228.79436581215
 30
0.0
 11
52.856429909095
 21
228.79436581215
 31
0.0
  0
LINE
  5
7EC
330
1D
100
AcDbEntity
  8
0
100
AcDbLine
 10
52.956929909095
 20
228.79436581215
 30
0.0
 11
51.274129909095
 21
228.79436581215
 31
0.0
  0
LINE
  5
7ED
330
1D
100
AcDbEntity
  8
0
100
AcDbLine
 10
54.002929909095
 20
228.79436581215
 30
0.0
 11
53.907329909095
 21
228.79436581215
 31
0.0
  0
LINE
  5
7EE
330
1D
100
AcDbEntity
  8
0
100
AcDbLine
 10
53.234629909095
 20
228.79436581215
 30
0.0
 11
52.956929909095
 21
228.79436581215
 31
0.0
  0
LINE
  5
7EF
330
1D
100
AcDbEntity
  8
0
100
AcDbLine
 10
51.274129909095
 20
228.79436581215
 30
0.0
 11
50.660029909095
 21
228.74936581215
 31
0.0
  0
LINE
  5
7F0
330
1D
100
AcDbEntity
  8
0
100
AcDbLine
 10
48.307029909095
 20
227.70536581215
 30
0.0
 11
47.717329909095
 21
227.13536581215
 31
0.0
  0
LINE
  5
7F1
330
1D
100
AcDbEntity
  8
0
100
AcDbLine
 10
49.021429909095
 20
228.17436581215
 30
0.0
 11
48.307029909095
 21
227.70536581215
 31
0.0
  0
LINE
  5
7F2
330
1D
100
AcDbEntity
  8
0
100
AcDbLine
 10
49.816629909095
 20
228.51536581215
 30
0.0
 11
49.021429909095
 21
228.17436581215
 31
0.0
  0
LINE
  5
7F3
330
1D
100
AcDbEntity
  8
0
100
AcDbLine
 10
50.660029909095
 20
228.74936581215
 30
0.0
 11
49.816629909095
 21
228.51536581215
 31
0.0
  0
LINE
  5
7F4
330
1D
100
AcDbEntity
  8
0
100
AcDbLine
 10
47.717329909095
 20
227.13536581215
 30
0.0
 11
47.214629909095
 21
226.46736581215
 31
0.0
  0
LINE
  5
7F5
330
1D
100
AcDbEntity
  8
0
100
AcDbLine
 10
46.440929909095
 20
223.82336581215
 30
0.0
 11
46.435029909095
 21
223.01436581215
 31
0.0
  0
LINE
  5
7F6
330
1D
100
AcDbEntity
  8
0
100
AcDbLine
 10
46.423429909095
 20
222.32836581215
 30
0.0
 11
46.125629909095
 21
222.61936581215
 31
0.0
  0
LINE
  5
7F7
330
1D
100
AcDbEntity
  8
0
100
AcDbLine
 10
46.256229909094
 20
222.84236581215
 30
0.0
 11
46.096129909094
 21
222.84736581215
 31
0.0
  0
LINE
  5
7F8
330
1D
100
AcDbEntity
  8
0
100
AcDbLine
 10
46.435029909095
 20
223.01436581215
 30
0.0
 11
46.256229909094
 21
222.84236581215
 31
0.0
  0
LINE
  5
7F9
330
1D
100
AcDbEntity
  8
0
100
AcDbLine
 10
46.382229909095
 20
223.92136581215
 30
0.0
 11
46.246129909095
 21
223.83436581215
 31
0.0
  0
LINE
  5
7FA
330
1D
100
AcDbEntity
  8
0
100
AcDbLine
 10
66.091529909095
 20
235.24336581215
 30
0.0
 11
65.963329909095
 21
235.24436581215
 31
0.0
  0
LINE
  5
7FB
330
1D
100
AcDbEntity
  8
0
100
AcDbLine
 10
65.963329909095
 20
235.24436581215
 30
0.0
 11
65.007729909095
 21
235.24336581215
 31
0.0
  0
LINE
  5
7FC
330
1D
100
AcDbEntity
  8
0
100
AcDbLine
 10
65.007729909095
 20
235.24336581215
 30
0.0
 11
64.192629909095
 21
235.24336581215
 31
0.0
  0
LINE
  5
7FD
330
1D
100
AcDbEntity
  8
0
100
AcDbLine
 10
61.994329909095
 20
235.24336581215
 30
0.0
 11
59.970629909094
 21
235.24336581215
 31
0.0
  0
LINE
  5
7FE
330
1D
100
AcDbEntity
  8
0
100
AcDbLine
 10
60.664729909094
 20
235.24336581215
 30
0.0
 11
57.777929909094
 21
235.24436581215
 31
0.0
  0
LINE
  5
7FF
330
1D
100
AcDbEntity
  8
0
100
AcDbLine
 10
57.707029909095
 20
235.24336581215
 30
0.0
 11
56.152529909094
 21
235.24336581215
 31
0.0
  0
LINE
  5
800
330
1D
100
AcDbEntity
  8
0
100
AcDbLine
 10
59.970629909094
 20
235.24336581215
 30
0.0
 11
57.707029909095
 21
235.24336581215
 31
0.0
  0
LINE
  5
801
330
1D
100
AcDbEntity
  8
0
100
AcDbLine
 10
63.180529909095
 20
235.24336581215
 30
0.0
 11
61.994329909095
 21
235.24336581215
 31
0.0
  0
LINE
  5
802
330
1D
100
AcDbEntity
  8
0
100
AcDbLine
 10
64.192629909095
 20
235.24336581215
 30
0.0
 11
63.180529909095
 21
235.24336581215
 31
0.0
  0
LINE
  5
803
330
1D
100
AcDbEntity
  8
0
100
AcDbLine
 10
15.847529909095
 20
235.24336581215
 30
0.0
 11
56.152529909094
 21
235.24336581215
 31
0.0
  0
LINE
  5
804
330
1D
100
AcDbEntity
  8
0
100
AcDbLine
 10
25.559129909095
 20
223.82336581215
 30
0.0
 11
46.440929909095
 21
223.82336581215
 31
0.0
  0
LINE
  5
805
330
1D
100
AcDbEntity
  8
0
100
AcDbLine
 10
46.096129909094
 20
222.84736581215
 30
0.0
 11
25.903929909095
 21
222.84736581215
 31
0.0
  0
LINE
  5
806
330
1D
100
AcDbEntity
  8
0
100
AcDbLine
 10
25.874429909095
 20
222.61936581215
 30
0.0
 11
46.125629909095
 21
222.61936581215
 31
0.0
  0
LINE
  5
808
330
1D
100
AcDbEntity
  8
0
100
AcDbLine
 10
137.367129909095
 20
228.39736581215
 30
0.0
 11
135.999929909094
 21
228.39736581215
 31
0.0
  0
LINE
  5
809
330
1D
100
AcDbEntity
  8
0
100
AcDbLine
 10
136.248929909094
 20
228.39736581215
 30
0.0
 11
135.999929909094
 21
228.39736581215
 31
0.0
  0
LINE
  5
80A
330
1D
100
AcDbEntity
  8
0
100
AcDbLine
 10
136.245029909095
 20
228.39736581215
 30
0.0
 11
135.999929909094
 21
228.39736581215
 31
0.0
  0
LINE
  5
80B
330
1D
100
AcDbEntity
  8
0
100
AcDbLine
 10
137.866229909094
 20
228.39736581215
 30
0.0
 11
135.999929909094
 21
228.39736581215
 31
0.0
  0
LINE
  5
80C
330
1D
100
AcDbEntity
  8
0
100
AcDbLine
 10
156.091229909095
 20
234.89036581215
 30
0.0
 11
135.999929909094
 21
234.89036581215
 31
0.0
  0
LINE
  5
80D
330
1D
100
AcDbEntity
  8
0
100
AcDbLine
 10
265.271483812648
 20
194.979479772702
 30
0.0
 11
255.011857249307
 21
197.5734378177
 31
0.0
  0
LINE
  5
80E
330
1D
100
AcDbEntity
  8
0
100
AcDbLine
 10
265.271483812648
 20
194.979479772702
 30
0.0
 11
255.011857249307
 21
197.5734378177
 31
0.0
  0
LINE
  5
811
330
1D
100
AcDbEntity
  8
0
100
AcDbLine
 10
206.728576005541
 20
194.979479772702
 30
0.0
 11
216.988202568882
 21
197.5734378177
 31
0.0
  0
LINE
  5
812
330
1D
100
AcDbEntity
  8
0
100
AcDbLine
 10
206.728576005541
 20
194.979479772702
 30
0.0
 11
216.988202568882
 21
197.5734378177
 31
0.0
  0
LINE
  5
813
330
1D
100
AcDbEntity
  8
0
100
AcDbLine
 10
203.935129909094
 20
194.33136581215
 30
0.0
 11
208.409029909094
 21
195.36936581215
 31
0.0
  0
LINE
  5
814
330
1D
100
AcDbEntity
  8
0
100
AcDbLine
 10
201.686529909095
 20
184.81536581215
 30
0.0
 11
236.219329909095
 21
184.74936581215
 31
0.0
  0
LINE
  5
815
330
1D
100
AcDbEntity
  8
0
100
AcDbLine
 10
270.313529909094
 20
184.81536581215
 30
0.0
 11
235.780729909094
 21
184.74936581215
 31
0.0
  0
LINE
  5
816
330
1D
100
AcDbEntity
  8
0
100
AcDbLine
 10
272.023129909095
 20
188.31636581215
 30
0.0
 11
271.962029909094
 21
189.02236581215
 31
0.0
  0
LINE
  5
817
330
1D
100
AcDbEntity
  8
0
100
AcDbLine
 10
272.023129909095
 20
188.31636581215
 30
0.0
 11
271.813829909095
 21
186.65636581215
 31
0.0
  0
LINE
  5
818
330
1D
100
AcDbEntity
  8
0
100
AcDbLine
 10
270.935929909095
 20
184.98336581215
 30
0.0
 11
270.313529909094
 21
184.81536581215
 31
0.0
  0
LINE
  5
819
330
1D
100
AcDbEntity
  8
0
100
AcDbLine
 10
271.813829909095
 20
186.65636581215
 30
0.0
 11
271.307829909094
 21
185.41336581215
 31
0.0
  0
LINE
  5
81A
330
1D
100
AcDbEntity
  8
0
100
AcDbLine
 10
271.307829909094
 20
185.41336581215
 30
0.0
 11
270.935929909095
 21
184.98336581215
 31
0.0
  0
LINE
  5
81B
330
1D
100
AcDbEntity
  8
0
100
AcDbLine
 10
271.962029909094
 20
189.02236581215
 30
0.0
 11
271.828229909094
 21
189.97336581215
 31
0.0
  0
LINE
  5
81C
330
1D
100
AcDbEntity
  8
0
100
AcDbLine
 10
270.899129909094
 20
192.17936581215
 30
0.0
 11
270.278429909095
 21
193.01436581215
 31
0.0
  0
LINE
  5
81D
330
1D
100
AcDbEntity
  8
0
100
AcDbLine
 10
271.400629909095
 20
191.26636581215
 30
0.0
 11
270.899129909094
 21
192.17936581215
 31
0.0
  0
LINE
  5
81E
330
1D
100
AcDbEntity
  8
0
100
AcDbLine
 10
270.278429909095
 20
193.01436581215
 30
0.0
 11
270.091129909094
 21
193.19336581215
 31
0.0
  0
LINE
  5
81F
330
1D
100
AcDbEntity
  8
0
100
AcDbLine
 10
270.091129909094
 20
193.19336581215
 30
0.0
 11
269.642829909095
 21
193.62136581215
 31
0.0
  0
LINE
  5
820
330
1D
100
AcDbEntity
  8
0
100
AcDbLine
 10
268.661029909095
 20
194.14436581215
 30
0.0
 11
268.064929909095
 21
194.33136581215
 31
0.0
  0
LINE
  5
821
330
1D
100
AcDbEntity
  8
0
100
AcDbLine
 10
268.064929909095
 20
194.33136581215
 30
0.0
 11
263.591029909095
 21
195.36936581215
 31
0.0
  0
LINE
  5
822
330
1D
100
AcDbEntity
  8
0
100
AcDbLine
 10
269.151829909094
 20
193.93336581215
 30
0.0
 11
268.661029909095
 21
194.14436581215
 31
0.0
  0
LINE
  5
823
330
1D
100
AcDbEntity
  8
0
100
AcDbLine
 10
269.642829909095
 20
193.62136581215
 30
0.0
 11
269.151829909094
 21
193.93336581215
 31
0.0
  0
LINE
  5
824
330
1D
100
AcDbEntity
  8
0
100
AcDbLine
 10
271.828229909094
 20
189.97336581215
 30
0.0
 11
271.400629909095
 21
191.26636581215
 31
0.0
  0
LINE
  5
825
330
1D
100
AcDbEntity
  8
0
100
AcDbLine
 10
235.780729909094
 20
184.74936581215
 30
0.0
 11
235.526229909095
 21
184.75536581215
 31
0.0
  0
LINE
  5
826
330
1D
100
AcDbEntity
  8
0
100
AcDbLine
 10
236.219329909095
 20
184.74936581215
 30
0.0
 11
236.473829909094
 21
184.75536581215
 31
0.0
  0
LINE
  5
844
330
1D
100
AcDbEntity
  8
0
100
AcDbLine
 10
200.171829909095
 20
189.97336581215
 30
0.0
 11
200.599429909095
 21
191.26636581215
 31
0.0
  0
LINE
  5
845
330
1D
100
AcDbEntity
  8
0
100
AcDbLine
 10
202.357229909094
 20
193.62136581215
 30
0.0
 11
202.848229909095
 21
193.93336581215
 31
0.0
  0
LINE
  5
846
330
1D
100
AcDbEntity
  8
0
100
AcDbLine
 10
202.848229909095
 20
193.93336581215
 30
0.0
 11
203.339029909095
 21
194.14436581215
 31
0.0
  0
LINE
  5
847
330
1D
100
AcDbEntity
  8
0
100
AcDbLine
 10
203.339029909095
 20
194.14436581215
 30
0.0
 11
203.935129909094
 21
194.33136581215
 31
0.0
  0
LINE
  5
848
330
1D
100
AcDbEntity
  8
0
100
AcDbLine
 10
201.908929909095
 20
193.19336581215
 30
0.0
 11
202.357229909094
 21
193.62136581215
 31
0.0
  0
LINE
  5
849
330
1D
100
AcDbEntity
  8
0
100
AcDbLine
 10
201.721629909095
 20
193.01436581215
 30
0.0
 11
201.908929909095
 21
193.19336581215
 31
0.0
  0
LINE
  5
84A
330
1D
100
AcDbEntity
  8
0
100
AcDbLine
 10
200.599429909095
 20
191.26636581215
 30
0.0
 11
201.100929909094
 21
192.17936581215
 31
0.0
  0
LINE
  5
84B
330
1D
100
AcDbEntity
  8
0
100
AcDbLine
 10
201.100929909094
 20
192.17936581215
 30
0.0
 11
201.721629909095
 21
193.01436581215
 31
0.0
  0
LINE
  5
84C
330
1D
100
AcDbEntity
  8
0
100
AcDbLine
 10
200.038029909095
 20
189.02236581215
 30
0.0
 11
200.171829909095
 21
189.97336581215
 31
0.0
  0
LINE
  5
84D
330
1D
100
AcDbEntity
  8
0
100
AcDbLine
 10
200.692229909095
 20
185.41336581215
 30
0.0
 11
201.064129909095
 21
184.98336581215
 31
0.0
  0
LINE
  5
84E
330
1D
100
AcDbEntity
  8
0
100
AcDbLine
 10
200.186229909095
 20
186.65636581215
 30
0.0
 11
200.692229909095
 21
185.41336581215
 31
0.0
  0
LINE
  5
84F
330
1D
100
AcDbEntity
  8
0
100
AcDbLine
 10
201.064129909095
 20
184.98336581215
 30
0.0
 11
201.686529909095
 21
184.81536581215
 31
0.0
  0
LINE
  5
850
330
1D
100
AcDbEntity
  8
0
100
AcDbLine
 10
199.976929909095
 20
188.31636581215
 30
0.0
 11
200.186229909095
 21
186.65636581215
 31
0.0
  0
LINE
  5
851
330
1D
100
AcDbEntity
  8
0
100
AcDbLine
 10
199.976929909095
 20
188.31636581215
 30
0.0
 11
200.038029909095
 21
189.02236581215
 31
0.0
  0
LINE
  5
852
330
1D
100
AcDbEntity
  8
0
100
AcDbLine
 10
256.152529909094
 20
235.24336581215
 30
0.0
 11
215.847529909095
 21
235.24336581215
 31
0.0
  0
LINE
  5
853
330
1D
100
AcDbEntity
  8
0
100
AcDbLine
 10
246.440929909095
 20
223.82336581215
 30
0.0
 11
225.559129909095
 21
223.82336581215
 31
0.0
  0
LINE
  5
854
330
1D
100
AcDbEntity
  8
0
100
AcDbLine
 10
225.903929909094
 20
222.84736581215
 30
0.0
 11
246.096129909095
 21
222.84736581215
 31
0.0
  0
LINE
  5
855
330
1D
100
AcDbEntity
  8
0
100
AcDbLine
 10
246.125629909095
 20
222.61936581215
 30
0.0
 11
225.874429909094
 21
222.61936581215
 31
0.0
  0
LINE
  5
856
330
1D
100
AcDbEntity
  8
0
100
AcDbLine
 10
266.091529909095
 20
235.24336581215
 30
0.0
 11
265.934229909094
 21
229.27836581215
 31
0.0
  0
LINE
  5
857
330
1D
100
AcDbEntity
  8
0
100
AcDbLine
 10
264.982829909095
 20
228.79436581215
 30
0.0
 11
254.002929909095
 21
228.79436581215
 31
0.0
  0
LINE
  5
858
330
1D
100
AcDbEntity
  8
0
100
AcDbLine
 10
265.323229909094
 20
228.79436581215
 30
0.0
 11
264.982829909095
 21
228.79436581215
 31
0.0
  0
LINE
  5
859
330
1D
100
AcDbEntity
  8
0
100
AcDbLine
 10
265.437629909094
 20
228.79436581215
 30
0.0
 11
265.323229909094
 21
228.79436581215
 31
0.0
  0
LINE
  5
85A
330
1D
100
AcDbEntity
  8
0
100
AcDbLine
 10
265.682429909094
 20
228.85936581215
 30
0.0
 11
265.437629909094
 21
228.79436581215
 31
0.0
  0
LINE
  5
85B
330
1D
100
AcDbEntity
  8
0
100
AcDbLine
 10
265.863629909095
 20
229.03636581215
 30
0.0
 11
265.682429909094
 21
228.85936581215
 31
0.0
  0
LINE
  5
85C
330
1D
100
AcDbEntity
  8
0
100
AcDbLine
 10
265.934229909094
 20
229.27836581215
 30
0.0
 11
265.863629909095
 21
229.03636581215
 31
0.0
  0
LINE
  5
85D
330
1D
100
AcDbEntity
  8
0
100
AcDbLine
 10
246.695829909095
 20
207.97936581215
 30
0.0
 11
246.423429909095
 21
222.32836581215
 31
0.0
  0
LINE
  5
85E
330
1D
100
AcDbEntity
  8
0
100
AcDbLine
 10
250.486729909094
 20
198.92336581215
 30
0.0
 11
249.508506386537
 21
199.609062345769
 31
0.0
  0
LINE
  5
85F
330
1D
100
AcDbEntity
  8
0
100
AcDbLine
 10
247.030829909095
 20
204.42636581215
 30
0.0
 11
246.823075099163
 21
206.199962888366
 31
0.0
  0
LINE
  5
860
330
1D
100
AcDbEntity
  8
0
100
AcDbLine
 10
247.030829909095
 20
204.42636581215
 30
0.0
 11
246.823075099163
 21
206.199962888366
 31
0.0
  0
LINE
  5
861
330
1D
100
AcDbEntity
  8
0
100
AcDbLine
 10
248.063929909094
 20
201.26736581215
 30
0.0
 11
247.314347502112
 21
203.238943644612
 31
0.0
  0
LINE
  5
862
330
1D
100
AcDbEntity
  8
0
100
AcDbLine
 10
252.602729909094
 20
198.19236581215
 30
0.0
 11
251.695077001013
 21
198.428796704485
 31
0.0
  0
LINE
  5
863
330
1D
100
AcDbEntity
  8
0
100
AcDbLine
 10
255.011857249307
 20
197.5734378177
 30
0.0
 11
252.602729909094
 21
198.19236581215
 31
0.0
  0
LINE
  5
864
330
1D
100
AcDbEntity
  8
0
100
AcDbLine
 10
251.695077001013
 20
198.428796704485
 30
0.0
 11
250.486729909094
 21
198.92336581215
 31
0.0
  0
LINE
  5
865
330
1D
100
AcDbEntity
  8
0
100
AcDbLine
 10
249.508506386537
 20
199.609062345769
 30
0.0
 11
248.063929909094
 21
201.26736581215
 31
0.0
  0
LINE
  5
866
330
1D
100
AcDbEntity
  8
0
100
AcDbLine
 10
247.314347502112
 20
203.238943644612
 30
0.0
 11
247.030829909095
 21
204.42636581215
 31
0.0
  0
LINE
  5
867
330
1D
100
AcDbEntity
  8
0
100
AcDbLine
 10
246.823075099163
 20
206.199962888366
 30
0.0
 11
246.695829909095
 21
207.97936581215
 31
0.0
  0
LINE
  5
868
330
1D
100
AcDbEntity
  8
0
100
AcDbLine
 10
246.571629909094
 20
224.93036581215
 30
0.0
 11
246.382229909095
 21
223.92136581215
 31
0.0
  0
LINE
  5
869
330
1D
100
AcDbEntity
  8
0
100
AcDbLine
 10
246.828629909095
 20
225.72836581215
 30
0.0
 11
246.571629909094
 21
224.93036581215
 31
0.0
  0
LINE
  5
86A
330
1D
100
AcDbEntity
  8
0
100
AcDbLine
 10
247.214629909094
 20
226.46736581215
 30
0.0
 11
246.828629909095
 21
225.72836581215
 31
0.0
  0
LINE
  5
86B
330
1D
100
AcDbEntity
  8
0
100
AcDbLine
 10
253.907329909095
 20
228.79436581215
 30
0.0
 11
253.307829909094
 21
228.79436581215
 31
0.0
  0
LINE
  5
86C
330
1D
100
AcDbEntity
  8
0
100
AcDbLine
 10
253.307829909094
 20
228.79436581215
 30
0.0
 11
252.856429909095
 21
228.79436581215
 31
0.0
  0
LINE
  5
86D
330
1D
100
AcDbEntity
  8
0
100
AcDbLine
 10
252.956929909094
 20
228.79436581215
 30
0.0
 11
251.274129909095
 21
228.79436581215
 31
0.0
  0
LINE
  5
86E
330
1D
100
AcDbEntity
  8
0
100
AcDbLine
 10
254.002929909095
 20
228.79436581215
 30
0.0
 11
253.907329909095
 21
228.79436581215
 31
0.0
  0
LINE
  5
86F
330
1D
100
AcDbEntity
  8
0
100
AcDbLine
 10
253.234629909095
 20
228.79436581215
 30
0.0
 11
252.956929909094
 21
228.79436581215
 31
0.0
  0
LINE
  5
870
330
1D
100
AcDbEntity
  8
0
100
AcDbLine
 10
251.274129909095
 20
228.79436581215
 30
0.0
 11
250.660029909095
 21
228.74936581215
 31
0.0
  0
LINE
  5
871
330
1D
100
AcDbEntity
  8
0
100
AcDbLine
 10
248.307029909094
 20
227.70536581215
 30
0.0
 11
247.717329909094
 21
227.13536581215
 31
0.0
  0
LINE
  5
872
330
1D
100
AcDbEntity
  8
0
100
AcDbLine
 10
249.021429909095
 20
228.17436581215
 30
0.0
 11
248.307029909094
 21
227.70536581215
 31
0.0
  0
LINE
  5
873
330
1D
100
AcDbEntity
  8
0
100
AcDbLine
 10
249.816629909095
 20
228.51536581215
 30
0.0
 11
249.021429909095
 21
228.17436581215
 31
0.0
  0
LINE
  5
874
330
1D
100
AcDbEntity
  8
0
100
AcDbLine
 10
250.660029909095
 20
228.74936581215
 30
0.0
 11
249.816629909095
 21
228.51536581215
 31
0.0
  0
LINE
  5
875
330
1D
100
AcDbEntity
  8
0
100
AcDbLine
 10
247.717329909094
 20
227.13536581215
 30
0.0
 11
247.214629909094
 21
226.46736581215
 31
0.0
  0
LINE
  5
876
330
1D
100
AcDbEntity
  8
0
100
AcDbLine
 10
246.440929909095
 20
223.82336581215
 30
0.0
 11
246.435029909095
 21
223.01436581215
 31
0.0
  0
LINE
  5
877
330
1D
100
AcDbEntity
  8
0
100
AcDbLine
 10
246.423429909095
 20
222.32836581215
 30
0.0
 11
246.125629909095
 21
222.61936581215
 31
0.0
  0
LINE
  5
878
330
1D
100
AcDbEntity
  8
0
100
AcDbLine
 10
246.256229909094
 20
222.84236581215
 30
0.0
 11
246.096129909095
 21
222.84736581215
 31
0.0
  0
LINE
  5
879
330
1D
100
AcDbEntity
  8
0
100
AcDbLine
 10
246.435029909095
 20
223.01436581215
 30
0.0
 11
246.256229909094
 21
222.84236581215
 31
0.0
  0
LINE
  5
87A
330
1D
100
AcDbEntity
  8
0
100
AcDbLine
 10
246.382229909095
 20
223.92136581215
 30
0.0
 11
246.246129909095
 21
223.83436581215
 31
0.0
  0
LINE
  5
87B
330
1D
100
AcDbEntity
  8
0
100
AcDbLine
 10
266.091529909095
 20
235.24336581215
 30
0.0
 11
265.963329909095
 21
235.24436581215
 31
0.0
  0
LINE
  5
87C
330
1D
100
AcDbEntity
  8
0
100
AcDbLine
 10
265.963329909095
 20
235.24436581215
 30
0.0
 11
265.007729909095
 21
235.24336581215
 31
0.0
  0
LINE
  5
87D
330
1D
100
AcDbEntity
  8
0
100
AcDbLine
 10
265.007729909095
 20
235.24336581215
 30
0.0
 11
264.192629909095
 21
235.24336581215
 31
0.0
  0
LINE
  5
87E
330
1D
100
AcDbEntity
  8
0
100
AcDbLine
 10
261.994329909095
 20
235.24336581215
 30
0.0
 11
259.970629909094
 21
235.24336581215
 31
0.0
  0
LINE
  5
87F
330
1D
100
AcDbEntity
  8
0
100
AcDbLine
 10
260.664729909094
 20
235.24336581215
 30
0.0
 11
257.777929909094
 21
235.24436581215
 31
0.0
  0
LINE
  5
880
330
1D
100
AcDbEntity
  8
0
100
AcDbLine
 10
257.707029909095
 20
235.24336581215
 30
0.0
 11
256.152529909094
 21
235.24336581215
 31
0.0
  0
LINE
  5
881
330
1D
100
AcDbEntity
  8
0
100
AcDbLine
 10
259.970629909094
 20
235.24336581215
 30
0.0
 11
257.707029909095
 21
235.24336581215
 31
0.0
  0
LINE
  5
882
330
1D
100
AcDbEntity
  8
0
100
AcDbLine
 10
263.180529909095
 20
235.24336581215
 30
0.0
 11
261.994329909095
 21
235.24336581215
 31
0.0
  0
LINE
  5
883
330
1D
100
AcDbEntity
  8
0
100
AcDbLine
 10
264.192629909095
 20
235.24336581215
 30
0.0
 11
263.180529909095
 21
235.24336581215
 31
0.0
  0
LINE
  5
884
330
1D
100
AcDbEntity
  8
0
100
AcDbLine
 10
205.908529909095
 20
235.24336581215
 30
0.0
 11
206.065829909095
 21
229.27836581215
 31
0.0
  0
LINE
  5
885
330
1D
100
AcDbEntity
  8
0
100
AcDbLine
 10
220.725929909094
 20
228.79436581215
 30
0.0
 11
221.340029909094
 21
228.74936581215
 31
0.0
  0
LINE
  5
886
330
1D
100
AcDbEntity
  8
0
100
AcDbLine
 10
220.304982817176
 20
198.428796704485
 30
0.0
 11
221.513329909095
 21
198.92336581215
 31
0.0
  0
LINE
  5
887
330
1D
100
AcDbEntity
  8
0
100
AcDbLine
 10
225.304229909094
 20
207.97936581215
 30
0.0
 11
225.576629909094
 21
222.32836581215
 31
0.0
  0
LINE
  5
888
330
1D
100
AcDbEntity
  8
0
100
AcDbLine
 10
225.176984719026
 20
206.199962888366
 30
0.0
 11
225.304229909094
 21
207.97936581215
 31
0.0
  0
LINE
  5
889
330
1D
100
AcDbEntity
  8
0
100
AcDbLine
 10
224.685712316077
 20
203.238943644612
 30
0.0
 11
224.969229909095
 21
204.42636581215
 31
0.0
  0
LINE
  5
88A
330
1D
100
AcDbEntity
  8
0
100
AcDbLine
 10
222.491553431652
 20
199.609062345769
 30
0.0
 11
223.936129909095
 21
201.26736581215
 31
0.0
  0
LINE
  5
88B
330
1D
100
AcDbEntity
  8
0
100
AcDbLine
 10
223.936129909095
 20
201.26736581215
 30
0.0
 11
224.685712316077
 21
203.238943644612
 31
0.0
  0
LINE
  5
88C
330
1D
100
AcDbEntity
  8
0
100
AcDbLine
 10
224.969229909095
 20
204.42636581215
 30
0.0
 11
225.176984719026
 21
206.199962888366
 31
0.0
  0
LINE
  5
88D
330
1D
100
AcDbEntity
  8
0
100
AcDbLine
 10
224.969229909095
 20
204.42636581215
 30
0.0
 11
225.176984719026
 21
206.199962888366
 31
0.0
  0
LINE
  5
88E
330
1D
100
AcDbEntity
  8
0
100
AcDbLine
 10
221.513329909095
 20
198.92336581215
 30
0.0
 11
222.491553431652
 21
199.609062345769
 31
0.0
  0
LINE
  5
88F
330
1D
100
AcDbEntity
  8
0
100
AcDbLine
 10
225.617829909094
 20
223.92136581215
 30
0.0
 11
225.753929909094
 21
223.83436581215
 31
0.0
  0
LINE
  5
890
330
1D
100
AcDbEntity
  8
0
100
AcDbLine
 10
225.565029909095
 20
223.01436581215
 30
0.0
 11
225.743829909095
 21
222.84236581215
 31
0.0
  0
LINE
  5
891
330
1D
100
AcDbEntity
  8
0
100
AcDbLine
 10
225.743829909095
 20
222.84236581215
 30
0.0
 11
225.903929909094
 21
222.84736581215
 31
0.0
  0
LINE
  5
892
330
1D
100
AcDbEntity
  8
0
100
AcDbLine
 10
225.576629909094
 20
222.32836581215
 30
0.0
 11
225.874429909094
 21
222.61936581215
 31
0.0
  0
LINE
  5
893
330
1D
100
AcDbEntity
  8
0
100
AcDbLine
 10
225.559129909095
 20
223.82336581215
 30
0.0
 11
225.565029909095
 21
223.01436581215
 31
0.0
  0
LINE
  5
894
330
1D
100
AcDbEntity
  8
0
100
AcDbLine
 10
224.282729909095
 20
227.13536581215
 30
0.0
 11
224.785429909094
 21
226.46736581215
 31
0.0
  0
LINE
  5
895
330
1D
100
AcDbEntity
  8
0
100
AcDbLine
 10
221.340029909094
 20
228.74936581215
 30
0.0
 11
222.183429909095
 21
228.51536581215
 31
0.0
  0
LINE
  5
896
330
1D
100
AcDbEntity
  8
0
100
AcDbLine
 10
222.183429909095
 20
228.51536581215
 30
0.0
 11
222.978629909094
 21
228.17436581215
 31
0.0
  0
LINE
  5
897
330
1D
100
AcDbEntity
  8
0
100
AcDbLine
 10
222.978629909094
 20
228.17436581215
 30
0.0
 11
223.693029909094
 21
227.70536581215
 31
0.0
  0
LINE
  5
898
330
1D
100
AcDbEntity
  8
0
100
AcDbLine
 10
223.693029909094
 20
227.70536581215
 30
0.0
 11
224.282729909095
 21
227.13536581215
 31
0.0
  0
LINE
  5
899
330
1D
100
AcDbEntity
  8
0
100
AcDbLine
 10
224.785429909094
 20
226.46736581215
 30
0.0
 11
225.171429909095
 21
225.72836581215
 31
0.0
  0
LINE
  5
89A
330
1D
100
AcDbEntity
  8
0
100
AcDbLine
 10
225.171429909095
 20
225.72836581215
 30
0.0
 11
225.428429909095
 21
224.93036581215
 31
0.0
  0
LINE
  5
89B
330
1D
100
AcDbEntity
  8
0
100
AcDbLine
 10
225.428429909095
 20
224.93036581215
 30
0.0
 11
225.617829909094
 21
223.92136581215
 31
0.0
  0
LINE
  5
89C
330
1D
100
AcDbEntity
  8
0
100
AcDbLine
 10
218.765429909095
 20
228.79436581215
 30
0.0
 11
219.043129909094
 21
228.79436581215
 31
0.0
  0
LINE
  5
89D
330
1D
100
AcDbEntity
  8
0
100
AcDbLine
 10
217.997129909094
 20
228.79436581215
 30
0.0
 11
218.092729909094
 21
228.79436581215
 31
0.0
  0
LINE
  5
89E
330
1D
100
AcDbEntity
  8
0
100
AcDbLine
 10
219.043129909094
 20
228.79436581215
 30
0.0
 11
220.725929909094
 21
228.79436581215
 31
0.0
  0
LINE
  5
89F
330
1D
100
AcDbEntity
  8
0
100
AcDbLine
 10
218.692229909095
 20
228.79436581215
 30
0.0
 11
219.143629909094
 21
228.79436581215
 31
0.0
  0
LINE
  5
8A0
330
1D
100
AcDbEntity
  8
0
100
AcDbLine
 10
218.092729909094
 20
228.79436581215
 30
0.0
 11
218.692229909095
 21
228.79436581215
 31
0.0
  0
LINE
  5
8A1
330
1D
100
AcDbEntity
  8
0
100
AcDbLine
 10
216.988202568882
 20
197.5734378177
 30
0.0
 11
219.397329909095
 21
198.19236581215
 31
0.0
  0
LINE
  5
8A2
330
1D
100
AcDbEntity
  8
0
100
AcDbLine
 10
219.397329909095
 20
198.19236581215
 30
0.0
 11
220.304982817176
 21
198.428796704485
 31
0.0
  0
LINE
  5
8A3
330
1D
100
AcDbEntity
  8
0
100
AcDbLine
 10
206.065829909095
 20
229.27836581215
 30
0.0
 11
206.136429909094
 21
229.03636581215
 31
0.0
  0
LINE
  5
8A4
330
1D
100
AcDbEntity
  8
0
100
AcDbLine
 10
206.136429909094
 20
229.03636581215
 30
0.0
 11
206.317629909095
 21
228.85936581215
 31
0.0
  0
LINE
  5
8A5
330
1D
100
AcDbEntity
  8
0
100
AcDbLine
 10
206.317629909095
 20
228.85936581215
 30
0.0
 11
206.562429909094
 21
228.79436581215
 31
0.0
  0
LINE
  5
8A6
330
1D
100
AcDbEntity
  8
0
100
AcDbLine
 10
206.562429909094
 20
228.79436581215
 30
0.0
 11
206.676829909095
 21
228.79436581215
 31
0.0
  0
LINE
  5
8A7
330
1D
100
AcDbEntity
  8
0
100
AcDbLine
 10
206.676829909095
 20
228.79436581215
 30
0.0
 11
207.017229909095
 21
228.79436581215
 31
0.0
  0
LINE
  5
8A8
330
1D
100
AcDbEntity
  8
0
100
AcDbLine
 10
207.017229909095
 20
228.79436581215
 30
0.0
 11
217.997129909094
 21
228.79436581215
 31
0.0
  0
LINE
  5
8A9
330
1D
100
AcDbEntity
  8
0
100
AcDbLine
 10
207.807429909094
 20
235.24336581215
 30
0.0
 11
208.819529909095
 21
235.24336581215
 31
0.0
  0
LINE
  5
8AA
330
1D
100
AcDbEntity
  8
0
100
AcDbLine
 10
208.819529909095
 20
235.24336581215
 30
0.0
 11
210.005729909094
 21
235.24336581215
 31
0.0
  0
LINE
  5
8AB
330
1D
100
AcDbEntity
  8
0
100
AcDbLine
 10
212.029429909095
 20
235.24336581215
 30
0.0
 11
214.293029909095
 21
235.24336581215
 31
0.0
  0
LINE
  5
8AC
330
1D
100
AcDbEntity
  8
0
100
AcDbLine
 10
214.293029909095
 20
235.24336581215
 30
0.0
 11
215.847529909095
 21
235.24336581215
 31
0.0
  0
LINE
  5
8AD
330
1D
100
AcDbEntity
  8
0
100
AcDbLine
 10
211.335329909095
 20
235.24336581215
 30
0.0
 11
214.222129909095
 21
235.24436581215
 31
0.0
  0
LINE
  5
8AE
330
1D
100
AcDbEntity
  8
0
100
AcDbLine
 10
210.005729909094
 20
235.24336581215
 30
0.0
 11
212.029429909095
 21
235.24336581215
 31
0.0
  0
LINE
  5
8AF
330
1D
100
AcDbEntity
  8
0
100
AcDbLine
 10
206.992329909095
 20
235.24336581215
 30
0.0
 11
207.807429909094
 21
235.24336581215
 31
0.0
  0
LINE
  5
8B0
330
1D
100
AcDbEntity
  8
0
100
AcDbLine
 10
206.036729909095
 20
235.24436581215
 30
0.0
 11
206.992329909095
 21
235.24336581215
 31
0.0
  0
LINE
  5
8B1
330
1D
100
AcDbEntity
  8
0
100
AcDbLine
 10
205.908529909095
 20
235.24336581215
 30
0.0
 11
206.036729909095
 21
235.24436581215
 31
0.0
  0
LINE
  5
8B2
330
1D
100
AcDbEntity
  8
0
100
AcDbLine
 10
165.999929909094
 20
234.89036581215
 30
0.0
 11
165.843129909095
 21
228.88436581215
 31
0.0
  0
LINE
  5
8B3
330
1D
100
AcDbEntity
  8
0
100
AcDbLine
 10
156.091229909095
 20
228.39736581215
 30
0.0
 11
151.317929909095
 21
228.39736581215
 31
0.0
  0
LINE
  5
8B4
330
1D
100
AcDbEntity
  8
0
100
AcDbLine
 10
154.768629909094
 20
228.39736581215
 30
0.0
 11
152.805129909094
 21
228.39736581215
 31
0.0
  0
LINE
  5
8B5
330
1D
100
AcDbEntity
  8
0
100
AcDbLine
 10
153.500629909095
 20
228.39736581215
 30
0.0
 11
151.364529909095
 21
228.39736581215
 31
0.0
  0
LINE
  5
8B6
330
1D
100
AcDbEntity
  8
0
100
AcDbLine
 10
153.021429909095
 20
228.39736581215
 30
0.0
 11
152.268429909094
 21
228.39736581215
 31
0.0
  0
LINE
  5
8B7
330
1D
100
AcDbEntity
  8
0
100
AcDbLine
 10
153.115729909095
 20
228.39736581215
 30
0.0
 11
151.317929909095
 21
228.39736581215
 31
0.0
  0
LINE
  5
8B8
330
1D
100
AcDbEntity
  8
0
100
AcDbLine
 10
153.182229909095
 20
228.39736581215
 30
0.0
 11
151.085729909095
 21
228.39736581215
 31
0.0
  0
LINE
  5
8B9
330
1D
100
AcDbEntity
  8
0
100
AcDbLine
 10
153.354829909095
 20
228.39736581215
 30
0.0
 11
152.675229909095
 21
228.39736581215
 31
0.0
  0
LINE
  5
8BA
330
1D
100
AcDbEntity
  8
0
100
AcDbLine
 10
162.036229909095
 20
228.39736581215
 30
0.0
 11
161.110529909095
 21
228.39736581215
 31
0.0
  0
LINE
  5
8BB
330
1D
100
AcDbEntity
  8
0
100
AcDbLine
 10
162.181129909095
 20
228.39736581215
 30
0.0
 11
161.302029909095
 21
228.39736581215
 31
0.0
  0
LINE
  5
8BC
330
1D
100
AcDbEntity
  8
0
100
AcDbLine
 10
161.532229909094
 20
228.39736581215
 30
0.0
 11
160.294029909094
 21
228.39736581215
 31
0.0
  0
LINE
  5
8BD
330
1D
100
AcDbEntity
  8
0
100
AcDbLine
 10
161.562929909095
 20
228.39736581215
 30
0.0
 11
160.654129909095
 21
228.39736581215
 31
0.0
  0
LINE
  5
8BE
330
1D
100
AcDbEntity
  8
0
100
AcDbLine
 10
161.704829909095
 20
228.39736581215
 30
0.0
 11
160.841729909095
 21
228.39736581215
 31
0.0
  0
LINE
  5
8BF
330
1D
100
AcDbEntity
  8
0
100
AcDbLine
 10
165.772729909094
 20
228.64036581215
 30
0.0
 11
165.592129909095
 21
228.46236581215
 31
0.0
  0
LINE
  5
8C0
330
1D
100
AcDbEntity
  8
0
100
AcDbLine
 10
165.843129909095
 20
228.88436581215
 30
0.0
 11
165.772729909094
 21
228.64036581215
 31
0.0
  0
LINE
  5
8C1
330
1D
100
AcDbEntity
  8
0
100
AcDbLine
 10
164.894629909095
 20
228.39736581215
 30
0.0
 11
164.339029909095
 21
228.39736581215
 31
0.0
  0
LINE
  5
8C2
330
1D
100
AcDbEntity
  8
0
100
AcDbLine
 10
165.234029909094
 20
228.39736581215
 30
0.0
 11
164.894629909095
 21
228.39736581215
 31
0.0
  0
LINE
  5
8C3
330
1D
100
AcDbEntity
  8
0
100
AcDbLine
 10
164.339029909095
 20
228.39736581215
 30
0.0
 11
163.580029909094
 21
228.39736581215
 31
0.0
  0
LINE
  5
8C4
330
1D
100
AcDbEntity
  8
0
100
AcDbLine
 10
163.580029909094
 20
228.39736581215
 30
0.0
 11
162.636529909095
 21
228.39736581215
 31
0.0
  0
LINE
  5
8C5
330
1D
100
AcDbEntity
  8
0
100
AcDbLine
 10
165.348129909094
 20
228.39736581215
 30
0.0
 11
165.234029909094
 21
228.39736581215
 31
0.0
  0
LINE
  5
8C6
330
1D
100
AcDbEntity
  8
0
100
AcDbLine
 10
163.283429909094
 20
228.39736581215
 30
0.0
 11
163.176229909095
 21
228.39736581215
 31
0.0
  0
LINE
  5
8C7
330
1D
100
AcDbEntity
  8
0
100
AcDbLine
 10
163.283429909094
 20
228.39736581215
 30
0.0
 11
163.127629909094
 21
228.39736581215
 31
0.0
  0
LINE
  5
8C8
330
1D
100
AcDbEntity
  8
0
100
AcDbLine
 10
162.636529909095
 20
228.39736581215
 30
0.0
 11
161.532229909094
 21
228.39736581215
 31
0.0
  0
LINE
  5
8C9
330
1D
100
AcDbEntity
  8
0
100
AcDbLine
 10
162.709929909095
 20
228.39736581215
 30
0.0
 11
162.036229909095
 21
228.39736581215
 31
0.0
  0
LINE
  5
8CA
330
1D
100
AcDbEntity
  8
0
100
AcDbLine
 10
163.127629909094
 20
228.39736581215
 30
0.0
 11
162.709929909095
 21
228.39736581215
 31
0.0
  0
LINE
  5
8CB
330
1D
100
AcDbEntity
  8
0
100
AcDbLine
 10
163.176229909095
 20
228.39736581215
 30
0.0
 11
162.808129909095
 21
228.39736581215
 31
0.0
  0
LINE
  5
8CC
330
1D
100
AcDbEntity
  8
0
100
AcDbLine
 10
162.808129909095
 20
228.39736581215
 30
0.0
 11
162.181129909095
 21
228.39736581215
 31
0.0
  0
LINE
  5
8CD
330
1D
100
AcDbEntity
  8
0
100
AcDbLine
 10
162.634529909095
 20
228.39736581215
 30
0.0
 11
162.224729909094
 21
228.39736581215
 31
0.0
  0
LINE
  5
8CE
330
1D
100
AcDbEntity
  8
0
100
AcDbLine
 10
162.682129909094
 20
228.39736581215
 30
0.0
 11
162.320029909095
 21
228.39736581215
 31
0.0
  0
LINE
  5
8CF
330
1D
100
AcDbEntity
  8
0
100
AcDbLine
 10
162.224729909094
 20
228.39736581215
 30
0.0
 11
161.562929909095
 21
228.39736581215
 31
0.0
  0
LINE
  5
8D0
330
1D
100
AcDbEntity
  8
0
100
AcDbLine
 10
162.320029909095
 20
228.39736581215
 30
0.0
 11
161.704829909095
 21
228.39736581215
 31
0.0
  0
LINE
  5
8D1
330
1D
100
AcDbEntity
  8
0
100
AcDbLine
 10
162.787329909095
 20
228.39736581215
 30
0.0
 11
162.634529909095
 21
228.39736581215
 31
0.0
  0
LINE
  5
8D2
330
1D
100
AcDbEntity
  8
0
100
AcDbLine
 10
162.787329909095
 20
228.39736581215
 30
0.0
 11
162.682129909094
 21
228.39736581215
 31
0.0
  0
LINE
  5
8D3
330
1D
100
AcDbEntity
  8
0
100
AcDbLine
 10
165.592129909095
 20
228.46236581215
 30
0.0
 11
165.348129909094
 21
228.39736581215
 31
0.0
  0
LINE
  5
8D4
330
1D
100
AcDbEntity
  8
0
100
AcDbLine
 10
158.546829909095
 20
228.39736581215
 30
0.0
 11
156.932529909095
 21
228.39736581215
 31
0.0
  0
LINE
  5
8D5
330
1D
100
AcDbEntity
  8
0
100
AcDbLine
 10
157.539729909094
 20
228.39736581215
 30
0.0
 11
156.091229909095
 21
228.39736581215
 31
0.0
  0
LINE
  5
8D6
330
1D
100
AcDbEntity
  8
0
100
AcDbLine
 10
158.137029909095
 20
228.39736581215
 30
0.0
 11
156.551529909094
 21
228.39736581215
 31
0.0
  0
LINE
  5
8D7
330
1D
100
AcDbEntity
  8
0
100
AcDbLine
 10
158.408929909095
 20
228.39736581215
 30
0.0
 11
156.862129909095
 21
228.39736581215
 31
0.0
  0
LINE
  5
8D8
330
1D
100
AcDbEntity
  8
0
100
AcDbLine
 10
158.823629909095
 20
228.39736581215
 30
0.0
 11
157.248029909094
 21
228.39736581215
 31
0.0
  0
LINE
  5
8D9
330
1D
100
AcDbEntity
  8
0
100
AcDbLine
 10
161.110529909095
 20
228.39736581215
 30
0.0
 11
159.944729909095
 21
228.39736581215
 31
0.0
  0
LINE
  5
8DA
330
1D
100
AcDbEntity
  8
0
100
AcDbLine
 10
161.302029909095
 20
228.39736581215
 30
0.0
 11
160.178929909095
 21
228.39736581215
 31
0.0
  0
LINE
  5
8DB
330
1D
100
AcDbEntity
  8
0
100
AcDbLine
 10
160.294029909094
 20
228.39736581215
 30
0.0
 11
158.951629909094
 21
228.39736581215
 31
0.0
  0
LINE
  5
8DC
330
1D
100
AcDbEntity
  8
0
100
AcDbLine
 10
160.654129909095
 20
228.39736581215
 30
0.0
 11
159.509229909095
 21
228.39736581215
 31
0.0
  0
LINE
  5
8DD
330
1D
100
AcDbEntity
  8
0
100
AcDbLine
 10
160.841729909095
 20
228.39736581215
 30
0.0
 11
159.739429909094
 21
228.39736581215
 31
0.0
  0
LINE
  5
8DE
330
1D
100
AcDbEntity
  8
0
100
AcDbLine
 10
159.944729909095
 20
228.39736581215
 30
0.0
 11
158.546829909095
 21
228.39736581215
 31
0.0
  0
LINE
  5
8DF
330
1D
100
AcDbEntity
  8
0
100
AcDbLine
 10
158.951629909094
 20
228.39736581215
 30
0.0
 11
157.539729909094
 21
228.39736581215
 31
0.0
  0
LINE
  5
8E0
330
1D
100
AcDbEntity
  8
0
100
AcDbLine
 10
159.509229909095
 20
228.39736581215
 30
0.0
 11
158.137029909095
 21
228.39736581215
 31
0.0
  0
LINE
  5
8E1
330
1D
100
AcDbEntity
  8
0
100
AcDbLine
 10
159.739429909094
 20
228.39736581215
 30
0.0
 11
158.408929909095
 21
228.39736581215
 31
0.0
  0
LINE
  5
8E2
330
1D
100
AcDbEntity
  8
0
100
AcDbLine
 10
160.178929909095
 20
228.39736581215
 30
0.0
 11
158.823629909095
 21
228.39736581215
 31
0.0
  0
LINE
  5
8E3
330
1D
100
AcDbEntity
  8
0
100
AcDbLine
 10
156.932529909095
 20
228.39736581215
 30
0.0
 11
155.115929909095
 21
228.39736581215
 31
0.0
  0
LINE
  5
8E4
330
1D
100
AcDbEntity
  8
0
100
AcDbLine
 10
157.248029909094
 20
228.39736581215
 30
0.0
 11
155.468129909095
 21
228.39736581215
 31
0.0
  0
LINE
  5
8E5
330
1D
100
AcDbEntity
  8
0
100
AcDbLine
 10
155.115929909095
 20
228.39736581215
 30
0.0
 11
153.115729909095
 21
228.39736581215
 31
0.0
  0
LINE
  5
8E6
330
1D
100
AcDbEntity
  8
0
100
AcDbLine
 10
155.468129909095
 20
228.39736581215
 30
0.0
 11
153.500629909095
 21
228.39736581215
 31
0.0
  0
LINE
  5
8E7
330
1D
100
AcDbEntity
  8
0
100
AcDbLine
 10
156.551529909094
 20
228.39736581215
 30
0.0
 11
154.768629909094
 21
228.39736581215
 31
0.0
  0
LINE
  5
8E8
330
1D
100
AcDbEntity
  8
0
100
AcDbLine
 10
155.113929909095
 20
228.39736581215
 30
0.0
 11
153.182229909095
 21
228.39736581215
 31
0.0
  0
LINE
  5
8E9
330
1D
100
AcDbEntity
  8
0
100
AcDbLine
 10
156.862129909095
 20
228.39736581215
 30
0.0
 11
155.113929909095
 21
228.39736581215
 31
0.0
  0
LINE
  5
8EA
330
1D
100
AcDbEntity
  8
0
100
AcDbLine
 10
153.193129909095
 20
228.39736581215
 30
0.0
 11
153.021429909095
 21
228.39736581215
 31
0.0
  0
LINE
  5
8EB
330
1D
100
AcDbEntity
  8
0
100
AcDbLine
 10
153.780429909094
 20
228.39736581215
 30
0.0
 11
153.354829909095
 21
228.39736581215
 31
0.0
  0
LINE
  5
8EC
330
1D
100
AcDbEntity
  8
0
100
AcDbLine
 10
153.947129909095
 20
228.39736581215
 30
0.0
 11
153.780429909094
 21
228.39736581215
 31
0.0
  0
LINE
  5
8ED
330
1D
100
AcDbEntity
  8
0
100
AcDbLine
 10
146.670629909094
 20
228.39736581215
 30
0.0
 11
144.157529909094
 21
228.39736581215
 31
0.0
  0
LINE
  5
8EE
330
1D
100
AcDbEntity
  8
0
100
AcDbLine
 10
146.476129909095
 20
228.39736581215
 30
0.0
 11
144.010629909095
 21
228.39736581215
 31
0.0
  0
LINE
  5
8EF
330
1D
100
AcDbEntity
  8
0
100
AcDbLine
 10
145.949329909095
 20
228.39736581215
 30
0.0
 11
144.075129909095
 21
228.39736581215
 31
0.0
  0
LINE
  5
8F0
330
1D
100
AcDbEntity
  8
0
100
AcDbLine
 10
151.317929909095
 20
228.39736581215
 30
0.0
 11
149.802929909094
 21
228.15336581215
 31
0.0
  0
LINE
  5
8F1
330
1D
100
AcDbEntity
  8
0
100
AcDbLine
 10
152.268429909094
 20
228.39736581215
 30
0.0
 11
151.317929909095
 21
228.39736581215
 31
0.0
  0
LINE
  5
8F2
330
1D
100
AcDbEntity
  8
0
100
AcDbLine
 10
151.364529909095
 20
228.39736581215
 30
0.0
 11
149.080629909095
 21
228.39736581215
 31
0.0
  0
LINE
  5
8F3
330
1D
100
AcDbEntity
  8
0
100
AcDbLine
 10
152.805129909094
 20
228.39736581215
 30
0.0
 11
151.317929909095
 21
228.39736581215
 31
0.0
  0
LINE
  5
8F4
330
1D
100
AcDbEntity
  8
0
100
AcDbLine
 10
151.085729909095
 20
228.39736581215
 30
0.0
 11
148.843429909095
 21
228.39736581215
 31
0.0
  0
LINE
  5
8F5
330
1D
100
AcDbEntity
  8
0
100
AcDbLine
 10
151.752529909095
 20
228.39736581215
 30
0.0
 11
150.600629909094
 21
228.39736581215
 31
0.0
  0
LINE
  5
8F6
330
1D
100
AcDbEntity
  8
0
100
AcDbLine
 10
149.802929909094
 20
228.15336581215
 30
0.0
 11
148.423829909094
 21
227.44136581215
 31
0.0
  0
LINE
  5
8F7
330
1D
100
AcDbEntity
  8
0
100
AcDbLine
 10
148.423829909094
 20
227.44136581215
 30
0.0
 11
147.330429909095
 21
226.33436581215
 31
0.0
  0
LINE
  5
8F8
330
1D
100
AcDbEntity
  8
0
100
AcDbLine
 10
149.080629909095
 20
228.39736581215
 30
0.0
 11
146.670629909094
 21
228.39736581215
 31
0.0
  0
LINE
  5
8F9
330
1D
100
AcDbEntity
  8
0
100
AcDbLine
 10
148.843429909095
 20
228.39736581215
 30
0.0
 11
146.476129909095
 21
228.39736581215
 31
0.0
  0
LINE
  5
8FA
330
1D
100
AcDbEntity
  8
0
100
AcDbLine
 10
150.600629909094
 20
228.39736581215
 30
0.0
 11
149.235329909095
 21
228.39736581215
 31
0.0
  0
LINE
  5
8FB
330
1D
100
AcDbEntity
  8
0
100
AcDbLine
 10
149.235329909095
 20
228.39736581215
 30
0.0
 11
147.677629909094
 21
228.39736581215
 31
0.0
  0
LINE
  5
8FC
330
1D
100
AcDbEntity
  8
0
100
AcDbLine
 10
146.626929909095
 20
224.93936581215
 30
0.0
 11
146.417629909095
 21
223.39336581215
 31
0.0
  0
LINE
  5
8FD
330
1D
100
AcDbEntity
  8
0
100
AcDbLine
 10
147.330429909095
 20
226.33436581215
 30
0.0
 11
146.626929909095
 21
224.93936581215
 31
0.0
  0
LINE
  5
8FE
330
1D
100
AcDbEntity
  8
0
100
AcDbLine
 10
147.677629909094
 20
228.39736581215
 30
0.0
 11
145.949329909095
 21
228.39736581215
 31
0.0
  0
LINE
  5
8FF
330
1D
100
AcDbEntity
  8
0
100
AcDbLine
 10
152.675229909095
 20
228.39736581215
 30
0.0
 11
151.752529909095
 21
228.39736581215
 31
0.0
  0
LINE
  5
900
330
1D
100
AcDbEntity
  8
0
100
AcDbLine
 10
144.157529909094
 20
228.39736581215
 30
0.0
 11
141.566929909094
 21
228.39736581215
 31
0.0
  0
LINE
  5
901
330
1D
100
AcDbEntity
  8
0
100
AcDbLine
 10
143.125629909095
 20
228.39736581215
 30
0.0
 11
140.329729909095
 21
228.39736581215
 31
0.0
  0
LINE
  5
902
330
1D
100
AcDbEntity
  8
0
100
AcDbLine
 10
140.329729909095
 20
228.39736581215
 30
0.0
 11
137.367129909095
 21
228.39736581215
 31
0.0
  0
LINE
  5
903
330
1D
100
AcDbEntity
  8
0
100
AcDbLine
 10
141.566929909094
 20
228.39736581215
 30
0.0
 11
138.921829909095
 21
228.39736581215
 31
0.0
  0
LINE
  5
904
330
1D
100
AcDbEntity
  8
0
100
AcDbLine
 10
144.010629909095
 20
228.39736581215
 30
0.0
 11
141.465729909095
 21
228.39736581215
 31
0.0
  0
LINE
  5
905
330
1D
100
AcDbEntity
  8
0
100
AcDbLine
 10
141.465729909095
 20
228.39736581215
 30
0.0
 11
138.868229909095
 21
228.39736581215
 31
0.0
  0
LINE
  5
906
330
1D
100
AcDbEntity
  8
0
100
AcDbLine
 10
144.075129909095
 20
228.39736581215
 30
0.0
 11
142.083829909095
 21
228.39736581215
 31
0.0
  0
LINE
  5
907
330
1D
100
AcDbEntity
  8
0
100
AcDbLine
 10
142.083829909095
 20
228.39736581215
 30
0.0
 11
140.004329909095
 21
228.39736581215
 31
0.0
  0
LINE
  5
908
330
1D
100
AcDbEntity
  8
0
100
AcDbLine
 10
138.921829909095
 20
228.39736581215
 30
0.0
 11
136.248929909094
 21
228.39736581215
 31
0.0
  0
LINE
  5
909
330
1D
100
AcDbEntity
  8
0
100
AcDbLine
 10
138.868229909095
 20
228.39736581215
 30
0.0
 11
136.245029909095
 21
228.39736581215
 31
0.0
  0
LINE
  5
90A
330
1D
100
AcDbEntity
  8
0
100
AcDbLine
 10
140.004329909095
 20
228.39736581215
 30
0.0
 11
137.866229909094
 21
228.39736581215
 31
0.0
  0
LINE
  5
90B
330
1D
100
AcDbEntity
  8
0
100
AcDbLine
 10
157.640929909094
 20
234.89036581215
 30
0.0
 11
156.091229909095
 21
234.89036581215
 31
0.0
  0
LINE
  5
90C
330
1D
100
AcDbEntity
  8
0
100
AcDbLine
 10
159.153029909095
 20
234.89036581215
 30
0.0
 11
157.640929909094
 21
234.89036581215
 31
0.0
  0
LINE
  5
90D
330
1D
100
AcDbEntity
  8
0
100
AcDbLine
 10
160.589629909095
 20
234.89036581215
 30
0.0
 11
159.153029909095
 21
234.89036581215
 31
0.0
  0
LINE
  5
90E
330
1D
100
AcDbEntity
  8
0
100
AcDbLine
 10
161.915229909094
 20
234.89036581215
 30
0.0
 11
160.589629909095
 21
234.89036581215
 31
0.0
  0
LINE
  5
90F
330
1D
100
AcDbEntity
  8
0
100
AcDbLine
 10
163.097829909095
 20
234.89036581215
 30
0.0
 11
161.915229909094
 21
234.89036581215
 31
0.0
  0
LINE
  5
910
330
1D
100
AcDbEntity
  8
0
100
AcDbLine
 10
164.106929909095
 20
234.89036581215
 30
0.0
 11
163.097829909095
 21
234.89036581215
 31
0.0
  0
LINE
  5
911
330
1D
100
AcDbEntity
  8
0
100
AcDbLine
 10
164.919429909095
 20
234.89036581215
 30
0.0
 11
164.106929909095
 21
234.89036581215
 31
0.0
  0
LINE
  5
912
330
1D
100
AcDbEntity
  8
0
100
AcDbLine
 10
165.514729909095
 20
234.89036581215
 30
0.0
 11
164.919429909095
 21
234.89036581215
 31
0.0
  0
LINE
  5
913
330
1D
100
AcDbEntity
  8
0
100
AcDbLine
 10
165.877929909095
 20
234.89036581215
 30
0.0
 11
165.514729909095
 21
234.89036581215
 31
0.0
  0
LINE
  5
914
330
1D
100
AcDbEntity
  8
0
100
AcDbLine
 10
165.999929909094
 20
234.89036581215
 30
0.0
 11
165.877929909095
 21
234.89036581215
 31
0.0
  0
LINE
  5
915
330
1D
100
AcDbEntity
  8
0
100
AcDbLine
 10
135.999929909094
 20
228.39736581215
 30
0.0
 11
135.754929909094
 21
228.39736581215
 31
0.0
  0
LINE
  5
916
330
1D
100
AcDbEntity
  8
0
100
AcDbLine
 10
135.999929909094
 20
228.39736581215
 30
0.0
 11
135.750929909095
 21
228.39736581215
 31
0.0
  0
LINE
  5
917
330
1D
100
AcDbEntity
  8
0
100
AcDbLine
 10
125.5824
 20
59.3005
 30
0.0
 11
125.5824
 21
223.39358673647
 31
0.0
  0
LINE
  5
918
330
1D
100
AcDbEntity
  8
0
100
AcDbLine
 10
146.417629909095
 20
223.39336581215
 30
0.0
 11
146.4181
 21
59.3005
 31
0.0
  0
ENDSEC
  0
SECTION
  2
OBJECTS
  0
DICTIONARY
  5
C
330
0
100
AcDbDictionary
281
     1
  3
ACAD_GROUP
350
D
  3
ACAD_LAYOUT
350
1A
  3
ACAD_MLEADERSTYLE
350
91B
  3
ACAD_MLINESTYLE
350
17
  3
ACAD_PLOTSETTINGS
350
19
  3
ACAD_PLOTSTYLENAME
350
E
  3
ACAD_SCALELIST
350
4B2
  3
AcDbVariableDictionary
350
919
  3
DWGPROPS
350
91E
  0
DICTIONARY
  5
D
102
{ACAD_REACTORS
330
C
102
}
330
C
100
AcDbDictionary
281
     1
  0
DICTIONARY
  5
1A
102
{ACAD_REACTORS
330
C
102
}
330
C
100
AcDbDictionary
281
     1
  3
Layout1
350
1C
  3
Model
350
1E
  0
DICTIONARY
  5
91B
102
{ACAD_REACTORS
330
C
102
}
330
C
100
AcDbDictionary
281
     1
  0
DICTIONARY
  5
17
102
{ACAD_REACTORS
330
C
102
}
330
C
100
AcDbDictionary
281
     1
  3
Standard
350
18
  0
DICTIONARY
  5
19
102
{ACAD_REACTORS
330
C
102
}
330
C
100
AcDbDictionary
281
     1
  0
ACDBDICTIONARYWDFLT
  5
E
102
{ACAD_REACTORS
330
C
102
}
330
C
100
AcDbDictionary
281
     1
  3
Normal
350
F
100
AcDbDictionaryWithDefault
340
F
  0
DICTIONARY
  5
4B2
102
{ACAD_REACTORS
330
C
102
}
330
C
100
AcDbDictionary
281
     1
  3
A0
350
4B3
  3
A1
350
4B4
  3
A2
350
4B5
  3
A3
350
4B6
  3
A4
350
4B7
  3
A5
350
4B8
  3
A6
350
4B9
  3
A7
350
4BA
  3
A8
350
4BB
  3
A9
350
4BC
  3
B0
350
4BD
  3
B1
350
4BE
  3
B2
350
4BF
  3
B3
350
4C0
  3
B4
350
4C1
  3
B5
350
4C2
  3
B6
350
4C3
  3
B7
350
4C4
  3
B8
350
4C5
  3
B9
350
4C6
  3
C0
350
4C7
  3
C1
350
4C8
  3
C2
350
4C9
  3
C3
350
4CA
  3
C4
350
4CB
  3
C5
350
4CC
  3
C6
350
4CD
  3
C7
350
4CE
  3
C8
350
4CF
  3
C9
350
4D0
  3
D0
350
4D1
  3
D1
350
4D2
  3
D2
350
4D3
  0
DICTIONARY
  5
919
102
{ACAD_REACTORS
330
C
102
}
330
C
100
AcDbDictionary
281
     1
  3
CANNOSCALE
350
91C
  0
XRECORD
  5
91E
102
{ACAD_REACTORS
330
C
102
}
330
C
100
AcDbXrecord
280
     1
  1
DWGPROPS COOKIE
  2

  3

  4

  6

  7

  8
MARTIN
  9

300
=
301
=
302
=
303
=
304
=
305
=
306
=
307
=
308
=
309
=
 40
0.0
 41
2455824.839786053
 42
2455824.840483033
  1

 90
        0
  0
LAYOUT
  5
1C
102
{ACAD_REACTORS
330
1A
102
}
330
1A
100
AcDbPlotSettings
  1

  2
none_device
  4

  6

 40
0.0
 41
0.0
 42
0.0
 43
0.0
 44
0.0
 45
0.0
 46
0.0
 47
0.0
 48
0.0
 49
0.0
140
0.0
141
0.0
142
1.0
143
1.0
 70
   688
 72
     0
 73
     0
 74
     5
  7

 75
    16
147
1.0
148
0.0
149
0.0
100
AcDbLayout
  1
Layout1
 70
     1
 71
     1
 10
0.0
 20
0.0
 11
12.0
 21
9.0
 12
0.0
 22
0.0
 32
0.0
 14
1.000000000000E+20
 24
1.000000000000E+20
 34
1.000000000000E+20
 15
-1.000000000000E+20
 25
-1.000000000000E+20
 35
-1.000000000000E+20
146
0.0
 13
0.0
 23
0.0
 33
0.0
 16
1.0
 26
0.0
 36
0.0
 17
0.0
 27
1.0
 37
0.0
 76
     0
330
1B
  0
LAYOUT
  5
1E
102
{ACAD_REACTORS
330
1A
102
}
330
1A
100
AcDbPlotSettings
  1

  2
none_device
  4

  6

 40
0.0
 41
0.0
 42
0.0
 43
0.0
 44
0.0
 45
0.0
 46
0.0
 47
0.0
 48
0.0
 49
0.0
140
0.0
141
0.0
142
1.0
143
1.0
 70
  1712
 72
     0
 73
     0
 74
     0
  7

 75
     0
147
1.0
148
0.0
149
0.0
100
AcDbLayout
  1
Model
 70
     1
 71
     0
 10
0.0
 20
0.0
 11
12.0
 21
9.0
 12
0.0
 22
0.0
 32
0.0
 14
-0.023070090905
 24
-0.2455
 34
0.0
 15
272.023129909095
 25
235.2455
 35
0.0
146
0.0
 13
0.0
 23
0.0
 33
0.0
 16
1.0
 26
0.0
 36
0.0
 17
0.0
 27
1.0
 37
0.0
 76
     0
330
1D
331
4AD
  0
MLINESTYLE
  5
18
102
{ACAD_REACTORS
330
17
102
}
330
17
100
AcDbMlineStyle
  2
Standard
 70
     0
  3

 62
   256
 51
90.0
 52
90.0
 71
     2
 49
0.5
 62
   256
  6
BYLAYER
 49
-0.5
 62
   256
  6
BYLAYER
  0
ACDBPLACEHOLDER
  5
F
102
{ACAD_REACTORS
330
E
102
}
330
E
  0
SCALE
  5
4B3
102
{ACAD_REACTORS
330
4B2
102
}
330
4B2
100
AcDbScale
 70
     0
300
1:1
140
1.0
141
1.0
290
     1
  0
SCALE
  5
4B4
102
{ACAD_REACTORS
330
4B2
102
}
330
4B2
100
AcDbScale
 70
     0
300
1:2
140
1.0
141
2.0
290
     0
  0
SCALE
  5
4B5
102
{ACAD_REACTORS
330
4B2
102
}
330
4B2
100
AcDbScale
 70
     0
300
1:4
140
1.0
141
4.0
290
     0
  0
SCALE
  5
4B6
102
{ACAD_REACTORS
330
4B2
102
}
330
4B2
100
AcDbScale
 70
     0
300
1:5
140
1.0
141
5.0
290
     0
  0
SCALE
  5
4B7
102
{ACAD_REACTORS
330
4B2
102
}
330
4B2
100
AcDbScale
 70
     0
300
1:8
140
1.0
141
8.0
290
     0
  0
SCALE
  5
4B8
102
{ACAD_REACTORS
330
4B2
102
}
330
4B2
100
AcDbScale
 70
     0
300
1:10
140
1.0
141
10.0
290
     0
  0
SCALE
  5
4B9
102
{ACAD_REACTORS
330
4B2
102
}
330
4B2
100
AcDbScale
 70
     0
300
1:16
140
1.0
141
16.0
290
     0
  0
SCALE
  5
4BA
102
{ACAD_REACTORS
330
4B2
102
}
330
4B2
100
AcDbScale
 70
     0
300
1:20
140
1.0
141
20.0
290
     0
  0
SCALE
  5
4BB
102
{ACAD_REACTORS
330
4B2
102
}
330
4B2
100
AcDbScale
 70
     0
300
1:30
140
1.0
141
30.0
290
     0
  0
SCALE
  5
4BC
102
{ACAD_REACTORS
330
4B2
102
}
330
4B2
100
AcDbScale
 70
     0
300
1:40
140
1.0
141
40.0
290
     0
  0
SCALE
  5
4BD
102
{ACAD_REACTORS
330
4B2
102
}
330
4B2
100
AcDbScale
 70
     0
300
1:50
140
1.0
141
50.0
290
     0
  0
SCALE
  5
4BE
102
{ACAD_REACTORS
330
4B2
102
}
330
4B2
100
AcDbScale
 70
     0
300
1:100
140
1.0
141
100.0
290
     0
  0
SCALE
  5
4BF
102
{ACAD_REACTORS
330
4B2
102
}
330
4B2
100
AcDbScale
 70
     0
300
2:1
140
2.0
141
1.0
290
     0
  0
SCALE
  5
4C0
102
{ACAD_REACTORS
330
4B2
102
}
330
4B2
100
AcDbScale
 70
     0
300
4:1
140
4.0
141
1.0
290
     0
  0
SCALE
  5
4C1
102
{ACAD_REACTORS
330
4B2
102
}
330
4B2
100
AcDbScale
 70
     0
300
8:1
140
8.0
141
1.0
290
     0
  0
SCALE
  5
4C2
102
{ACAD_REACTORS
330
4B2
102
}
330
4B2
100
AcDbScale
 70
     0
300
10:1
140
10.0
141
1.0
290
     0
  0
SCALE
  5
4C3
102
{ACAD_REACTORS
330
4B2
102
}
330
4B2
100
AcDbScale
 70
     0
300
100:1
140
100.0
141
1.0
290
     0
  0
SCALE
  5
4C4
102
{ACAD_REACTORS
330
4B2
102
}
330
4B2
100
AcDbScale
 70
     0
300
1/128" = 1'-0"
140
0.0078125
141
12.0
290
     0
  0
SCALE
  5
4C5
102
{ACAD_REACTORS
330
4B2
102
}
330
4B2
100
AcDbScale
 70
     0
300
1/64" = 1'-0"
140
0.015625
141
12.0
290
     0
  0
SCALE
  5
4C6
102
{ACAD_REACTORS
330
4B2
102
}
330
4B2
100
AcDbScale
 70
     0
300
1/32" = 1'-0"
140
0.03125
141
12.0
290
     0
  0
SCALE
  5
4C7
102
{ACAD_REACTORS
330
4B2
102
}
330
4B2
100
AcDbScale
 70
     0
300
1/16" = 1'-0"
140
0.0625
141
12.0
290
     0
  0
SCALE
  5
4C8
102
{ACAD_REACTORS
330
4B2
102
}
330
4B2
100
AcDbScale
 70
     0
300
3/32" = 1'-0"
140
0.09375
141
12.0
290
     0
  0
SCALE
  5
4C9
102
{ACAD_REACTORS
330
4B2
102
}
330
4B2
100
AcDbScale
 70
     0
300
1/8" = 1'-0"
140
0.125
141
12.0
290
     0
  0
SCALE
  5
4CA
102
{ACAD_REACTORS
330
4B2
102
}
330
4B2
100
AcDbScale
 70
     0
300
3/16" = 1'-0"
140
0.1875
141
12.0
290
     0
  0
SCALE
  5
4CB
102
{ACAD_REACTORS
330
4B2
102
}
330
4B2
100
AcDbScale
 70
     0
300
1/4" = 1'-0"
140
0.25
141
12.0
290
     0
  0
SCALE
  5
4CC
102
{ACAD_REACTORS
330
4B2
102
}
330
4B2
100
AcDbScale
 70
     0
300
3/8" = 1'-0"
140
0.375
141
12.0
290
     0
  0
SCALE
  5
4CD
102
{ACAD_REACTORS
330
4B2
102
}
330
4B2
100
AcDbScale
 70
     0
300
1/2" = 1'-0"
140
0.5
141
12.0
290
     0
  0
SCALE
  5
4CE
102
{ACAD_REACTORS
330
4B2
102
}
330
4B2
100
AcDbScale
 70
     0
300
3/4" = 1'-0"
140
0.75
141
12.0
290
     0
  0
SCALE
  5
4CF
102
{ACAD_REACTORS
330
4B2
102
}
330
4B2
100
AcDbScale
 70
     0
300
1" = 1'-0"
140
1.0
141
12.0
290
     0
  0
SCALE
  5
4D0
102
{ACAD_REACTORS
330
4B2
102
}
330
4B2
100
AcDbScale
 70
     0
300
1-1/2" = 1'-0"
140
1.5
141
12.0
290
     0
  0
SCALE
  5
4D1
102
{ACAD_REACTORS
330
4B2
102
}
330
4B2
100
AcDbScale
 70
     0
300
3" = 1'-0"
140
3.0
141
12.0
290
     0
  0
SCALE
  5
4D2
102
{ACAD_REACTORS
330
4B2
102
}
330
4B2
100
AcDbScale
 70
     0
300
6" = 1'-0"
140
6.0
141
12.0
290
     0
  0
SCALE
  5
4D3
102
{ACAD_REACTORS
330
4B2
102
}
330
4B2
100
AcDbScale
 70
     0
300
1'-0" = 1'-0"
140
12.0
141
12.0
290
     0
  0
DICTIONARYVAR
  5
91C
102
{ACAD_REACTORS
330
919
102
}
330
919
100
DictionaryVariables
280
     0
  1
1:1
  0
ENDSEC
  0
SECTION
  2
THUMBNAILIMAGE
 90
    16364
310
28000000B40000005500000001000800000000000000000000000000000000000000000000000000FFFFFF000000FF0000FFFF0000FF0000FFFF0000FF000000FF00FF000000000080808000C0C0C0000000FF007F7FFF000000A5005252A50000007F003F3F7F0000004C0026264C000000260013132600003FFF007F9FFF
310
000029A5005267A500001F7F003F4F7F0000134C00262F4C000009260013172600007FFF007FBFFF000052A500527CA500003F7F003F5F7F0000264C0026394C0000132600131C260000BFFF007FDFFF00007CA5005291A500005F7F003F6F7F0000394C0026424C00001C26001321260000FFFF007FFFFF0000A5A50052A5
310
A500007F7F003F7F7F00004C4C00264C4C00002626001326260000FFBF007FFFDF0000A57C0052A59100007F5F003F7F6F00004C3900264C420000261C001326210000FF7F007FFFBF0000A5520052A57C00007F3F003F7F5F00004C2600264C39000026130013261C0000FF3F007FFF9F0000A5290052A56700007F1F003F
310
7F4F00004C1300264C2F00002609001326170000FF00007FFF7F0000A5000052A55200007F00003F7F3F00004C0000264C260000260000132613003FFF00009FFF7F0029A5000067A552001F7F00004F7F3F00134C00002F4C260009260000172613007FFF0000BFFF7F0052A500007CA552003F7F00005F7F3F00264C0000
310
394C2600132600001C261300BFFF0000DFFF7F007CA5000091A552005F7F00006F7F3F00394C0000424C26001C26000021261300FFFF0000FFFF7F00A5A50000A5A552007F7F00007F7F3F004C4C00004C4C26002626000026261300FFBF0000FFDF7F00A57C0000A59152007F5F00007F6F3F004C3900004C422600261C00
310
0026211300FF7F0000FFBF7F00A5520000A57C52007F3F00007F5F3F004C2600004C39260026130000261C1300FF3F0000FF9F7F00A5290000A56752007F1F00007F4F3F004C1300004C2F26002609000026171300FF000000FF7F7F00A5000000A55252007F0000007F3F3F004C0000004C2626002600000026131300FF00
310
3F00FF7F9F00A5002900A55267007F001F007F3F4F004C0013004C262F002600090026131700FF007F00FF7FBF00A5005200A5527C007F003F007F3F5F004C0026004C2639002600130026131C00FF00BF00FF7FDF00A5007C00A55291007F005F007F3F6F004C0039004C26420026001C0026132100FF00FF00FF7FFF00A5
310
00A500A552A5007F007F007F3F7F004C004C004C264C002600260026132600BF00FF00DF7FFF007C00A5009152A5005F007F006F3F7F0039004C0042264C001C002600211326007F00FF00BF7FFF005200A5007C52A5003F007F005F3F7F0026004C0039264C00130026001C1326003F00FF009F7FFF002900A5006752A500
310
1F007F004F3F7F0013004C002F264C000900260017132600000000002D2D2D005B5B5B0089898900B7B7B700B3B3B30000000000000000000000000000000000000000000000000000000000000000000000000000000000000000000000000000000000000000000000000000000000000000000000000000000000000000
310
00000000000000000007070707070000000000000000000000000000000000000000000000000000000000000000000000000000000000000000000000000000000000000000000000000000000000000000000000000000000000000000000000000000000000000000000000000000000000000000000000000000000000
310
00000000000000000000000000000000000000000000000000000000000000000000000000000000000000000000000000000000000000000000000000070000000000070000000000000000000000000000000000000000000000000000000000000000000000000000000000000000000000000000000000000000000000
310
00000000000000000000000000000000000000000000000000000000000000000000000000000000000000000000000000000000000000000000000000000000000000000000000000000000000000000000000000000000000000000000000000000000000000000000000000000000000707000000000007070000000000
310
00000000000000000000000000000000000000000000000000000000000000000000000000000000000000000000000000000000000000000000000000000000000000000000000000000000000000000000000000000000000000000000000000000000000000000000000000000000000000000000000000000000000000
310
00000000000000000000000000000000000000000000000000000000000000000000000000000007000000000000000700000000000000000000000000000000000000000000000000000000000000000000000000000000000000000000000000000000000000000000000000000000000000000000000000000000000000
310
00000000000000000000000000000000000000000000000000000000000000000000000000000000000000000000000000000000000000000000000000000000000000000000000000000000000000000000000000000000000000000700000000000000070000000000000000000000000000000000000000000000000000
310
00000000000000000000000000000000000000000000000000000000000000000000000000000000000000000000000000000000000000000000000000000000000000000000000000000000000000000000000000000000000000000000000000000000000000000000000000000000000000000000000000000000000000
310
00000000000000000000000000000000000007000000000000000700000000000000000000000000000000000000000000000000000000000000000000000000000000000000000000000000000000000000000000000000000000000000000000000000000000000000000000000000000000000000000000000000000000
310
00000000000000000000000000000000000000000000000000000000000000000000000000000000000000000000000000000000000000000000000000000000000000000000000700000000000000070000000000000000000000000000000000000000000000000000000000000000000000000000000000000000000000
310
00000000000000000000000000000000000000000000000000000000000000000000000000000000000000000000000000000000000000000000000000000000000000000000000000000000000000000000000000000000000000000000000000000000000000000000000000000000000000000000000000000000070000
310
00000000000700000000000000000000000000000000000000000000000000000000000000000000000000000000000000000000000000000000000000000000000000000000000000000000000000000000000000000000000000000000000000000000000000000000000000000000000000000000000000000000000000
310
00000000000000000000000000000000000000000000000000000000000000000000000000000000000000000000000000000700000000000000070000000000000000000000000000000000000000000000000000000000000000000000000000000000000000000000000000000000000000000000000000000000000000
310
00000000000000000000000000000000000000000000000000000000000000000000000000000000000000000000000000000000000000000000000000000000000000000000000000000000000000000000000000000000000000000000000000000000000000070000000000000007000000000000000000000000000000
310
00000000000000000000000000000000000000000000000000000000000000000000000000000000000000000000000000000000000000000000000000000000000000000000000000000000000000000000000000000000000000000000000000000000000000000000000000000000000000000000000000000000000000
310
00000000000000000000000000000000000000000000000000000000000700000000000000070000000000000000000000000000000000000000000000000000000000000000000000000000000000000000000000000000000000000000000000000000000000000000000000000000000000000000000000000000000000
310
00000000000000000000000000000000000000000000000000000000000000000000000000000000000000000000000000000000000000000000000000000000000000000000000000000000000000000000070000000000000007000000000000000000000000000000000000000000000000000000000000000000000000
310
00000000000000000000000000000000000000000000000000000000000000000000000000000000000000000000000000000000000000000000000000000000000000000000000000000000000000000000000000000000000000000000000000000000000000000000000000000000000000000000000000000000000000
310
00000000000000000700000000000000070000000000000000000000000000000000000000000000000000000000000000000000000000000000000000000000000000000000000000000000000000000000000000000000000000000000000000000000000000000000000000000000000000000000000000000000000000
310
00000000000000000000000000000000000000000000000000000000000000000000000000000000000000000000000000000000000000000000000000070000000000000007000000000000000000000000000000000000000000000000000000000000000000000000000000000000000000000000000000000000000000
310
00000000000000000000000000000000000000000000000000000000000000000000000000000000000000000000000000000000000000000000000000000000000000000000000000000000000000000000000000000000000000000000000000000000000000000000000000000000000007000000000000000700000000
310
00000000000000000000000000000000000000000000000000000000000000000000000000000000000000000000000000000000000000000000000000000000000000000000000000000000000000000000000000000000000000000000000000000000000000000000000000000000000000000000000000000000000000
310
00000000000000000000000000000000000000000000000000000000000000000000000000000000070000000000000007000000000000000000000000000000000000000000000000000000000000000000000000000000000000000000000000000000000000000000000000000000000000000000000000000000000000
310
00000000000000000000000000000000000000000000000000000000000000000000000000000000000000000000000000000000000000000000000000000000000000000000000000000000000000000000000000000000000000000007000000000000000700000000000000000000000000000000000000000000000000
310
00000000000000000000000000000000000000000000000000000000000000000000000000000000000000000000000000000000000000000000000000000000000000000000000000000000000000000000000000000000000000000000000000000000000000000000000000000000000000000000000000000000000000
310
00000000000000000000000000000000000000070000000000000007000000000000000000000000000000000000000000000000000000000000000000000000000000000000000000000000000000000000000000000000000000000000000000000000000000000000000000000000000000000000000000000000000000
310
00000000000000000000000000000000000000000000000000000000000000000000000000000000000000000000000000000000000000000000000000000000000000000000000007000000000000000700000000000000000000000000000000000000000000000000000000000000000000000000000000000000000000
310
00000000000000000000000000000000000000000000000000000000000000000000000000000000000000000000000000000000000000000000000000000000000000000000000000000000000000000000000000000000000000000000000000000000000000000000000000000000000000000000000000000000000700
310
00000000000007000000000000000000000000000000000000000000000000000000000000000000000000000000000000000000000000000000000000000000000000000000000000000000000000000000000000000000000000000000000000000000000000000000000000000000000000000000000000000000000000
310
00000000000000000000000000000000000000000000000000000000000000000000000000000000000000000000000000000007000000000000000700000000000000000000000000000000000000000000000000000000000000000000000000000000000000000000000000000000000000000000000000000000000000
310
00000000000000000000000000000000000000000000000000000000000000000000000000000000000000000000000000000000000000000000000000000000000000000000000000000000000000000000000000000000000000000000000000000000000000000700000000000000070000000000000000000000000000
310
00000000000000000000000000000000000000000000000000000000000000000000000000000000000000000000000000000000000000000000000000000000000000000000000000000000000000000000000000000000000000000000000000000000000000000000000000000000000000000000000000000000000000
310
00000000000000000000000000000000000000000000000000000000000007000000000000000700000000000000000000000000000000000000000000000000000000000000000000000000000000000000000000000000000000000000000000000000000000000000000000000000000000000000000000000000000000
310
00000000000000000000000000000000000000000000000000000000000000000000000000000000000000000000000000000000000000000000000000000000000000000000000000000000000000000000000700000000000000070000000000000000000000000000000000000000000000000000000000000000000000
310
00000000000000000000000000000000000000000000000000000000000000000000000000000000000000000000000000000000000000000000000000000000000000000000000000000000000000000000000000000000000000000000000000000000000000000000000000000000000000000000000000000000000000
310
00000000000000000007000000000000000700000000000000000000000000000000000000000000000000000000000000000000000000000000000000000000000000000000000000000000000000000000000000000000000000000000000000000000000000000000000000000000000000000000000000000000000000
310
00000000000000000000000000000000000000000000000000000000000000000000000000000000000000000000000000000000000000000000000000000700000000000000070000000000000000000000000000000000000000000000000000000000000000000000000000000000000000000000000000000000000000
310
00000000000000000000000000000000000000000000000000000000000000000000000000000000000000000000000000000000000000000000000000000000000000000000000000000000000000000000000000000000000000000000000000000000000000000000000000000000000000070000000000000007000000
310
00000000000000000000000000000000000000000000000000000000000000000000000000000000000000000000000000000000000000000000000000000000000000000000000000000000000000000000000000000000000000000000000000000000000000000000000000000000000000000000000000000000000000
310
00000000000000000000000000000000000000000000000000000000000000000000000000000000000700000000000000070000000000000000000000000000000000000000000000000000000000000000000000000000000000000000000000000000000000000000000000000000000000000000000000000000000000
310
00000000000000000000000000000000000000000000000000000000000000000000000000000000000000000000000000000000000000000000000000000000000000000000000000000000000000000000000000000000000000000000070000000000000007000000000000000000000000000000000000000000000000
310
00000000000000000000000000000000000000000000000000000000000000000000000000000000000000000000000000000000000000000000000000000000000000000000000000000000000000000000000000000000000000000000000000000000000000000000000000000000000000000000000000000000000000
310
00000000000000000000000000000000000000000700000000000000070000000000000000000000000000000000000000000000000000000000000000000000000000000000000000000000000000000000000000000000000000000000000000000000000000000000000000000000000000000000000000000000000000
310
00000000000000000000000000000000000000000000000000000000000000000000000000000000000000000000000000000000000000000000000000000000000000000000000000070000000000000007000000000000000000000000000000000000000000000000000000000000000000000000000000000000000000
310
00000000000000000000000000000000000000000000000000000000000000000000000000000000000000000000000000000000000000000000000000000000000000000000000000000000000000000000000000000000000000000000000000000000000000000000000000000000000000000000000000000000000007
310
00000000000000070000000000000000000000000000000000000000000000000000000000000000000000000000000000000000000000000000000000000000000000000000000000000000000000000000000000000000000000000000000000000000000000000000000000000000000000000000000000000000000000
310
00000000000000000000000000000000000000000000000000000000000000000000000000000000000000000000000000000000070000000000000007000000000000000000000000000000000000000000000000000000000000000000000000000000000000000000000000000000000000000000000000000000000000
310
00000000000000000000000000000000000000000000000000000000000000000000000000000000000000000000000000000000000000000000000000000000000000000000000000000000000000000000000000000000000000000000000000000000000000000007000000000000000700000000000000000000000000
310
00000000000000000000000000000000000000000000000000000000000000000000000000000000000000000000000000000000000000000000000000000000000000000000000000000000000000000000000000000000000000000000000000000000000000000000000000000000000000000000000000000000000000
310
00000000000000000000000000000000000000000000000000000000000000070000000000000007000000000000000000000000000000000000000000000000000000000000000000000000000000000000000000000000000000000000000000000000000000000000000000000000000000000000000000000000000000
310
00000000000000000000000000000000000000000000000000000000000000000000000000000000000000000000000000000000000000000000000000000000000000000000000000000000000000000000000007000000000000000700000000000000000000000000000000000000000000000000000000000000000000
310
00000000000000000000000000000000000000000000000000000000000000000000000000000000000000000000000000000000000000000000000000000000000000000000000000000000000000000000000000000000000000000000000000000000000000000000000000000000000000000000000000000000000000
310
00000000000000000000070000000000000007000000000000000000000000000000000000000000000000000000000000000000000000000000000000000000000000000000000000000000000000000000000000000000000000000000000000000000000000000000000000000000000000000000000000000000000000
310
00000000000000000000000000000000000000000000000000000000000000000000000000000000000000000000000000000000000000000000000000000007000000000000000700000000000000000000000000000000000000000000000000000000000000000000000000000000000000000000000000000000000000
310
00000000000000000000000000000000000000000000000000000000000000000000000000000000000000000000000000000000000000000000000000000000000000000000000000000000000000000000000000000000000000000000000000000000000000000000000000000000000000000700000000000000070000
310
00000000000000000000000000000000000000000000000000000000000000000000000000000000000000000000000000000000000000000000000000000000000000000000000000000000000000000000000000000000000000000000000000000000000000000000000000000000000000000000000000000000000000
310
00000000000000000000000000000000000000000000000000000000000000000000000000000000000007000000000000000700000000000000000000000000000000000000000000000000000000000000000000000000000000000000000000000000000000000000000000000000000000000000000000000000000000
310
00000000000000000000000000000000000000000000000000000000000000000000000000000000000000000000000000000000000000000000000000000000000000000000000000000000000000000000000000000000000000000000000700000000000000070000000000000000000000000000000000000000000000
310
00000000000000000000000000000000000000000000000000000000000000000000000000000000000000000000000000000000000000000000000000000000000000000000000000000000000000000000000000000000000000000000000000000000000000000000000000000000000000000000000000000000000000
310
00000000000000000000000000000000000000000007000000000000000700000000000000000000000000000000000000000000000000000000000000000000000000000000000000000000000000000000000000000000000000000000000000000000000000000000000000000000000000000000000000000000000000
310
00000000000000000000000000000000000000000000000000000000000000000000000000000000000000000000000000000000000000000000000000000000000000000000000000000700000000000000070000000000000000000000000000000000000000000000000000000000000000000000000000000000000000
310
00000000000000000000000000000000000000000000000000000000000000000000000000000000000000000000000000000000000000000000000000000000000000000000000000000000000000000000000000000000000000000000000000000000000000000000000000000000000000000000000000000000000000
310
07000000000000000700000000000000000000000000000000000000000000000000000000000000000000000000000000000000000000000000000000000000000000000000000000000000000000000000000000000000000000000000000000000000000000000000000000000000000000000000000000000000000000
310
00000000000000000000000000000000000000000000000000000000000000000000000000000000000000000000000000000000000700000000000000070000000000000000000000000000000000000000000000000000000000000000000000000000000000000000000000000000000000000000000000000000000000
310
00000000000000000000000000000000000000000000000000000000000000000000000000000000000000000000000000000000000000000000000000000000000000000000000000000000000000000000000000000000000000000000000000000000000000000000070000000000000007000000000000000000000000
310
00000000000000000000000000000000000000000000000000000000000000000000000000000000000000000000000000000000000000000000000000000000000000000000000000000000000000000000000000000000000000000000000000000000000000000000000000000000000000000000000000000000000000
310
00000000000000000000000000000000000000000000000000000000000000000700000000000000070000000000000000000000000000000000000000000000000000000000000000000000000000000000000000000000000000000000000000000000000000000000000000000000000000000000000000000000000000
310
00000000000000000000000000000000000000000000000000000000000000000000000000000000000000000000000000000000000000000000000000000000000000000000000000000000000000000000000000070000000000000007000000000000000000000000000000000000000000000000000000000000000000
310
00000000000000000000000000000000000000000000000000000000000000000000000000000000000000000000000000000000000000000000000000000000000000000000000000000000000000000000000000000000000000000000000000000000000000000000000000000000000000000000000000000000000000
310
00000000000000000000000700000000000000070000000000000000000000000000000000000000000000000000000000000000000000000000000000000000000000000000000000000000000000000000000000000000000000000000000000000000000000000000000000000000000000000000000000000000000000
310
00000000000000000000000000000000000000000000000000000000000000000000000000000000000000000000000000000000000000000000000000000000070000000000000007000000000000000000000000000000000000000000000000000000000000000000000000000000000000000000000000000000000000
310
00000000000000000000000000000000000000000000000000000000000000000000000000000000000000000000000000000000000000000000000000000000000000000000000000000000000000000000000000000000000000000000000000000000000000000000000000000000000000000007000000000000000700
310
00000000000000000000000000000000000000000000000000000000000000000000000000000000000000000000000000000000000000000000000000000000000000000000000000000000000000000000000000000000000000000000000000000000000000000000000000000000000000000000000000000000000000
310
00000000000000000000000000000000000000000000000000000000000000000000000000000000000000070000000000000007000000000000000000000000000000000000000000000000000000000000000000000000000000000000000000000000000000000000000000000000000000000000000000000000000000
310
00000000000000000000000000000000000000000000000000000000000000000000000000000000000000000000000000000000000000000000000000000000000000000000000000000000000000000000000000000000000000000000000007000000000000000700000000000000000000000000000000000000000000
310
00000000000000000000000000000000000000000000000000000000000000000000000000000000000000000000000000000000000000000000000000000000000000000000000000000000000000000000000000000000000000000000000000000000000000000000000000000000000000000000000000000000000000
310
00000000000000000000000000000000000000000000070000000000000007000000000000000000000000000000000000000000000000000000000000000000000000000000000000000000000000000000000000000000000000000000000000000000000000000000000000000000000000000000000000000000000000
310
00000000000000000000000000000000000000000000000000000000000000000000000000000000000000000000000000000000000000000000000000000000000000000000000000000007000000000000000700000000000000000000000000000000000000000000000000000000000000000000000000000000000000
310
00000000000000000000000000000000000000000000000000000000000000000000000000000000000000000000000000000000000000000000000000000000000000000000000000000000000000000000000000000000000000000000000000000000000000000000000000000000000000000000000000000000000000
310
00070000000000000007000000000000000000000000000000000000000000000000000000000000000000000000000000000000000000000000000000000000000000000000000000000000000000000000000000000000000000000000000000000000000000000000000000000000000000000000000000000000000000
310
00000000000000000000000000000000000000000000000000000000000000000000000000000000000000000000000000000000000007000000000000000700000000000000000000000000000000000000000000000000000000000000000000000000000000000000000000000000000000000000000000000000000000
310
00000000000000000000000000000000000000000000000000000000000000000000000000000000000000000000000000000000000000000000000000000000000000000000000000000000000000000000000000000000000000000000000000000000000000000000000700000000000000070000000000000000000000
310
00000000000000000000000000000000000000000000000000000000000000000000000000000000000000000000000000000000000000000000000000000000000000000000000000000000000000000000000000000000000000000000000000000000000000000000000000000000000000000000000000000000000000
310
00000000000000000000000000000000000000000000000000000000000000000007000000000000000700000000000000000000000000000000000000000000000000000000000000000000000000000000000000000000000000000000000000000000000000000000000000000000000000000000000000000000000000
310
00000000000000000000000000000000000000000000000000000000000000000000000000000000000000000000000000000000000000000000000000000000000000000000000000000000000000000000000000000700000000000000070000000000000000000000000000000000000000000000000000000000000000
310
00000000000000000000000000000000000000000000000000000000000000000000000000000000000000000000000000000000000000000000000000000000000000000000000000000000000000000000000000000000000000000000000000000000000000000000000000000000000000000000000000000000000000
310
00000000000000000000000007000000000000000700000000000000000000000000000000000000000000000000000000000000000000000000000000000000000000000000000000000000000000000000000000000000000000000000000000000000000000000000000000000000000000000000000000000000000000
310
00000000000000000000000000000000000000000000000000000000000000000000000000000000000000000000000000000000000000000000000000000000000700000000000000070000000000000000000000000000000000000000000000000000000000000000000000000000000000000000000000000000000000
310
00000000000000000000000000000000000000000000000000000000000000000000000000000000000000000000000000000000000000000000000000000000000000000000000000000000000000000000000000000000000000000000000000000000000000000000000000000000000000000000070000000000000007
310
00000000000000000000000000000000000000000000000000000000000000000000000000000000000000000000000000000000000000000000000000000000000000000000000000000000000000000000000000000000000000000000000000000000000000000000000000000000000000000000000000000000000000
310
00000000000000000000000000000000000000000000000000000000000000000000000000000000000000000700000000000000070000000000000000000000000000000000000000000000000000000000000000000000000000000000000000000000000000000000000000000000000000000000000000000000000000
310
00000000000000000000000000000000000000000000000000000000000000000000000000000000000000000000000000000000000000000000000000000000000000000000000000000000000000000000000000000000000000000000000000070000000000000007000000000000000000000000000000000000000000
310
00000000000000000000000000000000000000000000000000000000000000000000000000000000000000000000000000000000000000000000000000000000000000000000000000000000000000000000000000000000000000000000000000000000000000000000070707070707070707070707070707070707070707
310
07070707070000000000000000000000000000000000000700000000000000070000000000000000000000000000000000000707070707070707070707070707070707070707070707070707000000000000000000000000000000000000000000000000000000000000000000000000000000000000000000000000000000
310
00000000000000000000000000000000000000000000000000000000000000000700000000000000000000000000000000000000000000000007000000000000000000000000000000000000070000000000000007000000000000000000000000000000000000070000000000000000000000000000000000000000000000
310
00070000000000000000000000000000000000000000000000000000000000000000000000000000000000000000000000000000000000000000000000000000000000000000000000000000000000000000000000070000000000000000000000000000000000000000000000000700000000000000000000000000000000
310
00000700000000000000070000000000000000000000000000000000000700000000000000000000000000000000000000000000000007000000000000000000000000000000000000000000000000000000000000000000000000000000000000000000000000000000000000000000000000000000000000000000000000
310
00000000000000000000000707000000000000000000000000000000000000000000000007000000000000000000000000000000000000070000000000000007000000000000000000000000000000000000070000000000000000000000000000000000000000000000070700000000000000000000000000000000000000
310
00000000000000000000000000000000000000000000000000000000000000000000000000000000000000000000000000000000000000000000000000000000000707070000000000000000000000000000000000000707070000000000000000000000000000000000000007000000000000000700000000000000000000
310
00000000000000000007070700000000000000000000000000000000000007070700000000000000000000000000000000000000000000000000000000000000000000000000000000000000000000000000000000000000000000000000000000000000000000000000000000000000000000000000000000070707070000
310
00000000000000000707070700000000000000000000000000000000000000000000070000000000000007000000000000000000000000000000000000000000000707070700000000000000000000070707070000000000000000000000000000000000000000000000000000000000000000000000000000000000000000
310
00000000000000000000000000000000000000000000000000000000000000000000000000000000000000000000000000000007000000000000000007000000000000000000000000000000000000000000000000000007000000000000000700000000000000000000000000000000000000000000000000000700000000
310
00000000070000000000000000000000000000000000000000000000000000000000000000000000000000000000000000000000000000000000000000000000000000000000000000000000000000000000000000000000000000000000000000000000000000000007000000000000000700000000000000000000000000
310
00000000000000000000000000070000000000000007000000000000000000000000000000000000000000000000000007000000000000000700000000000000000000000000000000000000000000000000000000000000000000000000000000000000000000000000000000000000000000000000000000000000000000
310
00000000000000000000000000000000000000000000000000000000000000070000000000000700000000000000000000000000000000000000000000000000000007000000000000000700000000000000000000000000000000000000000000000000000007000000000000070000000000000000000000000000000000
310
00000000000000000000000000000000000000000000000000000000000000000000000000000000000000000000000000000000000000000000000000000000000000000000000000000000000000000000000007000000000000070000000000000000000000000000000000000000000000000000000700000000000000
310
07000000000000000000000000000000000000000000000000000000070000000000000700000000000000000000000000000000000000000000000000000000000000000000000000000000000000000000000000000000000000000000000000000000000000000000000000000000000000000000000000000000000000
310
00000000000000000000070000000000000700000000000000000000000000000000000000000000000000000007000000000000000700000000000000000000000000000000000000000000000000000007000000000000070000000000000000000000000000000000000000000000000000000000000000000000000000
310
00000000000000000000000000000000000000000000000000000000000000000000000000000000000000000000000000000000000000000000000000000007000000000000070000000000000000000000000000000000000000000000000000000700000000000000070000000000000000000000000000000000000000
310
00000000000000070000000000000700000000000000000000000000000000000000000000000000000000000000000000000000000000000000000000000000000000000000000000000000000000000000000000000000000000000000000000000000000000000000000000000000000000000700000000000007000000
310
00000000000000000000000000000000000000000000000007000000000000000700000000000000000000000000000000000000000000000000000007000000000000070000000000000000000000000000000000000000000000000000000000000000000000000000000000000000000000000000000000000000000000
310
00000000000000000000000000000000000000000000000000000000000000000000000000000000000007000000000000070000000000000000000000000000000000000000000000000000000700000000000000070000000000000000000000000000000000000000000000000000000700000000000007000000000000
310
00000000000000000000000000000000000000000000000000000000000000000000000000000000000000000000000000000000000000000000000000000000000000000000000000000000000000000000000000000000000000000000000707070707070707000000000000000000000000000000000000000000000000
310
00000000000000000000000700000000000000000000000000000000000000000000000000000007070707070707070000000000000000000000000000000000000000000000000000000000000000000000000000000000000000000000000000000000000000000000000000000000000000000000000000000000000000
310
00000000000000000000000000000000000000000707000000000000070700000000000000000000000000000000000000000000000000000700000000000000070000000000000000000000000000000000000000000000000000070700000000000007070000000000000000000000000000000000000000000000000000
310
00000000000000000000000000000000000000000000000000000000000000000000000000000000000000000000000000000000000000000000000000000000000000070707070707070000000000000000070707070707070000000000000000000000000007070707070707070707070707070707070707070707070000
310
00000000000000000000000707070707070700000000000000000707070707070700000000000000000000000000000000000000000000000000000000000000000000000000000000000000000000000000000000000000000000000000000000000000000000000000000000000000000000000000000007000000000000
310
00000000000000000000000000000700000000000000000000000000070000000000000000000000000000000000000000000700000000000000000000000000070000000000000000000000000000000000000000070000000000000000000000000000000000000000000000000000000000000000000000000000000000
310
00000000000000000000000000000000000000000000000000000000000000000000000000000000000000000000070707070707070707070707070707070707070707070000000000000000000000000007070707070707070707070007070707070707070707070000000000000000000000000007070707070707070707
310
07070707070707070707070700000000000000000000000000000000000000000000000000000000000000000000000000000000000000000000000000000000000000000000000000000000000000000000000000000000000000000000000000000000000000000000000000000000000000000000000000000000000000
310
000000000000000000000000000000000000000000000000000000000000000000000000000000000000000000000000000000000000000000000000000000000000000000000000000000000000000000000000000000000000000000000000000000000000000000000000
  0
ENDSEC
  0
EOF
