  0
SECTION
  2
HEADER
  9
$ACADVER
  1
AC1015
  9
$ACADMAINTVER
 70
     6
  9
$DWGCODEPAGE
  3
ANSI_1252
  9
$INSBASE
 10
0.0
 20
0.0
 30
0.0
  9
$EXTMIN
 10
-0.0231
 20
-0.1485
 30
0.0
  9
$EXTMAX
 10
272.0231
 20
104.1485
 30
0.0
  9
$LIMMIN
 10
0.0
 20
0.0
  9
$LIMMAX
 10
12.0
 20
9.0
  9
$ORTHOMODE
 70
     0
  9
$REGENMODE
 70
     1
  9
$FILLMODE
 70
     1
  9
$QTEXTMODE
 70
     0
  9
$MIRRTEXT
 70
     1
  9
$LTSCALE
 40
1.0
  9
$ATTMODE
 70
     1
  9
$TEXTSIZE
 40
0.2
  9
$TRACEWID
 40
0.05
  9
$TEXTSTYLE
  7
Standard
  9
$CLAYER
  8
0
  9
$CELTYPE
  6
ByBlock
  9
$CECOLOR
 62
   256
  9
$CELTSCALE
 40
1.0
  9
$DISPSILH
 70
     0
  9
$DIMSCALE
 40
1.0
  9
$DIMASZ
 40
0.18
  9
$DIMEXO
 40
0.0625
  9
$DIMDLI
 40
0.38
  9
$DIMRND
 40
0.0
  9
$DIMDLE
 40
0.0
  9
$DIMEXE
 40
0.18
  9
$DIMTP
 40
0.0
  9
$DIMTM
 40
0.0
  9
$DIMTXT
 40
0.18
  9
$DIMCEN
 40
0.09
  9
$DIMTSZ
 40
0.0
  9
$DIMTOL
 70
     0
  9
$DIMLIM
 70
     0
  9
$DIMTIH
 70
     1
  9
$DIMTOH
 70
     1
  9
$DIMSE1
 70
     0
  9
$DIMSE2
 70
     0
  9
$DIMTAD
 70
     0
  9
$DIMZIN
 70
     0
  9
$DIMBLK
  1

  9
$DIMASO
 70
     1
  9
$DIMSHO
 70
     1
  9
$DIMPOST
  1

  9
$DIMAPOST
  1

  9
$DIMALT
 70
     0
  9
$DIMALTD
 70
     2
  9
$DIMALTF
 40
25.4
  9
$DIMLFAC
 40
1.0
  9
$DIMTOFL
 70
     0
  9
$DIMTVP
 40
0.0
  9
$DIMTIX
 70
     0
  9
$DIMSOXD
 70
     0
  9
$DIMSAH
 70
     0
  9
$DIMBLK1
  1

  9
$DIMBLK2
  1

  9
$DIMSTYLE
  2
Standard
  9
$DIMCLRD
 70
     0
  9
$DIMCLRE
 70
     0
  9
$DIMCLRT
 70
     0
  9
$DIMTFAC
 40
1.0
  9
$DIMGAP
 40
0.09
  9
$DIMJUST
 70
     0
  9
$DIMSD1
 70
     0
  9
$DIMSD2
 70
     0
  9
$DIMTOLJ
 70
     1
  9
$DIMTZIN
 70
     0
  9
$DIMALTZ
 70
     0
  9
$DIMALTTZ
 70
     0
  9
$DIMUPT
 70
     0
  9
$DIMDEC
 70
     4
  9
$DIMTDEC
 70
     4
  9
$DIMALTU
 70
     2
  9
$DIMALTTD
 70
     2
  9
$DIMTXSTY
  7
Standard
  9
$DIMAUNIT
 70
     0
  9
$DIMADEC
 70
     0
  9
$DIMALTRND
 40
0.0
  9
$DIMAZIN
 70
     0
  9
$DIMDSEP
 70
    46
  9
$DIMATFIT
 70
     3
  9
$DIMFRAC
 70
     0
  9
$DIMLDRBLK
  1

  9
$DIMLUNIT
 70
     2
  9
$DIMLWD
 70
    -2
  9
$DIMLWE
 70
    -2
  9
$DIMTMOVE
 70
     2
  9
$LUNITS
 70
     2
  9
$LUPREC
 70
     4
  9
$SKETCHINC
 40
0.1
  9
$FILLETRAD
 40
0.5
  9
$AUNITS
 70
     0
  9
$AUPREC
 70
     0
  9
$MENU
  1
.
  9
$ELEVATION
 40
0.0
  9
$PELEVATION
 40
0.0
  9
$THICKNESS
 40
0.0
  9
$LIMCHECK
 70
     0
  9
$CHAMFERA
 40
0.5
  9
$CHAMFERB
 40
0.5
  9
$CHAMFERC
 40
1.0
  9
$CHAMFERD
 40
0.0
  9
$SKPOLY
 70
     0
  9
$TDCREATE
 40
2455824.916282188
  9
$TDUCREATE
 40
2455824.832948854
  9
$TDUPDATE
 40
2455824.921004583
  9
$TDUUPDATE
 40
2455824.83767125
  9
$TDINDWG
 40
0.0047220486
  9
$TDUSRTIMER
 40
0.0047220486
  9
$USRTIMER
 70
     1
  9
$ANGBASE
 50
0.0
  9
$ANGDIR
 70
     0
  9
$PDMODE
 70
     0
  9
$PDSIZE
 40
0.0
  9
$PLINEWID
 40
0.0
  9
$SPLFRAME
 70
     0
  9
$SPLINETYPE
 70
     6
  9
$SPLINESEGS
 70
     8
  9
$HANDSEED
  5
AA1
  9
$SURFTAB1
 70
     6
  9
$SURFTAB2
 70
     6
  9
$SURFTYPE
 70
     6
  9
$SURFU
 70
     6
  9
$SURFV
 70
     6
  9
$UCSBASE
  2

  9
$UCSNAME
  2

  9
$UCSORG
 10
0.0
 20
0.0
 30
0.0
  9
$UCSXDIR
 10
1.0
 20
0.0
 30
0.0
  9
$UCSYDIR
 10
0.0
 20
1.0
 30
0.0
  9
$UCSORTHOREF
  2

  9
$UCSORTHOVIEW
 70
     0
  9
$UCSORGTOP
 10
0.0
 20
0.0
 30
0.0
  9
$UCSORGBOTTOM
 10
0.0
 20
0.0
 30
0.0
  9
$UCSORGLEFT
 10
0.0
 20
0.0
 30
0.0
  9
$UCSORGRIGHT
 10
0.0
 20
0.0
 30
0.0
  9
$UCSORGFRONT
 10
0.0
 20
0.0
 30
0.0
  9
$UCSORGBACK
 10
0.0
 20
0.0
 30
0.0
  9
$PUCSBASE
  2

  9
$PUCSNAME
  2

  9
$PUCSORG
 10
0.0
 20
0.0
 30
0.0
  9
$PUCSXDIR
 10
1.0
 20
0.0
 30
0.0
  9
$PUCSYDIR
 10
0.0
 20
1.0
 30
0.0
  9
$PUCSORTHOREF
  2

  9
$PUCSORTHOVIEW
 70
     0
  9
$PUCSORGTOP
 10
0.0
 20
0.0
 30
0.0
  9
$PUCSORGBOTTOM
 10
0.0
 20
0.0
 30
0.0
  9
$PUCSORGLEFT
 10
0.0
 20
0.0
 30
0.0
  9
$PUCSORGRIGHT
 10
0.0
 20
0.0
 30
0.0
  9
$PUCSORGFRONT
 10
0.0
 20
0.0
 30
0.0
  9
$PUCSORGBACK
 10
0.0
 20
0.0
 30
0.0
  9
$USERI1
 70
     0
  9
$USERI2
 70
     0
  9
$USERI3
 70
     0
  9
$USERI4
 70
     0
  9
$USERI5
 70
     0
  9
$USERR1
 40
0.0
  9
$USERR2
 40
0.0
  9
$USERR3
 40
0.0
  9
$USERR4
 40
0.0
  9
$USERR5
 40
0.0
  9
$WORLDVIEW
 70
     1
  9
$SHADEDGE
 70
     3
  9
$SHADEDIF
 70
    70
  9
$TILEMODE
 70
     1
  9
$MAXACTVP
 70
    64
  9
$PINSBASE
 10
0.0
 20
0.0
 30
0.0
  9
$PLIMCHECK
 70
     0
  9
$PEXTMIN
 10
1.000000000000E+20
 20
1.000000000000E+20
 30
1.000000000000E+20
  9
$PEXTMAX
 10
-1.000000000000E+20
 20
-1.000000000000E+20
 30
-1.000000000000E+20
  9
$PLIMMIN
 10
0.0
 20
0.0
  9
$PLIMMAX
 10
12.0
 20
9.0
  9
$UNITMODE
 70
     0
  9
$VISRETAIN
 70
     1
  9
$PLINEGEN
 70
     0
  9
$PSLTSCALE
 70
     1
  9
$TREEDEPTH
 70
  3020
  9
$CMLSTYLE
  2
Standard
  9
$CMLJUST
 70
     0
  9
$CMLSCALE
 40
1.0
  9
$PROXYGRAPHICS
 70
     1
  9
$MEASUREMENT
 70
     0
  9
$CELWEIGHT
370
    -1
  9
$ENDCAPS
280
     0
  9
$JOINSTYLE
280
     0
  9
$LWDISPLAY
290
     0
  9
$INSUNITS
 70
     0
  9
$HYPERLINKBASE
  1

  9
$STYLESHEET
  1

  9
$XEDIT
290
     1
  9
$CEPSNTYPE
380
     0
  9
$PSTYLEMODE
290
     1
  9
$FINGERPRINTGUID
  2
{3BA1C280-5AB7-44A8-9EA0-DB1DC5FA4EA0}
  9
$VERSIONGUID
  2
{FAEB1C32-E019-11D5-929B-00C0DF256EC4}
  9
$EXTNAMES
290
     1
  9
$PSVPSCALE
 40
0.0
  9
$OLESTARTUP
290
     0
  0
ENDSEC
  0
SECTION
  2
CLASSES
  0
CLASS
  1
ACDBDICTIONARYWDFLT
  2
AcDbDictionaryWithDefault
  3
ObjectDBX Classes
 90
        0
280
     0
281
     0
  0
CLASS
  1
SCALE
  2
AcDbScale
  3
ObjectDBX Classes
 90
     1153
280
     0
281
     0
  0
CLASS
  1
DICTIONARYVAR
  2
AcDbDictionaryVar
  3
ObjectDBX Classes
 90
        0
280
     0
281
     0
  0
CLASS
  1
ACDBPLACEHOLDER
  2
AcDbPlaceHolder
  3
ObjectDBX Classes
 90
        0
280
     0
281
     0
  0
CLASS
  1
LAYOUT
  2
AcDbLayout
  3
ObjectDBX Classes
 90
        0
280
     0
281
     0
  0
ENDSEC
  0
SECTION
  2
TABLES
  0
TABLE
  2
VPORT
  5
8
330
0
100
AcDbSymbolTable
 70
     1
  0
VPORT
  5
757
330
8
100
AcDbSymbolTableRecord
100
AcDbViewportTableRecord
  2
*Active
 70
     0
 10
0.0
 20
0.0
 11
1.0
 21
1.0
 12
136.0
 22
52.0
 13
0.0
 23
0.0
 14
0.5
 24
0.5
 15
0.5
 25
0.5
 16
0.0
 26
0.0
 36
1.0
 17
0.0
 27
0.0
 37
0.0
 40
154.946543395022
 41
1.790857142857
 42
50.0
 43
0.0
 44
0.0
 50
0.0
 51
0.0
 71
    16
 72
   100
 73
     1
 74
     3
 75
     0
 76
     0
 77
     0
 78
     0
281
     0
 65
     1
110
0.0
120
0.0
130
0.0
111
1.0
121
0.0
131
0.0
112
0.0
122
1.0
132
0.0
 79
     0
146
0.0
  0
ENDTAB
  0
TABLE
  2
LTYPE
  5
5
330
0
100
AcDbSymbolTable
 70
     1
  0
LTYPE
  5
14
330
5
100
AcDbSymbolTableRecord
100
AcDbLinetypeTableRecord
  2
ByBlock
 70
     0
  3

 72
    65
 73
     0
 40
0.0
  0
LTYPE
  5
15
330
5
100
AcDbSymbolTableRecord
100
AcDbLinetypeTableRecord
  2
ByLayer
 70
     0
  3

 72
    65
 73
     0
 40
0.0
  0
LTYPE
  5
16
330
5
100
AcDbSymbolTableRecord
100
AcDbLinetypeTableRecord
  2
Continuous
 70
     0
  3
Solid line
 72
    65
 73
     0
 40
0.0
  0
ENDTAB
  0
TABLE
  2
LAYER
  5
2
330
0
100
AcDbSymbolTable
 70
     1
  0
LAYER
  5
10
330
2
100
AcDbSymbolTableRecord
100
AcDbLayerTableRecord
  2
0
 70
     0
 62
     7
  6
Continuous
370
    -3
390
F
  0
ENDTAB
  0
TABLE
  2
STYLE
  5
3
330
0
100
AcDbSymbolTable
 70
     1
  0
STYLE
  5
11
330
3
100
AcDbSymbolTableRecord
100
AcDbTextStyleTableRecord
  2
Standard
 70
     0
 40
0.0
 41
1.0
 50
0.0
 71
     0
 42
0.2
  3
txt
  4

  0
ENDTAB
  0
TABLE
  2
VIEW
  5
6
330
0
100
AcDbSymbolTable
 70
     0
  0
ENDTAB
  0
TABLE
  2
UCS
  5
7
330
0
100
AcDbSymbolTable
 70
     0
  0
ENDTAB
  0
TABLE
  2
APPID
  5
9
330
0
100
AcDbSymbolTable
 70
     1
  0
APPID
  5
12
330
9
100
AcDbSymbolTableRecord
100
AcDbRegAppTableRecord
  2
ACAD
 70
     0
  0
ENDTAB
  0
TABLE
  2
DIMSTYLE
  5
A
330
0
100
AcDbSymbolTable
 70
     1
100
AcDbDimStyleTable
  0
DIMSTYLE
105
20
330
A
100
AcDbSymbolTableRecord
100
AcDbDimStyleTableRecord
  2
Standard
 70
     0
340
11
  0
ENDTAB
  0
TABLE
  2
BLOCK_RECORD
  5
1
330
0
100
AcDbSymbolTable
 70
     1
  0
BLOCK_RECORD
  5
1D
330
1
100
AcDbSymbolTableRecord
100
AcDbBlockTableRecord
  2
*Model_Space
340
1E
  0
BLOCK_RECORD
  5
1B
330
1
100
AcDbSymbolTableRecord
100
AcDbBlockTableRecord
  2
*Paper_Space
340
1C
  0
ENDTAB
  0
ENDSEC
  0
SECTION
  2
BLOCKS
  0
BLOCK
  5
75A
330
1D
100
AcDbEntity
  8
0
100
AcDbBlockBegin
  2
*Model_Space
 70
     0
 10
0.0
 20
0.0
 30
0.0
  3
*Model_Space
  1
*Model_Space
  0
ENDBLK
  5
75B
330
1D
100
AcDbEntity
  8
0
100
AcDbBlockEnd
  0
BLOCK
  5
758
330
1B
100
AcDbEntity
 67
     1
  8
0
100
AcDbBlockBegin
  2
*Paper_Space
 70
     0
 10
0.0
 20
0.0
 30
0.0
  3
*Paper_Space
  1
*Paper_Space
  0
ENDBLK
  5
759
330
1B
100
AcDbEntity
 67
     1
  8
0
100
AcDbBlockEnd
  0
ENDSEC
  0
SECTION
  2
ENTITIES
  0
LINE
  5
21
330
1D
100
AcDbEntity
  8
0
100
AcDbLine
 10
14.2221
 20
33.1955
 30
0.0
 11
57.7072
 21
33.2745
 31
0.0
  0
LINE
  5
227
330
1D
100
AcDbEntity
  8
0
100
AcDbLine
 10
112.847
 20
33.6455
 30
0.0
 11
114.3591
 21
33.2785
 31
0.0
  0
LINE
  5
228
330
1D
100
AcDbEntity
  8
0
100
AcDbLine
 10
114.3591
 20
33.2785
 30
0.0
 11
115.9088
 21
33.1555
 31
0.0
  0
LINE
  5
229
330
1D
100
AcDbEntity
  8
0
100
AcDbLine
 10
128.2047
 20
1.8075
 30
0.0
 11
129.5729
 21
1.1605
 31
0.0
  0
LINE
  5
22A
330
1D
100
AcDbEntity
  8
0
100
AcDbLine
 10
126.8335
 20
1.8525
 30
0.0
 11
126.9952
 21
1.7095
 31
0.0
  0
LINE
  5
22B
330
1D
100
AcDbEntity
  8
0
100
AcDbLine
 10
126.9952
 20
1.7095
 30
0.0
 11
128.3872
 21
1.0115
 31
0.0
  0
LINE
  5
22E
330
1D
100
AcDbEntity
  8
0
100
AcDbLine
 10
133.4999
 20
0.3325
 30
0.0
 11
135.7908
 21
0.2085
 31
0.0
  0
LINE
  5
233
330
1D
100
AcDbEntity
  8
0
100
AcDbLine
 10
136.0001
 20
0.2165
 30
0.0
 11
136.2091
 21
0.2085
 31
0.0
  0
LINE
  5
234
330
1D
100
AcDbEntity
  8
0
100
AcDbLine
 10
135.7908
 20
0.2085
 30
0.0
 11
136.0001
 21
0.2165
 31
0.0
  0
LINE
  5
235
330
1D
100
AcDbEntity
  8
0
100
AcDbLine
 10
134.7738
 20
-0.1485
 30
0.0
 11
136.0001
 21
-0.1485
 31
0.0
  0
LINE
  5
236
330
1D
100
AcDbEntity
  8
0
100
AcDbLine
 10
132.3936
 20
0.0555
 30
0.0
 11
134.7738
 21
-0.1485
 31
0.0
  0
LINE
  5
237
330
1D
100
AcDbEntity
  8
0
100
AcDbLine
 10
129.5729
 20
1.1605
 30
0.0
 11
131.3786
 21
0.6575
 31
0.0
  0
LINE
  5
23F
330
1D
100
AcDbEntity
  8
0
100
AcDbLine
 10
131.3786
 20
0.6575
 30
0.0
 11
133.4999
 21
0.3325
 31
0.0
  0
LINE
  5
240
330
1D
100
AcDbEntity
  8
0
100
AcDbLine
 10
130.2227
 20
0.4485
 30
0.0
 11
132.3936
 21
0.0555
 31
0.0
  0
LINE
  5
241
330
1D
100
AcDbEntity
  8
0
100
AcDbLine
 10
128.3872
 20
1.0115
 30
0.0
 11
130.2227
 21
0.4485
 31
0.0
  0
LINE
  5
244
330
1D
100
AcDbEntity
  8
0
100
AcDbLine
 10
127.1203
 20
3.3545
 30
0.0
 11
127.3683
 21
2.5565
 31
0.0
  0
LINE
  5
245
330
1D
100
AcDbEntity
  8
0
100
AcDbLine
 10
127.1203
 20
3.3545
 30
0.0
 11
127.4774
 21
4.1475
 31
0.0
  0
LINE
  5
246
330
1D
100
AcDbEntity
  8
0
100
AcDbLine
 10
125.9495
 20
2.6595
 30
0.0
 11
126.8335
 21
1.8525
 31
0.0
  0
LINE
  5
247
330
1D
100
AcDbEntity
  8
0
100
AcDbLine
 10
127.4774
 20
4.1475
 30
0.0
 11
128.415
 21
4.8805
 31
0.0
  0
LINE
  5
248
330
1D
100
AcDbEntity
  8
0
100
AcDbLine
 10
127.5598
 20
4.0755
 30
0.0
 11
127.65489565305
 21
4.286263133197
 31
0.0
  0
LINE
  5
249
330
1D
100
AcDbEntity
  8
0
100
AcDbLine
 10
128.415
 20
4.8805
 30
0.0
 11
129.8695
 21
5.5055
 31
0.0
  0
LINE
  5
24A
330
1D
100
AcDbEntity
  8
0
100
AcDbLine
 10
129.8695
 20
5.5055
 30
0.0
 11
131.7417
 21
5.9785
 31
0.0
  0
LINE
  5
24B
330
1D
100
AcDbEntity
  8
0
100
AcDbLine
 10
129.463553950575
 20
5.331064605782
 30
0.0
 11
130.4182
 21
4.8785
 31
0.0
  0
LINE
  5
24C
330
1D
100
AcDbEntity
  8
0
100
AcDbLine
 10
128.717915665907
 20
5.010663142793
 30
0.0
 11
129.9876
 21
4.4095
 31
0.0
  0
LINE
  5
24D
330
1D
100
AcDbEntity
  8
0
100
AcDbLine
 10
131.7417
 20
5.9785
 30
0.0
 11
133.9047
 21
6.2685
 31
0.0
  0
LINE
  5
24E
330
1D
100
AcDbEntity
  8
0
100
AcDbLine
 10
130.4182
 20
4.8785
 30
0.0
 11
131.9868
 21
4.4415
 31
0.0
  0
LINE
  5
24F
330
1D
100
AcDbEntity
  8
0
100
AcDbLine
 10
129.9876
 20
4.4095
 30
0.0
 11
131.6763
 21
3.9385
 31
0.0
  0
LINE
  5
250
330
1D
100
AcDbEntity
  8
0
100
AcDbLine
 10
131.9868
 20
4.4415
 30
0.0
 11
133.8283
 21
4.1595
 31
0.0
  0
LINE
  5
251
330
1D
100
AcDbEntity
  8
0
100
AcDbLine
 10
131.6763
 20
3.9385
 30
0.0
 11
133.6606
 21
3.6355
 31
0.0
  0
LINE
  5
252
330
1D
100
AcDbEntity
  8
0
100
AcDbLine
 10
133.9047
 20
6.2685
 30
0.0
 11
136.0001
 21
6.3455
 31
0.0
  0
LINE
  5
253
330
1D
100
AcDbEntity
  8
0
100
AcDbLine
 10
133.9047
 20
6.2685
 30
0.0
 11
136.0001
 21
6.4035
 31
0.0
  0
LINE
  5
254
330
1D
100
AcDbEntity
  8
0
100
AcDbLine
 10
133.8283
 20
4.1595
 30
0.0
 11
135.8185
 21
4.0515
 31
0.0
  0
LINE
  5
255
330
1D
100
AcDbEntity
  8
0
100
AcDbLine
 10
133.6606
 20
3.6355
 30
0.0
 11
135.8037
 21
3.5195
 31
0.0
  0
LINE
  5
258
330
1D
100
AcDbEntity
  8
0
100
AcDbLine
 10
136.0001
 20
3.5275
 30
0.0
 11
136.1961
 21
3.5195
 31
0.0
  0
LINE
  5
25D
330
1D
100
AcDbEntity
  8
0
100
AcDbLine
 10
136.0001
 20
6.4035
 30
0.0
 11
136.0001
 21
6.3455
 31
0.0
  0
LINE
  5
25E
330
1D
100
AcDbEntity
  8
0
100
AcDbLine
 10
136.0001
 20
4.0585
 30
0.0
 11
136.1821
 21
4.0515
 31
0.0
  0
LINE
  5
270
330
1D
100
AcDbEntity
  8
0
100
AcDbLine
 10
136.0001
 20
6.3455
 30
0.0
 11
136.0001
 21
6.4035
 31
0.0
  0
LINE
  5
272
330
1D
100
AcDbEntity
  8
0
100
AcDbLine
 10
135.8185
 20
4.0515
 30
0.0
 11
136.0001
 21
4.0585
 31
0.0
  0
LINE
  5
273
330
1D
100
AcDbEntity
  8
0
100
AcDbLine
 10
135.8037
 20
3.5195
 30
0.0
 11
136.0001
 21
3.5275
 31
0.0
  0
LINE
  5
274
330
1D
100
AcDbEntity
  8
0
100
AcDbLine
 10
125.6489
 20
3.5165
 30
0.0
 11
125.9495
 21
2.6595
 31
0.0
  0
LINE
  5
275
330
1D
100
AcDbEntity
  8
0
100
AcDbLine
 10
125.5824
 20
3.7525
 30
0.0
 11
125.6489
 21
3.5165
 31
0.0
  0
LINE
  5
276
330
1D
100
AcDbEntity
  8
0
100
AcDbLine
 10
125.5824
 20
3.7525
 30
0.0
 11
125.5824
 21
37.0865
 31
0.0
  0
LINE
  5
277
330
1D
100
AcDbEntity
  8
0
100
AcDbLine
 10
127.3683
 20
2.5565
 30
0.0
 11
128.2047
 21
1.8075
 31
0.0
  0
LINE
  5
278
330
1D
100
AcDbEntity
  8
0
100
AcDbLine
 10
115.9088
 20
33.1555
 30
0.0
 11
125.5824
 21
33.1555
 31
0.0
  0
LINE
  5
288
330
1D
100
AcDbEntity
  8
0
100
AcDbLine
 10
110.0848
 20
35.0695
 30
0.0
 11
111.4104
 21
34.2475
 31
0.0
  0
LINE
  5
289
330
1D
100
AcDbEntity
  8
0
100
AcDbLine
 10
111.4104
 20
34.2475
 30
0.0
 11
112.847
 21
33.6455
 31
0.0
  0
LINE
  5
2CC
330
1D
100
AcDbEntity
  8
0
100
AcDbLine
 10
125.5824
 20
37.0865
 30
0.0
 11
125.5824
 21
3.7525
 31
0.0
  0
LINE
  5
2CD
330
1D
100
AcDbEntity
  8
0
100
AcDbLine
 10
125.5824
 20
37.0865
 30
0.0
 11
125.5824
 21
41.5825
 31
0.0
  0
LINE
  5
2CE
330
1D
100
AcDbEntity
  8
0
100
AcDbLine
 10
107.8931
 20
37.2865
 30
0.0
 11
108.9022
 21
36.0905
 31
0.0
  0
LINE
  5
2CF
330
1D
100
AcDbEntity
  8
0
100
AcDbLine
 10
108.9022
 20
36.0905
 30
0.0
 11
110.0848
 21
35.0695
 31
0.0
  0
LINE
  5
308
330
1D
100
AcDbEntity
  8
0
100
AcDbLine
 10
107.0806
 20
38.6285
 30
0.0
 11
107.8931
 21
37.2865
 31
0.0
  0
LINE
  5
312
330
1D
100
AcDbEntity
  8
0
100
AcDbLine
 10
125.145211456454
 20
38.760577087092
 30
0.0
 11
125.5824
 21
38.556185811235
 31
0.0
  0
LINE
  5
314
330
1D
100
AcDbEntity
  8
0
100
AcDbLine
 10
106.4853
 20
40.0805
 30
0.0
 11
107.0806
 21
38.6285
 31
0.0
  0
LINE
  5
323
330
1D
100
AcDbEntity
  8
0
100
AcDbLine
 10
123.5882
 20
39.4875
 30
0.0
 11
125.5824
 21
38.556466598215
 31
0.0
  0
LINE
  5
324
330
1D
100
AcDbEntity
  8
0
100
AcDbLine
 10
125.145211456454
 20
38.760577087092
 30
0.0
 11
125.5824
 21
38.556185811235
 31
0.0
  0
LINE
  5
34D
330
1D
100
AcDbEntity
  8
0
100
AcDbLine
 10
106.1221
 20
41.6105
 30
0.0
 11
106.4853
 21
40.0805
 31
0.0
  0
LINE
  5
355
330
1D
100
AcDbEntity
  8
0
100
AcDbLine
 10
125.5824
 20
41.5825
 30
0.0
 11
125.5824
 21
37.0865
 31
0.0
  0
LINE
  5
356
330
1D
100
AcDbEntity
  8
0
100
AcDbLine
 10
125.5824
 20
41.5825
 30
0.0
 11
125.5824
 21
45.8055
 31
0.0
  0
LINE
  5
35B
330
1D
100
AcDbEntity
  8
0
100
AcDbLine
 10
121.3211
 20
40.8345
 30
0.0
 11
122.166297669583
 21
40.332697669596
 31
0.0
  0
LINE
  5
35C
330
1D
100
AcDbEntity
  8
0
100
AcDbLine
 10
121.3211
 20
40.8345
 30
0.0
 11
122.166297669583
 21
40.332697669596
 31
0.0
  0
LINE
  5
367
330
1D
100
AcDbEntity
  8
0
100
AcDbLine
 10
119.1949
 20
42.3995
 30
0.0
 11
121.3221
 21
40.8345
 31
0.0
  0
LINE
  5
384
330
1D
100
AcDbEntity
  8
0
100
AcDbLine
 10
106.0001
 20
43.1785
 30
0.0
 11
106.1221
 21
41.6105
 31
0.0
  0
LINE
  5
392
330
1D
100
AcDbEntity
  8
0
100
AcDbLine
 10
117.2314
 20
44.1665
 30
0.0
 11
119.1949
 21
42.3995
 31
0.0
  0
LINE
  5
3D0
330
1D
100
AcDbEntity
  8
0
100
AcDbLine
 10
115.4485
 20
46.1205
 30
0.0
 11
117.2314
 21
44.1665
 31
0.0
  0
LINE
  5
3D1
330
1D
100
AcDbEntity
  8
0
100
AcDbLine
 10
113.863
 20
48.2425
 30
0.0
 11
115.4485
 21
46.1205
 31
0.0
  0
LINE
  5
3D2
330
1D
100
AcDbEntity
  8
0
100
AcDbLine
 10
112.4908
 20
50.5105
 30
0.0
 11
113.863
 21
48.2425
 31
0.0
  0
LINE
  5
3D3
330
1D
100
AcDbEntity
  8
0
100
AcDbLine
 10
111.3459
 20
52.9045
 30
0.0
 11
112.4908
 21
50.5105
 31
0.0
  0
LINE
  5
3D4
330
1D
100
AcDbEntity
  8
0
100
AcDbLine
 10
110.4371
 20
55.4005
 30
0.0
 11
111.3459
 21
52.9045
 31
0.0
  0
LINE
  5
3D5
330
1D
100
AcDbEntity
  8
0
100
AcDbLine
 10
109.7753
 20
57.9745
 30
0.0
 11
110.4371
 21
55.4005
 31
0.0
  0
LINE
  5
3D6
330
1D
100
AcDbEntity
  8
0
100
AcDbLine
 10
120.7784
 20
54.7605
 30
0.0
 11
122.6258
 21
52.0795
 31
0.0
  0
LINE
  5
3D7
330
1D
100
AcDbEntity
  8
0
100
AcDbLine
 10
125.5824
 20
45.8055
 30
0.0
 11
125.5824
 21
41.5825
 31
0.0
  0
LINE
  5
3D8
330
1D
100
AcDbEntity
  8
0
100
AcDbLine
 10
125.5824
 20
45.8055
 30
0.0
 11
125.5824
 21
49.6955
 31
0.0
  0
LINE
  5
3EC
330
1D
100
AcDbEntity
  8
0
100
AcDbLine
 10
125.5824
 20
49.6955
 30
0.0
 11
125.5824
 21
45.8055
 31
0.0
  0
LINE
  5
3ED
330
1D
100
AcDbEntity
  8
0
100
AcDbLine
 10
125.5824
 20
49.6955
 30
0.0
 11
125.5824
 21
53.1905
 31
0.0
  0
LINE
  5
3F6
330
1D
100
AcDbEntity
  8
0
100
AcDbLine
 10
124.9286
 20
49.7885
 30
0.0
 11
125.5824
 21
49.343248488693
 31
0.0
  0
LINE
  5
3F7
330
1D
100
AcDbEntity
  8
0
100
AcDbLine
 10
124.0753
 20
50.3355
 30
0.0
 11
125.5824
 21
49.099530557401
 31
0.0
  0
LINE
  5
40A
330
1D
100
AcDbEntity
  8
0
100
AcDbLine
 10
125.5824
 20
53.1905
 30
0.0
 11
125.5824
 21
49.6955
 31
0.0
  0
LINE
  5
40B
330
1D
100
AcDbEntity
  8
0
100
AcDbLine
 10
125.5824
 20
53.1905
 30
0.0
 11
125.5824
 21
56.2435
 31
0.0
  0
LINE
  5
40C
330
1D
100
AcDbEntity
  8
0
100
AcDbLine
 10
122.6258
 20
52.0795
 30
0.0
 11
124.9286
 21
49.7885
 31
0.0
  0
LINE
  5
40D
330
1D
100
AcDbEntity
  8
0
100
AcDbLine
 10
122.593
 20
51.8855
 30
0.0
 11
124.0753
 21
50.3355
 31
0.0
  0
LINE
  5
40E
330
1D
100
AcDbEntity
  8
0
100
AcDbLine
 10
121.3062
 20
53.6055
 30
0.0
 11
122.593
 21
51.8855
 31
0.0
  0
LINE
  5
41C
330
1D
100
AcDbEntity
  8
0
100
AcDbLine
 10
125.5824
 20
58.8035
 30
0.0
 11
125.5824
 21
56.2435
 31
0.0
  0
LINE
  5
41D
330
1D
100
AcDbEntity
  8
0
100
AcDbLine
 10
125.5824
 20
58.8035
 30
0.0
 11
125.5824
 21
60.8375
 31
0.0
  0
LINE
  5
41E
330
1D
100
AcDbEntity
  8
0
100
AcDbLine
 10
125.5824
 20
56.2435
 30
0.0
 11
125.5824
 21
53.1905
 31
0.0
  0
LINE
  5
41F
330
1D
100
AcDbEntity
  8
0
100
AcDbLine
 10
125.5824
 20
56.2435
 30
0.0
 11
125.5824
 21
58.8035
 31
0.0
  0
LINE
  5
420
330
1D
100
AcDbEntity
  8
0
100
AcDbLine
 10
119.4498
 20
57.7385
 30
0.0
 11
120.7784
 21
54.7605
 31
0.0
  0
LINE
  5
421
330
1D
100
AcDbEntity
  8
0
100
AcDbLine
 10
120.2346
 20
55.4695
 30
0.0
 11
121.3062
 21
53.6055
 31
0.0
  0
LINE
  5
422
330
1D
100
AcDbEntity
  8
0
100
AcDbLine
 10
119.3923
 20
57.4505
 30
0.0
 11
120.2346
 21
55.4695
 31
0.0
  0
LINE
  5
423
330
1D
100
AcDbEntity
  8
0
100
AcDbLine
 10
118.792
 20
59.5195
 30
0.0
 11
119.3923
 21
57.4505
 31
0.0
  0
LINE
  5
4A1
330
1D
100
AcDbEntity
  8
0
100
AcDbLine
 10
125.5824
 20
60.8375
 30
0.0
 11
125.5824
 21
58.8035
 31
0.0
  0
LINE
  5
4A2
330
1D
100
AcDbEntity
  8
0
100
AcDbLine
 10
125.5824
 20
60.8375
 30
0.0
 11
125.5824
 21
62.3105
 31
0.0
  0
LINE
  5
4A4
330
1D
100
AcDbEntity
  8
0
100
AcDbLine
 10
118.6849
 20
60.9135
 30
0.0
 11
119.4498
 21
57.7385
 31
0.0
  0
LINE
  5
4A5
330
1D
100
AcDbEntity
  8
0
100
AcDbLine
 10
109.3655
 20
60.6015
 30
0.0
 11
109.7753
 21
57.9745
 31
0.0
  0
LINE
  5
4B0
330
1D
100
AcDbEntity
  8
0
100
AcDbLine
 10
125.5824
 20
63.2035
 30
0.0
 11
125.5824
 21
62.3105
 31
0.0
  0
LINE
  5
4B1
330
1D
100
AcDbEntity
  8
0
100
AcDbLine
 10
125.5824
 20
63.2035
 30
0.0
 11
125.5824
 21
63.5025
 31
0.0
  0
LINE
  5
4B8
330
1D
100
AcDbEntity
  8
0
100
AcDbLine
 10
125.5824
 20
62.3105
 30
0.0
 11
125.5824
 21
60.8375
 31
0.0
  0
LINE
  5
4B9
330
1D
100
AcDbEntity
  8
0
100
AcDbLine
 10
125.5824
 20
62.3105
 30
0.0
 11
125.5824
 21
63.2035
 31
0.0
  0
LINE
  5
4BA
330
1D
100
AcDbEntity
  8
0
100
AcDbLine
 10
125.5824
 20
63.5025
 30
0.0
 11
125.600064467005
 21
63.355335025381
 31
0.0
  0
LINE
  5
4BB
330
1D
100
AcDbEntity
  8
0
100
AcDbLine
 10
125.5824
 20
63.5025
 30
0.0
 11
125.5824
 21
63.2035
 31
0.0
  0
LINE
  5
4BC
330
1D
100
AcDbEntity
  8
0
100
AcDbLine
 10
109.2127
 20
63.2555
 30
0.0
 11
109.3655
 21
60.6015
 31
0.0
  0
LINE
  5
4BD
330
1D
100
AcDbEntity
  8
0
100
AcDbLine
 10
109.2127
 20
63.2555
 30
0.0
 11
109.3179
 21
65.9135
 31
0.0
  0
LINE
  5
4BE
330
1D
100
AcDbEntity
  8
0
100
AcDbLine
 10
118.4428
 20
61.6465
 30
0.0
 11
118.792
 21
59.5195
 31
0.0
  0
LINE
  5
4C6
330
1D
100
AcDbEntity
  8
0
100
AcDbLine
 10
109.3179
 20
65.9135
 30
0.0
 11
109.68
 21
68.5475
 31
0.0
  0
LINE
  5
4C7
330
1D
100
AcDbEntity
  8
0
100
AcDbLine
 10
118.5093
 20
64.1765
 30
0.0
 11
118.6849
 21
60.9135
 31
0.0
  0
LINE
  5
4C8
330
1D
100
AcDbEntity
  8
0
100
AcDbLine
 10
118.5093
 20
64.1765
 30
0.0
 11
118.929
 21
67.4165
 31
0.0
  0
LINE
  5
4C9
330
1D
100
AcDbEntity
  8
0
100
AcDbLine
 10
118.3495
 20
63.8005
 30
0.0
 11
118.5142
 21
65.9505
 31
0.0
  0
LINE
  5
4CA
330
1D
100
AcDbEntity
  8
0
100
AcDbLine
 10
118.3495
 20
63.8005
 30
0.0
 11
118.4428
 21
61.6465
 31
0.0
  0
LINE
  5
4CB
330
1D
100
AcDbEntity
  8
0
100
AcDbLine
 10
118.929
 20
67.4165
 30
0.0
 11
119.9301
 21
70.5225
 31
0.0
  0
LINE
  5
4CC
330
1D
100
AcDbEntity
  8
0
100
AcDbLine
 10
118.5142
 20
65.9505
 30
0.0
 11
118.9329
 21
68.0655
 31
0.0
  0
LINE
  5
4D2
330
1D
100
AcDbEntity
  8
0
100
AcDbLine
 10
109.68
 20
68.5475
 30
0.0
 11
110.2952
 21
71.1325
 31
0.0
  0
LINE
  5
4DD
330
1D
100
AcDbEntity
  8
0
100
AcDbLine
 10
110.2952
 20
71.1325
 30
0.0
 11
111.1583
 21
73.6455
 31
0.0
  0
LINE
  5
4DE
330
1D
100
AcDbEntity
  8
0
100
AcDbLine
 10
111.1583
 20
73.6455
 30
0.0
 11
112.2606
 21
76.0595
 31
0.0
  0
LINE
  5
4DF
330
1D
100
AcDbEntity
  8
0
100
AcDbLine
 10
118.9329
 20
68.0655
 30
0.0
 11
119.6007
 21
70.1135
 31
0.0
  0
LINE
  5
4E0
330
1D
100
AcDbEntity
  8
0
100
AcDbLine
 10
119.9301
 20
70.5225
 30
0.0
 11
121.4788
 21
73.3905
 31
0.0
  0
LINE
  5
4FB
330
1D
100
AcDbEntity
  8
0
100
AcDbLine
 10
132.3063
 20
73.3575
 30
0.0
 11
134.0297
 21
73.8515
 31
0.0
  0
LINE
  5
4FC
330
1D
100
AcDbEntity
  8
0
100
AcDbLine
 10
131.7487
 20
73.1245
 30
0.0
 11
132.3063
 21
73.3575
 31
0.0
  0
LINE
  5
505
330
1D
100
AcDbEntity
  8
0
100
AcDbLine
 10
134.0297
 20
73.8515
 30
0.0
 11
134.744
 21
73.9655
 31
0.0
  0
LINE
  5
506
330
1D
100
AcDbEntity
  8
0
100
AcDbLine
 10
121.4788
 20
73.3905
 30
0.0
 11
123.5217
 21
75.9205
 31
0.0
  0
LINE
  5
507
330
1D
100
AcDbEntity
  8
0
100
AcDbLine
 10
120.5085
 20
72.0655
 30
0.0
 11
121.6415
 21
73.8915
 31
0.0
  0
LINE
  5
50A
330
1D
100
AcDbEntity
  8
0
100
AcDbLine
 10
134.744
 20
73.9655
 30
0.0
 11
136.0001
 21
74.0165
 31
0.0
  0
LINE
  5
50B
330
1D
100
AcDbEntity
  8
0
100
AcDbLine
 10
121.6415
 20
73.8915
 30
0.0
 11
122.9839
 21
75.5665
 31
0.0
  0
LINE
  5
50C
330
1D
100
AcDbEntity
  8
0
100
AcDbLine
 10
119.6007
 20
70.1135
 30
0.0
 11
120.5085
 21
72.0655
 31
0.0
  0
LINE
  5
551
330
1D
100
AcDbEntity
  8
0
100
AcDbLine
 10
123.5217
 20
75.9205
 30
0.0
 11
125.9902
 21
78.0295
 31
0.0
  0
LINE
  5
552
330
1D
100
AcDbEntity
  8
0
100
AcDbLine
 10
113.5911
 20
78.3525
 30
0.0
 11
115.1379
 21
80.5035
 31
0.0
  0
LINE
  5
553
330
1D
100
AcDbEntity
  8
0
100
AcDbLine
 10
112.2606
 20
76.0595
 30
0.0
 11
113.5911
 21
78.3525
 31
0.0
  0
LINE
  5
554
330
1D
100
AcDbEntity
  8
0
100
AcDbLine
 10
122.9839
 20
75.5665
 30
0.0
 11
124.5158
 21
77.0655
 31
0.0
  0
LINE
  5
56A
330
1D
100
AcDbEntity
  8
0
100
AcDbLine
 10
125.9902
 20
78.0295
 30
0.0
 11
128.799
 21
79.6425
 31
0.0
  0
LINE
  5
56B
330
1D
100
AcDbEntity
  8
0
100
AcDbLine
 10
124.5158
 20
77.0655
 30
0.0
 11
126.2154
 21
78.3675
 31
0.0
  0
LINE
  5
579
330
1D
100
AcDbEntity
  8
0
100
AcDbLine
 10
126.2154
 20
78.3675
 30
0.0
 11
128.0588
 21
79.4525
 31
0.0
  0
LINE
  5
581
330
1D
100
AcDbEntity
  8
0
100
AcDbLine
 10
128.799
 20
79.6425
 30
0.0
 11
131.8529
 21
80.7065
 31
0.0
  0
LINE
  5
582
330
1D
100
AcDbEntity
  8
0
100
AcDbLine
 10
115.1379
 20
80.5035
 30
0.0
 11
116.8861
 21
82.4895
 31
0.0
  0
LINE
  5
583
330
1D
100
AcDbEntity
  8
0
100
AcDbLine
 10
128.0588
 20
79.4525
 30
0.0
 11
130.0164
 21
80.3045
 31
0.0
  0
LINE
  5
584
330
1D
100
AcDbEntity
  8
0
100
AcDbLine
 10
131.8529
 20
80.7065
 30
0.0
 11
135.0486
 21
81.1835
 31
0.0
  0
LINE
  5
585
330
1D
100
AcDbEntity
  8
0
100
AcDbLine
 10
130.0164
 20
80.3045
 30
0.0
 11
132.0622
 21
80.9115
 31
0.0
  0
LINE
  5
588
330
1D
100
AcDbEntity
  8
0
100
AcDbLine
 10
106.0001
 20
83.8275
 30
0.0
 11
106.0001
 21
43.1785
 31
0.0
  0
LINE
  5
589
330
1D
100
AcDbEntity
  8
0
100
AcDbLine
 10
106.0001
 20
83.8275
 30
0.0
 11
106.1221
 21
85.3965
 31
0.0
  0
LINE
  5
591
330
1D
100
AcDbEntity
  8
0
100
AcDbLine
 10
116.8861
 20
82.4895
 30
0.0
 11
118.8178
 21
84.2935
 31
0.0
  0
LINE
  5
597
330
1D
100
AcDbEntity
  8
0
100
AcDbLine
 10
118.8178
 20
84.2935
 30
0.0
 11
120.9143
 21
85.8985
 31
0.0
  0
LINE
  5
59A
330
1D
100
AcDbEntity
  8
0
100
AcDbLine
 10
132.0622
 20
80.9115
 30
0.0
 11
134.1646
 21
81.2645
 31
0.0
  0
LINE
  5
5B4
330
1D
100
AcDbEntity
  8
0
100
AcDbLine
 10
135.0486
 20
81.1835
 30
0.0
 11
136.0001
 21
81.1475
 31
0.0
  0
LINE
  5
5C9
330
1D
100
AcDbEntity
  8
0
100
AcDbLine
 10
134.1646
 20
81.2645
 30
0.0
 11
136.0001
 21
81.3455
 31
0.0
  0
LINE
  5
67D
330
1D
100
AcDbEntity
  8
0
100
AcDbLine
 10
106.1221
 20
85.3965
 30
0.0
 11
106.4853
 21
86.9245
 31
0.0
  0
LINE
  5
67E
330
1D
100
AcDbEntity
  8
0
100
AcDbLine
 10
106.4853
 20
86.9245
 30
0.0
 11
107.0806
 21
88.3785
 31
0.0
  0
LINE
  5
685
330
1D
100
AcDbEntity
  8
0
100
AcDbLine
 10
120.9143
 20
85.8985
 30
0.0
 11
123.1566
 21
87.2855
 31
0.0
  0
LINE
  5
692
330
1D
100
AcDbEntity
  8
0
100
AcDbLine
 10
123.1566
 20
87.2855
 30
0.0
 11
125.5239
 21
88.4445
 31
0.0
  0
LINE
  5
693
330
1D
100
AcDbEntity
  8
0
100
AcDbLine
 10
107.0806
 20
88.3785
 30
0.0
 11
107.8931
 21
89.7195
 31
0.0
  0
LINE
  5
69D
330
1D
100
AcDbEntity
  8
0
100
AcDbLine
 10
125.5229
 20
88.4445
 30
0.0
 11
126.75665
 21
88.904
 31
0.0
  0
LINE
  5
69E
330
1D
100
AcDbEntity
  8
0
100
AcDbLine
 10
125.5229
 20
88.4445
 30
0.0
 11
126.75665
 21
88.904
 31
0.0
  0
LINE
  5
69F
330
1D
100
AcDbEntity
  8
0
100
AcDbLine
 10
125.5239
 20
88.4445
 30
0.0
 11
127.9894
 21
89.3635
 31
0.0
  0
LINE
  5
6A0
330
1D
100
AcDbEntity
  8
0
100
AcDbLine
 10
107.8931
 20
89.7195
 30
0.0
 11
108.9022
 21
90.9155
 31
0.0
  0
LINE
  5
6A1
330
1D
100
AcDbEntity
  8
0
100
AcDbLine
 10
110.0848
 20
91.9375
 30
0.0
 11
111.4104
 21
92.7595
 31
0.0
  0
LINE
  5
6A2
330
1D
100
AcDbEntity
  8
0
100
AcDbLine
 10
108.9022
 20
90.9155
 30
0.0
 11
110.0848
 21
91.9375
 31
0.0
  0
LINE
  5
6AD
330
1D
100
AcDbEntity
  8
0
100
AcDbLine
 10
127.9894
 20
89.3635
 30
0.0
 11
130.5343
 21
90.0325
 31
0.0
  0
LINE
  5
6D5
330
1D
100
AcDbEntity
  8
0
100
AcDbLine
 10
136.0001
 20
90.5915
 30
0.0
 11
136.2451
 21
90.6015
 31
0.0
  0
LINE
  5
6E6
330
1D
100
AcDbEntity
  8
0
100
AcDbLine
 10
135.755
 20
90.6015
 30
0.0
 11
136.0001
 21
90.5915
 31
0.0
  0
LINE
  5
6E7
330
1D
100
AcDbEntity
  8
0
100
AcDbLine
 10
133.1318
 20
90.4475
 30
0.0
 11
135.755
 21
90.6015
 31
0.0
  0
LINE
  5
6E8
330
1D
100
AcDbEntity
  8
0
100
AcDbLine
 10
130.5343
 20
90.0325
 30
0.0
 11
133.1318
 21
90.4475
 31
0.0
  0
LINE
  5
72C
330
1D
100
AcDbEntity
  8
0
100
AcDbLine
 10
115.9088
 20
93.8515
 30
0.0
 11
136.0001
 21
93.8515
 31
0.0
  0
LINE
  5
72D
330
1D
100
AcDbEntity
  8
0
100
AcDbLine
 10
114.3591
 20
93.7285
 30
0.0
 11
115.9088
 21
93.8515
 31
0.0
  0
LINE
  5
72E
330
1D
100
AcDbEntity
  8
0
100
AcDbLine
 10
112.847
 20
93.3605
 30
0.0
 11
114.3591
 21
93.7285
 31
0.0
  0
LINE
  5
72F
330
1D
100
AcDbEntity
  8
0
100
AcDbLine
 10
111.4104
 20
92.7595
 30
0.0
 11
112.847
 21
93.3605
 31
0.0
  0
LINE
  5
850
330
1D
100
AcDbEntity
  8
0
100
AcDbLine
 10
1.7303
 20
49.3285
 30
0.0
 11
17.6428
 21
59.5125
 31
0.0
  0
LINE
  5
851
330
1D
100
AcDbEntity
  8
0
100
AcDbLine
 10
5.935404627651
 20
52.019766961697
 30
0.0
 11
6.0367
 21
85.5065
 31
0.0
  0
LINE
  5
852
330
1D
100
AcDbEntity
  8
0
100
AcDbLine
 10
54.3574
 20
59.5125
 30
0.0
 11
70.2921
 21
49.3055
 31
0.0
  0
LINE
  5
853
330
1D
100
AcDbEntity
  8
0
100
AcDbLine
 10
66.0917
 20
83.5755
 30
0.0
 11
66.0917
 21
51.996073578417
 31
0.0
  0
LINE
  5
854
330
1D
100
AcDbEntity
  8
0
100
AcDbLine
 10
66.8687
 20
40.2635
 30
0.0
 11
67.9958
 21
40.3885
 31
0.0
  0
LINE
  5
855
330
1D
100
AcDbEntity
  8
0
100
AcDbLine
 10
14.2221
 20
33.1955
 30
0.0
 11
57.7072
 21
33.2745
 31
0.0
  0
LINE
  5
856
330
1D
100
AcDbEntity
  8
0
100
AcDbLine
 10
33.123
 20
36.5385
 30
0.0
 11
35.7553
 21
36.3855
 31
0.0
  0
LINE
  5
857
330
1D
100
AcDbEntity
  8
0
100
AcDbLine
 10
31.762966421182
 20
52.312078736721
 30
0.0
 11
33.9685
 21
52.4485
 31
0.0
  0
LINE
  5
858
330
1D
100
AcDbEntity
  8
0
100
AcDbLine
 10
6.7265
 20
40.5665
 30
0.0
 11
23.5621
 21
49.3235
 31
0.0
  0
LINE
  5
859
330
1D
100
AcDbEntity
  8
0
100
AcDbLine
 10
16.8278
 20
44.4575
 30
0.0
 11
18.7654
 21
42.6615
 31
0.0
  0
LINE
  5
85A
330
1D
100
AcDbEntity
  8
0
100
AcDbLine
 10
7.3492
 20
37.8965
 30
0.0
 11
8.8195
 21
36.0725
 31
0.0
  0
LINE
  5
85B
330
1D
100
AcDbEntity
  8
0
100
AcDbLine
 10
11.3353
 20
34.2385
 30
0.0
 11
14.2221
 21
33.1955
 31
0.0
  0
LINE
  5
85C
330
1D
100
AcDbEntity
  8
0
100
AcDbLine
 10
10.0057
 20
35.0565
 30
0.0
 11
11.3353
 21
34.2385
 31
0.0
  0
LINE
  5
85D
330
1D
100
AcDbEntity
  8
0
100
AcDbLine
 10
8.8195
 20
36.0725
 30
0.0
 11
10.0057
 21
35.0565
 31
0.0
  0
LINE
  5
85E
330
1D
100
AcDbEntity
  8
0
100
AcDbLine
 10
4.5778
 20
40.2725
 30
0.0
 11
5.6177
 21
40.2885
 31
0.0
  0
LINE
  5
85F
330
1D
100
AcDbEntity
  8
0
100
AcDbLine
 10
1.2683
 20
42.1955
 30
0.0
 11
1.8446
 21
41.5095
 31
0.0
  0
LINE
  5
860
330
1D
100
AcDbEntity
  8
0
100
AcDbLine
 10
1.8446
 20
41.5095
 30
0.0
 11
2.3688
 21
41.1635
 31
0.0
  0
LINE
  5
861
330
1D
100
AcDbEntity
  8
0
100
AcDbLine
 10
2.3688
 20
41.1635
 30
0.0
 11
2.9019
 21
40.8225
 31
0.0
  0
LINE
  5
862
330
1D
100
AcDbEntity
  8
0
100
AcDbLine
 10
2.9019
 20
40.8225
 30
0.0
 11
3.5935
 21
40.5325
 31
0.0
  0
LINE
  5
863
330
1D
100
AcDbEntity
  8
0
100
AcDbLine
 10
3.5935
 20
40.5325
 30
0.0
 11
4.5778
 21
40.2725
 31
0.0
  0
LINE
  5
864
330
1D
100
AcDbEntity
  8
0
100
AcDbLine
 10
5.6177
 20
40.2885
 30
0.0
 11
6.7265
 21
40.5665
 31
0.0
  0
LINE
  5
865
330
1D
100
AcDbEntity
  8
0
100
AcDbLine
 10
6.290804889093
 20
40.457261867936
 30
0.0
 11
7.3492
 21
37.8965
 31
0.0
  0
LINE
  5
866
330
1D
100
AcDbEntity
  8
0
100
AcDbLine
 10
0.5068
 20
43.4555
 30
0.0
 11
1.2683
 21
42.1955
 31
0.0
  0
LINE
  5
867
330
1D
100
AcDbEntity
  8
0
100
AcDbLine
 10
0.0299
 20
44.8945
 30
0.0
 11
0.1682
 21
44.2795
 31
0.0
  0
LINE
  5
868
330
1D
100
AcDbEntity
  8
0
100
AcDbLine
 10
0.3462
 20
43.8435
 30
0.0
 11
0.5068
 21
43.4555
 31
0.0
  0
LINE
  5
869
330
1D
100
AcDbEntity
  8
0
100
AcDbLine
 10
0.1682
 20
44.2795
 30
0.0
 11
0.3462
 21
43.8435
 31
0.0
  0
LINE
  5
86A
330
1D
100
AcDbEntity
  8
0
100
AcDbLine
 10
0.3915
 20
47.5475
 30
0.0
 11
0.6435
 21
48.0655
 31
0.0
  0
LINE
  5
86B
330
1D
100
AcDbEntity
  8
0
100
AcDbLine
 10
0.0819
 20
46.5415
 30
0.0
 11
0.3915
 21
47.5475
 31
0.0
  0
LINE
  5
86C
330
1D
100
AcDbEntity
  8
0
100
AcDbLine
 10
-0.0231
 20
45.7455
 30
0.0
 11
0.0299
 21
44.8945
 31
0.0
  0
LINE
  5
86D
330
1D
100
AcDbEntity
  8
0
100
AcDbLine
 10
-0.0231
 20
45.7455
 30
0.0
 11
0.0819
 21
46.5415
 31
0.0
  0
LINE
  5
86E
330
1D
100
AcDbEntity
  8
0
100
AcDbLine
 10
1.0495
 20
48.6545
 30
0.0
 11
1.7303
 21
49.3285
 31
0.0
  0
LINE
  5
86F
330
1D
100
AcDbEntity
  8
0
100
AcDbLine
 10
16.000404957173
 20
45.390301094702
 30
0.0
 11
16.8278
 21
44.4575
 31
0.0
  0
LINE
  5
870
330
1D
100
AcDbEntity
  8
0
100
AcDbLine
 10
0.6435
 20
48.0655
 30
0.0
 11
1.0495
 21
48.6545
 31
0.0
  0
LINE
  5
871
330
1D
100
AcDbEntity
  8
0
100
AcDbLine
 10
30.5176
 20
36.9505
 30
0.0
 11
33.123
 21
36.5385
 31
0.0
  0
LINE
  5
872
330
1D
100
AcDbEntity
  8
0
100
AcDbLine
 10
27.9697
 20
37.6315
 30
0.0
 11
30.5176
 21
36.9505
 31
0.0
  0
LINE
  5
873
330
1D
100
AcDbEntity
  8
0
100
AcDbLine
 10
25.4983
 20
38.5445
 30
0.0
 11
27.9697
 21
37.6315
 31
0.0
  0
LINE
  5
874
330
1D
100
AcDbEntity
  8
0
100
AcDbLine
 10
23.1184
 20
39.6845
 30
0.0
 11
25.4983
 21
38.5445
 31
0.0
  0
LINE
  5
875
330
1D
100
AcDbEntity
  8
0
100
AcDbLine
 10
20.8682
 20
41.0655
 30
0.0
 11
23.1184
 21
39.6845
 31
0.0
  0
LINE
  5
876
330
1D
100
AcDbEntity
  8
0
100
AcDbLine
 10
18.7654
 20
42.6615
 30
0.0
 11
20.8682
 21
41.0655
 31
0.0
  0
LINE
  5
877
330
1D
100
AcDbEntity
  8
0
100
AcDbLine
 10
23.5621
 20
49.3235
 30
0.0
 11
24.9937
 21
50.0535
 31
0.0
  0
LINE
  5
878
330
1D
100
AcDbEntity
  8
0
100
AcDbLine
 10
24.9937
 20
50.0535
 30
0.0
 11
25.874868453058
 21
50.514697571721
 31
0.0
  0
LINE
  5
879
330
1D
100
AcDbEntity
  8
0
100
AcDbLine
 10
27.7321
 20
51.3175
 30
0.0
 11
29.083038934092
 21
51.789883722595
 31
0.0
  0
LINE
  5
87A
330
1D
100
AcDbEntity
  8
0
100
AcDbLine
 10
27.5758
 20
51.2495
 30
0.0
 11
27.7321
 21
51.3175
 31
0.0
  0
LINE
  5
87B
330
1D
100
AcDbEntity
  8
0
100
AcDbLine
 10
25.874868453058
 20
50.514697571721
 30
0.0
 11
27.5758
 21
51.2495
 31
0.0
  0
LINE
  5
87C
330
1D
100
AcDbEntity
  8
0
100
AcDbLine
 10
29.083038934095
 20
51.789883722596
 30
0.0
 11
29.8422
 21
51.9845
 31
0.0
  0
LINE
  5
87D
330
1D
100
AcDbEntity
  8
0
100
AcDbLine
 10
29.8422
 20
51.9845
 30
0.0
 11
30.7594
 21
52.1765
 31
0.0
  0
LINE
  5
87E
330
1D
100
AcDbEntity
  8
0
100
AcDbLine
 10
30.7594
 20
52.1765
 30
0.0
 11
31.762966421187
 21
52.312078736721
 31
0.0
  0
LINE
  5
87F
330
1D
100
AcDbEntity
  8
0
100
AcDbLine
 10
48.8818
 20
39.6845
 30
0.0
 11
51.1246
 21
41.0785
 31
0.0
  0
LINE
  5
880
330
1D
100
AcDbEntity
  8
0
100
AcDbLine
 10
48.4569
 20
49.3375
 30
0.0
 11
64.5471
 21
40.9285
 31
0.0
  0
LINE
  5
881
330
1D
100
AcDbEntity
  8
0
100
AcDbLine
 10
35.7553
 20
36.3855
 30
0.0
 11
36.0001
 21
36.3955
 31
0.0
  0
LINE
  5
882
330
1D
100
AcDbEntity
  8
0
100
AcDbLine
 10
36.2449
 20
36.3855
 30
0.0
 11
38.8751
 21
36.5525
 31
0.0
  0
LINE
  5
883
330
1D
100
AcDbEntity
  8
0
100
AcDbLine
 10
36.0001
 20
36.3955
 30
0.0
 11
36.2449
 21
36.3855
 31
0.0
  0
LINE
  5
884
330
1D
100
AcDbEntity
  8
0
100
AcDbLine
 10
38.8751
 20
36.5525
 30
0.0
 11
41.4826
 21
36.9505
 31
0.0
  0
LINE
  5
885
330
1D
100
AcDbEntity
  8
0
100
AcDbLine
 10
36.0001
 20
36.3705
 30
0.0
 11
36.2449
 21
36.3855
 31
0.0
  0
LINE
  5
886
330
1D
100
AcDbEntity
  8
0
100
AcDbLine
 10
36.0001
 20
36.3705
 30
0.0
 11
36.240129139087
 21
36.385694888109
 31
0.0
  0
LINE
  5
887
330
1D
100
AcDbEntity
  8
0
100
AcDbLine
 10
41.4826
 20
36.9505
 30
0.0
 11
44.0313
 21
37.6315
 31
0.0
  0
LINE
  5
888
330
1D
100
AcDbEntity
  8
0
100
AcDbLine
 10
44.0313
 20
37.6315
 30
0.0
 11
46.5005
 21
38.5435
 31
0.0
  0
LINE
  5
889
330
1D
100
AcDbEntity
  8
0
100
AcDbLine
 10
46.5005
 20
38.5435
 30
0.0
 11
48.8818
 21
39.6845
 31
0.0
  0
LINE
  5
88A
330
1D
100
AcDbEntity
  8
0
100
AcDbLine
 10
33.9685
 20
52.4485
 30
0.0
 11
36.4557
 21
52.4265
 31
0.0
  0
LINE
  5
88B
330
1D
100
AcDbEntity
  8
0
100
AcDbLine
 10
40.47447400749
 20
52.293564764051
 30
0.0
 11
41.624895796334
 21
52.111349725261
 31
0.0
  0
LINE
  5
88C
330
1D
100
AcDbEntity
  8
0
100
AcDbLine
 10
36.4557
 20
52.4265
 30
0.0
 11
37.53341031522
 21
52.436068307031
 31
0.0
  0
LINE
  5
88D
330
1D
100
AcDbEntity
  8
0
100
AcDbLine
 10
39.438
 20
52.3745
 30
0.0
 11
40.474474007487
 21
52.293564764051
 31
0.0
  0
LINE
  5
88E
330
1D
100
AcDbEntity
  8
0
100
AcDbLine
 10
41.624895796332
 20
52.111349725261
 30
0.0
 11
42.1591
 21
51.9845
 31
0.0
  0
LINE
  5
88F
330
1D
100
AcDbEntity
  8
0
100
AcDbLine
 10
37.533410315212
 20
52.436068307031
 30
0.0
 11
39.438
 21
52.3745
 31
0.0
  0
LINE
  5
890
330
1D
100
AcDbEntity
  8
0
100
AcDbLine
 10
42.93146129543
 20
51.786386660812
 30
0.0
 11
44.258912642776
 21
51.324956418301
 31
0.0
  0
LINE
  5
891
330
1D
100
AcDbEntity
  8
0
100
AcDbLine
 10
42.1591
 20
51.9845
 30
0.0
 11
42.931461295428
 21
51.786386660812
 31
0.0
  0
LINE
  5
892
330
1D
100
AcDbEntity
  8
0
100
AcDbLine
 10
44.258912642781
 20
51.324956418299
 30
0.0
 11
46.028903889898
 21
50.556771353377
 31
0.0
  0
LINE
  5
893
330
1D
100
AcDbEntity
  8
0
100
AcDbLine
 10
46.028903889897
 20
50.556771353377
 30
0.0
 11
46.5849
 21
50.2595
 31
0.0
  0
LINE
  5
894
330
1D
100
AcDbEntity
  8
0
100
AcDbLine
 10
46.5849
 20
50.2595
 30
0.0
 11
48.4569
 21
49.3375
 31
0.0
  0
LINE
  5
895
330
1D
100
AcDbEntity
  8
0
100
AcDbLine
 10
57.7072
 20
33.2745
 30
0.0
 11
59.2239
 21
33.6395
 31
0.0
  0
LINE
  5
896
330
1D
100
AcDbEntity
  8
0
100
AcDbLine
 10
59.2239
 20
33.6395
 30
0.0
 11
60.6649
 21
34.2385
 31
0.0
  0
LINE
  5
897
330
1D
100
AcDbEntity
  8
0
100
AcDbLine
 10
60.6649
 20
34.2385
 30
0.0
 11
61.9945
 21
35.0565
 31
0.0
  0
LINE
  5
898
330
1D
100
AcDbEntity
  8
0
100
AcDbLine
 10
61.9945
 20
35.0565
 30
0.0
 11
63.1807
 21
36.0725
 31
0.0
  0
LINE
  5
899
330
1D
100
AcDbEntity
  8
0
100
AcDbLine
 10
63.1807
 20
36.0725
 30
0.0
 11
64.651
 21
37.8965
 31
0.0
  0
LINE
  5
89A
330
1D
100
AcDbEntity
  8
0
100
AcDbLine
 10
64.651
 20
37.8965
 30
0.0
 11
65.653343101792
 21
40.462131317676
 31
0.0
  0
LINE
  5
89B
330
1D
100
AcDbEntity
  8
0
100
AcDbLine
 10
51.1246
 20
41.0785
 30
0.0
 11
53.2348
 21
42.6615
 31
0.0
  0
LINE
  5
89C
330
1D
100
AcDbEntity
  8
0
100
AcDbLine
 10
66.0639
 20
40.3385
 30
0.0
 11
66.8687
 21
40.2635
 31
0.0
  0
LINE
  5
89D
330
1D
100
AcDbEntity
  8
0
100
AcDbLine
 10
65.2503
 20
40.5835
 30
0.0
 11
66.0639
 21
40.3385
 31
0.0
  0
LINE
  5
89E
330
1D
100
AcDbEntity
  8
0
100
AcDbLine
 10
64.5471
 20
40.9285
 30
0.0
 11
65.2503
 21
40.5835
 31
0.0
  0
LINE
  5
89F
330
1D
100
AcDbEntity
  8
0
100
AcDbLine
 10
53.2348
 20
42.6615
 30
0.0
 11
55.1627
 21
44.4675
 31
0.0
  0
LINE
  5
8A0
330
1D
100
AcDbEntity
  8
0
100
AcDbLine
 10
55.1627
 20
44.4675
 30
0.0
 11
55.996231551406
 21
45.397322810421
 31
0.0
  0
LINE
  5
8A1
330
1D
100
AcDbEntity
  8
0
100
AcDbLine
 10
69.1618
 20
40.8465
 30
0.0
 11
69.9097
 21
41.3145
 31
0.0
  0
LINE
  5
8A2
330
1D
100
AcDbEntity
  8
0
100
AcDbLine
 10
70.5668
 20
41.9555
 30
0.0
 11
71.1161
 21
42.8785
 31
0.0
  0
LINE
  5
8A3
330
1D
100
AcDbEntity
  8
0
100
AcDbLine
 10
69.9097
 20
41.3145
 30
0.0
 11
70.5668
 21
41.9555
 31
0.0
  0
LINE
  5
8A4
330
1D
100
AcDbEntity
  8
0
100
AcDbLine
 10
71.1161
 20
42.8785
 30
0.0
 11
71.7145
 21
43.9125
 31
0.0
  0
LINE
  5
8A5
330
1D
100
AcDbEntity
  8
0
100
AcDbLine
 10
71.7145
 20
43.9125
 30
0.0
 11
71.9932
 21
45.2125
 31
0.0
  0
LINE
  5
8A6
330
1D
100
AcDbEntity
  8
0
100
AcDbLine
 10
70.9508
 20
48.6545
 30
0.0
 11
71.3569
 21
48.0645
 31
0.0
  0
LINE
  5
8A7
330
1D
100
AcDbEntity
  8
0
100
AcDbLine
 10
71.3569
 20
48.0645
 30
0.0
 11
71.6088
 21
47.5475
 31
0.0
  0
LINE
  5
8A8
330
1D
100
AcDbEntity
  8
0
100
AcDbLine
 10
70.2921
 20
49.3055
 30
0.0
 11
70.9508
 21
48.6545
 31
0.0
  0
LINE
  5
8A9
330
1D
100
AcDbEntity
  8
0
100
AcDbLine
 10
71.6088
 20
47.5475
 30
0.0
 11
71.8873
 21
46.5555
 31
0.0
  0
LINE
  5
8AA
330
1D
100
AcDbEntity
  8
0
100
AcDbLine
 10
71.8873
 20
46.5555
 30
0.0
 11
71.9969
 21
45.4685
 31
0.0
  0
LINE
  5
8AB
330
1D
100
AcDbEntity
  8
0
100
AcDbLine
 10
71.9932
 20
45.2125
 30
0.0
 11
71.9969
 21
45.4685
 31
0.0
  0
LINE
  5
8AC
330
1D
100
AcDbEntity
  8
0
100
AcDbLine
 10
67.9958
 20
40.3885
 30
0.0
 11
69.1618
 21
40.8465
 31
0.0
  0
LINE
  5
8AD
330
1D
100
AcDbEntity
  8
0
100
AcDbLine
 10
33.2506
 20
103.4925
 30
0.0
 11
33.9411
 21
103.8425
 31
0.0
  0
LINE
  5
8AE
330
1D
100
AcDbEntity
  8
0
100
AcDbLine
 10
30.1299
 20
81.2915
 30
0.0
 11
30.9231
 21
99.3425
 31
0.0
  0
LINE
  5
8AF
330
1D
100
AcDbEntity
  8
0
100
AcDbLine
 10
6.0367
 20
85.5065
 30
0.0
 11
6.9923
 21
88.1045
 31
0.0
  0
LINE
  5
8B0
330
1D
100
AcDbEntity
  8
0
100
AcDbLine
 10
23.5503
 20
87.2495
 30
0.0
 11
25.9437
 21
88.3575
 31
0.0
  0
LINE
  5
8B1
330
1D
100
AcDbEntity
  8
0
100
AcDbLine
 10
15.3857
 20
80.6475
 30
0.0
 11
17.1741
 21
82.5925
 31
0.0
  0
LINE
  5
8B2
330
1D
100
AcDbEntity
  8
0
100
AcDbLine
 10
10.2304
 20
55.7625
 30
0.0
 11
10.508142644188
 21
54.946319292281
 31
0.0
  0
LINE
  5
8B3
330
1D
100
AcDbEntity
  8
0
100
AcDbLine
 10
9.5997
 20
58.3315
 30
0.0
 11
10.2304
 21
55.7625
 31
0.0
  0
LINE
  5
8B4
330
1D
100
AcDbEntity
  8
0
100
AcDbLine
 10
9.2365
 20
60.9525
 30
0.0
 11
9.5997
 21
58.3315
 31
0.0
  0
LINE
  5
8B5
330
1D
100
AcDbEntity
  8
0
100
AcDbLine
 10
9.131
 20
63.5965
 30
0.0
 11
9.2842
 21
66.2385
 31
0.0
  0
LINE
  5
8B6
330
1D
100
AcDbEntity
  8
0
100
AcDbLine
 10
9.131
 20
63.5965
 30
0.0
 11
9.2365
 21
60.9525
 31
0.0
  0
LINE
  5
8B7
330
1D
100
AcDbEntity
  8
0
100
AcDbLine
 10
9.2842
 20
66.2385
 30
0.0
 11
9.6952
 21
68.8525
 31
0.0
  0
LINE
  5
8B8
330
1D
100
AcDbEntity
  8
0
100
AcDbLine
 10
9.6952
 20
68.8525
 30
0.0
 11
10.359
 21
71.4135
 31
0.0
  0
LINE
  5
8B9
330
1D
100
AcDbEntity
  8
0
100
AcDbLine
 10
10.359
 20
71.4135
 30
0.0
 11
11.2706
 21
73.8975
 31
0.0
  0
LINE
  5
8BA
330
1D
100
AcDbEntity
  8
0
100
AcDbLine
 10
11.2706
 20
73.8975
 30
0.0
 11
12.4191
 21
76.2795
 31
0.0
  0
LINE
  5
8BB
330
1D
100
AcDbEntity
  8
0
100
AcDbLine
 10
12.4191
 20
76.2795
 30
0.0
 11
13.7954
 21
78.5365
 31
0.0
  0
LINE
  5
8BC
330
1D
100
AcDbEntity
  8
0
100
AcDbLine
 10
13.7954
 20
78.5365
 30
0.0
 11
15.3857
 21
80.6475
 31
0.0
  0
LINE
  5
8BD
330
1D
100
AcDbEntity
  8
0
100
AcDbLine
 10
26.5825
 20
68.8395
 30
0.0
 11
28.1381
 21
71.5825
 31
0.0
  0
LINE
  5
8BE
330
1D
100
AcDbEntity
  8
0
100
AcDbLine
 10
17.6428
 20
59.5125
 30
0.0
 11
19.3646
 21
60.6475
 31
0.0
  0
LINE
  5
8BF
330
1D
100
AcDbEntity
  8
0
100
AcDbLine
 10
19.745499475882
 20
60.885211885603
 30
0.0
 11
21.3459
 21
62.0795
 31
0.0
  0
LINE
  5
8C0
330
1D
100
AcDbEntity
  8
0
100
AcDbLine
 10
19.3646
 20
60.6475
 30
0.0
 11
19.745499475884
 21
60.885211885604
 31
0.0
  0
LINE
  5
8C1
330
1D
100
AcDbEntity
  8
0
100
AcDbLine
 10
21.4823
 20
62.1815
 30
0.0
 11
23.1098
 21
63.6795
 31
0.0
  0
LINE
  5
8C2
330
1D
100
AcDbEntity
  8
0
100
AcDbLine
 10
21.3459
 20
62.0795
 30
0.0
 11
21.4823
 21
62.1815
 31
0.0
  0
LINE
  5
8C3
330
1D
100
AcDbEntity
  8
0
100
AcDbLine
 10
22.583242966584
 20
63.137629227358
 30
0.0
 11
22.583242966584
 21
63.137629227358
 31
0.0
  0
LINE
  5
8C4
330
1D
100
AcDbEntity
  8
0
100
AcDbLine
 10
23.1098
 20
63.6795
 30
0.0
 11
24.142
 21
64.8805
 31
0.0
  0
LINE
  5
8C5
330
1D
100
AcDbEntity
  8
0
100
AcDbLine
 10
24.142
 20
64.8805
 30
0.0
 11
24.7402
 21
65.7475
 31
0.0
  0
LINE
  5
8C6
330
1D
100
AcDbEntity
  8
0
100
AcDbLine
 10
24.7402
 20
65.7475
 30
0.0
 11
25.6931
 21
67.2715
 31
0.0
  0
LINE
  5
8C7
330
1D
100
AcDbEntity
  8
0
100
AcDbLine
 10
25.6931
 20
67.2715
 30
0.0
 11
26.5825
 21
68.8395
 31
0.0
  0
LINE
  5
8C8
330
1D
100
AcDbEntity
  8
0
100
AcDbLine
 10
28.1381
 20
71.5825
 30
0.0
 11
28.673349824146
 21
72.71189021574
 31
0.0
  0
LINE
  5
8C9
330
1D
100
AcDbEntity
  8
0
100
AcDbLine
 10
28.673349824146
 20
72.71189021574
 30
0.0
 11
29.126245227862
 21
73.894310670544
 31
0.0
  0
LINE
  5
8CA
330
1D
100
AcDbEntity
  8
0
100
AcDbLine
 10
29.126245227862
 20
73.894310670544
 30
0.0
 11
29.488597552052
 21
75.177854125053
 31
0.0
  0
LINE
  5
8CB
330
1D
100
AcDbEntity
  8
0
100
AcDbLine
 10
29.488597552052
 20
75.177854125053
 30
0.0
 11
29.7493
 21
76.5535
 31
0.0
  0
LINE
  5
8CC
330
1D
100
AcDbEntity
  8
0
100
AcDbLine
 10
29.7493
 20
76.5535
 30
0.0
 11
29.985326922702
 21
78.532559318818
 31
0.0
  0
LINE
  5
8CD
330
1D
100
AcDbEntity
  8
0
100
AcDbLine
 10
29.7493
 20
76.5535
 30
0.0
 11
29.761824058954
 21
76.613648115743
 31
0.0
  0
LINE
  5
8CE
330
1D
100
AcDbEntity
  8
0
100
AcDbLine
 10
29.985326922702
 20
78.532559318819
 30
0.0
 11
29.9943
 21
78.7055
 31
0.0
  0
LINE
  5
8CF
330
1D
100
AcDbEntity
  8
0
100
AcDbLine
 10
29.9943
 20
78.7055
 30
0.0
 11
30.0355
 21
79.4965
 31
0.0
  0
LINE
  5
8D0
330
1D
100
AcDbEntity
  8
0
100
AcDbLine
 10
30.0355
 20
79.4965
 30
0.0
 11
30.1299
 21
81.2915
 31
0.0
  0
LINE
  5
8D1
330
1D
100
AcDbEntity
  8
0
100
AcDbLine
 10
17.1741
 20
82.5925
 30
0.0
 11
19.1436
 21
84.3515
 31
0.0
  0
LINE
  5
8D2
330
1D
100
AcDbEntity
  8
0
100
AcDbLine
 10
19.1436
 20
84.3515
 30
0.0
 11
21.2763
 21
85.9085
 31
0.0
  0
LINE
  5
8D3
330
1D
100
AcDbEntity
  8
0
100
AcDbLine
 10
21.2763
 20
85.9085
 30
0.0
 11
23.5503
 21
87.2495
 31
0.0
  0
LINE
  5
8D4
330
1D
100
AcDbEntity
  8
0
100
AcDbLine
 10
6.9923
 20
88.1045
 30
0.0
 11
7.8074
 21
89.4385
 31
0.0
  0
LINE
  5
8D5
330
1D
100
AcDbEntity
  8
0
100
AcDbLine
 10
25.9437
 20
88.3575
 30
0.0
 11
28.4357
 21
89.2265
 31
0.0
  0
LINE
  5
8D6
330
1D
100
AcDbEntity
  8
0
100
AcDbLine
 10
7.8074
 20
89.4385
 30
0.0
 11
8.8195
 21
90.6295
 31
0.0
  0
LINE
  5
8D7
330
1D
100
AcDbEntity
  8
0
100
AcDbLine
 10
28.4357
 20
89.2265
 30
0.0
 11
30.500524576755
 21
89.725872459661
 31
0.0
  0
LINE
  5
8D8
330
1D
100
AcDbEntity
  8
0
100
AcDbLine
 10
8.8195
 20
90.6295
 30
0.0
 11
10.0057
 21
91.6455
 31
0.0
  0
LINE
  5
8D9
330
1D
100
AcDbEntity
  8
0
100
AcDbLine
 10
10.0057
 20
91.6455
 30
0.0
 11
12.0294
 21
92.8185
 31
0.0
  0
LINE
  5
8DA
330
1D
100
AcDbEntity
  8
0
100
AcDbLine
 10
12.0294
 20
92.8185
 30
0.0
 11
14.293
 21
93.4275
 31
0.0
  0
LINE
  5
8DB
330
1D
100
AcDbEntity
  8
0
100
AcDbLine
 10
15.8475
 20
93.5505
 30
0.0
 11
30.668586986871
 21
93.5505
 31
0.0
  0
LINE
  5
8DC
330
1D
100
AcDbEntity
  8
0
100
AcDbLine
 10
14.293
 20
93.4275
 30
0.0
 11
15.8475
 21
93.5505
 31
0.0
  0
LINE
  5
8DD
330
1D
100
AcDbEntity
  8
0
100
AcDbLine
 10
30.9231
 20
99.3425
 30
0.0
 11
30.9787
 21
100.1585
 31
0.0
  0
LINE
  5
8DE
330
1D
100
AcDbEntity
  8
0
100
AcDbLine
 10
31.1743
 20
100.9865
 30
0.0
 11
31.5141
 21
101.7265
 31
0.0
  0
LINE
  5
8DF
330
1D
100
AcDbEntity
  8
0
100
AcDbLine
 10
30.9787
 20
100.1585
 30
0.0
 11
31.1743
 21
100.9865
 31
0.0
  0
LINE
  5
8E0
330
1D
100
AcDbEntity
  8
0
100
AcDbLine
 10
31.9898
 20
102.4115
 30
0.0
 11
32.5505
 21
102.9775
 31
0.0
  0
LINE
  5
8E1
330
1D
100
AcDbEntity
  8
0
100
AcDbLine
 10
31.5141
 20
101.7265
 30
0.0
 11
31.9898
 21
102.4115
 31
0.0
  0
LINE
  5
8E2
330
1D
100
AcDbEntity
  8
0
100
AcDbLine
 10
32.5505
 20
102.9775
 30
0.0
 11
33.2506
 21
103.4925
 31
0.0
  0
LINE
  5
8E3
330
1D
100
AcDbEntity
  8
0
100
AcDbLine
 10
46.0565
 20
88.3575
 30
0.0
 11
48.4499
 21
87.2495
 31
0.0
  0
LINE
  5
8E4
330
1D
100
AcDbEntity
  8
0
100
AcDbLine
 10
64.1928
 20
89.4385
 30
0.0
 11
65.3625
 21
87.4055
 31
0.0
  0
LINE
  5
8E5
330
1D
100
AcDbEntity
  8
0
100
AcDbLine
 10
41.0243
 20
100.1865
 30
0.0
 11
41.854
 21
81.5345
 31
0.0
  0
LINE
  5
8E6
330
1D
100
AcDbEntity
  8
0
100
AcDbLine
 10
49.402734839267
 20
63.148733416926
 30
0.0
 11
50.6543
 21
62.0795
 31
0.0
  0
LINE
  5
8E7
330
1D
100
AcDbEntity
  8
0
100
AcDbLine
 10
48.4499
 20
87.2495
 30
0.0
 11
50.7239
 21
85.9085
 31
0.0
  0
LINE
  5
8E8
330
1D
100
AcDbEntity
  8
0
100
AcDbLine
 10
48.8907
 20
63.6785
 30
0.0
 11
49.402734839267
 21
63.148733416926
 31
0.0
  0
LINE
  5
8E9
330
1D
100
AcDbEntity
  8
0
100
AcDbLine
 10
48.8907
 20
63.6785
 30
0.0
 11
49.402734839267
 21
63.148733416926
 31
0.0
  0
LINE
  5
8EA
330
1D
100
AcDbEntity
  8
0
100
AcDbLine
 10
47.7241
 20
65.0415
 30
0.0
 11
48.8907
 21
63.6785
 31
0.0
  0
LINE
  5
8EB
330
1D
100
AcDbEntity
  8
0
100
AcDbLine
 10
46.734
 20
66.5385
 30
0.0
 11
47.7611
 21
65.0055
 31
0.0
  0
LINE
  5
8EC
330
1D
100
AcDbEntity
  8
0
100
AcDbLine
 10
43.9362
 20
71.4705
 30
0.0
 11
45.6587
 21
68.4195
 31
0.0
  0
LINE
  5
8ED
330
1D
100
AcDbEntity
  8
0
100
AcDbLine
 10
43.429351740044
 20
72.463560025692
 30
0.0
 11
43.9362
 21
71.4705
 31
0.0
  0
LINE
  5
8EE
330
1D
100
AcDbEntity
  8
0
100
AcDbLine
 10
42.871321833865
 20
73.903637202929
 30
0.0
 11
43.429351740044
 21
72.463560025692
 31
0.0
  0
LINE
  5
8EF
330
1D
100
AcDbEntity
  8
0
100
AcDbLine
 10
42.511602447948
 20
75.177854125053
 30
0.0
 11
42.871321833865
 21
73.903637202929
 31
0.0
  0
LINE
  5
8F0
330
1D
100
AcDbEntity
  8
0
100
AcDbLine
 10
42.511602447948
 20
75.177854125053
 30
0.0
 11
42.871321833865
 21
73.903637202929
 31
0.0
  0
LINE
  5
8F1
330
1D
100
AcDbEntity
  8
0
100
AcDbLine
 10
42.2509
 20
76.5535
 30
0.0
 11
42.511602447948
 21
75.177854125053
 31
0.0
  0
LINE
  5
8F2
330
1D
100
AcDbEntity
  8
0
100
AcDbLine
 10
42.23
 20
76.7245
 30
0.0
 11
42.2509
 21
76.5535
 31
0.0
  0
LINE
  5
8F3
330
1D
100
AcDbEntity
  8
0
100
AcDbLine
 10
42.010291595157
 20
78.656643818889
 30
0.0
 11
42.23
 21
76.7245
 31
0.0
  0
LINE
  5
8F4
330
1D
100
AcDbEntity
  8
0
100
AcDbLine
 10
41.9032
 20
80.4815
 30
0.0
 11
41.907046072036
 21
80.204442531146
 31
0.0
  0
LINE
  5
8F5
330
1D
100
AcDbEntity
  8
0
100
AcDbLine
 10
41.9032
 20
80.4815
 30
0.0
 11
41.9287
 21
79.6615
 31
0.0
  0
LINE
  5
8F6
330
1D
100
AcDbEntity
  8
0
100
AcDbLine
 10
41.9287
 20
79.6615
 30
0.0
 11
42.010291595157
 21
78.656643818889
 31
0.0
  0
LINE
  5
8F7
330
1D
100
AcDbEntity
  8
0
100
AcDbLine
 10
41.854
 20
81.5345
 30
0.0
 11
41.9032
 21
80.4815
 31
0.0
  0
LINE
  5
8F8
330
1D
100
AcDbEntity
  8
0
100
AcDbLine
 10
45.6587
 20
68.4195
 30
0.0
 11
46.734
 21
66.5385
 31
0.0
  0
LINE
  5
8F9
330
1D
100
AcDbEntity
  8
0
100
AcDbLine
 10
61.499263652542
 20
54.937766725982
 30
0.0
 11
61.7835
 21
55.7585
 31
0.0
  0
LINE
  5
8FA
330
1D
100
AcDbEntity
  8
0
100
AcDbLine
 10
61.7835
 20
55.7585
 30
0.0
 11
62.3866
 21
58.3345
 31
0.0
  0
LINE
  5
8FB
330
1D
100
AcDbEntity
  8
0
100
AcDbLine
 10
62.3866
 20
58.3345
 30
0.0
 11
62.7637
 21
60.9525
 31
0.0
  0
LINE
  5
8FC
330
1D
100
AcDbEntity
  8
0
100
AcDbLine
 10
52.4167
 20
60.8065
 30
0.0
 11
54.3574
 21
59.5125
 31
0.0
  0
LINE
  5
8FD
330
1D
100
AcDbEntity
  8
0
100
AcDbLine
 10
62.7637
 20
60.9525
 30
0.0
 11
62.855
 21
63.5955
 31
0.0
  0
LINE
  5
8FE
330
1D
100
AcDbEntity
  8
0
100
AcDbLine
 10
51.9012
 20
61.1465
 30
0.0
 11
52.4167
 21
60.8065
 31
0.0
  0
LINE
  5
8FF
330
1D
100
AcDbEntity
  8
0
100
AcDbLine
 10
50.6543
 20
62.0795
 30
0.0
 11
51.9012
 21
61.1465
 31
0.0
  0
LINE
  5
900
330
1D
100
AcDbEntity
  8
0
100
AcDbLine
 10
62.716
 20
66.2385
 30
0.0
 11
62.855
 21
63.5955
 31
0.0
  0
LINE
  5
901
330
1D
100
AcDbEntity
  8
0
100
AcDbLine
 10
62.305
 20
68.8525
 30
0.0
 11
62.716
 21
66.2385
 31
0.0
  0
LINE
  5
902
330
1D
100
AcDbEntity
  8
0
100
AcDbLine
 10
61.6412
 20
71.4135
 30
0.0
 11
62.305
 21
68.8525
 31
0.0
  0
LINE
  5
903
330
1D
100
AcDbEntity
  8
0
100
AcDbLine
 10
60.7296
 20
73.8975
 30
0.0
 11
61.6412
 21
71.4135
 31
0.0
  0
LINE
  5
904
330
1D
100
AcDbEntity
  8
0
100
AcDbLine
 10
59.5811
 20
76.2795
 30
0.0
 11
60.7296
 21
73.8975
 31
0.0
  0
LINE
  5
905
330
1D
100
AcDbEntity
  8
0
100
AcDbLine
 10
58.2048
 20
78.5365
 30
0.0
 11
59.5811
 21
76.2795
 31
0.0
  0
LINE
  5
906
330
1D
100
AcDbEntity
  8
0
100
AcDbLine
 10
56.6145
 20
80.6475
 30
0.0
 11
58.2048
 21
78.5365
 31
0.0
  0
LINE
  5
907
330
1D
100
AcDbEntity
  8
0
100
AcDbLine
 10
54.8261
 20
82.5925
 30
0.0
 11
56.6145
 21
80.6475
 31
0.0
  0
LINE
  5
908
330
1D
100
AcDbEntity
  8
0
100
AcDbLine
 10
52.8479
 20
84.3405
 30
0.0
 11
54.8261
 21
82.5925
 31
0.0
  0
LINE
  5
909
330
1D
100
AcDbEntity
  8
0
100
AcDbLine
 10
50.7239
 20
85.9085
 30
0.0
 11
52.8479
 21
84.3405
 31
0.0
  0
LINE
  5
90A
330
1D
100
AcDbEntity
  8
0
100
AcDbLine
 10
65.3625
 20
87.4055
 30
0.0
 11
65.9692
 21
85.1365
 31
0.0
  0
LINE
  5
90B
330
1D
100
AcDbEntity
  8
0
100
AcDbLine
 10
65.9692
 20
85.1365
 30
0.0
 11
66.0917
 21
83.5755
 31
0.0
  0
LINE
  5
90C
330
1D
100
AcDbEntity
  8
0
100
AcDbLine
 10
43.5645
 20
89.2265
 30
0.0
 11
46.0565
 21
88.3575
 31
0.0
  0
LINE
  5
90D
330
1D
100
AcDbEntity
  8
0
100
AcDbLine
 10
41.490055400864
 20
89.716125482795
 30
0.0
 11
43.5645
 21
89.2265
 31
0.0
  0
LINE
  5
90E
330
1D
100
AcDbEntity
  8
0
100
AcDbLine
 10
63.1807
 20
90.6295
 30
0.0
 11
64.1928
 21
89.4385
 31
0.0
  0
LINE
  5
90F
330
1D
100
AcDbEntity
  8
0
100
AcDbLine
 10
60.6649
 20
92.4635
 30
0.0
 11
61.9945
 21
91.6455
 31
0.0
  0
LINE
  5
910
330
1D
100
AcDbEntity
  8
0
100
AcDbLine
 10
61.9945
 20
91.6455
 30
0.0
 11
63.1807
 21
90.6295
 31
0.0
  0
LINE
  5
911
330
1D
100
AcDbEntity
  8
0
100
AcDbLine
 10
41.319490285224
 20
93.5505
 30
0.0
 11
56.1527
 21
93.5505
 31
0.0
  0
LINE
  5
912
330
1D
100
AcDbEntity
  8
0
100
AcDbLine
 10
33.9411
 20
103.8425
 30
0.0
 11
34.5678
 21
104.0345
 31
0.0
  0
LINE
  5
913
330
1D
100
AcDbEntity
  8
0
100
AcDbLine
 10
34.5678
 20
104.0345
 30
0.0
 11
35.4233
 21
104.1485
 31
0.0
  0
LINE
  5
914
330
1D
100
AcDbEntity
  8
0
100
AcDbLine
 10
36.7782
 20
104.1295
 30
0.0
 11
37.4324
 21
104.0345
 31
0.0
  0
LINE
  5
915
330
1D
100
AcDbEntity
  8
0
100
AcDbLine
 10
40.793
 20
101.0755
 30
0.0
 11
41.0243
 21
100.1865
 31
0.0
  0
LINE
  5
916
330
1D
100
AcDbEntity
  8
0
100
AcDbLine
 10
40.3415
 20
101.9715
 30
0.0
 11
40.793
 21
101.0755
 31
0.0
  0
LINE
  5
917
330
1D
100
AcDbEntity
  8
0
100
AcDbLine
 10
40.1664
 20
102.2035
 30
0.0
 11
40.3415
 21
101.9715
 31
0.0
  0
LINE
  5
918
330
1D
100
AcDbEntity
  8
0
100
AcDbLine
 10
38.3428
 20
103.7045
 30
0.0
 11
38.8907
 21
103.3815
 31
0.0
  0
LINE
  5
919
330
1D
100
AcDbEntity
  8
0
100
AcDbLine
 10
38.8907
 20
103.3815
 30
0.0
 11
39.4897
 21
102.9245
 31
0.0
  0
LINE
  5
91A
330
1D
100
AcDbEntity
  8
0
100
AcDbLine
 10
39.4897
 20
102.9245
 30
0.0
 11
40.1664
 21
102.2035
 31
0.0
  0
LINE
  5
91B
330
1D
100
AcDbEntity
  8
0
100
AcDbLine
 10
37.4324
 20
104.0345
 30
0.0
 11
38.3428
 21
103.7045
 31
0.0
  0
LINE
  5
91C
330
1D
100
AcDbEntity
  8
0
100
AcDbLine
 10
35.4233
 20
104.1485
 30
0.0
 11
36.7782
 21
104.1295
 31
0.0
  0
LINE
  5
91D
330
1D
100
AcDbEntity
  8
0
100
AcDbLine
 10
56.1527
 20
93.5505
 30
0.0
 11
58.4782
 21
93.3045
 31
0.0
  0
LINE
  5
91E
330
1D
100
AcDbEntity
  8
0
100
AcDbLine
 10
58.4782
 20
93.3045
 30
0.0
 11
60.6649
 21
92.4635
 31
0.0
  0
LINE
  5
91F
330
1D
100
AcDbEntity
  8
0
100
AcDbLine
 10
125.5824
 20
63.5025
 30
0.0
 11
126.028796466375
 21
66.98316039634
 31
0.0
  0
LINE
  5
920
330
1D
100
AcDbEntity
  8
0
100
AcDbLine
 10
126.028796466375
 20
66.98316039634
 30
0.0
 11
126.879125844459
 21
69.125990429112
 31
0.0
  0
LINE
  5
921
330
1D
100
AcDbEntity
  8
0
100
AcDbLine
 10
126.879125844459
 20
69.125990429112
 30
0.0
 11
128.273666024516
 21
70.962701885773
 31
0.0
  0
LINE
  5
922
330
1D
100
AcDbEntity
  8
0
100
AcDbLine
 10
128.273666024516
 20
70.962701885773
 30
0.0
 11
129.940311605561
 21
72.289215715584
 31
0.0
  0
LINE
  5
923
330
1D
100
AcDbEntity
  8
0
100
AcDbLine
 10
129.940311605561
 20
72.289215715584
 30
0.0
 11
131.7487
 21
73.1245
 31
0.0
  0
LINE
  5
924
330
1D
100
AcDbEntity
  8
0
100
AcDbLine
 10
122.166297669583
 20
40.332697669596
 30
0.0
 11
123.5882
 21
39.4875
 31
0.0
  0
LINE
  5
925
330
1D
100
AcDbEntity
  8
0
100
AcDbLine
 10
146.4176
 20
63.5025
 30
0.0
 11
145.971203533625
 21
66.98316039634
 31
0.0
  0
LINE
  5
926
330
1D
100
AcDbEntity
  8
0
100
AcDbLine
 10
145.971203533625
 20
66.98316039634
 30
0.0
 11
145.120874155541
 21
69.125990429112
 31
0.0
  0
LINE
  5
927
330
1D
100
AcDbEntity
  8
0
100
AcDbLine
 10
145.120874155541
 20
69.125990429112
 30
0.0
 11
143.726333975484
 21
70.962701885773
 31
0.0
  0
LINE
  5
928
330
1D
100
AcDbEntity
  8
0
100
AcDbLine
 10
143.726333975484
 20
70.962701885773
 30
0.0
 11
142.059688394439
 21
72.289215715584
 31
0.0
  0
LINE
  5
929
330
1D
100
AcDbEntity
  8
0
100
AcDbLine
 10
142.059688394439
 20
72.289215715584
 30
0.0
 11
140.2513
 21
73.1245
 31
0.0
  0
LINE
  5
92A
330
1D
100
AcDbEntity
  8
0
100
AcDbLine
 10
149.833702330417
 20
40.332697669596
 30
0.0
 11
148.4118
 21
39.4875
 31
0.0
  0
LINE
  5
92B
330
1D
100
AcDbEntity
  8
0
100
AcDbLine
 10
213.5218
 20
93.3045
 30
0.0
 11
211.3351
 21
92.4635
 31
0.0
  0
LINE
  5
92C
330
1D
100
AcDbEntity
  8
0
100
AcDbLine
 10
215.8473
 20
93.5505
 30
0.0
 11
213.5218
 21
93.3045
 31
0.0
  0
LINE
  5
92D
330
1D
100
AcDbEntity
  8
0
100
AcDbLine
 10
236.5767
 20
104.1485
 30
0.0
 11
235.2218
 21
104.1295
 31
0.0
  0
LINE
  5
92E
330
1D
100
AcDbEntity
  8
0
100
AcDbLine
 10
234.5676
 20
104.0345
 30
0.0
 11
233.6572
 21
103.7045
 31
0.0
  0
LINE
  5
92F
330
1D
100
AcDbEntity
  8
0
100
AcDbLine
 10
232.5103
 20
102.9245
 30
0.0
 11
231.8336
 21
102.2035
 31
0.0
  0
LINE
  5
930
330
1D
100
AcDbEntity
  8
0
100
AcDbLine
 10
233.1093
 20
103.3815
 30
0.0
 11
232.5103
 21
102.9245
 31
0.0
  0
LINE
  5
931
330
1D
100
AcDbEntity
  8
0
100
AcDbLine
 10
233.6572
 20
103.7045
 30
0.0
 11
233.1093
 21
103.3815
 31
0.0
  0
LINE
  5
932
330
1D
100
AcDbEntity
  8
0
100
AcDbLine
 10
231.8336
 20
102.2035
 30
0.0
 11
231.6585
 21
101.9715
 31
0.0
  0
LINE
  5
933
330
1D
100
AcDbEntity
  8
0
100
AcDbLine
 10
231.6585
 20
101.9715
 30
0.0
 11
231.207
 21
101.0755
 31
0.0
  0
LINE
  5
934
330
1D
100
AcDbEntity
  8
0
100
AcDbLine
 10
231.207
 20
101.0755
 30
0.0
 11
230.9757
 21
100.1865
 31
0.0
  0
LINE
  5
935
330
1D
100
AcDbEntity
  8
0
100
AcDbLine
 10
235.2218
 20
104.1295
 30
0.0
 11
234.5676
 21
104.0345
 31
0.0
  0
LINE
  5
936
330
1D
100
AcDbEntity
  8
0
100
AcDbLine
 10
237.4322
 20
104.0345
 30
0.0
 11
236.5767
 21
104.1485
 31
0.0
  0
LINE
  5
937
330
1D
100
AcDbEntity
  8
0
100
AcDbLine
 10
238.0589
 20
103.8425
 30
0.0
 11
237.4322
 21
104.0345
 31
0.0
  0
LINE
  5
938
330
1D
100
AcDbEntity
  8
0
100
AcDbLine
 10
230.680509714776
 20
93.5505
 30
0.0
 11
215.8473
 21
93.5505
 31
0.0
  0
LINE
  5
939
330
1D
100
AcDbEntity
  8
0
100
AcDbLine
 10
210.0055
 20
91.6455
 30
0.0
 11
208.8193
 21
90.6295
 31
0.0
  0
LINE
  5
93A
330
1D
100
AcDbEntity
  8
0
100
AcDbLine
 10
211.3351
 20
92.4635
 30
0.0
 11
210.0055
 21
91.6455
 31
0.0
  0
LINE
  5
93B
330
1D
100
AcDbEntity
  8
0
100
AcDbLine
 10
208.8193
 20
90.6295
 30
0.0
 11
207.8072
 21
89.4385
 31
0.0
  0
LINE
  5
93C
330
1D
100
AcDbEntity
  8
0
100
AcDbLine
 10
230.509944599136
 20
89.716125482795
 30
0.0
 11
228.4355
 21
89.2265
 31
0.0
  0
LINE
  5
93D
330
1D
100
AcDbEntity
  8
0
100
AcDbLine
 10
228.4355
 20
89.2265
 30
0.0
 11
225.9435
 21
88.3575
 31
0.0
  0
LINE
  5
93E
330
1D
100
AcDbEntity
  8
0
100
AcDbLine
 10
206.0308
 20
85.1365
 30
0.0
 11
205.9083
 21
83.5755
 31
0.0
  0
LINE
  5
93F
330
1D
100
AcDbEntity
  8
0
100
AcDbLine
 10
206.6375
 20
87.4055
 30
0.0
 11
206.0308
 21
85.1365
 31
0.0
  0
LINE
  5
940
330
1D
100
AcDbEntity
  8
0
100
AcDbLine
 10
221.2761
 20
85.9085
 30
0.0
 11
219.1521
 21
84.3405
 31
0.0
  0
LINE
  5
941
330
1D
100
AcDbEntity
  8
0
100
AcDbLine
 10
219.1521
 20
84.3405
 30
0.0
 11
217.1739
 21
82.5925
 31
0.0
  0
LINE
  5
942
330
1D
100
AcDbEntity
  8
0
100
AcDbLine
 10
217.1739
 20
82.5925
 30
0.0
 11
215.3855
 21
80.6475
 31
0.0
  0
LINE
  5
943
330
1D
100
AcDbEntity
  8
0
100
AcDbLine
 10
215.3855
 20
80.6475
 30
0.0
 11
213.7952
 21
78.5365
 31
0.0
  0
LINE
  5
944
330
1D
100
AcDbEntity
  8
0
100
AcDbLine
 10
213.7952
 20
78.5365
 30
0.0
 11
212.4189
 21
76.2795
 31
0.0
  0
LINE
  5
945
330
1D
100
AcDbEntity
  8
0
100
AcDbLine
 10
212.4189
 20
76.2795
 30
0.0
 11
211.2704
 21
73.8975
 31
0.0
  0
LINE
  5
946
330
1D
100
AcDbEntity
  8
0
100
AcDbLine
 10
211.2704
 20
73.8975
 30
0.0
 11
210.3588
 21
71.4135
 31
0.0
  0
LINE
  5
947
330
1D
100
AcDbEntity
  8
0
100
AcDbLine
 10
210.3588
 20
71.4135
 30
0.0
 11
209.695
 21
68.8525
 31
0.0
  0
LINE
  5
948
330
1D
100
AcDbEntity
  8
0
100
AcDbLine
 10
209.695
 20
68.8525
 30
0.0
 11
209.284
 21
66.2385
 31
0.0
  0
LINE
  5
949
330
1D
100
AcDbEntity
  8
0
100
AcDbLine
 10
209.284
 20
66.2385
 30
0.0
 11
209.145
 21
63.5955
 31
0.0
  0
LINE
  5
94A
330
1D
100
AcDbEntity
  8
0
100
AcDbLine
 10
221.3457
 20
62.0795
 30
0.0
 11
220.0988
 21
61.1465
 31
0.0
  0
LINE
  5
94B
330
1D
100
AcDbEntity
  8
0
100
AcDbLine
 10
220.0988
 20
61.1465
 30
0.0
 11
219.5833
 21
60.8065
 31
0.0
  0
LINE
  5
94C
330
1D
100
AcDbEntity
  8
0
100
AcDbLine
 10
209.2363
 20
60.9525
 30
0.0
 11
209.145
 21
63.5955
 31
0.0
  0
LINE
  5
94D
330
1D
100
AcDbEntity
  8
0
100
AcDbLine
 10
219.5833
 20
60.8065
 30
0.0
 11
217.6426
 21
59.5125
 31
0.0
  0
LINE
  5
94E
330
1D
100
AcDbEntity
  8
0
100
AcDbLine
 10
209.6134
 20
58.3345
 30
0.0
 11
209.2363
 21
60.9525
 31
0.0
  0
LINE
  5
94F
330
1D
100
AcDbEntity
  8
0
100
AcDbLine
 10
210.2165
 20
55.7585
 30
0.0
 11
209.6134
 21
58.3345
 31
0.0
  0
LINE
  5
950
330
1D
100
AcDbEntity
  8
0
100
AcDbLine
 10
210.500736347458
 20
54.937766725982
 30
0.0
 11
210.2165
 21
55.7585
 31
0.0
  0
LINE
  5
951
330
1D
100
AcDbEntity
  8
0
100
AcDbLine
 10
226.3413
 20
68.4195
 30
0.0
 11
225.266
 21
66.5385
 31
0.0
  0
LINE
  5
952
330
1D
100
AcDbEntity
  8
0
100
AcDbLine
 10
230.146
 20
81.5345
 30
0.0
 11
230.0968
 21
80.4815
 31
0.0
  0
LINE
  5
953
330
1D
100
AcDbEntity
  8
0
100
AcDbLine
 10
230.0713
 20
79.6615
 30
0.0
 11
229.989708404843
 21
78.656643818889
 31
0.0
  0
LINE
  5
954
330
1D
100
AcDbEntity
  8
0
100
AcDbLine
 10
230.0968
 20
80.4815
 30
0.0
 11
230.0713
 21
79.6615
 31
0.0
  0
LINE
  5
955
330
1D
100
AcDbEntity
  8
0
100
AcDbLine
 10
230.0968
 20
80.4815
 30
0.0
 11
230.092953927964
 21
80.204442531146
 31
0.0
  0
LINE
  5
956
330
1D
100
AcDbEntity
  8
0
100
AcDbLine
 10
229.989708404843
 20
78.656643818889
 30
0.0
 11
229.77
 21
76.7245
 31
0.0
  0
LINE
  5
957
330
1D
100
AcDbEntity
  8
0
100
AcDbLine
 10
229.77
 20
76.7245
 30
0.0
 11
229.7491
 21
76.5535
 31
0.0
  0
LINE
  5
958
330
1D
100
AcDbEntity
  8
0
100
AcDbLine
 10
229.7491
 20
76.5535
 30
0.0
 11
229.488397552052
 21
75.177854125053
 31
0.0
  0
LINE
  5
959
330
1D
100
AcDbEntity
  8
0
100
AcDbLine
 10
229.488397552052
 20
75.177854125053
 30
0.0
 11
229.128678166135
 21
73.903637202929
 31
0.0
  0
LINE
  5
95A
330
1D
100
AcDbEntity
  8
0
100
AcDbLine
 10
229.488397552052
 20
75.177854125053
 30
0.0
 11
229.128678166135
 21
73.903637202929
 31
0.0
  0
LINE
  5
95B
330
1D
100
AcDbEntity
  8
0
100
AcDbLine
 10
229.128678166135
 20
73.903637202929
 30
0.0
 11
228.570648259956
 21
72.463560025692
 31
0.0
  0
LINE
  5
95C
330
1D
100
AcDbEntity
  8
0
100
AcDbLine
 10
228.570648259956
 20
72.463560025692
 30
0.0
 11
228.0638
 21
71.4705
 31
0.0
  0
LINE
  5
95D
330
1D
100
AcDbEntity
  8
0
100
AcDbLine
 10
228.0638
 20
71.4705
 30
0.0
 11
226.3413
 21
68.4195
 31
0.0
  0
LINE
  5
95E
330
1D
100
AcDbEntity
  8
0
100
AcDbLine
 10
225.266
 20
66.5385
 30
0.0
 11
224.2389
 21
65.0055
 31
0.0
  0
LINE
  5
95F
330
1D
100
AcDbEntity
  8
0
100
AcDbLine
 10
224.2759
 20
65.0415
 30
0.0
 11
223.1093
 21
63.6785
 31
0.0
  0
LINE
  5
960
330
1D
100
AcDbEntity
  8
0
100
AcDbLine
 10
223.1093
 20
63.6785
 30
0.0
 11
222.597265160733
 21
63.148733416926
 31
0.0
  0
LINE
  5
961
330
1D
100
AcDbEntity
  8
0
100
AcDbLine
 10
223.1093
 20
63.6785
 30
0.0
 11
222.597265160733
 21
63.148733416926
 31
0.0
  0
LINE
  5
962
330
1D
100
AcDbEntity
  8
0
100
AcDbLine
 10
223.5501
 20
87.2495
 30
0.0
 11
221.2761
 21
85.9085
 31
0.0
  0
LINE
  5
963
330
1D
100
AcDbEntity
  8
0
100
AcDbLine
 10
222.597265160733
 20
63.148733416926
 30
0.0
 11
221.3457
 21
62.0795
 31
0.0
  0
LINE
  5
964
330
1D
100
AcDbEntity
  8
0
100
AcDbLine
 10
230.9757
 20
100.1865
 30
0.0
 11
230.146
 21
81.5345
 31
0.0
  0
LINE
  5
965
330
1D
100
AcDbEntity
  8
0
100
AcDbLine
 10
207.8072
 20
89.4385
 30
0.0
 11
206.6375
 21
87.4055
 31
0.0
  0
LINE
  5
966
330
1D
100
AcDbEntity
  8
0
100
AcDbLine
 10
225.9435
 20
88.3575
 30
0.0
 11
223.5501
 21
87.2495
 31
0.0
  0
LINE
  5
967
330
1D
100
AcDbEntity
  8
0
100
AcDbLine
 10
239.4495
 20
102.9775
 30
0.0
 11
238.7494
 21
103.4925
 31
0.0
  0
LINE
  5
968
330
1D
100
AcDbEntity
  8
0
100
AcDbLine
 10
240.4859
 20
101.7265
 30
0.0
 11
240.0102
 21
102.4115
 31
0.0
  0
LINE
  5
969
330
1D
100
AcDbEntity
  8
0
100
AcDbLine
 10
240.0102
 20
102.4115
 30
0.0
 11
239.4495
 21
102.9775
 31
0.0
  0
LINE
  5
96A
330
1D
100
AcDbEntity
  8
0
100
AcDbLine
 10
241.0213
 20
100.1585
 30
0.0
 11
240.8257
 21
100.9865
 31
0.0
  0
LINE
  5
96B
330
1D
100
AcDbEntity
  8
0
100
AcDbLine
 10
240.8257
 20
100.9865
 30
0.0
 11
240.4859
 21
101.7265
 31
0.0
  0
LINE
  5
96C
330
1D
100
AcDbEntity
  8
0
100
AcDbLine
 10
241.0769
 20
99.3425
 30
0.0
 11
241.0213
 21
100.1585
 31
0.0
  0
LINE
  5
96D
330
1D
100
AcDbEntity
  8
0
100
AcDbLine
 10
257.707
 20
93.4275
 30
0.0
 11
256.1525
 21
93.5505
 31
0.0
  0
LINE
  5
96E
330
1D
100
AcDbEntity
  8
0
100
AcDbLine
 10
256.1525
 20
93.5505
 30
0.0
 11
241.331413013129
 21
93.5505
 31
0.0
  0
LINE
  5
96F
330
1D
100
AcDbEntity
  8
0
100
AcDbLine
 10
259.9706
 20
92.8185
 30
0.0
 11
257.707
 21
93.4275
 31
0.0
  0
LINE
  5
970
330
1D
100
AcDbEntity
  8
0
100
AcDbLine
 10
261.9943
 20
91.6455
 30
0.0
 11
259.9706
 21
92.8185
 31
0.0
  0
LINE
  5
971
330
1D
100
AcDbEntity
  8
0
100
AcDbLine
 10
263.1805
 20
90.6295
 30
0.0
 11
261.9943
 21
91.6455
 31
0.0
  0
LINE
  5
972
330
1D
100
AcDbEntity
  8
0
100
AcDbLine
 10
243.5643
 20
89.2265
 30
0.0
 11
241.499475423245
 21
89.725872459661
 31
0.0
  0
LINE
  5
973
330
1D
100
AcDbEntity
  8
0
100
AcDbLine
 10
264.1926
 20
89.4385
 30
0.0
 11
263.1805
 21
90.6295
 31
0.0
  0
LINE
  5
974
330
1D
100
AcDbEntity
  8
0
100
AcDbLine
 10
246.0563
 20
88.3575
 30
0.0
 11
243.5643
 21
89.2265
 31
0.0
  0
LINE
  5
975
330
1D
100
AcDbEntity
  8
0
100
AcDbLine
 10
265.0077
 20
88.1045
 30
0.0
 11
264.1926
 21
89.4385
 31
0.0
  0
LINE
  5
976
330
1D
100
AcDbEntity
  8
0
100
AcDbLine
 10
250.7237
 20
85.9085
 30
0.0
 11
248.4497
 21
87.2495
 31
0.0
  0
LINE
  5
977
330
1D
100
AcDbEntity
  8
0
100
AcDbLine
 10
252.8564
 20
84.3515
 30
0.0
 11
250.7237
 21
85.9085
 31
0.0
  0
LINE
  5
978
330
1D
100
AcDbEntity
  8
0
100
AcDbLine
 10
254.8259
 20
82.5925
 30
0.0
 11
252.8564
 21
84.3515
 31
0.0
  0
LINE
  5
979
330
1D
100
AcDbEntity
  8
0
100
AcDbLine
 10
241.9645
 20
79.4965
 30
0.0
 11
241.8701
 21
81.2915
 31
0.0
  0
LINE
  5
97A
330
1D
100
AcDbEntity
  8
0
100
AcDbLine
 10
242.0057
 20
78.7055
 30
0.0
 11
241.9645
 21
79.4965
 31
0.0
  0
LINE
  5
97B
330
1D
100
AcDbEntity
  8
0
100
AcDbLine
 10
242.014673077298
 20
78.532559318819
 30
0.0
 11
242.0057
 21
78.7055
 31
0.0
  0
LINE
  5
97C
330
1D
100
AcDbEntity
  8
0
100
AcDbLine
 10
242.2507
 20
76.5535
 30
0.0
 11
242.238175941046
 21
76.613648115743
 31
0.0
  0
LINE
  5
97D
330
1D
100
AcDbEntity
  8
0
100
AcDbLine
 10
242.2507
 20
76.5535
 30
0.0
 11
242.014673077298
 21
78.532559318818
 31
0.0
  0
LINE
  5
97E
330
1D
100
AcDbEntity
  8
0
100
AcDbLine
 10
242.511402447948
 20
75.177854125053
 30
0.0
 11
242.2507
 21
76.5535
 31
0.0
  0
LINE
  5
97F
330
1D
100
AcDbEntity
  8
0
100
AcDbLine
 10
242.873754772138
 20
73.894310670544
 30
0.0
 11
242.511402447948
 21
75.177854125053
 31
0.0
  0
LINE
  5
980
330
1D
100
AcDbEntity
  8
0
100
AcDbLine
 10
243.326650175854
 20
72.71189021574
 30
0.0
 11
242.873754772138
 21
73.894310670544
 31
0.0
  0
LINE
  5
981
330
1D
100
AcDbEntity
  8
0
100
AcDbLine
 10
243.8619
 20
71.5825
 30
0.0
 11
243.326650175854
 21
72.71189021574
 31
0.0
  0
LINE
  5
982
330
1D
100
AcDbEntity
  8
0
100
AcDbLine
 10
246.3069
 20
67.2715
 30
0.0
 11
245.4175
 21
68.8395
 31
0.0
  0
LINE
  5
983
330
1D
100
AcDbEntity
  8
0
100
AcDbLine
 10
247.2598
 20
65.7475
 30
0.0
 11
246.3069
 21
67.2715
 31
0.0
  0
LINE
  5
984
330
1D
100
AcDbEntity
  8
0
100
AcDbLine
 10
247.858
 20
64.8805
 30
0.0
 11
247.2598
 21
65.7475
 31
0.0
  0
LINE
  5
985
330
1D
100
AcDbEntity
  8
0
100
AcDbLine
 10
248.8902
 20
63.6795
 30
0.0
 11
247.858
 21
64.8805
 31
0.0
  0
LINE
  5
986
330
1D
100
AcDbEntity
  8
0
100
AcDbLine
 10
249.416757033416
 20
63.137629227358
 30
0.0
 11
249.416757033416
 21
63.137629227358
 31
0.0
  0
LINE
  5
987
330
1D
100
AcDbEntity
  8
0
100
AcDbLine
 10
250.6541
 20
62.0795
 30
0.0
 11
250.5177
 21
62.1815
 31
0.0
  0
LINE
  5
988
330
1D
100
AcDbEntity
  8
0
100
AcDbLine
 10
250.5177
 20
62.1815
 30
0.0
 11
248.8902
 21
63.6795
 31
0.0
  0
LINE
  5
989
330
1D
100
AcDbEntity
  8
0
100
AcDbLine
 10
252.6354
 20
60.6475
 30
0.0
 11
252.254500524116
 21
60.885211885604
 31
0.0
  0
LINE
  5
98A
330
1D
100
AcDbEntity
  8
0
100
AcDbLine
 10
252.254500524118
 20
60.885211885603
 30
0.0
 11
250.6541
 21
62.0795
 31
0.0
  0
LINE
  5
98B
330
1D
100
AcDbEntity
  8
0
100
AcDbLine
 10
254.3572
 20
59.5125
 30
0.0
 11
252.6354
 21
60.6475
 31
0.0
  0
LINE
  5
98C
330
1D
100
AcDbEntity
  8
0
100
AcDbLine
 10
245.4175
 20
68.8395
 30
0.0
 11
243.8619
 21
71.5825
 31
0.0
  0
LINE
  5
98D
330
1D
100
AcDbEntity
  8
0
100
AcDbLine
 10
258.2046
 20
78.5365
 30
0.0
 11
256.6143
 21
80.6475
 31
0.0
  0
LINE
  5
98E
330
1D
100
AcDbEntity
  8
0
100
AcDbLine
 10
259.5809
 20
76.2795
 30
0.0
 11
258.2046
 21
78.5365
 31
0.0
  0
LINE
  5
98F
330
1D
100
AcDbEntity
  8
0
100
AcDbLine
 10
260.7294
 20
73.8975
 30
0.0
 11
259.5809
 21
76.2795
 31
0.0
  0
LINE
  5
990
330
1D
100
AcDbEntity
  8
0
100
AcDbLine
 10
261.641
 20
71.4135
 30
0.0
 11
260.7294
 21
73.8975
 31
0.0
  0
LINE
  5
991
330
1D
100
AcDbEntity
  8
0
100
AcDbLine
 10
262.3048
 20
68.8525
 30
0.0
 11
261.641
 21
71.4135
 31
0.0
  0
LINE
  5
992
330
1D
100
AcDbEntity
  8
0
100
AcDbLine
 10
262.7158
 20
66.2385
 30
0.0
 11
262.3048
 21
68.8525
 31
0.0
  0
LINE
  5
993
330
1D
100
AcDbEntity
  8
0
100
AcDbLine
 10
262.869
 20
63.5965
 30
0.0
 11
262.7635
 21
60.9525
 31
0.0
  0
LINE
  5
994
330
1D
100
AcDbEntity
  8
0
100
AcDbLine
 10
262.869
 20
63.5965
 30
0.0
 11
262.7158
 21
66.2385
 31
0.0
  0
LINE
  5
995
330
1D
100
AcDbEntity
  8
0
100
AcDbLine
 10
262.7635
 20
60.9525
 30
0.0
 11
262.4003
 21
58.3315
 31
0.0
  0
LINE
  5
996
330
1D
100
AcDbEntity
  8
0
100
AcDbLine
 10
262.4003
 20
58.3315
 30
0.0
 11
261.7696
 21
55.7625
 31
0.0
  0
LINE
  5
997
330
1D
100
AcDbEntity
  8
0
100
AcDbLine
 10
261.7696
 20
55.7625
 30
0.0
 11
261.491857355812
 21
54.946319292281
 31
0.0
  0
LINE
  5
998
330
1D
100
AcDbEntity
  8
0
100
AcDbLine
 10
256.6143
 20
80.6475
 30
0.0
 11
254.8259
 21
82.5925
 31
0.0
  0
LINE
  5
999
330
1D
100
AcDbEntity
  8
0
100
AcDbLine
 10
248.4497
 20
87.2495
 30
0.0
 11
246.0563
 21
88.3575
 31
0.0
  0
LINE
  5
99A
330
1D
100
AcDbEntity
  8
0
100
AcDbLine
 10
265.9633
 20
85.5065
 30
0.0
 11
265.0077
 21
88.1045
 31
0.0
  0
LINE
  5
99B
330
1D
100
AcDbEntity
  8
0
100
AcDbLine
 10
241.8701
 20
81.2915
 30
0.0
 11
241.0769
 21
99.3425
 31
0.0
  0
LINE
  5
99C
330
1D
100
AcDbEntity
  8
0
100
AcDbLine
 10
238.7494
 20
103.4925
 30
0.0
 11
238.0589
 21
103.8425
 31
0.0
  0
LINE
  5
99D
330
1D
100
AcDbEntity
  8
0
100
AcDbLine
 10
204.0042
 20
40.3885
 30
0.0
 11
202.8382
 21
40.8465
 31
0.0
  0
LINE
  5
99E
330
1D
100
AcDbEntity
  8
0
100
AcDbLine
 10
200.0068
 20
45.2125
 30
0.0
 11
200.0031
 21
45.4685
 31
0.0
  0
LINE
  5
99F
330
1D
100
AcDbEntity
  8
0
100
AcDbLine
 10
200.1127
 20
46.5555
 30
0.0
 11
200.0031
 21
45.4685
 31
0.0
  0
LINE
  5
9A0
330
1D
100
AcDbEntity
  8
0
100
AcDbLine
 10
200.3912
 20
47.5475
 30
0.0
 11
200.1127
 21
46.5555
 31
0.0
  0
LINE
  5
9A1
330
1D
100
AcDbEntity
  8
0
100
AcDbLine
 10
201.7079
 20
49.3055
 30
0.0
 11
201.0492
 21
48.6545
 31
0.0
  0
LINE
  5
9A2
330
1D
100
AcDbEntity
  8
0
100
AcDbLine
 10
200.6431
 20
48.0645
 30
0.0
 11
200.3912
 21
47.5475
 31
0.0
  0
LINE
  5
9A3
330
1D
100
AcDbEntity
  8
0
100
AcDbLine
 10
201.0492
 20
48.6545
 30
0.0
 11
200.6431
 21
48.0645
 31
0.0
  0
LINE
  5
9A4
330
1D
100
AcDbEntity
  8
0
100
AcDbLine
 10
200.2855
 20
43.9125
 30
0.0
 11
200.0068
 21
45.2125
 31
0.0
  0
LINE
  5
9A5
330
1D
100
AcDbEntity
  8
0
100
AcDbLine
 10
200.8839
 20
42.8785
 30
0.0
 11
200.2855
 21
43.9125
 31
0.0
  0
LINE
  5
9A6
330
1D
100
AcDbEntity
  8
0
100
AcDbLine
 10
202.0903
 20
41.3145
 30
0.0
 11
201.4332
 21
41.9555
 31
0.0
  0
LINE
  5
9A7
330
1D
100
AcDbEntity
  8
0
100
AcDbLine
 10
201.4332
 20
41.9555
 30
0.0
 11
200.8839
 21
42.8785
 31
0.0
  0
LINE
  5
9A8
330
1D
100
AcDbEntity
  8
0
100
AcDbLine
 10
202.8382
 20
40.8465
 30
0.0
 11
202.0903
 21
41.3145
 31
0.0
  0
LINE
  5
9A9
330
1D
100
AcDbEntity
  8
0
100
AcDbLine
 10
216.8373
 20
44.4675
 30
0.0
 11
216.003768448594
 21
45.397322810421
 31
0.0
  0
LINE
  5
9AA
330
1D
100
AcDbEntity
  8
0
100
AcDbLine
 10
218.7652
 20
42.6615
 30
0.0
 11
216.8373
 21
44.4675
 31
0.0
  0
LINE
  5
9AB
330
1D
100
AcDbEntity
  8
0
100
AcDbLine
 10
207.4529
 20
40.9285
 30
0.0
 11
206.7497
 21
40.5835
 31
0.0
  0
LINE
  5
9AC
330
1D
100
AcDbEntity
  8
0
100
AcDbLine
 10
206.7497
 20
40.5835
 30
0.0
 11
205.9361
 21
40.3385
 31
0.0
  0
LINE
  5
9AD
330
1D
100
AcDbEntity
  8
0
100
AcDbLine
 10
205.9361
 20
40.3385
 30
0.0
 11
205.1313
 21
40.2635
 31
0.0
  0
LINE
  5
9AE
330
1D
100
AcDbEntity
  8
0
100
AcDbLine
 10
220.8754
 20
41.0785
 30
0.0
 11
218.7652
 21
42.6615
 31
0.0
  0
LINE
  5
9AF
330
1D
100
AcDbEntity
  8
0
100
AcDbLine
 10
207.349
 20
37.8965
 30
0.0
 11
206.346656898208
 21
40.462131317676
 31
0.0
  0
LINE
  5
9B0
330
1D
100
AcDbEntity
  8
0
100
AcDbLine
 10
208.8193
 20
36.0725
 30
0.0
 11
207.349
 21
37.8965
 31
0.0
  0
LINE
  5
9B1
330
1D
100
AcDbEntity
  8
0
100
AcDbLine
 10
210.0055
 20
35.0565
 30
0.0
 11
208.8193
 21
36.0725
 31
0.0
  0
LINE
  5
9B2
330
1D
100
AcDbEntity
  8
0
100
AcDbLine
 10
211.3351
 20
34.2385
 30
0.0
 11
210.0055
 21
35.0565
 31
0.0
  0
LINE
  5
9B3
330
1D
100
AcDbEntity
  8
0
100
AcDbLine
 10
212.7761
 20
33.6395
 30
0.0
 11
211.3351
 21
34.2385
 31
0.0
  0
LINE
  5
9B4
330
1D
100
AcDbEntity
  8
0
100
AcDbLine
 10
214.2928
 20
33.2745
 30
0.0
 11
212.7761
 21
33.6395
 31
0.0
  0
LINE
  5
9B5
330
1D
100
AcDbEntity
  8
0
100
AcDbLine
 10
225.4151
 20
50.2595
 30
0.0
 11
223.5431
 21
49.3375
 31
0.0
  0
LINE
  5
9B6
330
1D
100
AcDbEntity
  8
0
100
AcDbLine
 10
225.971096110103
 20
50.556771353377
 30
0.0
 11
225.4151
 21
50.2595
 31
0.0
  0
LINE
  5
9B7
330
1D
100
AcDbEntity
  8
0
100
AcDbLine
 10
227.741087357219
 20
51.324956418299
 30
0.0
 11
225.971096110102
 21
50.556771353377
 31
0.0
  0
LINE
  5
9B8
330
1D
100
AcDbEntity
  8
0
100
AcDbLine
 10
229.8409
 20
51.9845
 30
0.0
 11
229.068538704572
 21
51.786386660812
 31
0.0
  0
LINE
  5
9B9
330
1D
100
AcDbEntity
  8
0
100
AcDbLine
 10
229.06853870457
 20
51.786386660812
 30
0.0
 11
227.741087357224
 21
51.324956418301
 31
0.0
  0
LINE
  5
9BA
330
1D
100
AcDbEntity
  8
0
100
AcDbLine
 10
234.466589684788
 20
52.436068307031
 30
0.0
 11
232.562
 21
52.3745
 31
0.0
  0
LINE
  5
9BB
330
1D
100
AcDbEntity
  8
0
100
AcDbLine
 10
230.375104203668
 20
52.111349725261
 30
0.0
 11
229.8409
 21
51.9845
 31
0.0
  0
LINE
  5
9BC
330
1D
100
AcDbEntity
  8
0
100
AcDbLine
 10
232.562
 20
52.3745
 30
0.0
 11
231.525525992513
 21
52.293564764051
 31
0.0
  0
LINE
  5
9BD
330
1D
100
AcDbEntity
  8
0
100
AcDbLine
 10
235.5443
 20
52.4265
 30
0.0
 11
234.46658968478
 21
52.436068307031
 31
0.0
  0
LINE
  5
9BE
330
1D
100
AcDbEntity
  8
0
100
AcDbLine
 10
231.52552599251
 20
52.293564764051
 30
0.0
 11
230.375104203666
 21
52.111349725261
 31
0.0
  0
LINE
  5
9BF
330
1D
100
AcDbEntity
  8
0
100
AcDbLine
 10
238.0315
 20
52.4485
 30
0.0
 11
235.5443
 21
52.4265
 31
0.0
  0
LINE
  5
9C0
330
1D
100
AcDbEntity
  8
0
100
AcDbLine
 10
225.4995
 20
38.5435
 30
0.0
 11
223.1182
 21
39.6845
 31
0.0
  0
LINE
  5
9C1
330
1D
100
AcDbEntity
  8
0
100
AcDbLine
 10
227.9687
 20
37.6315
 30
0.0
 11
225.4995
 21
38.5435
 31
0.0
  0
LINE
  5
9C2
330
1D
100
AcDbEntity
  8
0
100
AcDbLine
 10
230.5174
 20
36.9505
 30
0.0
 11
227.9687
 21
37.6315
 31
0.0
  0
LINE
  5
9C3
330
1D
100
AcDbEntity
  8
0
100
AcDbLine
 10
235.9999
 20
36.3705
 30
0.0
 11
235.759870860913
 21
36.385694888109
 31
0.0
  0
LINE
  5
9C4
330
1D
100
AcDbEntity
  8
0
100
AcDbLine
 10
235.9999
 20
36.3705
 30
0.0
 11
235.7551
 21
36.3855
 31
0.0
  0
LINE
  5
9C5
330
1D
100
AcDbEntity
  8
0
100
AcDbLine
 10
233.1249
 20
36.5525
 30
0.0
 11
230.5174
 21
36.9505
 31
0.0
  0
LINE
  5
9C6
330
1D
100
AcDbEntity
  8
0
100
AcDbLine
 10
235.9999
 20
36.3955
 30
0.0
 11
235.7551
 21
36.3855
 31
0.0
  0
LINE
  5
9C7
330
1D
100
AcDbEntity
  8
0
100
AcDbLine
 10
235.7551
 20
36.3855
 30
0.0
 11
233.1249
 21
36.5525
 31
0.0
  0
LINE
  5
9C8
330
1D
100
AcDbEntity
  8
0
100
AcDbLine
 10
236.2447
 20
36.3855
 30
0.0
 11
235.9999
 21
36.3955
 31
0.0
  0
LINE
  5
9C9
330
1D
100
AcDbEntity
  8
0
100
AcDbLine
 10
223.5431
 20
49.3375
 30
0.0
 11
207.4529
 21
40.9285
 31
0.0
  0
LINE
  5
9CA
330
1D
100
AcDbEntity
  8
0
100
AcDbLine
 10
223.1182
 20
39.6845
 30
0.0
 11
220.8754
 21
41.0785
 31
0.0
  0
LINE
  5
9CB
330
1D
100
AcDbEntity
  8
0
100
AcDbLine
 10
241.2406
 20
52.1765
 30
0.0
 11
240.237033578813
 21
52.312078736721
 31
0.0
  0
LINE
  5
9CC
330
1D
100
AcDbEntity
  8
0
100
AcDbLine
 10
242.1578
 20
51.9845
 30
0.0
 11
241.2406
 21
52.1765
 31
0.0
  0
LINE
  5
9CD
330
1D
100
AcDbEntity
  8
0
100
AcDbLine
 10
242.916961065905
 20
51.789883722596
 30
0.0
 11
242.1578
 21
51.9845
 31
0.0
  0
LINE
  5
9CE
330
1D
100
AcDbEntity
  8
0
100
AcDbLine
 10
246.125131546942
 20
50.514697571721
 30
0.0
 11
244.4242
 21
51.2495
 31
0.0
  0
LINE
  5
9CF
330
1D
100
AcDbEntity
  8
0
100
AcDbLine
 10
244.4242
 20
51.2495
 30
0.0
 11
244.2679
 21
51.3175
 31
0.0
  0
LINE
  5
9D0
330
1D
100
AcDbEntity
  8
0
100
AcDbLine
 10
244.2679
 20
51.3175
 30
0.0
 11
242.916961065908
 21
51.789883722595
 31
0.0
  0
LINE
  5
9D1
330
1D
100
AcDbEntity
  8
0
100
AcDbLine
 10
247.0063
 20
50.0535
 30
0.0
 11
246.125131546942
 21
50.514697571721
 31
0.0
  0
LINE
  5
9D2
330
1D
100
AcDbEntity
  8
0
100
AcDbLine
 10
248.4379
 20
49.3235
 30
0.0
 11
247.0063
 21
50.0535
 31
0.0
  0
LINE
  5
9D3
330
1D
100
AcDbEntity
  8
0
100
AcDbLine
 10
253.2346
 20
42.6615
 30
0.0
 11
251.1318
 21
41.0655
 31
0.0
  0
LINE
  5
9D4
330
1D
100
AcDbEntity
  8
0
100
AcDbLine
 10
251.1318
 20
41.0655
 30
0.0
 11
248.8816
 21
39.6845
 31
0.0
  0
LINE
  5
9D5
330
1D
100
AcDbEntity
  8
0
100
AcDbLine
 10
248.8816
 20
39.6845
 30
0.0
 11
246.5017
 21
38.5445
 31
0.0
  0
LINE
  5
9D6
330
1D
100
AcDbEntity
  8
0
100
AcDbLine
 10
246.5017
 20
38.5445
 30
0.0
 11
244.0303
 21
37.6315
 31
0.0
  0
LINE
  5
9D7
330
1D
100
AcDbEntity
  8
0
100
AcDbLine
 10
244.0303
 20
37.6315
 30
0.0
 11
241.4824
 21
36.9505
 31
0.0
  0
LINE
  5
9D8
330
1D
100
AcDbEntity
  8
0
100
AcDbLine
 10
241.4824
 20
36.9505
 30
0.0
 11
238.877
 21
36.5385
 31
0.0
  0
LINE
  5
9D9
330
1D
100
AcDbEntity
  8
0
100
AcDbLine
 10
271.3565
 20
48.0655
 30
0.0
 11
270.9505
 21
48.6545
 31
0.0
  0
LINE
  5
9DA
330
1D
100
AcDbEntity
  8
0
100
AcDbLine
 10
255.999595042827
 20
45.390301094702
 30
0.0
 11
255.1722
 21
44.4575
 31
0.0
  0
LINE
  5
9DB
330
1D
100
AcDbEntity
  8
0
100
AcDbLine
 10
270.9505
 20
48.6545
 30
0.0
 11
270.2697
 21
49.3285
 31
0.0
  0
LINE
  5
9DC
330
1D
100
AcDbEntity
  8
0
100
AcDbLine
 10
272.0231
 20
45.7455
 30
0.0
 11
271.9181
 21
46.5415
 31
0.0
  0
LINE
  5
9DD
330
1D
100
AcDbEntity
  8
0
100
AcDbLine
 10
272.0231
 20
45.7455
 30
0.0
 11
271.9701
 21
44.8945
 31
0.0
  0
LINE
  5
9DE
330
1D
100
AcDbEntity
  8
0
100
AcDbLine
 10
271.9181
 20
46.5415
 30
0.0
 11
271.6085
 21
47.5475
 31
0.0
  0
LINE
  5
9DF
330
1D
100
AcDbEntity
  8
0
100
AcDbLine
 10
271.6085
 20
47.5475
 30
0.0
 11
271.3565
 21
48.0655
 31
0.0
  0
LINE
  5
9E0
330
1D
100
AcDbEntity
  8
0
100
AcDbLine
 10
271.8318
 20
44.2795
 30
0.0
 11
271.6538
 21
43.8435
 31
0.0
  0
LINE
  5
9E1
330
1D
100
AcDbEntity
  8
0
100
AcDbLine
 10
271.6538
 20
43.8435
 30
0.0
 11
271.4932
 21
43.4555
 31
0.0
  0
LINE
  5
9E2
330
1D
100
AcDbEntity
  8
0
100
AcDbLine
 10
271.9701
 20
44.8945
 30
0.0
 11
271.8318
 21
44.2795
 31
0.0
  0
LINE
  5
9E3
330
1D
100
AcDbEntity
  8
0
100
AcDbLine
 10
271.4932
 20
43.4555
 30
0.0
 11
270.7317
 21
42.1955
 31
0.0
  0
LINE
  5
9E4
330
1D
100
AcDbEntity
  8
0
100
AcDbLine
 10
265.709195110907
 20
40.457261867936
 30
0.0
 11
264.6508
 21
37.8965
 31
0.0
  0
LINE
  5
9E5
330
1D
100
AcDbEntity
  8
0
100
AcDbLine
 10
266.3823
 20
40.2885
 30
0.0
 11
265.2735
 21
40.5665
 31
0.0
  0
LINE
  5
9E6
330
1D
100
AcDbEntity
  8
0
100
AcDbLine
 10
268.4065
 20
40.5325
 30
0.0
 11
267.4222
 21
40.2725
 31
0.0
  0
LINE
  5
9E7
330
1D
100
AcDbEntity
  8
0
100
AcDbLine
 10
269.0981
 20
40.8225
 30
0.0
 11
268.4065
 21
40.5325
 31
0.0
  0
LINE
  5
9E8
330
1D
100
AcDbEntity
  8
0
100
AcDbLine
 10
269.6312
 20
41.1635
 30
0.0
 11
269.0981
 21
40.8225
 31
0.0
  0
LINE
  5
9E9
330
1D
100
AcDbEntity
  8
0
100
AcDbLine
 10
270.1554
 20
41.5095
 30
0.0
 11
269.6312
 21
41.1635
 31
0.0
  0
LINE
  5
9EA
330
1D
100
AcDbEntity
  8
0
100
AcDbLine
 10
270.7317
 20
42.1955
 30
0.0
 11
270.1554
 21
41.5095
 31
0.0
  0
LINE
  5
9EB
330
1D
100
AcDbEntity
  8
0
100
AcDbLine
 10
267.4222
 20
40.2725
 30
0.0
 11
266.3823
 21
40.2885
 31
0.0
  0
LINE
  5
9EC
330
1D
100
AcDbEntity
  8
0
100
AcDbLine
 10
263.1805
 20
36.0725
 30
0.0
 11
261.9943
 21
35.0565
 31
0.0
  0
LINE
  5
9ED
330
1D
100
AcDbEntity
  8
0
100
AcDbLine
 10
261.9943
 20
35.0565
 30
0.0
 11
260.6647
 21
34.2385
 31
0.0
  0
LINE
  5
9EE
330
1D
100
AcDbEntity
  8
0
100
AcDbLine
 10
260.6647
 20
34.2385
 30
0.0
 11
257.7779
 21
33.1955
 31
0.0
  0
LINE
  5
9EF
330
1D
100
AcDbEntity
  8
0
100
AcDbLine
 10
264.6508
 20
37.8965
 30
0.0
 11
263.1805
 21
36.0725
 31
0.0
  0
LINE
  5
9F0
330
1D
100
AcDbEntity
  8
0
100
AcDbLine
 10
255.1722
 20
44.4575
 30
0.0
 11
253.2346
 21
42.6615
 31
0.0
  0
LINE
  5
9F1
330
1D
100
AcDbEntity
  8
0
100
AcDbLine
 10
265.2735
 20
40.5665
 30
0.0
 11
248.4379
 21
49.3235
 31
0.0
  0
LINE
  5
9F2
330
1D
100
AcDbEntity
  8
0
100
AcDbLine
 10
240.237033578818
 20
52.312078736721
 30
0.0
 11
238.0315
 21
52.4485
 31
0.0
  0
LINE
  5
9F3
330
1D
100
AcDbEntity
  8
0
100
AcDbLine
 10
238.877
 20
36.5385
 30
0.0
 11
236.2447
 21
36.3855
 31
0.0
  0
LINE
  5
9F4
330
1D
100
AcDbEntity
  8
0
100
AcDbLine
 10
257.7779
 20
33.1955
 30
0.0
 11
214.2928
 21
33.2745
 31
0.0
  0
LINE
  5
9F5
330
1D
100
AcDbEntity
  8
0
100
AcDbLine
 10
205.1313
 20
40.2635
 30
0.0
 11
204.0042
 21
40.3885
 31
0.0
  0
LINE
  5
9F6
330
1D
100
AcDbEntity
  8
0
100
AcDbLine
 10
205.9083
 20
83.5755
 30
0.0
 11
205.9083
 21
51.996073578417
 31
0.0
  0
LINE
  5
9F7
330
1D
100
AcDbEntity
  8
0
100
AcDbLine
 10
217.6426
 20
59.5125
 30
0.0
 11
201.7079
 21
49.3055
 31
0.0
  0
LINE
  5
9F8
330
1D
100
AcDbEntity
  8
0
100
AcDbLine
 10
266.064595372349
 20
52.019766961697
 30
0.0
 11
265.9633
 21
85.5065
 31
0.0
  0
LINE
  5
9F9
330
1D
100
AcDbEntity
  8
0
100
AcDbLine
 10
270.2697
 20
49.3285
 30
0.0
 11
254.3572
 21
59.5125
 31
0.0
  0
LINE
  5
9FA
330
1D
100
AcDbEntity
  8
0
100
AcDbLine
 10
136.2092
 20
0.2085
 30
0.0
 11
135.9999
 21
0.2165
 31
0.0
  0
LINE
  5
9FB
330
1D
100
AcDbEntity
  8
0
100
AcDbLine
 10
137.2262
 20
-0.1485
 30
0.0
 11
135.9999
 21
-0.1485
 31
0.0
  0
LINE
  5
9FC
330
1D
100
AcDbEntity
  8
0
100
AcDbLine
 10
138.0953
 20
6.2685
 30
0.0
 11
135.9999
 21
6.3455
 31
0.0
  0
LINE
  5
9FD
330
1D
100
AcDbEntity
  8
0
100
AcDbLine
 10
138.0953
 20
6.2685
 30
0.0
 11
135.9999
 21
6.4035
 31
0.0
  0
LINE
  5
9FE
330
1D
100
AcDbEntity
  8
0
100
AcDbLine
 10
136.1815
 20
4.0515
 30
0.0
 11
135.9999
 21
4.0585
 31
0.0
  0
LINE
  5
9FF
330
1D
100
AcDbEntity
  8
0
100
AcDbLine
 10
136.1963
 20
3.5195
 30
0.0
 11
135.9999
 21
3.5275
 31
0.0
  0
LINE
  5
A00
330
1D
100
AcDbEntity
  8
0
100
AcDbLine
 10
137.256
 20
73.9655
 30
0.0
 11
135.9999
 21
74.0165
 31
0.0
  0
LINE
  5
A01
330
1D
100
AcDbEntity
  8
0
100
AcDbLine
 10
136.9514
 20
81.1835
 30
0.0
 11
135.9999
 21
81.1475
 31
0.0
  0
LINE
  5
A02
330
1D
100
AcDbEntity
  8
0
100
AcDbLine
 10
137.8354
 20
81.2645
 30
0.0
 11
135.9999
 21
81.3455
 31
0.0
  0
LINE
  5
A03
330
1D
100
AcDbEntity
  8
0
100
AcDbLine
 10
136.245
 20
90.6015
 30
0.0
 11
135.9999
 21
90.5915
 31
0.0
  0
LINE
  5
A04
330
1D
100
AcDbEntity
  8
0
100
AcDbLine
 10
156.0912
 20
93.8515
 30
0.0
 11
135.9999
 21
93.8515
 31
0.0
  0
LINE
  5
A05
330
1D
100
AcDbEntity
  8
0
100
AcDbLine
 10
257.7779
 20
33.1955
 30
0.0
 11
214.2928
 21
33.2745
 31
0.0
  0
LINE
  5
A06
330
1D
100
AcDbEntity
  8
0
100
AcDbLine
 10
162.6821
 20
65.9135
 30
0.0
 11
162.32
 21
68.5475
 31
0.0
  0
LINE
  5
A07
330
1D
100
AcDbEntity
  8
0
100
AcDbLine
 10
153.071
 20
67.4165
 30
0.0
 11
152.0699
 21
70.5225
 31
0.0
  0
LINE
  5
A08
330
1D
100
AcDbEntity
  8
0
100
AcDbLine
 10
153.4858
 20
65.9505
 30
0.0
 11
153.0671
 21
68.0655
 31
0.0
  0
LINE
  5
A09
330
1D
100
AcDbEntity
  8
0
100
AcDbLine
 10
165.9999
 20
83.8275
 30
0.0
 11
165.9999
 21
43.1785
 31
0.0
  0
LINE
  5
A0A
330
1D
100
AcDbEntity
  8
0
100
AcDbLine
 10
146.4176
 20
3.7525
 30
0.0
 11
146.4176
 21
37.0865
 31
0.0
  0
LINE
  5
A0B
330
1D
100
AcDbEntity
  8
0
100
AcDbLine
 10
160.5896
 20
34.2475
 30
0.0
 11
159.153
 21
33.6455
 31
0.0
  0
LINE
  5
A0C
330
1D
100
AcDbEntity
  8
0
100
AcDbLine
 10
146.4176
 20
37.0865
 30
0.0
 11
146.4176
 21
3.7525
 31
0.0
  0
LINE
  5
A0D
330
1D
100
AcDbEntity
  8
0
100
AcDbLine
 10
156.0912
 20
33.1555
 30
0.0
 11
146.4176
 21
33.1555
 31
0.0
  0
LINE
  5
A0E
330
1D
100
AcDbEntity
  8
0
100
AcDbLine
 10
159.153
 20
33.6455
 30
0.0
 11
157.6409
 21
33.2785
 31
0.0
  0
LINE
  5
A0F
330
1D
100
AcDbEntity
  8
0
100
AcDbLine
 10
157.6409
 20
33.2785
 30
0.0
 11
156.0912
 21
33.1555
 31
0.0
  0
LINE
  5
A10
330
1D
100
AcDbEntity
  8
0
100
AcDbLine
 10
145.0048
 20
1.7095
 30
0.0
 11
143.6128
 21
1.0115
 31
0.0
  0
LINE
  5
A11
330
1D
100
AcDbEntity
  8
0
100
AcDbLine
 10
144.5226
 20
4.1475
 30
0.0
 11
143.585
 21
4.8805
 31
0.0
  0
LINE
  5
A12
330
1D
100
AcDbEntity
  8
0
100
AcDbLine
 10
144.6317
 20
2.5565
 30
0.0
 11
143.7953
 21
1.8075
 31
0.0
  0
LINE
  5
A13
330
1D
100
AcDbEntity
  8
0
100
AcDbLine
 10
145.1665
 20
1.8525
 30
0.0
 11
145.0048
 21
1.7095
 31
0.0
  0
LINE
  5
A14
330
1D
100
AcDbEntity
  8
0
100
AcDbLine
 10
144.8797
 20
3.3545
 30
0.0
 11
144.6317
 21
2.5565
 31
0.0
  0
LINE
  5
A15
330
1D
100
AcDbEntity
  8
0
100
AcDbLine
 10
144.8797
 20
3.3545
 30
0.0
 11
144.5226
 21
4.1475
 31
0.0
  0
LINE
  5
A16
330
1D
100
AcDbEntity
  8
0
100
AcDbLine
 10
146.0505
 20
2.6595
 30
0.0
 11
145.1665
 21
1.8525
 31
0.0
  0
LINE
  5
A17
330
1D
100
AcDbEntity
  8
0
100
AcDbLine
 10
146.3511
 20
3.5165
 30
0.0
 11
146.0505
 21
2.6595
 31
0.0
  0
LINE
  5
A18
330
1D
100
AcDbEntity
  8
0
100
AcDbLine
 10
146.4176
 20
3.7525
 30
0.0
 11
146.3511
 21
3.5165
 31
0.0
  0
LINE
  5
A19
330
1D
100
AcDbEntity
  8
0
100
AcDbLine
 10
143.7953
 20
1.8075
 30
0.0
 11
142.4271
 21
1.1605
 31
0.0
  0
LINE
  5
A1A
330
1D
100
AcDbEntity
  8
0
100
AcDbLine
 10
138.5001
 20
0.3325
 30
0.0
 11
136.2092
 21
0.2085
 31
0.0
  0
LINE
  5
A1B
330
1D
100
AcDbEntity
  8
0
100
AcDbLine
 10
139.6064
 20
0.0555
 30
0.0
 11
137.2262
 21
-0.1485
 31
0.0
  0
LINE
  5
A1C
330
1D
100
AcDbEntity
  8
0
100
AcDbLine
 10
142.4271
 20
1.1605
 30
0.0
 11
140.6214
 21
0.6575
 31
0.0
  0
LINE
  5
A1D
330
1D
100
AcDbEntity
  8
0
100
AcDbLine
 10
140.6214
 20
0.6575
 30
0.0
 11
138.5001
 21
0.3325
 31
0.0
  0
LINE
  5
A1E
330
1D
100
AcDbEntity
  8
0
100
AcDbLine
 10
141.7773
 20
0.4485
 30
0.0
 11
139.6064
 21
0.0555
 31
0.0
  0
LINE
  5
A1F
330
1D
100
AcDbEntity
  8
0
100
AcDbLine
 10
143.6128
 20
1.0115
 30
0.0
 11
141.7773
 21
0.4485
 31
0.0
  0
LINE
  5
A20
330
1D
100
AcDbEntity
  8
0
100
AcDbLine
 10
144.4402
 20
4.0755
 30
0.0
 11
144.34510434695
 21
4.286263133197
 31
0.0
  0
LINE
  5
A21
330
1D
100
AcDbEntity
  8
0
100
AcDbLine
 10
143.585
 20
4.8805
 30
0.0
 11
142.1305
 21
5.5055
 31
0.0
  0
LINE
  5
A22
330
1D
100
AcDbEntity
  8
0
100
AcDbLine
 10
142.1305
 20
5.5055
 30
0.0
 11
140.2583
 21
5.9785
 31
0.0
  0
LINE
  5
A23
330
1D
100
AcDbEntity
  8
0
100
AcDbLine
 10
142.536446049425
 20
5.331064605782
 30
0.0
 11
141.5818
 21
4.8785
 31
0.0
  0
LINE
  5
A24
330
1D
100
AcDbEntity
  8
0
100
AcDbLine
 10
143.282084334093
 20
5.010663142793
 30
0.0
 11
142.0124
 21
4.4095
 31
0.0
  0
LINE
  5
A25
330
1D
100
AcDbEntity
  8
0
100
AcDbLine
 10
140.2583
 20
5.9785
 30
0.0
 11
138.0953
 21
6.2685
 31
0.0
  0
LINE
  5
A26
330
1D
100
AcDbEntity
  8
0
100
AcDbLine
 10
141.5818
 20
4.8785
 30
0.0
 11
140.0132
 21
4.4415
 31
0.0
  0
LINE
  5
A27
330
1D
100
AcDbEntity
  8
0
100
AcDbLine
 10
142.0124
 20
4.4095
 30
0.0
 11
140.3237
 21
3.9385
 31
0.0
  0
LINE
  5
A28
330
1D
100
AcDbEntity
  8
0
100
AcDbLine
 10
140.0132
 20
4.4415
 30
0.0
 11
138.1717
 21
4.1595
 31
0.0
  0
LINE
  5
A29
330
1D
100
AcDbEntity
  8
0
100
AcDbLine
 10
140.3237
 20
3.9385
 30
0.0
 11
138.3394
 21
3.6355
 31
0.0
  0
LINE
  5
A2A
330
1D
100
AcDbEntity
  8
0
100
AcDbLine
 10
138.1717
 20
4.1595
 30
0.0
 11
136.1815
 21
4.0515
 31
0.0
  0
LINE
  5
A2B
330
1D
100
AcDbEntity
  8
0
100
AcDbLine
 10
138.3394
 20
3.6355
 30
0.0
 11
136.1963
 21
3.5195
 31
0.0
  0
LINE
  5
A2C
330
1D
100
AcDbEntity
  8
0
100
AcDbLine
 10
154.7686
 20
44.1665
 30
0.0
 11
152.8051
 21
42.3995
 31
0.0
  0
LINE
  5
A2D
330
1D
100
AcDbEntity
  8
0
100
AcDbLine
 10
153.208
 20
59.5195
 30
0.0
 11
152.6077
 21
57.4505
 31
0.0
  0
LINE
  5
A2E
330
1D
100
AcDbEntity
  8
0
100
AcDbLine
 10
153.3151
 20
60.9135
 30
0.0
 11
152.5502
 21
57.7385
 31
0.0
  0
LINE
  5
A2F
330
1D
100
AcDbEntity
  8
0
100
AcDbLine
 10
160.6541
 20
52.9045
 30
0.0
 11
159.5092
 21
50.5105
 31
0.0
  0
LINE
  5
A30
330
1D
100
AcDbEntity
  8
0
100
AcDbLine
 10
161.9152
 20
35.0695
 30
0.0
 11
160.5896
 21
34.2475
 31
0.0
  0
LINE
  5
A31
330
1D
100
AcDbEntity
  8
0
100
AcDbLine
 10
164.1069
 20
37.2865
 30
0.0
 11
163.0978
 21
36.0905
 31
0.0
  0
LINE
  5
A32
330
1D
100
AcDbEntity
  8
0
100
AcDbLine
 10
163.0978
 20
36.0905
 30
0.0
 11
161.9152
 21
35.0695
 31
0.0
  0
LINE
  5
A33
330
1D
100
AcDbEntity
  8
0
100
AcDbLine
 10
164.9194
 20
38.6285
 30
0.0
 11
164.1069
 21
37.2865
 31
0.0
  0
LINE
  5
A34
330
1D
100
AcDbEntity
  8
0
100
AcDbLine
 10
165.5147
 20
40.0805
 30
0.0
 11
164.9194
 21
38.6285
 31
0.0
  0
LINE
  5
A35
330
1D
100
AcDbEntity
  8
0
100
AcDbLine
 10
165.8779
 20
41.6105
 30
0.0
 11
165.5147
 21
40.0805
 31
0.0
  0
LINE
  5
A36
330
1D
100
AcDbEntity
  8
0
100
AcDbLine
 10
165.9999
 20
43.1785
 30
0.0
 11
165.8779
 21
41.6105
 31
0.0
  0
LINE
  5
A37
330
1D
100
AcDbEntity
  8
0
100
AcDbLine
 10
158.137
 20
48.2425
 30
0.0
 11
156.5515
 21
46.1205
 31
0.0
  0
LINE
  5
A38
330
1D
100
AcDbEntity
  8
0
100
AcDbLine
 10
159.5092
 20
50.5105
 30
0.0
 11
158.137
 21
48.2425
 31
0.0
  0
LINE
  5
A39
330
1D
100
AcDbEntity
  8
0
100
AcDbLine
 10
156.5515
 20
46.1205
 30
0.0
 11
154.7686
 21
44.1665
 31
0.0
  0
LINE
  5
A3A
330
1D
100
AcDbEntity
  8
0
100
AcDbLine
 10
161.5629
 20
55.4005
 30
0.0
 11
160.6541
 21
52.9045
 31
0.0
  0
LINE
  5
A3B
330
1D
100
AcDbEntity
  8
0
100
AcDbLine
 10
162.6345
 20
60.6015
 30
0.0
 11
162.2247
 21
57.9745
 31
0.0
  0
LINE
  5
A3C
330
1D
100
AcDbEntity
  8
0
100
AcDbLine
 10
162.2247
 20
57.9745
 30
0.0
 11
161.5629
 21
55.4005
 31
0.0
  0
LINE
  5
A3D
330
1D
100
AcDbEntity
  8
0
100
AcDbLine
 10
162.7873
 20
63.2555
 30
0.0
 11
162.6345
 21
60.6015
 31
0.0
  0
LINE
  5
A3E
330
1D
100
AcDbEntity
  8
0
100
AcDbLine
 10
162.7873
 20
63.2555
 30
0.0
 11
162.6821
 21
65.9135
 31
0.0
  0
LINE
  5
A3F
330
1D
100
AcDbEntity
  8
0
100
AcDbLine
 10
153.5572
 20
61.6465
 30
0.0
 11
153.208
 21
59.5195
 31
0.0
  0
LINE
  5
A40
330
1D
100
AcDbEntity
  8
0
100
AcDbLine
 10
153.4907
 20
64.1765
 30
0.0
 11
153.3151
 21
60.9135
 31
0.0
  0
LINE
  5
A41
330
1D
100
AcDbEntity
  8
0
100
AcDbLine
 10
153.4907
 20
64.1765
 30
0.0
 11
153.071
 21
67.4165
 31
0.0
  0
LINE
  5
A42
330
1D
100
AcDbEntity
  8
0
100
AcDbLine
 10
153.6505
 20
63.8005
 30
0.0
 11
153.4858
 21
65.9505
 31
0.0
  0
LINE
  5
A43
330
1D
100
AcDbEntity
  8
0
100
AcDbLine
 10
153.6505
 20
63.8005
 30
0.0
 11
153.5572
 21
61.6465
 31
0.0
  0
LINE
  5
A44
330
1D
100
AcDbEntity
  8
0
100
AcDbLine
 10
146.4176
 20
49.6955
 30
0.0
 11
146.4176
 21
53.1905
 31
0.0
  0
LINE
  5
A45
330
1D
100
AcDbEntity
  8
0
100
AcDbLine
 10
146.4176
 20
53.1905
 30
0.0
 11
146.4176
 21
49.6955
 31
0.0
  0
LINE
  5
A46
330
1D
100
AcDbEntity
  8
0
100
AcDbLine
 10
149.3742
 20
52.0795
 30
0.0
 11
147.0714
 21
49.7885
 31
0.0
  0
LINE
  5
A47
330
1D
100
AcDbEntity
  8
0
100
AcDbLine
 10
149.407
 20
51.8855
 30
0.0
 11
147.9247
 21
50.3355
 31
0.0
  0
LINE
  5
A48
330
1D
100
AcDbEntity
  8
0
100
AcDbLine
 10
146.4176
 20
41.5825
 30
0.0
 11
146.4176
 21
45.8055
 31
0.0
  0
LINE
  5
A49
330
1D
100
AcDbEntity
  8
0
100
AcDbLine
 10
152.8051
 20
42.3995
 30
0.0
 11
150.6779
 21
40.8345
 31
0.0
  0
LINE
  5
A4A
330
1D
100
AcDbEntity
  8
0
100
AcDbLine
 10
146.4176
 20
45.8055
 30
0.0
 11
146.4176
 21
41.5825
 31
0.0
  0
LINE
  5
A4B
330
1D
100
AcDbEntity
  8
0
100
AcDbLine
 10
146.4176
 20
37.0865
 30
0.0
 11
146.4176
 21
41.5825
 31
0.0
  0
LINE
  5
A4C
330
1D
100
AcDbEntity
  8
0
100
AcDbLine
 10
146.854788543546
 20
38.760577087092
 30
0.0
 11
146.4176
 21
38.556185811235
 31
0.0
  0
LINE
  5
A4D
330
1D
100
AcDbEntity
  8
0
100
AcDbLine
 10
148.4118
 20
39.4875
 30
0.0
 11
146.4176
 21
38.556466598215
 31
0.0
  0
LINE
  5
A4E
330
1D
100
AcDbEntity
  8
0
100
AcDbLine
 10
146.854788543546
 20
38.760577087092
 30
0.0
 11
146.4176
 21
38.556185811235
 31
0.0
  0
LINE
  5
A4F
330
1D
100
AcDbEntity
  8
0
100
AcDbLine
 10
146.4176
 20
41.5825
 30
0.0
 11
146.4176
 21
37.0865
 31
0.0
  0
LINE
  5
A50
330
1D
100
AcDbEntity
  8
0
100
AcDbLine
 10
150.6789
 20
40.8345
 30
0.0
 11
149.833702330417
 21
40.332697669596
 31
0.0
  0
LINE
  5
A51
330
1D
100
AcDbEntity
  8
0
100
AcDbLine
 10
150.6789
 20
40.8345
 30
0.0
 11
149.833702330417
 21
40.332697669596
 31
0.0
  0
LINE
  5
A52
330
1D
100
AcDbEntity
  8
0
100
AcDbLine
 10
146.4176
 20
45.8055
 30
0.0
 11
146.4176
 21
49.6955
 31
0.0
  0
LINE
  5
A53
330
1D
100
AcDbEntity
  8
0
100
AcDbLine
 10
146.4176
 20
49.6955
 30
0.0
 11
146.4176
 21
45.8055
 31
0.0
  0
LINE
  5
A54
330
1D
100
AcDbEntity
  8
0
100
AcDbLine
 10
147.0714
 20
49.7885
 30
0.0
 11
146.4176
 21
49.343248488693
 31
0.0
  0
LINE
  5
A55
330
1D
100
AcDbEntity
  8
0
100
AcDbLine
 10
147.9247
 20
50.3355
 30
0.0
 11
146.4176
 21
49.099530557401
 31
0.0
  0
LINE
  5
A56
330
1D
100
AcDbEntity
  8
0
100
AcDbLine
 10
151.2216
 20
54.7605
 30
0.0
 11
149.3742
 21
52.0795
 31
0.0
  0
LINE
  5
A57
330
1D
100
AcDbEntity
  8
0
100
AcDbLine
 10
146.4176
 20
53.1905
 30
0.0
 11
146.4176
 21
56.2435
 31
0.0
  0
LINE
  5
A58
330
1D
100
AcDbEntity
  8
0
100
AcDbLine
 10
150.6938
 20
53.6055
 30
0.0
 11
149.407
 21
51.8855
 31
0.0
  0
LINE
  5
A59
330
1D
100
AcDbEntity
  8
0
100
AcDbLine
 10
146.4176
 20
58.8035
 30
0.0
 11
146.4176
 21
56.2435
 31
0.0
  0
LINE
  5
A5A
330
1D
100
AcDbEntity
  8
0
100
AcDbLine
 10
146.4176
 20
58.8035
 30
0.0
 11
146.4176
 21
60.8375
 31
0.0
  0
LINE
  5
A5B
330
1D
100
AcDbEntity
  8
0
100
AcDbLine
 10
146.4176
 20
56.2435
 30
0.0
 11
146.4176
 21
53.1905
 31
0.0
  0
LINE
  5
A5C
330
1D
100
AcDbEntity
  8
0
100
AcDbLine
 10
146.4176
 20
56.2435
 30
0.0
 11
146.4176
 21
58.8035
 31
0.0
  0
LINE
  5
A5D
330
1D
100
AcDbEntity
  8
0
100
AcDbLine
 10
152.5502
 20
57.7385
 30
0.0
 11
151.2216
 21
54.7605
 31
0.0
  0
LINE
  5
A5E
330
1D
100
AcDbEntity
  8
0
100
AcDbLine
 10
151.7654
 20
55.4695
 30
0.0
 11
150.6938
 21
53.6055
 31
0.0
  0
LINE
  5
A5F
330
1D
100
AcDbEntity
  8
0
100
AcDbLine
 10
152.6077
 20
57.4505
 30
0.0
 11
151.7654
 21
55.4695
 31
0.0
  0
LINE
  5
A60
330
1D
100
AcDbEntity
  8
0
100
AcDbLine
 10
146.4176
 20
60.8375
 30
0.0
 11
146.4176
 21
58.8035
 31
0.0
  0
LINE
  5
A61
330
1D
100
AcDbEntity
  8
0
100
AcDbLine
 10
146.4176
 20
60.8375
 30
0.0
 11
146.4176
 21
62.3105
 31
0.0
  0
LINE
  5
A62
330
1D
100
AcDbEntity
  8
0
100
AcDbLine
 10
146.4176
 20
63.2035
 30
0.0
 11
146.4176
 21
62.3105
 31
0.0
  0
LINE
  5
A63
330
1D
100
AcDbEntity
  8
0
100
AcDbLine
 10
146.4176
 20
63.2035
 30
0.0
 11
146.4176
 21
63.5025
 31
0.0
  0
LINE
  5
A64
330
1D
100
AcDbEntity
  8
0
100
AcDbLine
 10
146.4176
 20
62.3105
 30
0.0
 11
146.4176
 21
60.8375
 31
0.0
  0
LINE
  5
A65
330
1D
100
AcDbEntity
  8
0
100
AcDbLine
 10
146.4176
 20
62.3105
 30
0.0
 11
146.4176
 21
63.2035
 31
0.0
  0
LINE
  5
A66
330
1D
100
AcDbEntity
  8
0
100
AcDbLine
 10
146.4176
 20
63.5025
 30
0.0
 11
146.399935532995
 21
63.355335025381
 31
0.0
  0
LINE
  5
A67
330
1D
100
AcDbEntity
  8
0
100
AcDbLine
 10
146.4176
 20
63.5025
 30
0.0
 11
146.4176
 21
63.2035
 31
0.0
  0
LINE
  5
A68
330
1D
100
AcDbEntity
  8
0
100
AcDbLine
 10
153.0671
 20
68.0655
 30
0.0
 11
152.3993
 21
70.1135
 31
0.0
  0
LINE
  5
A69
330
1D
100
AcDbEntity
  8
0
100
AcDbLine
 10
153.1822
 20
84.2935
 30
0.0
 11
151.0857
 21
85.8985
 31
0.0
  0
LINE
  5
A6A
330
1D
100
AcDbEntity
  8
0
100
AcDbLine
 10
165.9999
 20
83.8275
 30
0.0
 11
165.8779
 21
85.3965
 31
0.0
  0
LINE
  5
A6B
330
1D
100
AcDbEntity
  8
0
100
AcDbLine
 10
161.7048
 20
71.1325
 30
0.0
 11
160.8417
 21
73.6455
 31
0.0
  0
LINE
  5
A6C
330
1D
100
AcDbEntity
  8
0
100
AcDbLine
 10
162.32
 20
68.5475
 30
0.0
 11
161.7048
 21
71.1325
 31
0.0
  0
LINE
  5
A6D
330
1D
100
AcDbEntity
  8
0
100
AcDbLine
 10
159.7394
 20
76.0595
 30
0.0
 11
158.4089
 21
78.3525
 31
0.0
  0
LINE
  5
A6E
330
1D
100
AcDbEntity
  8
0
100
AcDbLine
 10
160.8417
 20
73.6455
 30
0.0
 11
159.7394
 21
76.0595
 31
0.0
  0
LINE
  5
A6F
330
1D
100
AcDbEntity
  8
0
100
AcDbLine
 10
158.4089
 20
78.3525
 30
0.0
 11
156.8621
 21
80.5035
 31
0.0
  0
LINE
  5
A70
330
1D
100
AcDbEntity
  8
0
100
AcDbLine
 10
156.8621
 20
80.5035
 30
0.0
 11
155.1139
 21
82.4895
 31
0.0
  0
LINE
  5
A71
330
1D
100
AcDbEntity
  8
0
100
AcDbLine
 10
155.1139
 20
82.4895
 30
0.0
 11
153.1822
 21
84.2935
 31
0.0
  0
LINE
  5
A72
330
1D
100
AcDbEntity
  8
0
100
AcDbLine
 10
165.8779
 20
85.3965
 30
0.0
 11
165.5147
 21
86.9245
 31
0.0
  0
LINE
  5
A73
330
1D
100
AcDbEntity
  8
0
100
AcDbLine
 10
165.5147
 20
86.9245
 30
0.0
 11
164.9194
 21
88.3785
 31
0.0
  0
LINE
  5
A74
330
1D
100
AcDbEntity
  8
0
100
AcDbLine
 10
164.9194
 20
88.3785
 30
0.0
 11
164.1069
 21
89.7195
 31
0.0
  0
LINE
  5
A75
330
1D
100
AcDbEntity
  8
0
100
AcDbLine
 10
164.1069
 20
89.7195
 30
0.0
 11
163.0978
 21
90.9155
 31
0.0
  0
LINE
  5
A76
330
1D
100
AcDbEntity
  8
0
100
AcDbLine
 10
161.9152
 20
91.9375
 30
0.0
 11
160.5896
 21
92.7595
 31
0.0
  0
LINE
  5
A77
330
1D
100
AcDbEntity
  8
0
100
AcDbLine
 10
163.0978
 20
90.9155
 30
0.0
 11
161.9152
 21
91.9375
 31
0.0
  0
LINE
  5
A78
330
1D
100
AcDbEntity
  8
0
100
AcDbLine
 10
157.6409
 20
93.7285
 30
0.0
 11
156.0912
 21
93.8515
 31
0.0
  0
LINE
  5
A79
330
1D
100
AcDbEntity
  8
0
100
AcDbLine
 10
159.153
 20
93.3605
 30
0.0
 11
157.6409
 21
93.7285
 31
0.0
  0
LINE
  5
A7A
330
1D
100
AcDbEntity
  8
0
100
AcDbLine
 10
160.5896
 20
92.7595
 30
0.0
 11
159.153
 21
93.3605
 31
0.0
  0
LINE
  5
A7B
330
1D
100
AcDbEntity
  8
0
100
AcDbLine
 10
146.0098
 20
78.0295
 30
0.0
 11
143.201
 21
79.6425
 31
0.0
  0
LINE
  5
A7C
330
1D
100
AcDbEntity
  8
0
100
AcDbLine
 10
145.7846
 20
78.3675
 30
0.0
 11
143.9412
 21
79.4525
 31
0.0
  0
LINE
  5
A7D
330
1D
100
AcDbEntity
  8
0
100
AcDbLine
 10
152.0699
 20
70.5225
 30
0.0
 11
150.5212
 21
73.3905
 31
0.0
  0
LINE
  5
A7E
330
1D
100
AcDbEntity
  8
0
100
AcDbLine
 10
150.5212
 20
73.3905
 30
0.0
 11
148.4783
 21
75.9205
 31
0.0
  0
LINE
  5
A7F
330
1D
100
AcDbEntity
  8
0
100
AcDbLine
 10
151.4915
 20
72.0655
 30
0.0
 11
150.3585
 21
73.8915
 31
0.0
  0
LINE
  5
A80
330
1D
100
AcDbEntity
  8
0
100
AcDbLine
 10
150.3585
 20
73.8915
 30
0.0
 11
149.0161
 21
75.5665
 31
0.0
  0
LINE
  5
A81
330
1D
100
AcDbEntity
  8
0
100
AcDbLine
 10
152.3993
 20
70.1135
 30
0.0
 11
151.4915
 21
72.0655
 31
0.0
  0
LINE
  5
A82
330
1D
100
AcDbEntity
  8
0
100
AcDbLine
 10
148.4783
 20
75.9205
 30
0.0
 11
146.0098
 21
78.0295
 31
0.0
  0
LINE
  5
A83
330
1D
100
AcDbEntity
  8
0
100
AcDbLine
 10
149.0161
 20
75.5665
 30
0.0
 11
147.4842
 21
77.0655
 31
0.0
  0
LINE
  5
A84
330
1D
100
AcDbEntity
  8
0
100
AcDbLine
 10
147.4842
 20
77.0655
 30
0.0
 11
145.7846
 21
78.3675
 31
0.0
  0
LINE
  5
A85
330
1D
100
AcDbEntity
  8
0
100
AcDbLine
 10
139.6937
 20
73.3575
 30
0.0
 11
137.9703
 21
73.8515
 31
0.0
  0
LINE
  5
A86
330
1D
100
AcDbEntity
  8
0
100
AcDbLine
 10
140.2513
 20
73.1245
 30
0.0
 11
139.6937
 21
73.3575
 31
0.0
  0
LINE
  5
A87
330
1D
100
AcDbEntity
  8
0
100
AcDbLine
 10
137.9703
 20
73.8515
 30
0.0
 11
137.256
 21
73.9655
 31
0.0
  0
LINE
  5
A88
330
1D
100
AcDbEntity
  8
0
100
AcDbLine
 10
143.201
 20
79.6425
 30
0.0
 11
140.1471
 21
80.7065
 31
0.0
  0
LINE
  5
A89
330
1D
100
AcDbEntity
  8
0
100
AcDbLine
 10
143.9412
 20
79.4525
 30
0.0
 11
141.9836
 21
80.3045
 31
0.0
  0
LINE
  5
A8A
330
1D
100
AcDbEntity
  8
0
100
AcDbLine
 10
140.1471
 20
80.7065
 30
0.0
 11
136.9514
 21
81.1835
 31
0.0
  0
LINE
  5
A8B
330
1D
100
AcDbEntity
  8
0
100
AcDbLine
 10
141.9836
 20
80.3045
 30
0.0
 11
139.9378
 21
80.9115
 31
0.0
  0
LINE
  5
A8C
330
1D
100
AcDbEntity
  8
0
100
AcDbLine
 10
139.9378
 20
80.9115
 30
0.0
 11
137.8354
 21
81.2645
 31
0.0
  0
LINE
  5
A8D
330
1D
100
AcDbEntity
  8
0
100
AcDbLine
 10
146.4761
 20
88.4445
 30
0.0
 11
144.0106
 21
89.3635
 31
0.0
  0
LINE
  5
A8E
330
1D
100
AcDbEntity
  8
0
100
AcDbLine
 10
151.0857
 20
85.8985
 30
0.0
 11
148.8434
 21
87.2855
 31
0.0
  0
LINE
  5
A8F
330
1D
100
AcDbEntity
  8
0
100
AcDbLine
 10
148.8434
 20
87.2855
 30
0.0
 11
146.4761
 21
88.4445
 31
0.0
  0
LINE
  5
A90
330
1D
100
AcDbEntity
  8
0
100
AcDbLine
 10
146.4771
 20
88.4445
 30
0.0
 11
145.24335
 21
88.904
 31
0.0
  0
LINE
  5
A91
330
1D
100
AcDbEntity
  8
0
100
AcDbLine
 10
146.4771
 20
88.4445
 30
0.0
 11
145.24335
 21
88.904
 31
0.0
  0
LINE
  5
A92
330
1D
100
AcDbEntity
  8
0
100
AcDbLine
 10
144.0106
 20
89.3635
 30
0.0
 11
141.4657
 21
90.0325
 31
0.0
  0
LINE
  5
A93
330
1D
100
AcDbEntity
  8
0
100
AcDbLine
 10
138.8682
 20
90.4475
 30
0.0
 11
136.245
 21
90.6015
 31
0.0
  0
LINE
  5
A94
330
1D
100
AcDbEntity
  8
0
100
AcDbLine
 10
141.4657
 20
90.0325
 30
0.0
 11
138.8682
 21
90.4475
 31
0.0
  0
LINE
  5
A95
330
1D
100
AcDbEntity
  8
0
100
AcDbLine
 10
135.9999
 20
0.2165
 30
0.0
 11
135.7909
 21
0.2085
 31
0.0
  0
LINE
  5
A96
330
1D
100
AcDbEntity
  8
0
100
AcDbLine
 10
135.9999
 20
3.5275
 30
0.0
 11
135.8039
 21
3.5195
 31
0.0
  0
LINE
  5
A97
330
1D
100
AcDbEntity
  8
0
100
AcDbLine
 10
135.9999
 20
6.4035
 30
0.0
 11
135.9999
 21
6.3455
 31
0.0
  0
LINE
  5
A98
330
1D
100
AcDbEntity
  8
0
100
AcDbLine
 10
135.9999
 20
4.0585
 30
0.0
 11
135.8179
 21
4.0515
 31
0.0
  0
LINE
  5
A99
330
1D
100
AcDbEntity
  8
0
100
AcDbLine
 10
135.9999
 20
6.3455
 30
0.0
 11
135.9999
 21
6.4035
 31
0.0
  0
LINE
  5
A9A
330
1D
100
AcDbEntity
  8
0
100
AcDbLine
 10
135.9999
 20
90.5915
 30
0.0
 11
135.7549
 21
90.6015
 31
0.0
  0
ENDSEC
  0
SECTION
  2
OBJECTS
  0
DICTIONARY
  5
C
330
0
100
AcDbDictionary
281
     1
  3
ACAD_GROUP
350
D
  3
ACAD_LAYOUT
350
1A
  3
ACAD_MLEADERSTYLE
350
A9D
  3
ACAD_MLINESTYLE
350
17
  3
ACAD_PLOTSETTINGS
350
19
  3
ACAD_PLOTSTYLENAME
350
E
  3
ACAD_SCALELIST
350
75C
  3
AcDbVariableDictionary
350
A9B
  3
DWGPROPS
350
AA0
  0
DICTIONARY
  5
D
102
{ACAD_REACTORS
330
C
102
}
330
C
100
AcDbDictionary
281
     1
  0
DICTIONARY
  5
1A
102
{ACAD_REACTORS
330
C
102
}
330
C
100
AcDbDictionary
281
     1
  3
Layout1
350
1C
  3
Model
350
1E
  0
DICTIONARY
  5
A9D
102
{ACAD_REACTORS
330
C
102
}
330
C
100
AcDbDictionary
281
     1
  0
DICTIONARY
  5
17
102
{ACAD_REACTORS
330
C
102
}
330
C
100
AcDbDictionary
281
     1
  3
Standard
350
18
  0
DICTIONARY
  5
19
102
{ACAD_REACTORS
330
C
102
}
330
C
100
AcDbDictionary
281
     1
  0
ACDBDICTIONARYWDFLT
  5
E
102
{ACAD_REACTORS
330
C
102
}
330
C
100
AcDbDictionary
281
     1
  3
Normal
350
F
100
AcDbDictionaryWithDefault
340
F
  0
DICTIONARY
  5
75C
102
{ACAD_REACTORS
330
C
102
}
330
C
100
AcDbDictionary
281
     1
  3
A0
350
75D
  3
A1
350
75E
  3
A2
350
75F
  3
A3
350
760
  3
A4
350
761
  3
A5
350
762
  3
A6
350
763
  3
A7
350
764
  3
A8
350
765
  3
A9
350
766
  3
B0
350
767
  3
B1
350
768
  3
B2
350
769
  3
B3
350
76A
  3
B4
350
76B
  3
B5
350
76C
  3
B6
350
76D
  3
B7
350
76E
  3
B8
350
76F
  3
B9
350
770
  3
C0
350
771
  3
C1
350
772
  3
C2
350
773
  3
C3
350
774
  3
C4
350
775
  3
C5
350
776
  3
C6
350
777
  3
C7
350
778
  3
C8
350
779
  3
C9
350
77A
  3
D0
350
77B
  3
D1
350
77C
  3
D2
350
77D
  0
DICTIONARY
  5
A9B
102
{ACAD_REACTORS
330
C
102
}
330
C
100
AcDbDictionary
281
     1
  3
CANNOSCALE
350
A9E
  0
XRECORD
  5
AA0
102
{ACAD_REACTORS
330
C
102
}
330
C
100
AcDbXrecord
280
     1
  1
DWGPROPS COOKIE
  2

  3

  4

  6

  7

  8
MARTIN
  9

300
=
301
=
302
=
303
=
304
=
305
=
306
=
307
=
308
=
309
=
 40
0.0
 41
2455824.832948854
 42
2455824.83767125
  1

 90
        0
  0
LAYOUT
  5
1C
102
{ACAD_REACTORS
330
1A
102
}
330
1A
100
AcDbPlotSettings
  1

  2
none_device
  4

  6

 40
0.0
 41
0.0
 42
0.0
 43
0.0
 44
0.0
 45
0.0
 46
0.0
 47
0.0
 48
0.0
 49
0.0
140
0.0
141
0.0
142
1.0
143
1.0
 70
   688
 72
     0
 73
     0
 74
     5
  7

 75
    16
147
1.0
148
0.0
149
0.0
100
AcDbLayout
  1
Layout1
 70
     1
 71
     1
 10
0.0
 20
0.0
 11
12.0
 21
9.0
 12
0.0
 22
0.0
 32
0.0
 14
1.000000000000E+20
 24
1.000000000000E+20
 34
1.000000000000E+20
 15
-1.000000000000E+20
 25
-1.000000000000E+20
 35
-1.000000000000E+20
146
0.0
 13
0.0
 23
0.0
 33
0.0
 16
1.0
 26
0.0
 36
0.0
 17
0.0
 27
1.0
 37
0.0
 76
     0
330
1B
  0
LAYOUT
  5
1E
102
{ACAD_REACTORS
330
1A
102
}
330
1A
100
AcDbPlotSettings
  1

  2
none_device
  4

  6

 40
0.0
 41
0.0
 42
0.0
 43
0.0
 44
0.0
 45
0.0
 46
0.0
 47
0.0
 48
0.0
 49
0.0
140
0.0
141
0.0
142
1.0
143
1.0
 70
  1712
 72
     0
 73
     0
 74
     0
  7

 75
     0
147
1.0
148
0.0
149
0.0
100
AcDbLayout
  1
Model
 70
     1
 71
     0
 10
0.0
 20
0.0
 11
12.0
 21
9.0
 12
0.0
 22
0.0
 32
0.0
 14
-0.0231
 24
-0.1485
 34
0.0
 15
272.0231
 25
104.1485
 35
0.0
146
0.0
 13
0.0
 23
0.0
 33
0.0
 16
1.0
 26
0.0
 36
0.0
 17
0.0
 27
1.0
 37
0.0
 76
     0
330
1D
331
757
  0
MLINESTYLE
  5
18
102
{ACAD_REACTORS
330
17
102
}
330
17
100
AcDbMlineStyle
  2
Standard
 70
     0
  3

 62
   256
 51
90.0
 52
90.0
 71
     2
 49
0.5
 62
   256
  6
BYLAYER
 49
-0.5
 62
   256
  6
BYLAYER
  0
ACDBPLACEHOLDER
  5
F
102
{ACAD_REACTORS
330
E
102
}
330
E
  0
SCALE
  5
75D
102
{ACAD_REACTORS
330
75C
102
}
330
75C
100
AcDbScale
 70
     0
300
1:1
140
1.0
141
1.0
290
     1
  0
SCALE
  5
75E
102
{ACAD_REACTORS
330
75C
102
}
330
75C
100
AcDbScale
 70
     0
300
1:2
140
1.0
141
2.0
290
     0
  0
SCALE
  5
75F
102
{ACAD_REACTORS
330
75C
102
}
330
75C
100
AcDbScale
 70
     0
300
1:4
140
1.0
141
4.0
290
     0
  0
SCALE
  5
760
102
{ACAD_REACTORS
330
75C
102
}
330
75C
100
AcDbScale
 70
     0
300
1:5
140
1.0
141
5.0
290
     0
  0
SCALE
  5
761
102
{ACAD_REACTORS
330
75C
102
}
330
75C
100
AcDbScale
 70
     0
300
1:8
140
1.0
141
8.0
290
     0
  0
SCALE
  5
762
102
{ACAD_REACTORS
330
75C
102
}
330
75C
100
AcDbScale
 70
     0
300
1:10
140
1.0
141
10.0
290
     0
  0
SCALE
  5
763
102
{ACAD_REACTORS
330
75C
102
}
330
75C
100
AcDbScale
 70
     0
300
1:16
140
1.0
141
16.0
290
     0
  0
SCALE
  5
764
102
{ACAD_REACTORS
330
75C
102
}
330
75C
100
AcDbScale
 70
     0
300
1:20
140
1.0
141
20.0
290
     0
  0
SCALE
  5
765
102
{ACAD_REACTORS
330
75C
102
}
330
75C
100
AcDbScale
 70
     0
300
1:30
140
1.0
141
30.0
290
     0
  0
SCALE
  5
766
102
{ACAD_REACTORS
330
75C
102
}
330
75C
100
AcDbScale
 70
     0
300
1:40
140
1.0
141
40.0
290
     0
  0
SCALE
  5
767
102
{ACAD_REACTORS
330
75C
102
}
330
75C
100
AcDbScale
 70
     0
300
1:50
140
1.0
141
50.0
290
     0
  0
SCALE
  5
768
102
{ACAD_REACTORS
330
75C
102
}
330
75C
100
AcDbScale
 70
     0
300
1:100
140
1.0
141
100.0
290
     0
  0
SCALE
  5
769
102
{ACAD_REACTORS
330
75C
102
}
330
75C
100
AcDbScale
 70
     0
300
2:1
140
2.0
141
1.0
290
     0
  0
SCALE
  5
76A
102
{ACAD_REACTORS
330
75C
102
}
330
75C
100
AcDbScale
 70
     0
300
4:1
140
4.0
141
1.0
290
     0
  0
SCALE
  5
76B
102
{ACAD_REACTORS
330
75C
102
}
330
75C
100
AcDbScale
 70
     0
300
8:1
140
8.0
141
1.0
290
     0
  0
SCALE
  5
76C
102
{ACAD_REACTORS
330
75C
102
}
330
75C
100
AcDbScale
 70
     0
300
10:1
140
10.0
141
1.0
290
     0
  0
SCALE
  5
76D
102
{ACAD_REACTORS
330
75C
102
}
330
75C
100
AcDbScale
 70
     0
300
100:1
140
100.0
141
1.0
290
     0
  0
SCALE
  5
76E
102
{ACAD_REACTORS
330
75C
102
}
330
75C
100
AcDbScale
 70
     0
300
1/128" = 1'-0"
140
0.0078125
141
12.0
290
     0
  0
SCALE
  5
76F
102
{ACAD_REACTORS
330
75C
102
}
330
75C
100
AcDbScale
 70
     0
300
1/64" = 1'-0"
140
0.015625
141
12.0
290
     0
  0
SCALE
  5
770
102
{ACAD_REACTORS
330
75C
102
}
330
75C
100
AcDbScale
 70
     0
300
1/32" = 1'-0"
140
0.03125
141
12.0
290
     0
  0
SCALE
  5
771
102
{ACAD_REACTORS
330
75C
102
}
330
75C
100
AcDbScale
 70
     0
300
1/16" = 1'-0"
140
0.0625
141
12.0
290
     0
  0
SCALE
  5
772
102
{ACAD_REACTORS
330
75C
102
}
330
75C
100
AcDbScale
 70
     0
300
3/32" = 1'-0"
140
0.09375
141
12.0
290
     0
  0
SCALE
  5
773
102
{ACAD_REACTORS
330
75C
102
}
330
75C
100
AcDbScale
 70
     0
300
1/8" = 1'-0"
140
0.125
141
12.0
290
     0
  0
SCALE
  5
774
102
{ACAD_REACTORS
330
75C
102
}
330
75C
100
AcDbScale
 70
     0
300
3/16" = 1'-0"
140
0.1875
141
12.0
290
     0
  0
SCALE
  5
775
102
{ACAD_REACTORS
330
75C
102
}
330
75C
100
AcDbScale
 70
     0
300
1/4" = 1'-0"
140
0.25
141
12.0
290
     0
  0
SCALE
  5
776
102
{ACAD_REACTORS
330
75C
102
}
330
75C
100
AcDbScale
 70
     0
300
3/8" = 1'-0"
140
0.375
141
12.0
290
     0
  0
SCALE
  5
777
102
{ACAD_REACTORS
330
75C
102
}
330
75C
100
AcDbScale
 70
     0
300
1/2" = 1'-0"
140
0.5
141
12.0
290
     0
  0
SCALE
  5
778
102
{ACAD_REACTORS
330
75C
102
}
330
75C
100
AcDbScale
 70
     0
300
3/4" = 1'-0"
140
0.75
141
12.0
290
     0
  0
SCALE
  5
779
102
{ACAD_REACTORS
330
75C
102
}
330
75C
100
AcDbScale
 70
     0
300
1" = 1'-0"
140
1.0
141
12.0
290
     0
  0
SCALE
  5
77A
102
{ACAD_REACTORS
330
75C
102
}
330
75C
100
AcDbScale
 70
     0
300
1-1/2" = 1'-0"
140
1.5
141
12.0
290
     0
  0
SCALE
  5
77B
102
{ACAD_REACTORS
330
75C
102
}
330
75C
100
AcDbScale
 70
     0
300
3" = 1'-0"
140
3.0
141
12.0
290
     0
  0
SCALE
  5
77C
102
{ACAD_REACTORS
330
75C
102
}
330
75C
100
AcDbScale
 70
     0
300
6" = 1'-0"
140
6.0
141
12.0
290
     0
  0
SCALE
  5
77D
102
{ACAD_REACTORS
330
75C
102
}
330
75C
100
AcDbScale
 70
     0
300
1'-0" = 1'-0"
140
12.0
141
12.0
290
     0
  0
DICTIONARYVAR
  5
A9E
102
{ACAD_REACTORS
330
A9B
102
}
330
A9B
100
DictionaryVariables
280
     0
  1
1:1
  0
ENDSEC
  0
SECTION
  2
THUMBNAILIMAGE
 90
    16364
310
28000000B40000005500000001000800000000000000000000000000000000000000000000000000FFFFFF000000FF0000FFFF0000FF0000FFFF0000FF000000FF00FF000000000080808000C0C0C0000000FF007F7FFF000000A5005252A50000007F003F3F7F0000004C0026264C000000260013132600003FFF007F9FFF
310
000029A5005267A500001F7F003F4F7F0000134C00262F4C000009260013172600007FFF007FBFFF000052A500527CA500003F7F003F5F7F0000264C0026394C0000132600131C260000BFFF007FDFFF00007CA5005291A500005F7F003F6F7F0000394C0026424C00001C26001321260000FFFF007FFFFF0000A5A50052A5
310
A500007F7F003F7F7F00004C4C00264C4C00002626001326260000FFBF007FFFDF0000A57C0052A59100007F5F003F7F6F00004C3900264C420000261C001326210000FF7F007FFFBF0000A5520052A57C00007F3F003F7F5F00004C2600264C39000026130013261C0000FF3F007FFF9F0000A5290052A56700007F1F003F
310
7F4F00004C1300264C2F00002609001326170000FF00007FFF7F0000A5000052A55200007F00003F7F3F00004C0000264C260000260000132613003FFF00009FFF7F0029A5000067A552001F7F00004F7F3F00134C00002F4C260009260000172613007FFF0000BFFF7F0052A500007CA552003F7F00005F7F3F00264C0000
310
394C2600132600001C261300BFFF0000DFFF7F007CA5000091A552005F7F00006F7F3F00394C0000424C26001C26000021261300FFFF0000FFFF7F00A5A50000A5A552007F7F00007F7F3F004C4C00004C4C26002626000026261300FFBF0000FFDF7F00A57C0000A59152007F5F00007F6F3F004C3900004C422600261C00
310
0026211300FF7F0000FFBF7F00A5520000A57C52007F3F00007F5F3F004C2600004C39260026130000261C1300FF3F0000FF9F7F00A5290000A56752007F1F00007F4F3F004C1300004C2F26002609000026171300FF000000FF7F7F00A5000000A55252007F0000007F3F3F004C0000004C2626002600000026131300FF00
310
3F00FF7F9F00A5002900A55267007F001F007F3F4F004C0013004C262F002600090026131700FF007F00FF7FBF00A5005200A5527C007F003F007F3F5F004C0026004C2639002600130026131C00FF00BF00FF7FDF00A5007C00A55291007F005F007F3F6F004C0039004C26420026001C0026132100FF00FF00FF7FFF00A5
310
00A500A552A5007F007F007F3F7F004C004C004C264C002600260026132600BF00FF00DF7FFF007C00A5009152A5005F007F006F3F7F0039004C0042264C001C002600211326007F00FF00BF7FFF005200A5007C52A5003F007F005F3F7F0026004C0039264C00130026001C1326003F00FF009F7FFF002900A5006752A500
310
1F007F004F3F7F0013004C002F264C000900260017132600000000002D2D2D005B5B5B0089898900B7B7B700B3B3B30000000000000000000000000000000000000000000000000000000000000000000000000000000000000000000000000000000000000000000000000000000000000000000000000000000000000000
310
00000000000000000000000000000000000000000000000000000000000000000000000000000000000000000000000000000000000000000000000000000000000000000000000000000000000000000000000000000000000000000000000000000000000000000000000000000000000000000000000000000000000000
310
00000000000000000000000000000000000000000000000000000000000000000000000000000000000000000000000000000000000000000000000000000000000000000000000000000000000000000000000000000000000000000000000000000000000000000000000000000000000000000000000000000000000000
310
00000000000000000000000000000000000000000000000000000000000000000000000000000000000000000000000000000000000000000000000000000000000000000000000000000000000000000000000000000000000000000000000000000000000000000000000000000000000000000000000000000000000000
310
00000000000000000000000000000000000000000000000000000000000000000000000000000000000000000000000000000000000000000000000000000000000000000000000000000000000000000000000000000000000000000000000000000000000000000000000000000000000000000000000000000000000000
310
00000000000000000000000000000000000000000000000000000000000000000000000000000000000000000000000000000000000000000000000000000000000000000000000000000000000000000000000000000000000000000000000000000000000000000000000000000000000000000000000000000000000000
310
00000000000000000000000000000000000000000000000000000000000000000000000000000000000000000000000000000000000000000000000000000000000000000000000000000000000000000000000000000000000000000000000000000000000000000000000000000000000000000000000000000000000000
310
00000000000000000000000000000000000000000000000000000000000000000000000000000000000000000000000000000000000000000000000000000000000000000000000000000000000000000000000000000000000000000000000000000000000000000000000000000000000000000000000000000000000000
310
00000000000000000000000000000000000000000000000000000000000000000000000000000000000000000000000000000000000000000000000000000000000000000000000000000000000000000000000000000000000000000000000000000000000000000000000000000000000000000000000000000000000000
310
00000000000000000000000000000000000000000000000000000000000000000000000000000000000000000000000000000000000000000000000000000000000000000000000000000000000000000000000000000000000000000000000000000000000000000000000000000000000000000000000000000000000000
310
00000000000000000000000000000000000000000000000000000000000000000000000000000000000000000000000000000000000000000000000000000000000000000000000000000000000000000000000000000000000000000000000000000000000000000000000000000000000000000000000000000000000000
310
00000000000000000000000000000000000000000000000000000000000000000000000000000000000000000000000000000000000000000000000000000000000000000000000000000000000000000000000000000000000000000000000000000000000000000000000000000000000000000000000000000000000000
310
00000000000000000000000000000000000000000000000000000000000000000000000000000000000000000000000000000000000000000000000000000000000000000000000000000000000000000000000000000000000000000000000000000000000000000000000000000000000000000000000000000000000000
310
00000000000000000000000000000000000000000000000000000000000000000000000000000000000000000000000000000000000000000000000000000000000000000000000000000000000000000000000000000000000000000000000000000000000000000000000000000000000000000000000000000000000000
310
00000000000000000000000000000000000000000000000000000000000000000000000000000000000000000000000000000000000000000000000000000000000000000000000000000000000000000000000000000000000000000000000000000000000000000000000000000000000000000000000000000000000000
310
00000000000000000000000000000000000000000000000000000000000000000000000000000000000000000000000000000000000000000000000000000000000000000000000000000000000000000000000000000000000000000000000000000000000000000000000000000000000000000000000000000000000000
310
00000000000000000000000000000000000000000000000000000000000000000000000000000000000000000000000000000000000000000000000000000000000000000000000000000000000000000000000000000000000000000000000000000000000000000000000000000000000000000000000000000000000000
310
00000000000000000000000000000000000000000000000000000000000000000000000000000000000000000000000000000000000000000000000000000000000000000000000000000000000000000000000000000000000000000000000000000000000000000000000000000000000000000000000000000000000000
310
00000000000000000000000000000000000000000000000000000000000000000000000000000000000000000000000000000000000000000000000000000000000000000000000000000000000000000000000000000000000000000000000000000000000000000000000000000000000000000000000000000000000000
310
00000000000000000000000000000000000000000000000000000000000000000000000000000000000000000000000000000000000000000000000000000707070707070700000000000000000000000000000000000000000000000000000000000000000000000000000000000000000000000000000000000000000000
310
00000000000000000000000000000000000000000000000000000000000000000000000000000000000000000000000000000000000000000000000000000000000000000000000000000000000000000000000000000000000000000000000000000000000000000000000000000000070707000000000000000707070000
310
00000000000000000000000000000000000000000000000000000000000000000000000000000000000000000000000000000000000000000000000000000000000000000000000000000000000000000000000000000000000000000000000000000000000000000000000000000000000000000000000000000000000000
310
00000000000000000000000000000000000000000000000000000000000000000000000000000707000707070707070700070700000000000000000000000000000000000000000000000000000000000000000000000000000000000000000000000000000000000000000000000000000000000000000000000000000000
310
00000000000000000000000000000000000000000000000000000000000000000000000000000000000000000000000000000000000000000000000000000000000000000000000000000000000000000000000000000000000000070007070707070707070700070000000000000000000000000000000000000000000000
310
00000000000000000000000000000000000000000000000000000000000000000000000000000000000000000000000000000000000000000000000000000000000000000000000000000000000000000000000000000000000000000000000000000000000000000000000000000000000000000000000000000000000000
310
00000000000000000000000000000000000700000000000000000000000700000000000000000000000000000000000000000000000000000000000000000000000000000000000000000000000000000000000000000000000000000000000000000000000000000000000000000000000000000000000000000000000000
310
00000000000000000000000000000000000000000000000000000000000000000000000000000000000000000000000000000000000000000000000000000000000000000000070000000000000000000000070000000000000000000000000000000000000000000000000000000000000000000000000000000000000000
310
00000000000000000000000000000000000000000000000000000000000000000000000000000000000000000000000000000000000000000000000000000000000000000000000000000000000000000000000000000000000000000000000000000000000000000000000000000000000000000000000000000007000000
310
00000000000000000700000000000000000000000000000000000000000000000000000000000000000000000000000000000000000000000000000000000000000000000000000000000000000000000000000000000000000000000000000000000000000000000000000000000000000000000000000000000000000000
310
00000000000000000000000000000000000000000000000000000000000000000000000000000000000000000000000000070000000000000000000000070000000000000000000000000000000000000000000000000000000000000000000000000000000000000000000000000000000000000000000000000000000000
310
00000000000000000000000000000000000000000000000000000000000000000000000000000000000000000000000000000000000000000000000000000000000000000000000000000000000000000000000000000000000000000000000000000000000007000000000000000000000007000000000000000000000000
310
00000000000000000000000000000000000000000000000000000000000000000000000000000000000000000000000000000000000000000000000000000000000000000000000000000000000000000000000000000000000000000000000000000000000000000000000000000000000000000000000000000000000000
310
00000000000000000000000000000000000000000000000000000000070000000000000000000000070000000000000000000000000000000000000000000000000000000000000000000000000000000000000000000000000000000000000000000000000000000000000000000000000000000000000000000000000000
310
00000000000000000000000000000000000000000000000000000000000000000000000000000000000000000000000000000000000000000000000000000000000000000000000000000000000000000007000000000000000000000007000000000000000000000000000000000000000000000000000000000000000000
310
00000000000000000000000000000000000000000000000000000000000000000000000000000000000000000000000000000000000000000000000000000000000000000000000000000000000000000000000000000000000000000000000000000000000000000000000000000000000000000000000000000000000000
310
00000000000000070000000000000000000000070000000000000000000000000000000000000000000000000000000000000000000000000000000000000000000000000000000000000000000000000000000000000000000000000000000000000000000000000000000000000000000000000000000000000000000000
310
00000000000000000000000000000000000000000000000000000000000000000000000000000000000000000000000000000000000000000000000007000000000000000000000007000000000000000000000000000000000000000000000000000000000000000000000000000000000000000000000000000000000000
310
00000000000000000000000000000000000000000000000000000000000000000000000000000000000000000000000000000000000000000000000000000000000000000000000000000000000000000000000000000000000000000000000000000000000000000000000000000000000700000000000000000000000700
310
00000000000000000000000000000000000000000000000000000000000000000000000000000000000000000000000000000000000000000000000000000000000000000000000000000000000000000000000000000000000000000000000000000000000000000000000000000000000000000000000000000000000000
310
00000000000000000000000000000000000000000000000000000000000000000000000000000007000000000000000000000007000000000000000000000000000000000000000000000000000000000000000000000000000000000000000000000000000000000000000000000000000000000000000000000000000000
310
00000000000000000000000000000000000000000000000000000000000000000000000000000000000000000000000000000000000000000000000000000000000000000000000000000000000000000000000000000000000000000700000000000000000000000700000000000000000000000000000000000000000000
310
00000000000000000000000000000000000000000000000000000000000000000000000000000000000000000000000000000000000000000000000000000000000000000000000000000000000000000000000000000000000000000000000000000000000000000000000000000000000000000000000000000000000000
310
00000000000000000000000000000000000007000000000000000000000007000000000000000000000000000000000000000000000000000000000000000000000000000000000000000000000000000000000000000000000000000000000000000000000000000000000000000000000000000000000000000000000000
310
00000000000000000000000000000000000000000000000000000000000000000000000000000000000000000000000000000000000000000000000000000000000000000000000700000000000000000000000700000000000000000000000000000000000000000000000000000000000000000000000000000000000000
310
00000000000000000000000000000000000000000000000000000000000000000000000000000000000000000000000000000000000000000000000000000007070707070707070707070707070707070707070707070707070000000000000000000000000000000000000000000000000000000007070707070707070000
310
00000000000000000007070707070707070000000000000000000000000000000000000000000000000000000007070707070707070707070707070707070707070707070707070000000000000000000000000000000000000000000000000000000000000000000000000000000000000007070000000000000000000000
310
00000000000000000000000000000007000000000000000000000000000000000000000000000000000007070000000000000700000000000000000000000700000000000007070000000000000000000000000000000000000000000000000000070000000000000000000000000000000000000000000000000000070700
310
00000000000000000000000000000000000000000000000000000000000000000000000000000007000000000000000000000007070707070707000000000000000000000007000000000000000000000000000000000000000000000000070000000000000000070000000000000000000000070000000000000000070000
310
00000000000000000000000000000000000000000000070000000000000000000000070707070707070000000000000000000000070000000000000000000000000000000000000000000000000000000000000000000000000000070000000000000000000707070000000000000007070700000000000000000007000000
310
00000000000000000000000000000000000000070000000000000000000700000000000000000000000700000000000000000007000000000000000000000000000000000000000000000700000000000000000007070700000000000000070707000000000000000000070000000000000000000000000000000000000000
310
00000000000000000000000000000007070700000000000000000700000000000000000000000000070000000000000000070707000000000000000000000000000000000000000007000000000000000707070000000000000000000000070707000000000000000700000000000000000000000000000000000000000707
310
07000000000000000007000000000000000000000000000700000000000000000707070000000000000000000000000000000000000000000000000000000000000000070700000707000000000707000000000000000000000000000000070707000000070700000007000000000000000000000000000000000000000700
310
00000000000700000700000000000000000000000700000700000000000007000000000000000000000000000000000000000700000007070000000707070000000000000000000000000000000707000000000707000007070000000000000000000000000000000000000000000000000000000000000707000000000007
310
07000700000000000000000000000000000000000000000707070000000000000700000000000000000000000000000000000007000000000007000000070000000000000000000000070000000700000000000700000000000000000000000000000000000007000000000000070707000000000000000000000000000000
310
00000000000700070700000000000707000000000000000000000000000000000000000000000000000000000007000000000000000007070000000000000000000000000000000000000007070000000000000000070000000000000000000000000000000000000700000000070000000007000000000000000000000007
310
00000000070000000007000000000000000000000000000000000000070000000000000000070700000000000000000000000000000000000000070700000000000000000700000000000000000000000000000000000000000000000000000000000707000000000000000000070700000000000000000000000000000007
310
07000000000000000000000700000000000000000000000000000000000007000000070000000000070000000000000000000000070000000000070000000700000000000000000000000000000000000007000000000000000000000707000000000000000000000000000000070700000000000000000007070000000000
310
00000000000000000000000000000000000000000000000000070000000000000000000000070700000000000000000000000007000000000000000000000007000000000000000000000000000000000000000700000700000000000007000000000000000000000007000000000007000000070000000000000000000000
310
00000000000000000700000000000000000000000700000000000000000000000007070000000000000000000000070000000000000000000000000000000000000000000000000000000000000000070700000000000000000000000707070000000000000707070000000000000000000007070000000000000000000000
310
00000000000000000007000007000000000007070000000000000000000000070700000000000700000700000000000000000000000000000000000000000707000000000000000000000707070000000000000707070000000000000000000000070700000000000000000000000000000000000000000000000000000000
310
00000000000000070000000000000000000000000707070707070700000000000000000000000007070000000000000000000000000000000000000000000700070000000000070707000000000000000000000007070700000000000700070000000000000000000000000000000000000000000707000000000000000000
310
00000007070707070707000000000000000000000000070000000000000000000000000000000000000000000000000000000000000000000000000007070700000000000000000000000000000000000000000000000000000007070007000000000000000000000000000000000000000000070007000000000707000700
310
00000000000000000000070007070000000007000700000000000000000000000000000000000000000007000707000000000000000000000000000000000000000000000000000000070707000000000000000000000000000000000000000000000000000000000000000000000000000700070700000000000000000000
310
00000000000000000000000000000007070000070000000000000000000000000000000000000000000700070000000007000007000000000000000000000007000707000000000700070000000000000000000000000000000000000000000700000707000000000000000000000000000000000000000000000000000707
310
00070000000000000000000000000000000000000000000000000000000000000000000000000007000700070700000000000000000000000000000000000000000007070000070007000000000000000000000000000000000000000000070007000000000700000700000000000000000000000700000700000000070007
310
00000000000000000000000000000000000000000007000700000707000000000000000000000000000000000000000000070700070007000000000000000000000000000000000000000000000000000000000000000000000000000707000000000707000000000000000000000000000000000007070000000007000700
310
00000000000000000000000000000000000000000707000000000007000007000000000000000000000007000007000000000007070000000000000000000000000000000000000000000700070000000007070000000000000000000000000000000000070700000000070700000000000000000000000000000000000000
310
00000000000000000000000000000000000007070000000000000700000000000000000000000000000007070000000000070007000000000000000000000000000000000000000000070700000000070000000700000000000000000000000700000707000000000707000000000000000000000000000000000000000000
310
07000700000000000707000000000000000000000000000000070000000000000707000000000000000000000000000000000000000000000000000000000000000000000000000707000000000000000700000000000000000000000000070000000000000000000700000000000000000000000000000000000000000007
310
07000000000700000007000000000000000000000007000000070000000007070000000000000000000000000000000000000000000700000000000000000007000000000000000000000000000700000000000000070700000000000000000000000000000000000000000000000000000000000000000000000000070700
310
00000000000000070000000000000000000000070700000000000000070007000000000000000000000000000000000000000000070700000000070000000700000000000000000000070000000707000000000707000000000000000000000000000000000000000000070007000000000000000707000000000000000000
310
00000700000000000000000707000000000000000000000000000000000000000000000000000000000000000000000000000707000000000000000007000000000000000000000700000000000000000007000700000000000000000000000000000000000000000007070000000000070000000700000000000000000007
310
00000007000000000700070000000000000000000000000000000000000000000700070000000000000000070000000000000000000000070000000000000007000700000000000000000000000000000000000000000000000000000000000000000000000000070007000000000000000007000000000000000000070000
310
00000000000000070007000000000000000000000000000000000000000000070007000000000700000007000000000000000000070000000700000000070007000000000000000000000000000000000000000000070007000000000000000000070000000000000000000700000000000000000700070000000000000000
310
00000000000000000000000000000000000000000000000000000000000700070000000000000000000700000000000000070000000000000000000700000700000000000000000000000000000000000000000007000700000000070000000007000000000000000700000007070000000007000700000000000000000000
310
00000000000000000000000700000700000000000000000007000000000000000700000000000000000007000700000000000000000000000000000000000000000000000000000000000000000000000000070007000000000000000000070000000000000007000000000000000000070000070000000000000000000000
310
00000000000000000000070007000000000007000000000707070007070700000000070000000000070007000000000000000000000000000000000000000000070000070000000000000000000700000000000000070000000000000000070000070000000000000000000000000000000000000000000000000000000000
310
00000000000000000700000700000000000000000707000000000000070000000000000000000700000700000000000000000000000000000000000000000007000700000000000707000000000007000700000000000707000000000700000700000000000000000000000000000000000000000007000007000000000000
310
00000007000000000000070700000000000000000700000700000000000000000000000000000000000000000000000000000000000000000000000000070000070000000000000000000700000000000007000000000000000007000000070000000000000000000000000000000000000000000700000700000000000707
310
00000000000000000000000707000000000007000007000000000000000000000000000000000000000000070000000700000000000000000700000000000007000000000000000000070000070000000000000000000000000000000000000000000000000000000000000000000000000007000000070000000000000000
310
07000000000007000000000000000007000000000700000000000000000000000000000000000000000007000000070000000000070700000000000000000007070000000000070000000700000000000000000000000000000000000000000007000000000700000000000000000700000000000700000000000000000700
310
00000700000000000000000000000000000000000000000000000000000000000000000000000000070000000007000000000000000700000000000700000000000000070000000000070000000000000000000000000000000000000000000700000000070000000000000707070000000707070000000000000700000000
310
07000000000000000000000000000000000000000000070000000000070000000000000007000000000007000000000000000700000000070000000000000000000000000000000000000000000000000000000000000000000000000007000000000007000000000000070000000000070000000000000700000000000007
310
00000000000000000000000000000000000000000007000000000007000000000000000007000700000000000000000700000000000700000000000000000000000000000000000000000007000000000000070000000000000700000000000700000000000007000000000007000000000000000000000000000000000000
310
00000000000000000000000000000000000000070000000000000700000000000700000000000700000000000700000000000000070000000000000000000000000000000000000000000700000000000007000000000000000000000000000000000007000000000000070000000000000000000000000000000000000000
310
00070000000000000007000000000007000000000007000000000007000000000000070000000000000000000000000000000000000000000000000000000000000000000000000007000000000000000700000000070000000000070000000007000000000000000007000000000000000000000000000000000000000000
310
07000000000000000700000000000000000000000000000007000000000000000700000000000000000000000000000000000000000007000000000000000007000000000700000000000700000000070000000000000007000000000000000000000000000000000000000000000000000000000000000000000000000700
310
00000000000000070707000700000000000700000707000000000000000007000000000000000000000000000000000000000000000700000000000000000707000000000000000000000007070000000000000000070000000000000000000000000000000000000000000007000000000000000007070000070000000000
310
07000707070000000000000000070000000000000000000000000000000000000000000000000000000000000000000000000000070000000000000000000007070000000000070707000000000000000000000700000000000000000000000000000000000000000000000700000000000000000007070700000000000707
310
07000000000000000000070000000000000000000000000000000000000000000000070000000000000000000007070700000000000707000000000000000000000700000000000000000000000000000000000000000000000000000000000000000000000000000007070000000000000000000007000000000007000000
310
00000000000000070700000000000000000000000000000000000000000000000007070000000000000000000000070707070700000000000000000000000707000000000000000000000000000000000000000000000000070700000000000000000000070000000000070000000000000000000007070000000000000000
310
00000000000000000000000000000000000000000000000000000000000000000007070707070707070707070000000000070707070707070707070707000000000000000000000000000000000000000000000000000000070707070707070707070707070007070707070707070707070707000000000000000000000000
310
00000000000000000000000000000007070707070707070707070700000000000707070707070707070707000000000000000000000000000000000000000000000000000000000000000000000000000000000000000000000000000000000007000000000007000000000000000000000000000000000000000000000000
310
00000000000000000000000000000000000000000000000000000000000000000000000000000000000000000000000000000000000000000000000000000000000000000000000000000000000000070000000000070000000000000000000000000000000000000000000000000000000000000000000000000000000000
310
00000000000000000000000000000000000000000000070000000000070000000000000000000000000000000000000000000000000000000000000000000000000000000000000000000000000000000000000000000000000000000000000000000000000000000000000000000000000000000000000000000000000000
310
00000000000700000000000700000000000000000000000000000000000000000000000000000000000000000000000000000000000000000000000000000000000000000000000000000007000000000007000000000000000000000000000000000000000000000000000000000000000000000000000000000000000000
310
00000000000000000000000000000000000000000000000000000000000000000000000000000000000000000000000000000000000000000000070000000000070000000000000000000000000000000000000000000000000000000000000000000000000000000000000000000000000000000000000000000000000000
310
00070000000000070000000000000000000000000000000000000000000000000000000000000000000000000000000000000000000000000000000000000000000000000000000000000000000000000000000000000000000000000000000000000000000000000000000000000007000000000007000000000000000000
310
00000000000000000000000000000000000000000000000000000000000000000000000000000000000000000000000000000000000000070000000707000000000000000000000000000000000000000000000000000000000000000000000000000000000000000000000000000000000000000000000000000000000000
310
00000000000000000000000000000000000000000000000000000000000000000000000000070700000007000000000000000000000000000000000000000000000000000000000000000000000000000000000000000000000000000000000000000000000000000000000000070707070000000000000000000000000000
310
00000000000000000000000000000000000000000000000000000000000000000000000000000000000000000000000000000000000000000000000000000000000000000000000000000000000000000000000000000000000000070707070000000000000000000000000000000000000000000000000000000000000000
310
00000000000000000000000000000000000000000000000000000000000000000000000000000000000000000000000000000000000000000000000000000000000000000000000000000000000000000000000000000000000000000000000000000000000000000000000000000000000000000000000000000000000000
310
00000000000000000000000000000000000000000000000000000000000000000000000000000000000000000000000000000000000000000000000000000000000000000000000000000000000000000000000000000000000000000000000000000000000000000000000000000000000000000000000000000000000000
310
00000000000000000000000000000000000000000000000000000000000000000000000000000000000000000000000000000000000000000000000000000000000000000000000000000000000000000000000000000000000000000000000000000000000000000000000000000000000000000000000000000000000000
310
00000000000000000000000000000000000000000000000000000000000000000000000000000000000000000000000000000000000000000000000000000000000000000000000000000000000000000000000000000000000000000000000000000000000000000000000000000000000000000000000000000000000000
310
00000000000000000000000000000000000000000000000000000000000000000000000000000000000000000000000000000000000000000000000000000000000000000000000000000000000000000000000000000000000000000000000000000000000000000000000000000000000000000000000000000000000000
310
00000000000000000000000000000000000000000000000000000000000000000000000000000000000000000000000000000000000000000000000000000000000000000000000000000000000000000000000000000000000000000000000000000000000000000000000000000000000000000000000000000000000000
310
00000000000000000000000000000000000000000000000000000000000000000000000000000000000000000000000000000000000000000000000000000000000000000000000000000000000000000000000000000000000000000000000000000000000000000000000000000000000000000000000000000000000000
310
00000000000000000000000000000000000000000000000000000000000000000000000000000000000000000000000000000000000000000000000000000000000000000000000000000000000000000000000000000000000000000000000000000000000000000000000000000000000000000000000000000000000000
310
00000000000000000000000000000000000000000000000000000000000000000000000000000000000000000000000000000000000000000000000000000000000000000000000000000000000000000000000000000000000000000000000000000000000000000000000000000000000000000000000000000000000000
310
00000000000000000000000000000000000000000000000000000000000000000000000000000000000000000000000000000000000000000000000000000000000000000000000000000000000000000000000000000000000000000000000000000000000000000000000000000000000000000000000000000000000000
310
00000000000000000000000000000000000000000000000000000000000000000000000000000000000000000000000000000000000000000000000000000000000000000000000000000000000000000000000000000000000000000000000000000000000000000000000000000000000000000000000000000000000000
310
00000000000000000000000000000000000000000000000000000000000000000000000000000000000000000000000000000000000000000000000000000000000000000000000000000000000000000000000000000000000000000000000000000000000000000000000000000000000000000000000000000000000000
310
00000000000000000000000000000000000000000000000000000000000000000000000000000000000000000000000000000000000000000000000000000000000000000000000000000000000000000000000000000000000000000000000000000000000000000000000000000000000000000000000000000000000000
310
00000000000000000000000000000000000000000000000000000000000000000000000000000000000000000000000000000000000000000000000000000000000000000000000000000000000000000000000000000000000000000000000000000000000000000000000000000000000000000000000000000000000000
310
00000000000000000000000000000000000000000000000000000000000000000000000000000000000000000000000000000000000000000000000000000000000000000000000000000000000000000000000000000000000000000000000000000000000000000000000000000000000000000000000000000000000000
310
00000000000000000000000000000000000000000000000000000000000000000000000000000000000000000000000000000000000000000000000000000000000000000000000000000000000000000000000000000000000000000000000000000000000000000000000000000000000000000000000000000000000000
310
00000000000000000000000000000000000000000000000000000000000000000000000000000000000000000000000000000000000000000000000000000000000000000000000000000000000000000000000000000000000000000000000000000000000000000000000000000000000000000000000000000000000000
310
00000000000000000000000000000000000000000000000000000000000000000000000000000000000000000000000000000000000000000000000000000000000000000000000000000000000000000000000000000000000000000000000000000000000000000000000000000000000000000000000000000000000000
310
00000000000000000000000000000000000000000000000000000000000000000000000000000000000000000000000000000000000000000000000000000000000000000000000000000000000000000000000000000000000000000000000000000000000000000000000000000000000000000000000000000000000000
310
000000000000000000000000000000000000000000000000000000000000000000000000000000000000000000000000000000000000000000000000000000000000000000000000000000000000000000000000000000000000000000000000000000000000000000000000
  0
ENDSEC
  0
EOF
