  0
SECTION
  2
HEADER
  9
$ACADVER
  1
AC1015
  9
$ACADMAINTVER
 70
     6
  9
$DWGCODEPAGE
  3
ANSI_1252
  9
$INSBASE
 10
0.0
 20
0.0
 30
0.0
  9
$EXTMIN
 10
-0.0231
 20
0.0015
 30
0.0
  9
$EXTMAX
 10
270.0231
 20
184.9985
 30
0.0
  9
$LIMMIN
 10
0.0
 20
0.0
  9
$LIMMAX
 10
12.0
 20
9.0
  9
$ORTHOMODE
 70
     0
  9
$REGENMODE
 70
     1
  9
$FILLMODE
 70
     1
  9
$QTEXTMODE
 70
     0
  9
$MIRRTEXT
 70
     1
  9
$LTSCALE
 40
1.0
  9
$ATTMODE
 70
     1
  9
$TEXTSIZE
 40
0.2
  9
$TRACEWID
 40
0.05
  9
$TEXTSTYLE
  7
Standard
  9
$CLAYER
  8
0
  9
$CELTYPE
  6
ByBlock
  9
$CECOLOR
 62
   256
  9
$CELTSCALE
 40
1.0
  9
$DISPSILH
 70
     0
  9
$DIMSCALE
 40
1.0
  9
$DIMASZ
 40
0.18
  9
$DIMEXO
 40
0.0625
  9
$DIMDLI
 40
0.38
  9
$DIMRND
 40
0.0
  9
$DIMDLE
 40
0.0
  9
$DIMEXE
 40
0.18
  9
$DIMTP
 40
0.0
  9
$DIMTM
 40
0.0
  9
$DIMTXT
 40
0.18
  9
$DIMCEN
 40
0.09
  9
$DIMTSZ
 40
0.0
  9
$DIMTOL
 70
     0
  9
$DIMLIM
 70
     0
  9
$DIMTIH
 70
     1
  9
$DIMTOH
 70
     1
  9
$DIMSE1
 70
     0
  9
$DIMSE2
 70
     0
  9
$DIMTAD
 70
     0
  9
$DIMZIN
 70
     0
  9
$DIMBLK
  1

  9
$DIMASO
 70
     1
  9
$DIMSHO
 70
     1
  9
$DIMPOST
  1

  9
$DIMAPOST
  1

  9
$DIMALT
 70
     0
  9
$DIMALTD
 70
     2
  9
$DIMALTF
 40
25.4
  9
$DIMLFAC
 40
1.0
  9
$DIMTOFL
 70
     0
  9
$DIMTVP
 40
0.0
  9
$DIMTIX
 70
     0
  9
$DIMSOXD
 70
     0
  9
$DIMSAH
 70
     0
  9
$DIMBLK1
  1

  9
$DIMBLK2
  1

  9
$DIMSTYLE
  2
Standard
  9
$DIMCLRD
 70
     0
  9
$DIMCLRE
 70
     0
  9
$DIMCLRT
 70
     0
  9
$DIMTFAC
 40
1.0
  9
$DIMGAP
 40
0.09
  9
$DIMJUST
 70
     0
  9
$DIMSD1
 70
     0
  9
$DIMSD2
 70
     0
  9
$DIMTOLJ
 70
     1
  9
$DIMTZIN
 70
     0
  9
$DIMALTZ
 70
     0
  9
$DIMALTTZ
 70
     0
  9
$DIMUPT
 70
     0
  9
$DIMDEC
 70
     4
  9
$DIMTDEC
 70
     4
  9
$DIMALTU
 70
     2
  9
$DIMALTTD
 70
     2
  9
$DIMTXSTY
  7
Standard
  9
$DIMAUNIT
 70
     0
  9
$DIMADEC
 70
     0
  9
$DIMALTRND
 40
0.0
  9
$DIMAZIN
 70
     0
  9
$DIMDSEP
 70
    46
  9
$DIMATFIT
 70
     3
  9
$DIMFRAC
 70
     0
  9
$DIMLDRBLK
  1

  9
$DIMLUNIT
 70
     2
  9
$DIMLWD
 70
    -2
  9
$DIMLWE
 70
    -2
  9
$DIMTMOVE
 70
     2
  9
$LUNITS
 70
     2
  9
$LUPREC
 70
     4
  9
$SKETCHINC
 40
0.1
  9
$FILLETRAD
 40
0.5
  9
$AUNITS
 70
     0
  9
$AUPREC
 70
     0
  9
$MENU
  1
.
  9
$ELEVATION
 40
0.0
  9
$PELEVATION
 40
0.0
  9
$THICKNESS
 40
0.0
  9
$LIMCHECK
 70
     0
  9
$CHAMFERA
 40
0.5
  9
$CHAMFERB
 40
0.5
  9
$CHAMFERC
 40
1.0
  9
$CHAMFERD
 40
0.0
  9
$SKPOLY
 70
     0
  9
$TDCREATE
 40
2455824.897826968
  9
$TDUCREATE
 40
2455824.814493634
  9
$TDUPDATE
 40
2455824.910137442
  9
$TDUUPDATE
 40
2455824.826804109
  9
$TDINDWG
 40
0.0123101273
  9
$TDUSRTIMER
 40
0.0123101273
  9
$USRTIMER
 70
     1
  9
$ANGBASE
 50
0.0
  9
$ANGDIR
 70
     0
  9
$PDMODE
 70
     0
  9
$PDSIZE
 40
0.0
  9
$PLINEWID
 40
0.0
  9
$SPLFRAME
 70
     0
  9
$SPLINETYPE
 70
     6
  9
$SPLINESEGS
 70
     8
  9
$HANDSEED
  5
930
  9
$SURFTAB1
 70
     6
  9
$SURFTAB2
 70
     6
  9
$SURFTYPE
 70
     6
  9
$SURFU
 70
     6
  9
$SURFV
 70
     6
  9
$UCSBASE
  2

  9
$UCSNAME
  2

  9
$UCSORG
 10
0.0
 20
0.0
 30
0.0
  9
$UCSXDIR
 10
1.0
 20
0.0
 30
0.0
  9
$UCSYDIR
 10
0.0
 20
1.0
 30
0.0
  9
$UCSORTHOREF
  2

  9
$UCSORTHOVIEW
 70
     0
  9
$UCSORGTOP
 10
0.0
 20
0.0
 30
0.0
  9
$UCSORGBOTTOM
 10
0.0
 20
0.0
 30
0.0
  9
$UCSORGLEFT
 10
0.0
 20
0.0
 30
0.0
  9
$UCSORGRIGHT
 10
0.0
 20
0.0
 30
0.0
  9
$UCSORGFRONT
 10
0.0
 20
0.0
 30
0.0
  9
$UCSORGBACK
 10
0.0
 20
0.0
 30
0.0
  9
$PUCSBASE
  2

  9
$PUCSNAME
  2

  9
$PUCSORG
 10
0.0
 20
0.0
 30
0.0
  9
$PUCSXDIR
 10
1.0
 20
0.0
 30
0.0
  9
$PUCSYDIR
 10
0.0
 20
1.0
 30
0.0
  9
$PUCSORTHOREF
  2

  9
$PUCSORTHOVIEW
 70
     0
  9
$PUCSORGTOP
 10
0.0
 20
0.0
 30
0.0
  9
$PUCSORGBOTTOM
 10
0.0
 20
0.0
 30
0.0
  9
$PUCSORGLEFT
 10
0.0
 20
0.0
 30
0.0
  9
$PUCSORGRIGHT
 10
0.0
 20
0.0
 30
0.0
  9
$PUCSORGFRONT
 10
0.0
 20
0.0
 30
0.0
  9
$PUCSORGBACK
 10
0.0
 20
0.0
 30
0.0
  9
$USERI1
 70
     0
  9
$USERI2
 70
     0
  9
$USERI3
 70
     0
  9
$USERI4
 70
     0
  9
$USERI5
 70
     0
  9
$USERR1
 40
0.0
  9
$USERR2
 40
0.0
  9
$USERR3
 40
0.0
  9
$USERR4
 40
0.0
  9
$USERR5
 40
0.0
  9
$WORLDVIEW
 70
     1
  9
$SHADEDGE
 70
     3
  9
$SHADEDIF
 70
    70
  9
$TILEMODE
 70
     1
  9
$MAXACTVP
 70
    64
  9
$PINSBASE
 10
0.0
 20
0.0
 30
0.0
  9
$PLIMCHECK
 70
     0
  9
$PEXTMIN
 10
1.000000000000E+20
 20
1.000000000000E+20
 30
1.000000000000E+20
  9
$PEXTMAX
 10
-1.000000000000E+20
 20
-1.000000000000E+20
 30
-1.000000000000E+20
  9
$PLIMMIN
 10
0.0
 20
0.0
  9
$PLIMMAX
 10
12.0
 20
9.0
  9
$UNITMODE
 70
     0
  9
$VISRETAIN
 70
     1
  9
$PLINEGEN
 70
     0
  9
$PSLTSCALE
 70
     1
  9
$TREEDEPTH
 70
  3020
  9
$CMLSTYLE
  2
Standard
  9
$CMLJUST
 70
     0
  9
$CMLSCALE
 40
1.0
  9
$PROXYGRAPHICS
 70
     1
  9
$MEASUREMENT
 70
     0
  9
$CELWEIGHT
370
    -1
  9
$ENDCAPS
280
     0
  9
$JOINSTYLE
280
     0
  9
$LWDISPLAY
290
     0
  9
$INSUNITS
 70
     0
  9
$HYPERLINKBASE
  1

  9
$STYLESHEET
  1

  9
$XEDIT
290
     1
  9
$CEPSNTYPE
380
     0
  9
$PSTYLEMODE
290
     1
  9
$FINGERPRINTGUID
  2
{7DA6F238-8014-421E-8642-EEED711D06C2}
  9
$VERSIONGUID
  2
{FAEB1C32-E019-11D5-929B-00C0DF256EC4}
  9
$EXTNAMES
290
     1
  9
$PSVPSCALE
 40
0.0
  9
$OLESTARTUP
290
     0
  0
ENDSEC
  0
SECTION
  2
CLASSES
  0
CLASS
  1
ACDBDICTIONARYWDFLT
  2
AcDbDictionaryWithDefault
  3
ObjectDBX Classes
 90
        0
280
     0
281
     0
  0
CLASS
  1
SCALE
  2
AcDbScale
  3
ObjectDBX Classes
 90
     1153
280
     0
281
     0
  0
CLASS
  1
DICTIONARYVAR
  2
AcDbDictionaryVar
  3
ObjectDBX Classes
 90
        0
280
     0
281
     0
  0
CLASS
  1
ACDBPLACEHOLDER
  2
AcDbPlaceHolder
  3
ObjectDBX Classes
 90
        0
280
     0
281
     0
  0
CLASS
  1
LAYOUT
  2
AcDbLayout
  3
ObjectDBX Classes
 90
        0
280
     0
281
     0
  0
ENDSEC
  0
SECTION
  2
TABLES
  0
TABLE
  2
VPORT
  5
8
330
0
100
AcDbSymbolTable
 70
     1
  0
VPORT
  5
77D
330
8
100
AcDbSymbolTableRecord
100
AcDbViewportTableRecord
  2
*Active
 70
     0
 10
0.0
 20
0.0
 11
1.0
 21
1.0
 12
135.0
 22
92.5
 13
0.0
 23
0.0
 14
0.5
 24
0.5
 15
0.5
 25
0.5
 16
0.0
 26
0.0
 36
1.0
 17
0.0
 27
0.0
 37
0.0
 40
188.69694
 41
1.790857142857
 42
50.0
 43
0.0
 44
0.0
 50
0.0
 51
0.0
 71
    16
 72
   100
 73
     1
 74
     3
 75
     0
 76
     0
 77
     0
 78
     0
281
     0
 65
     1
110
0.0
120
0.0
130
0.0
111
1.0
121
0.0
131
0.0
112
0.0
122
1.0
132
0.0
 79
     0
146
0.0
  0
ENDTAB
  0
TABLE
  2
LTYPE
  5
5
330
0
100
AcDbSymbolTable
 70
     1
  0
LTYPE
  5
14
330
5
100
AcDbSymbolTableRecord
100
AcDbLinetypeTableRecord
  2
ByBlock
 70
     0
  3

 72
    65
 73
     0
 40
0.0
  0
LTYPE
  5
15
330
5
100
AcDbSymbolTableRecord
100
AcDbLinetypeTableRecord
  2
ByLayer
 70
     0
  3

 72
    65
 73
     0
 40
0.0
  0
LTYPE
  5
16
330
5
100
AcDbSymbolTableRecord
100
AcDbLinetypeTableRecord
  2
Continuous
 70
     0
  3
Solid line
 72
    65
 73
     0
 40
0.0
  0
ENDTAB
  0
TABLE
  2
LAYER
  5
2
330
0
100
AcDbSymbolTable
 70
     1
  0
LAYER
  5
10
330
2
100
AcDbSymbolTableRecord
100
AcDbLayerTableRecord
  2
0
 70
     0
 62
     7
  6
Continuous
370
    -3
390
F
  0
ENDTAB
  0
TABLE
  2
STYLE
  5
3
330
0
100
AcDbSymbolTable
 70
     1
  0
STYLE
  5
11
330
3
100
AcDbSymbolTableRecord
100
AcDbTextStyleTableRecord
  2
Standard
 70
     0
 40
0.0
 41
1.0
 50
0.0
 71
     0
 42
0.2
  3
txt
  4

  0
ENDTAB
  0
TABLE
  2
VIEW
  5
6
330
0
100
AcDbSymbolTable
 70
     0
  0
ENDTAB
  0
TABLE
  2
UCS
  5
7
330
0
100
AcDbSymbolTable
 70
     0
  0
ENDTAB
  0
TABLE
  2
APPID
  5
9
330
0
100
AcDbSymbolTable
 70
     1
  0
APPID
  5
12
330
9
100
AcDbSymbolTableRecord
100
AcDbRegAppTableRecord
  2
ACAD
 70
     0
  0
ENDTAB
  0
TABLE
  2
DIMSTYLE
  5
A
330
0
100
AcDbSymbolTable
 70
     1
100
AcDbDimStyleTable
  0
DIMSTYLE
105
20
330
A
100
AcDbSymbolTableRecord
100
AcDbDimStyleTableRecord
  2
Standard
 70
     0
340
11
  0
ENDTAB
  0
TABLE
  2
BLOCK_RECORD
  5
1
330
0
100
AcDbSymbolTable
 70
     0
  0
BLOCK_RECORD
  5
1D
330
1
100
AcDbSymbolTableRecord
100
AcDbBlockTableRecord
  2
*Model_Space
340
1E
  0
BLOCK_RECORD
  5
1B
330
1
100
AcDbSymbolTableRecord
100
AcDbBlockTableRecord
  2
*Paper_Space
340
1C
  0
ENDTAB
  0
ENDSEC
  0
SECTION
  2
BLOCKS
  0
BLOCK
  5
780
330
1D
100
AcDbEntity
  8
0
100
AcDbBlockBegin
  2
*Model_Space
 70
     0
 10
0.0
 20
0.0
 30
0.0
  3
*Model_Space
  1
*Model_Space
  0
ENDBLK
  5
781
330
1D
100
AcDbEntity
  8
0
100
AcDbBlockEnd
  0
BLOCK
  5
77E
330
1B
100
AcDbEntity
 67
     1
  8
0
100
AcDbBlockBegin
  2
*Paper_Space
 70
     0
 10
0.0
 20
0.0
 30
0.0
  3
*Paper_Space
  1
*Paper_Space
  0
ENDBLK
  5
77F
330
1B
100
AcDbEntity
 67
     1
  8
0
100
AcDbBlockEnd
  0
ENDSEC
  0
SECTION
  2
ENTITIES
  0
LINE
  5
21
330
1D
100
AcDbEntity
  8
0
100
AcDbLine
 10
14.2221
 20
114.0455
 30
0.0
 11
57.7072
 21
114.1245
 31
0.0
  0
LINE
  5
23
330
1D
100
AcDbEntity
  8
0
100
AcDbLine
 10
57.7072
 20
114.1245
 30
0.0
 11
59.2239
 21
114.4895
 31
0.0
  0
LINE
  5
24
330
1D
100
AcDbEntity
  8
0
100
AcDbLine
 10
59.2239
 20
114.4895
 30
0.0
 11
60.6649
 21
115.0885
 31
0.0
  0
LINE
  5
25
330
1D
100
AcDbEntity
  8
0
100
AcDbLine
 10
11.3353
 20
115.0885
 30
0.0
 11
14.2221
 21
114.0455
 31
0.0
  0
LINE
  5
27
330
1D
100
AcDbEntity
  8
0
100
AcDbLine
 10
60.6649
 20
115.0885
 30
0.0
 11
61.9945
 21
115.9065
 31
0.0
  0
LINE
  5
29
330
1D
100
AcDbEntity
  8
0
100
AcDbLine
 10
10.0057
 20
115.9065
 30
0.0
 11
11.3353
 21
115.0885
 31
0.0
  0
LINE
  5
35
330
1D
100
AcDbEntity
  8
0
100
AcDbLine
 10
8.8195
 20
116.9225
 30
0.0
 11
10.0057
 21
115.9065
 31
0.0
  0
LINE
  5
37
330
1D
100
AcDbEntity
  8
0
100
AcDbLine
 10
61.9945
 20
115.9065
 30
0.0
 11
63.1807
 21
116.9225
 31
0.0
  0
LINE
  5
39
330
1D
100
AcDbEntity
  8
0
100
AcDbLine
 10
35.7553
 20
117.2355
 30
0.0
 11
36.0001
 21
117.2455
 31
0.0
  0
LINE
  5
3B
330
1D
100
AcDbEntity
  8
0
100
AcDbLine
 10
33.123
 20
117.3885
 30
0.0
 11
35.7553
 21
117.2355
 31
0.0
  0
LINE
  5
40
330
1D
100
AcDbEntity
  8
0
100
AcDbLine
 10
36.2449
 20
117.2355
 30
0.0
 11
38.8751
 21
117.4025
 31
0.0
  0
LINE
  5
41
330
1D
100
AcDbEntity
  8
0
100
AcDbLine
 10
36.0001
 20
117.2455
 30
0.0
 11
36.2449
 21
117.2355
 31
0.0
  0
LINE
  5
43
330
1D
100
AcDbEntity
  8
0
100
AcDbLine
 10
38.8751
 20
117.4025
 30
0.0
 11
41.4826
 21
117.8005
 31
0.0
  0
LINE
  5
48
330
1D
100
AcDbEntity
  8
0
100
AcDbLine
 10
36.0001
 20
117.2205
 30
0.0
 11
36.2449
 21
117.2355
 31
0.0
  0
LINE
  5
49
330
1D
100
AcDbEntity
  8
0
100
AcDbLine
 10
36.0001
 20
117.2205
 30
0.0
 11
36.240129139087
 21
117.235694888109
 31
0.0
  0
LINE
  5
4C
330
1D
100
AcDbEntity
  8
0
100
AcDbLine
 10
63.1807
 20
116.9225
 30
0.0
 11
64.651
 21
118.7465
 31
0.0
  0
LINE
  5
4F
330
1D
100
AcDbEntity
  8
0
100
AcDbLine
 10
30.5176
 20
117.8005
 30
0.0
 11
33.123
 21
117.3885
 31
0.0
  0
LINE
  5
56
330
1D
100
AcDbEntity
  8
0
100
AcDbLine
 10
41.4826
 20
117.8005
 30
0.0
 11
44.0313
 21
118.4815
 31
0.0
  0
LINE
  5
58
330
1D
100
AcDbEntity
  8
0
100
AcDbLine
 10
27.9697
 20
118.4815
 30
0.0
 11
30.5176
 21
117.8005
 31
0.0
  0
LINE
  5
5D
330
1D
100
AcDbEntity
  8
0
100
AcDbLine
 10
44.0313
 20
118.4815
 30
0.0
 11
46.5005
 21
119.3935
 31
0.0
  0
LINE
  5
5F
330
1D
100
AcDbEntity
  8
0
100
AcDbLine
 10
7.3492
 20
118.7465
 30
0.0
 11
8.8195
 21
116.9225
 31
0.0
  0
LINE
  5
64
330
1D
100
AcDbEntity
  8
0
100
AcDbLine
 10
64.651
 20
118.7465
 30
0.0
 11
65.653343101792
 21
121.312131317676
 31
0.0
  0
LINE
  5
65
330
1D
100
AcDbEntity
  8
0
100
AcDbLine
 10
106.6818
 20
118.7325
 30
0.0
 11
107.6813
 21
117.5375
 31
0.0
  0
LINE
  5
66
330
1D
100
AcDbEntity
  8
0
100
AcDbLine
 10
107.6813
 20
117.5375
 30
0.0
 11
108.8535
 21
116.5145
 31
0.0
  0
LINE
  5
67
330
1D
100
AcDbEntity
  8
0
100
AcDbLine
 10
108.8535
 20
116.5145
 30
0.0
 11
110.1699
 21
115.6905
 31
0.0
  0
LINE
  5
68
330
1D
100
AcDbEntity
  8
0
100
AcDbLine
 10
110.1699
 20
115.6905
 30
0.0
 11
111.5988
 21
115.0845
 31
0.0
  0
LINE
  5
69
330
1D
100
AcDbEntity
  8
0
100
AcDbLine
 10
111.5988
 20
115.0845
 30
0.0
 11
113.1032
 21
114.7115
 31
0.0
  0
LINE
  5
6A
330
1D
100
AcDbEntity
  8
0
100
AcDbLine
 10
113.1032
 20
114.7115
 30
0.0
 11
114.6468
 21
114.5815
 31
0.0
  0
LINE
  5
6B
330
1D
100
AcDbEntity
  8
0
100
AcDbLine
 10
124.3479
 20
48.0415
 30
0.0
 11
124.3744
 21
51.6845
 31
0.0
  0
LINE
  5
6C
330
1D
100
AcDbEntity
  8
0
100
AcDbLine
 10
124.4349
 20
60.7065
 30
0.0
 11
124.4673
 21
65.9515
 31
0.0
  0
LINE
  5
6D
330
1D
100
AcDbEntity
  8
0
100
AcDbLine
 10
124.5022
 20
71.5825
 30
0.0
 11
124.5374
 21
77.5125
 31
0.0
  0
LINE
  5
6E
330
1D
100
AcDbEntity
  8
0
100
AcDbLine
 10
124.4673
 20
65.9515
 30
0.0
 11
124.5022
 21
71.5825
 31
0.0
  0
LINE
  5
6F
330
1D
100
AcDbEntity
  8
0
100
AcDbLine
 10
124.4035
 20
55.9265
 30
0.0
 11
124.4349
 21
60.7065
 31
0.0
  0
LINE
  5
70
330
1D
100
AcDbEntity
  8
0
100
AcDbLine
 10
124.3744
 20
51.6845
 30
0.0
 11
124.4035
 21
55.9265
 31
0.0
  0
LINE
  5
71
330
1D
100
AcDbEntity
  8
0
100
AcDbLine
 10
124.3236
 20
45.0545
 30
0.0
 11
124.3479
 21
48.0415
 31
0.0
  0
LINE
  5
72
330
1D
100
AcDbEntity
  8
0
100
AcDbLine
 10
124.0397
 20
10.9711
 30
0.0
 11
124.3236
 21
45.0545
 31
0.0
  0
LINE
  5
73
330
1D
100
AcDbEntity
  8
0
100
AcDbLine
 10
124.0262
 20
8.2616
 30
0.0
 11
124.0397
 21
10.9711
 31
0.0
  0
LINE
  5
74
330
1D
100
AcDbEntity
  8
0
100
AcDbLine
 10
124.0262
 20
8.2616
 30
0.0
 11
124.8462
 21
5.6578
 31
0.0
  0
LINE
  5
75
330
1D
100
AcDbEntity
  8
0
100
AcDbLine
 10
114.6468
 20
114.5815
 30
0.0
 11
124.732210008351
 21
114.53237943114
 31
0.0
  0
LINE
  5
76
330
1D
100
AcDbEntity
  8
0
100
AcDbLine
 10
124.5374
 20
77.5125
 30
0.0
 11
124.5715
 21
83.6545
 31
0.0
  0
LINE
  5
77
330
1D
100
AcDbEntity
  8
0
100
AcDbLine
 10
124.5715
 20
83.6545
 30
0.0
 11
124.6064
 21
89.9165
 31
0.0
  0
LINE
  5
78
330
1D
100
AcDbEntity
  8
0
100
AcDbLine
 10
124.7031
 20
108.4615
 30
0.0
 11
124.7309
 21
114.2525
 31
0.0
  0
LINE
  5
79
330
1D
100
AcDbEntity
  8
0
100
AcDbLine
 10
124.6725
 20
102.4135
 30
0.0
 11
124.7031
 21
108.4615
 31
0.0
  0
LINE
  5
7A
330
1D
100
AcDbEntity
  8
0
100
AcDbLine
 10
124.6405
 20
96.1995
 30
0.0
 11
124.6725
 21
102.4135
 31
0.0
  0
LINE
  5
7B
330
1D
100
AcDbEntity
  8
0
100
AcDbLine
 10
124.6064
 20
89.9165
 30
0.0
 11
124.6405
 21
96.1995
 31
0.0
  0
LINE
  5
81
330
1D
100
AcDbEntity
  8
0
100
AcDbLine
 10
25.4983
 20
119.3945
 30
0.0
 11
27.9697
 21
118.4815
 31
0.0
  0
LINE
  5
82
330
1D
100
AcDbEntity
  8
0
100
AcDbLine
 10
46.5005
 20
119.3935
 30
0.0
 11
48.8818
 21
120.5345
 31
0.0
  0
LINE
  5
8C
330
1D
100
AcDbEntity
  8
0
100
AcDbLine
 10
105.8791
 20
120.0715
 30
0.0
 11
106.6818
 21
118.7325
 31
0.0
  0
LINE
  5
94
330
1D
100
AcDbEntity
  8
0
100
AcDbLine
 10
124.7309
 20
114.2525
 30
0.0
 11
124.7564
 21
119.7005
 31
0.0
  0
LINE
  5
95
330
1D
100
AcDbEntity
  8
0
100
AcDbLine
 10
124.8462
 20
5.6578
 30
0.0
 11
126.4327
 21
3.3702
 31
0.0
  0
LINE
  5
96
330
1D
100
AcDbEntity
  8
0
100
AcDbLine
 10
126.4327
 20
3.3702
 30
0.0
 11
126.4826
 21
3.3049
 31
0.0
  0
LINE
  5
97
330
1D
100
AcDbEntity
  8
0
100
AcDbLine
 10
126.4826
 20
3.3049
 30
0.0
 11
128.6927
 21
1.5311
 31
0.0
  0
LINE
  5
98
330
1D
100
AcDbEntity
  8
0
100
AcDbLine
 10
128.6927
 20
1.5311
 30
0.0
 11
131.3571
 21
0.3994
 31
0.0
  0
LINE
  5
AD
330
1D
100
AcDbEntity
  8
0
100
AcDbLine
 10
131.3571
 20
0.3994
 30
0.0
 11
134.2613
 21
0.0015
 31
0.0
  0
LINE
  5
B0
330
1D
100
AcDbEntity
  8
0
100
AcDbLine
 10
124.7564
 20
119.7005
 30
0.0
 11
124.7785
 21
124.7225
 31
0.0
  0
LINE
  5
B9
330
1D
100
AcDbEntity
  8
0
100
AcDbLine
 10
4.5778
 20
121.1225
 30
0.0
 11
5.6177
 21
121.1385
 31
0.0
  0
LINE
  5
BA
330
1D
100
AcDbEntity
  8
0
100
AcDbLine
 10
1.2683
 20
123.0455
 30
0.0
 11
1.8446
 21
122.3595
 31
0.0
  0
LINE
  5
BB
330
1D
100
AcDbEntity
  8
0
100
AcDbLine
 10
1.8446
 20
122.3595
 30
0.0
 11
2.3688
 21
122.0135
 31
0.0
  0
LINE
  5
BC
330
1D
100
AcDbEntity
  8
0
100
AcDbLine
 10
2.3688
 20
122.0135
 30
0.0
 11
2.9019
 21
121.6725
 31
0.0
  0
LINE
  5
BD
330
1D
100
AcDbEntity
  8
0
100
AcDbLine
 10
2.9019
 20
121.6725
 30
0.0
 11
3.5935
 21
121.3825
 31
0.0
  0
LINE
  5
BE
330
1D
100
AcDbEntity
  8
0
100
AcDbLine
 10
3.5935
 20
121.3825
 30
0.0
 11
4.5778
 21
121.1225
 31
0.0
  0
LINE
  5
BF
330
1D
100
AcDbEntity
  8
0
100
AcDbLine
 10
5.6177
 20
121.1385
 30
0.0
 11
6.7265
 21
121.4165
 31
0.0
  0
LINE
  5
C0
330
1D
100
AcDbEntity
  8
0
100
AcDbLine
 10
23.1184
 20
120.5345
 30
0.0
 11
25.4983
 21
119.3945
 31
0.0
  0
LINE
  5
C2
330
1D
100
AcDbEntity
  8
0
100
AcDbLine
 10
48.8818
 20
120.5345
 30
0.0
 11
51.1246
 21
121.9285
 31
0.0
  0
LINE
  5
C4
330
1D
100
AcDbEntity
  8
0
100
AcDbLine
 10
6.7265
 20
121.4165
 30
0.0
 11
23.5621
 21
130.1735
 31
0.0
  0
LINE
  5
C5
330
1D
100
AcDbEntity
  8
0
100
AcDbLine
 10
51.1246
 20
121.9285
 30
0.0
 11
53.2348
 21
123.5115
 31
0.0
  0
LINE
  5
C6
330
1D
100
AcDbEntity
  8
0
100
AcDbLine
 10
20.8682
 20
121.9155
 30
0.0
 11
23.1184
 21
120.5345
 31
0.0
  0
LINE
  5
CA
330
1D
100
AcDbEntity
  8
0
100
AcDbLine
 10
66.0639
 20
121.1885
 30
0.0
 11
66.8687
 21
121.1135
 31
0.0
  0
LINE
  5
CB
330
1D
100
AcDbEntity
  8
0
100
AcDbLine
 10
66.8687
 20
121.1135
 30
0.0
 11
67.9958
 21
121.2385
 31
0.0
  0
LINE
  5
CC
330
1D
100
AcDbEntity
  8
0
100
AcDbLine
 10
65.2503
 20
121.4335
 30
0.0
 11
66.0639
 21
121.1885
 31
0.0
  0
LINE
  5
CE
330
1D
100
AcDbEntity
  8
0
100
AcDbLine
 10
64.5471
 20
121.7785
 30
0.0
 11
65.2503
 21
121.4335
 31
0.0
  0
LINE
  5
CF
330
1D
100
AcDbEntity
  8
0
100
AcDbLine
 10
69.1618
 20
121.6965
 30
0.0
 11
69.9097
 21
122.1645
 31
0.0
  0
LINE
  5
D0
330
1D
100
AcDbEntity
  8
0
100
AcDbLine
 10
70.5668
 20
122.8055
 30
0.0
 11
71.1161
 21
123.7285
 31
0.0
  0
LINE
  5
D1
330
1D
100
AcDbEntity
  8
0
100
AcDbLine
 10
69.9097
 20
122.1645
 30
0.0
 11
70.5668
 21
122.8055
 31
0.0
  0
LINE
  5
D5
330
1D
100
AcDbEntity
  8
0
100
AcDbLine
 10
6.290804889093
 20
121.307261867936
 30
0.0
 11
7.3492
 21
118.7465
 31
0.0
  0
LINE
  5
DB
330
1D
100
AcDbEntity
  8
0
100
AcDbLine
 10
71.1161
 20
123.7285
 30
0.0
 11
71.7145
 21
124.7625
 31
0.0
  0
LINE
  5
DC
330
1D
100
AcDbEntity
  8
0
100
AcDbLine
 10
53.2348
 20
123.5115
 30
0.0
 11
55.1627
 21
125.3175
 31
0.0
  0
LINE
  5
DD
330
1D
100
AcDbEntity
  8
0
100
AcDbLine
 10
18.7654
 20
123.5115
 30
0.0
 11
20.8682
 21
121.9155
 31
0.0
  0
LINE
  5
E1
330
1D
100
AcDbEntity
  8
0
100
AcDbLine
 10
0.5068
 20
124.3055
 30
0.0
 11
1.2683
 21
123.0455
 31
0.0
  0
LINE
  5
E2
330
1D
100
AcDbEntity
  8
0
100
AcDbLine
 10
104.9414
 20
123.0455
 30
0.0
 11
105.2947
 21
121.5205
 31
0.0
  0
LINE
  5
E3
330
1D
100
AcDbEntity
  8
0
100
AcDbLine
 10
105.2947
 20
121.5205
 30
0.0
 11
105.8791
 21
120.0715
 31
0.0
  0
LINE
  5
E4
330
1D
100
AcDbEntity
  8
0
100
AcDbLine
 10
0.0299
 20
125.7445
 30
0.0
 11
0.1682
 21
125.1295
 31
0.0
  0
LINE
  5
E5
330
1D
100
AcDbEntity
  8
0
100
AcDbLine
 10
0.3462
 20
124.6935
 30
0.0
 11
0.5068
 21
124.3055
 31
0.0
  0
LINE
  5
E6
330
1D
100
AcDbEntity
  8
0
100
AcDbLine
 10
0.1682
 20
125.1295
 30
0.0
 11
0.3462
 21
124.6935
 31
0.0
  0
LINE
  5
E7
330
1D
100
AcDbEntity
  8
0
100
AcDbLine
 10
0.3915
 20
128.3975
 30
0.0
 11
0.6435
 21
128.9155
 31
0.0
  0
LINE
  5
E8
330
1D
100
AcDbEntity
  8
0
100
AcDbLine
 10
0.0819
 20
127.3915
 30
0.0
 11
0.3915
 21
128.3975
 31
0.0
  0
LINE
  5
E9
330
1D
100
AcDbEntity
  8
0
100
AcDbLine
 10
-0.0231
 20
126.5955
 30
0.0
 11
0.0299
 21
125.7445
 31
0.0
  0
LINE
  5
EA
330
1D
100
AcDbEntity
  8
0
100
AcDbLine
 10
-0.0231
 20
126.5955
 30
0.0
 11
0.0819
 21
127.3915
 31
0.0
  0
LINE
  5
ED
330
1D
100
AcDbEntity
  8
0
100
AcDbLine
 10
1.7303
 20
130.1785
 30
0.0
 11
17.6428
 21
140.3625
 31
0.0
  0
LINE
  5
EE
330
1D
100
AcDbEntity
  8
0
100
AcDbLine
 10
1.0495
 20
129.5045
 30
0.0
 11
1.7303
 21
130.1785
 31
0.0
  0
LINE
  5
EF
330
1D
100
AcDbEntity
  8
0
100
AcDbLine
 10
16.000404957173
 20
126.240301094702
 30
0.0
 11
16.8278
 21
125.3075
 31
0.0
  0
LINE
  5
F7
330
1D
100
AcDbEntity
  8
0
100
AcDbLine
 10
23.5621
 20
130.1735
 30
0.0
 11
24.9937
 21
130.9035
 31
0.0
  0
LINE
  5
FE
330
1D
100
AcDbEntity
  8
0
100
AcDbLine
 10
24.9937
 20
130.9035
 30
0.0
 11
25.874868453058
 21
131.364697571721
 31
0.0
  0
LINE
  5
FF
330
1D
100
AcDbEntity
  8
0
100
AcDbLine
 10
27.7321
 20
132.1675
 30
0.0
 11
29.083038934092
 21
132.639883722595
 31
0.0
  0
LINE
  5
100
330
1D
100
AcDbEntity
  8
0
100
AcDbLine
 10
27.5758
 20
132.0995
 30
0.0
 11
27.7321
 21
132.1675
 31
0.0
  0
LINE
  5
101
330
1D
100
AcDbEntity
  8
0
100
AcDbLine
 10
25.874868453058
 20
131.364697571721
 30
0.0
 11
27.5758
 21
132.0995
 31
0.0
  0
LINE
  5
107
330
1D
100
AcDbEntity
  8
0
100
AcDbLine
 10
16.8278
 20
125.3075
 30
0.0
 11
18.7654
 21
123.5115
 31
0.0
  0
LINE
  5
10B
330
1D
100
AcDbEntity
  8
0
100
AcDbLine
 10
0.6435
 20
128.9155
 30
0.0
 11
1.0495
 21
129.5045
 31
0.0
  0
LINE
  5
10C
330
1D
100
AcDbEntity
  8
0
100
AcDbLine
 10
10.2304
 20
136.6125
 30
0.0
 11
10.508142644188
 21
135.796319292281
 31
0.0
  0
LINE
  5
111
330
1D
100
AcDbEntity
  8
0
100
AcDbLine
 10
5.935404627651
 20
132.869766961697
 30
0.0
 11
6.0367
 21
166.3565
 31
0.0
  0
LINE
  5
116
330
1D
100
AcDbEntity
  8
0
100
AcDbLine
 10
29.083038934095
 20
132.639883722596
 30
0.0
 11
29.8422
 21
132.8345
 31
0.0
  0
LINE
  5
117
330
1D
100
AcDbEntity
  8
0
100
AcDbLine
 10
29.8422
 20
132.8345
 30
0.0
 11
30.7594
 21
133.0265
 31
0.0
  0
LINE
  5
118
330
1D
100
AcDbEntity
  8
0
100
AcDbLine
 10
30.7594
 20
133.0265
 30
0.0
 11
31.762966421187
 21
133.162078736721
 31
0.0
  0
LINE
  5
119
330
1D
100
AcDbEntity
  8
0
100
AcDbLine
 10
31.762966421182
 20
133.162078736721
 30
0.0
 11
33.9685
 21
133.2985
 31
0.0
  0
LINE
  5
11A
330
1D
100
AcDbEntity
  8
0
100
AcDbLine
 10
33.9685
 20
133.2985
 30
0.0
 11
36.4557
 21
133.2765
 31
0.0
  0
LINE
  5
124
330
1D
100
AcDbEntity
  8
0
100
AcDbLine
 10
40.47447400749
 20
133.143564764051
 30
0.0
 11
41.624895796334
 21
132.961349725261
 31
0.0
  0
LINE
  5
125
330
1D
100
AcDbEntity
  8
0
100
AcDbLine
 10
36.4557
 20
133.2765
 30
0.0
 11
37.53341031522
 21
133.286068307031
 31
0.0
  0
LINE
  5
126
330
1D
100
AcDbEntity
  8
0
100
AcDbLine
 10
39.438
 20
133.2245
 30
0.0
 11
40.474474007487
 21
133.143564764051
 31
0.0
  0
LINE
  5
127
330
1D
100
AcDbEntity
  8
0
100
AcDbLine
 10
41.624895796332
 20
132.961349725261
 30
0.0
 11
42.1591
 21
132.8345
 31
0.0
  0
LINE
  5
128
330
1D
100
AcDbEntity
  8
0
100
AcDbLine
 10
37.533410315212
 20
133.286068307031
 30
0.0
 11
39.438
 21
133.2245
 31
0.0
  0
LINE
  5
12D
330
1D
100
AcDbEntity
  8
0
100
AcDbLine
 10
42.93146129543
 20
132.636386660812
 30
0.0
 11
44.258912642776
 21
132.174956418301
 31
0.0
  0
LINE
  5
12E
330
1D
100
AcDbEntity
  8
0
100
AcDbLine
 10
42.1591
 20
132.8345
 30
0.0
 11
42.931461295428
 21
132.636386660812
 31
0.0
  0
LINE
  5
12F
330
1D
100
AcDbEntity
  8
0
100
AcDbLine
 10
44.258912642781
 20
132.174956418299
 30
0.0
 11
46.028903889898
 21
131.406771353377
 31
0.0
  0
LINE
  5
137
330
1D
100
AcDbEntity
  8
0
100
AcDbLine
 10
9.5997
 20
139.1815
 30
0.0
 11
10.2304
 21
136.6125
 31
0.0
  0
LINE
  5
13C
330
1D
100
AcDbEntity
  8
0
100
AcDbLine
 10
71.7145
 20
124.7625
 30
0.0
 11
71.9932
 21
126.0625
 31
0.0
  0
LINE
  5
13D
330
1D
100
AcDbEntity
  8
0
100
AcDbLine
 10
46.028903889897
 20
131.406771353377
 30
0.0
 11
46.5849
 21
131.1095
 31
0.0
  0
LINE
  5
141
330
1D
100
AcDbEntity
  8
0
100
AcDbLine
 10
55.1627
 20
125.3175
 30
0.0
 11
55.996231551406
 21
126.247322810421
 31
0.0
  0
LINE
  5
143
330
1D
100
AcDbEntity
  8
0
100
AcDbLine
 10
48.4569
 20
130.1875
 30
0.0
 11
64.5471
 21
121.7785
 31
0.0
  0
LINE
  5
144
330
1D
100
AcDbEntity
  8
0
100
AcDbLine
 10
46.5849
 20
131.1095
 30
0.0
 11
48.4569
 21
130.1875
 31
0.0
  0
LINE
  5
149
330
1D
100
AcDbEntity
  8
0
100
AcDbLine
 10
61.499263652542
 20
135.787766725982
 30
0.0
 11
61.7835
 21
136.6085
 31
0.0
  0
LINE
  5
14A
330
1D
100
AcDbEntity
  8
0
100
AcDbLine
 10
61.7835
 20
136.6085
 30
0.0
 11
62.3866
 21
139.1845
 31
0.0
  0
LINE
  5
152
330
1D
100
AcDbEntity
  8
0
100
AcDbLine
 10
62.3866
 20
139.1845
 30
0.0
 11
62.7637
 21
141.8025
 31
0.0
  0
LINE
  5
156
330
1D
100
AcDbEntity
  8
0
100
AcDbLine
 10
70.9508
 20
129.5045
 30
0.0
 11
71.3569
 21
128.9145
 31
0.0
  0
LINE
  5
157
330
1D
100
AcDbEntity
  8
0
100
AcDbLine
 10
71.3569
 20
128.9145
 30
0.0
 11
71.6088
 21
128.3975
 31
0.0
  0
LINE
  5
158
330
1D
100
AcDbEntity
  8
0
100
AcDbLine
 10
70.2921
 20
130.1555
 30
0.0
 11
70.9508
 21
129.5045
 31
0.0
  0
LINE
  5
15A
330
1D
100
AcDbEntity
  8
0
100
AcDbLine
 10
71.6088
 20
128.3975
 30
0.0
 11
71.8873
 21
127.4055
 31
0.0
  0
LINE
  5
15B
330
1D
100
AcDbEntity
  8
0
100
AcDbLine
 10
71.8873
 20
127.4055
 30
0.0
 11
71.9969
 21
126.3185
 31
0.0
  0
LINE
  5
15C
330
1D
100
AcDbEntity
  8
0
100
AcDbLine
 10
71.9932
 20
126.0625
 30
0.0
 11
71.9969
 21
126.3185
 31
0.0
  0
LINE
  5
15F
330
1D
100
AcDbEntity
  8
0
100
AcDbLine
 10
104.8277
 20
124.6075
 30
0.0
 11
105.0474
 21
165.0715
 31
0.0
  0
LINE
  5
160
330
1D
100
AcDbEntity
  8
0
100
AcDbLine
 10
104.8277
 20
124.6075
 30
0.0
 11
104.9414
 21
123.0455
 31
0.0
  0
LINE
  5
162
330
1D
100
AcDbEntity
  8
0
100
AcDbLine
 10
17.6428
 20
140.3625
 30
0.0
 11
19.3646
 21
141.4975
 31
0.0
  0
LINE
  5
163
330
1D
100
AcDbEntity
  8
0
100
AcDbLine
 10
19.745499475882
 20
141.735211885603
 30
0.0
 11
21.3459
 21
142.9295
 31
0.0
  0
LINE
  5
164
330
1D
100
AcDbEntity
  8
0
100
AcDbLine
 10
19.3646
 20
141.4975
 30
0.0
 11
19.745499475884
 21
141.735211885604
 31
0.0
  0
LINE
  5
165
330
1D
100
AcDbEntity
  8
0
100
AcDbLine
 10
9.2365
 20
141.8025
 30
0.0
 11
9.5997
 21
139.1815
 31
0.0
  0
LINE
  5
16B
330
1D
100
AcDbEntity
  8
0
100
AcDbLine
 10
52.4167
 20
141.6565
 30
0.0
 11
54.3574
 21
140.3625
 31
0.0
  0
LINE
  5
16E
330
1D
100
AcDbEntity
  8
0
100
AcDbLine
 10
54.3574
 20
140.3625
 30
0.0
 11
70.2921
 21
130.1555
 31
0.0
  0
LINE
  5
171
330
1D
100
AcDbEntity
  8
0
100
AcDbLine
 10
62.7637
 20
141.8025
 30
0.0
 11
62.855
 21
144.4455
 31
0.0
  0
LINE
  5
180
330
1D
100
AcDbEntity
  8
0
100
AcDbLine
 10
109.154068069713
 20
137.40469327524
 30
0.0
 11
109.3229
 21
136.7335
 31
0.0
  0
LINE
  5
185
330
1D
100
AcDbEntity
  8
0
100
AcDbLine
 10
109.154068069713
 20
137.40469327524
 30
0.0
 11
109.3229
 21
136.7335
 31
0.0
  0
LINE
  5
190
330
1D
100
AcDbEntity
  8
0
100
AcDbLine
 10
110.2148
 20
134.2435
 30
0.0
 11
111.3437
 21
131.8555
 31
0.0
  0
LINE
  5
191
330
1D
100
AcDbEntity
  8
0
100
AcDbLine
 10
109.3234
 20
136.7325
 30
0.0
 11
110.2148
 21
134.2435
 31
0.0
  0
LINE
  5
192
330
1D
100
AcDbEntity
  8
0
100
AcDbLine
 10
108.677
 20
139.2985
 30
0.0
 11
109.3234
 21
136.7325
 31
0.0
  0
LINE
  5
193
330
1D
100
AcDbEntity
  8
0
100
AcDbLine
 10
21.4823
 20
143.0315
 30
0.0
 11
23.1098
 21
144.5295
 31
0.0
  0
LINE
  5
194
330
1D
100
AcDbEntity
  8
0
100
AcDbLine
 10
21.3459
 20
142.9295
 30
0.0
 11
21.4823
 21
143.0315
 31
0.0
  0
LINE
  5
199
330
1D
100
AcDbEntity
  8
0
100
AcDbLine
 10
51.9012
 20
141.9965
 30
0.0
 11
52.4167
 21
141.6565
 31
0.0
  0
LINE
  5
19A
330
1D
100
AcDbEntity
  8
0
100
AcDbLine
 10
50.6543
 20
142.9295
 30
0.0
 11
51.9012
 21
141.9965
 31
0.0
  0
LINE
  5
19C
330
1D
100
AcDbEntity
  8
0
100
AcDbLine
 10
9.131
 20
144.4465
 30
0.0
 11
9.2842
 21
147.0885
 31
0.0
  0
LINE
  5
19D
330
1D
100
AcDbEntity
  8
0
100
AcDbLine
 10
9.131
 20
144.4465
 30
0.0
 11
9.2365
 21
141.8025
 31
0.0
  0
LINE
  5
1A6
330
1D
100
AcDbEntity
  8
0
100
AcDbLine
 10
22.583242966584
 20
143.987629227358
 30
0.0
 11
22.583242966584
 21
143.987629227358
 31
0.0
  0
LINE
  5
1A7
330
1D
100
AcDbEntity
  8
0
100
AcDbLine
 10
49.402734839267
 20
143.998733416926
 30
0.0
 11
50.6543
 21
142.9295
 31
0.0
  0
LINE
  5
1A9
330
1D
100
AcDbEntity
  8
0
100
AcDbLine
 10
23.1098
 20
144.5295
 30
0.0
 11
24.142
 21
145.7305
 31
0.0
  0
LINE
  5
1AA
330
1D
100
AcDbEntity
  8
0
100
AcDbLine
 10
48.8907
 20
144.5285
 30
0.0
 11
49.402734839267
 21
143.998733416926
 31
0.0
  0
LINE
  5
1AB
330
1D
100
AcDbEntity
  8
0
100
AcDbLine
 10
48.8907
 20
144.5285
 30
0.0
 11
49.402734839267
 21
143.998733416926
 31
0.0
  0
LINE
  5
1B6
330
1D
100
AcDbEntity
  8
0
100
AcDbLine
 10
108.2831
 20
141.9145
 30
0.0
 11
108.677
 21
139.2985
 31
0.0
  0
LINE
  5
1C1
330
1D
100
AcDbEntity
  8
0
100
AcDbLine
 10
116.0328
 20
125.5175
 30
0.0
 11
117.9796
 21
123.7475
 31
0.0
  0
LINE
  5
1C7
330
1D
100
AcDbEntity
  8
0
100
AcDbLine
 10
112.6982
 20
129.5905
 30
0.0
 11
114.2662
 21
127.4715
 31
0.0
  0
LINE
  5
1C8
330
1D
100
AcDbEntity
  8
0
100
AcDbLine
 10
114.2662
 20
127.4715
 30
0.0
 11
116.0328
 21
125.5175
 31
0.0
  0
LINE
  5
1C9
330
1D
100
AcDbEntity
  8
0
100
AcDbLine
 10
111.3437
 20
131.8555
 30
0.0
 11
112.6982
 21
129.5905
 31
0.0
  0
LINE
  5
1CF
330
1D
100
AcDbEntity
  8
0
100
AcDbLine
 10
24.142
 20
145.7305
 30
0.0
 11
24.7402
 21
146.5975
 31
0.0
  0
LINE
  5
1D0
330
1D
100
AcDbEntity
  8
0
100
AcDbLine
 10
24.7402
 20
146.5975
 30
0.0
 11
25.6931
 21
148.1215
 31
0.0
  0
LINE
  5
1D1
330
1D
100
AcDbEntity
  8
0
100
AcDbLine
 10
47.7241
 20
145.8915
 30
0.0
 11
48.8907
 21
144.5285
 31
0.0
  0
LINE
  5
1D7
330
1D
100
AcDbEntity
  8
0
100
AcDbLine
 10
9.2842
 20
147.0885
 30
0.0
 11
9.6952
 21
149.7025
 31
0.0
  0
LINE
  5
1DF
330
1D
100
AcDbEntity
  8
0
100
AcDbLine
 10
62.716
 20
147.0885
 30
0.0
 11
62.855
 21
144.4455
 31
0.0
  0
LINE
  5
1E4
330
1D
100
AcDbEntity
  8
0
100
AcDbLine
 10
108.1455
 20
144.5595
 30
0.0
 11
108.197148912633
 21
143.572083333316
 31
0.0
  0
LINE
  5
1E5
330
1D
100
AcDbEntity
  8
0
100
AcDbLine
 10
108.1455
 20
144.5595
 30
0.0
 11
108.197148912633
 21
143.572083333316
 31
0.0
  0
LINE
  5
1E6
330
1D
100
AcDbEntity
  8
0
100
AcDbLine
 10
108.146
 20
144.5585
 30
0.0
 11
108.2831
 21
141.9145
 31
0.0
  0
LINE
  5
1E7
330
1D
100
AcDbEntity
  8
0
100
AcDbLine
 10
108.146
 20
144.5585
 30
0.0
 11
108.2644
 21
147.2025
 31
0.0
  0
LINE
  5
1F2
330
1D
100
AcDbEntity
  8
0
100
AcDbLine
 10
25.6931
 20
148.1215
 30
0.0
 11
26.5825
 21
149.6895
 31
0.0
  0
LINE
  5
1F3
330
1D
100
AcDbEntity
  8
0
100
AcDbLine
 10
46.734
 20
147.3885
 30
0.0
 11
47.7611
 21
145.8555
 31
0.0
  0
LINE
  5
1FA
330
1D
100
AcDbEntity
  8
0
100
AcDbLine
 10
9.6952
 20
149.7025
 30
0.0
 11
10.359
 21
152.2635
 31
0.0
  0
LINE
  5
201
330
1D
100
AcDbEntity
  8
0
100
AcDbLine
 10
26.5825
 20
149.6895
 30
0.0
 11
28.1381
 21
152.4325
 31
0.0
  0
LINE
  5
208
330
1D
100
AcDbEntity
  8
0
100
AcDbLine
 10
62.305
 20
149.7025
 30
0.0
 11
62.716
 21
147.0885
 31
0.0
  0
LINE
  5
213
330
1D
100
AcDbEntity
  8
0
100
AcDbLine
 10
108.2644
 20
147.2025
 30
0.0
 11
108.6397
 21
149.8245
 31
0.0
  0
LINE
  5
214
330
1D
100
AcDbEntity
  8
0
100
AcDbLine
 10
108.6397
 20
149.8245
 30
0.0
 11
109.2666
 21
152.3945
 31
0.0
  0
LINE
  5
219
330
1D
100
AcDbEntity
  8
0
100
AcDbLine
 10
117.9796
 20
123.7475
 30
0.0
 11
120.0899
 21
122.1805
 31
0.0
  0
LINE
  5
220
330
1D
100
AcDbEntity
  8
0
100
AcDbLine
 10
61.6412
 20
152.2635
 30
0.0
 11
62.305
 21
149.7025
 31
0.0
  0
LINE
  5
224
330
1D
100
AcDbEntity
  8
0
100
AcDbLine
 10
10.359
 20
152.2635
 30
0.0
 11
11.2706
 21
154.7475
 31
0.0
  0
LINE
  5
227
330
1D
100
AcDbEntity
  8
0
100
AcDbLine
 10
43.9362
 20
152.3205
 30
0.0
 11
45.6587
 21
149.2695
 31
0.0
  0
LINE
  5
22A
330
1D
100
AcDbEntity
  8
0
100
AcDbLine
 10
28.1381
 20
152.4325
 30
0.0
 11
28.673349824146
 21
153.56189021574
 31
0.0
  0
LINE
  5
22F
330
1D
100
AcDbEntity
  8
0
100
AcDbLine
 10
28.673349824146
 20
153.56189021574
 30
0.0
 11
29.126245227862
 21
154.744310670544
 31
0.0
  0
LINE
  5
233
330
1D
100
AcDbEntity
  8
0
100
AcDbLine
 10
29.126245227862
 20
154.744310670544
 30
0.0
 11
29.488597552052
 21
156.027854125053
 31
0.0
  0
LINE
  5
235
330
1D
100
AcDbEntity
  8
0
100
AcDbLine
 10
11.2706
 20
154.7475
 30
0.0
 11
12.4191
 21
157.1295
 31
0.0
  0
LINE
  5
23B
330
1D
100
AcDbEntity
  8
0
100
AcDbLine
 10
43.429351740044
 20
153.313560025692
 30
0.0
 11
43.9362
 21
152.3205
 31
0.0
  0
LINE
  5
23C
330
1D
100
AcDbEntity
  8
0
100
AcDbLine
 10
42.871321833865
 20
154.753637202929
 30
0.0
 11
43.429351740044
 21
153.313560025692
 31
0.0
  0
LINE
  5
244
330
1D
100
AcDbEntity
  8
0
100
AcDbLine
 10
60.7296
 20
154.7475
 30
0.0
 11
61.6412
 21
152.2635
 31
0.0
  0
LINE
  5
257
330
1D
100
AcDbEntity
  8
0
100
AcDbLine
 10
109.2666
 20
152.3945
 30
0.0
 11
110.1402
 21
154.8915
 31
0.0
  0
LINE
  5
258
330
1D
100
AcDbEntity
  8
0
100
AcDbLine
 10
110.1402
 20
154.8915
 30
0.0
 11
111.2514
 21
157.2885
 31
0.0
  0
LINE
  5
25F
330
1D
100
AcDbEntity
  8
0
100
AcDbLine
 10
120.0899
 20
122.1805
 30
0.0
 11
122.341
 21
120.8295
 31
0.0
  0
LINE
  5
260
330
1D
100
AcDbEntity
  8
0
100
AcDbLine
 10
119.537456836778
 20
122.590715816125
 30
0.0
 11
120.0896
 21
122.1805
 31
0.0
  0
LINE
  5
262
330
1D
100
AcDbEntity
  8
0
100
AcDbLine
 10
119.537456836778
 20
122.590715816125
 30
0.0
 11
120.0896
 21
122.1805
 31
0.0
  0
LINE
  5
26B
330
1D
100
AcDbEntity
  8
0
100
AcDbLine
 10
29.488597552052
 20
156.027854125053
 30
0.0
 11
29.7493
 21
157.4035
 31
0.0
  0
LINE
  5
26C
330
1D
100
AcDbEntity
  8
0
100
AcDbLine
 10
42.511602447948
 20
156.027854125053
 30
0.0
 11
42.871321833865
 21
154.753637202929
 31
0.0
  0
LINE
  5
26D
330
1D
100
AcDbEntity
  8
0
100
AcDbLine
 10
29.7493
 20
157.4035
 30
0.0
 11
29.985326922702
 21
159.382559318818
 31
0.0
  0
LINE
  5
26E
330
1D
100
AcDbEntity
  8
0
100
AcDbLine
 10
42.511602447948
 20
156.027854125053
 30
0.0
 11
42.871321833865
 21
154.753637202929
 31
0.0
  0
LINE
  5
271
330
1D
100
AcDbEntity
  8
0
100
AcDbLine
 10
12.4191
 20
157.1295
 30
0.0
 11
13.7954
 21
159.3865
 31
0.0
  0
LINE
  5
278
330
1D
100
AcDbEntity
  8
0
100
AcDbLine
 10
59.5811
 20
157.1295
 30
0.0
 11
60.7296
 21
154.7475
 31
0.0
  0
LINE
  5
27B
330
1D
100
AcDbEntity
  8
0
100
AcDbLine
 10
29.7493
 20
157.4035
 30
0.0
 11
29.761824058954
 21
157.463648115743
 31
0.0
  0
LINE
  5
27D
330
1D
100
AcDbEntity
  8
0
100
AcDbLine
 10
42.2509
 20
157.4035
 30
0.0
 11
42.511602447948
 21
156.027854125053
 31
0.0
  0
LINE
  5
283
330
1D
100
AcDbEntity
  8
0
100
AcDbLine
 10
29.985326922702
 20
159.382559318819
 30
0.0
 11
29.9943
 21
159.5555
 31
0.0
  0
LINE
  5
284
330
1D
100
AcDbEntity
  8
0
100
AcDbLine
 10
42.23
 20
157.5745
 30
0.0
 11
42.2509
 21
157.4035
 31
0.0
  0
LINE
  5
28C
330
1D
100
AcDbEntity
  8
0
100
AcDbLine
 10
111.2514
 20
157.2885
 30
0.0
 11
112.5899
 21
159.5655
 31
0.0
  0
LINE
  5
292
330
1D
100
AcDbEntity
  8
0
100
AcDbLine
 10
122.341
 20
120.8295
 30
0.0
 11
124.7129
 21
119.7075
 31
0.0
  0
LINE
  5
293
330
1D
100
AcDbEntity
  8
0
100
AcDbLine
 10
124.7785
 20
124.7225
 30
0.0
 11
124.7964
 21
129.2405
 31
0.0
  0
LINE
  5
294
330
1D
100
AcDbEntity
  8
0
100
AcDbLine
 10
124.7964
 20
129.2405
 30
0.0
 11
124.8118
 21
133.1905
 31
0.0
  0
LINE
  5
299
330
1D
100
AcDbEntity
  8
0
100
AcDbLine
 10
124.8118
 20
133.1905
 30
0.0
 11
124.8227
 21
136.5115
 31
0.0
  0
LINE
  5
2A3
330
1D
100
AcDbEntity
  8
0
100
AcDbLine
 10
13.7954
 20
159.3865
 30
0.0
 11
15.3857
 21
161.4975
 31
0.0
  0
LINE
  5
2A4
330
1D
100
AcDbEntity
  8
0
100
AcDbLine
 10
29.9943
 20
159.5555
 30
0.0
 11
30.0355
 21
160.3465
 31
0.0
  0
LINE
  5
2A5
330
1D
100
AcDbEntity
  8
0
100
AcDbLine
 10
42.010291595157
 20
159.506643818889
 30
0.0
 11
42.23
 21
157.5745
 31
0.0
  0
LINE
  5
2A8
330
1D
100
AcDbEntity
  8
0
100
AcDbLine
 10
58.2048
 20
159.3865
 30
0.0
 11
59.5811
 21
157.1295
 31
0.0
  0
LINE
  5
2B3
330
1D
100
AcDbEntity
  8
0
100
AcDbLine
 10
30.0355
 20
160.3465
 30
0.0
 11
30.1299
 21
162.1415
 31
0.0
  0
LINE
  5
2B8
330
1D
100
AcDbEntity
  8
0
100
AcDbLine
 10
41.9032
 20
161.3315
 30
0.0
 11
41.907046072036
 21
161.054442531146
 31
0.0
  0
LINE
  5
2BA
330
1D
100
AcDbEntity
  8
0
100
AcDbLine
 10
41.9032
 20
161.3315
 30
0.0
 11
41.9287
 21
160.5115
 31
0.0
  0
LINE
  5
2BB
330
1D
100
AcDbEntity
  8
0
100
AcDbLine
 10
15.3857
 20
161.4975
 30
0.0
 11
17.1741
 21
163.4425
 31
0.0
  0
LINE
  5
2C1
330
1D
100
AcDbEntity
  8
0
100
AcDbLine
 10
41.9287
 20
160.5115
 30
0.0
 11
42.010291595157
 21
159.506643818889
 31
0.0
  0
LINE
  5
2C9
330
1D
100
AcDbEntity
  8
0
100
AcDbLine
 10
56.6145
 20
161.4975
 30
0.0
 11
58.2048
 21
159.3865
 31
0.0
  0
LINE
  5
2D3
330
1D
100
AcDbEntity
  8
0
100
AcDbLine
 10
112.5899
 20
159.5655
 30
0.0
 11
114.142
 21
161.6985
 31
0.0
  0
LINE
  5
2DA
330
1D
100
AcDbEntity
  8
0
100
AcDbLine
 10
41.854
 20
162.3845
 30
0.0
 11
41.9032
 21
161.3315
 31
0.0
  0
LINE
  5
2DB
330
1D
100
AcDbEntity
  8
0
100
AcDbLine
 10
17.1741
 20
163.4425
 30
0.0
 11
19.1436
 21
165.2015
 31
0.0
  0
LINE
  5
2DE
330
1D
100
AcDbEntity
  8
0
100
AcDbLine
 10
30.1299
 20
162.1415
 30
0.0
 11
30.9231
 21
180.1925
 31
0.0
  0
LINE
  5
2E3
330
1D
100
AcDbEntity
  8
0
100
AcDbLine
 10
54.8261
 20
163.4425
 30
0.0
 11
56.6145
 21
161.4975
 31
0.0
  0
LINE
  5
2E4
330
1D
100
AcDbEntity
  8
0
100
AcDbLine
 10
52.8479
 20
165.1905
 30
0.0
 11
54.8261
 21
163.4425
 31
0.0
  0
LINE
  5
2E5
330
1D
100
AcDbEntity
  8
0
100
AcDbLine
 10
19.1436
 20
165.2015
 30
0.0
 11
21.2763
 21
166.7585
 31
0.0
  0
LINE
  5
2E9
330
1D
100
AcDbEntity
  8
0
100
AcDbLine
 10
66.0917
 20
164.4255
 30
0.0
 11
66.0917
 21
132.846073578417
 31
0.0
  0
LINE
  5
2EA
330
1D
100
AcDbEntity
  8
0
100
AcDbLine
 10
105.0474
 20
165.0715
 30
0.0
 11
105.1774
 21
166.6325
 31
0.0
  0
LINE
  5
2F5
330
1D
100
AcDbEntity
  8
0
100
AcDbLine
 10
114.142
 20
161.6985
 30
0.0
 11
115.8946
 21
163.6685
 31
0.0
  0
LINE
  5
2F6
330
1D
100
AcDbEntity
  8
0
100
AcDbLine
 10
115.8946
 20
163.6685
 30
0.0
 11
117.8293
 21
165.4545
 31
0.0
  0
LINE
  5
2FB
330
1D
100
AcDbEntity
  8
0
100
AcDbLine
 10
6.0367
 20
166.3565
 30
0.0
 11
6.9923
 21
168.9545
 31
0.0
  0
LINE
  5
2FC
330
1D
100
AcDbEntity
  8
0
100
AcDbLine
 10
21.2763
 20
166.7585
 30
0.0
 11
23.5503
 21
168.0995
 31
0.0
  0
LINE
  5
300
330
1D
100
AcDbEntity
  8
0
100
AcDbLine
 10
23.5503
 20
168.0995
 30
0.0
 11
25.9437
 21
169.2075
 31
0.0
  0
LINE
  5
302
330
1D
100
AcDbEntity
  8
0
100
AcDbLine
 10
50.7239
 20
166.7585
 30
0.0
 11
52.8479
 21
165.1905
 31
0.0
  0
LINE
  5
307
330
1D
100
AcDbEntity
  8
0
100
AcDbLine
 10
48.4499
 20
168.0995
 30
0.0
 11
50.7239
 21
166.7585
 31
0.0
  0
LINE
  5
30D
330
1D
100
AcDbEntity
  8
0
100
AcDbLine
 10
65.3625
 20
168.2555
 30
0.0
 11
65.9692
 21
165.9865
 31
0.0
  0
LINE
  5
30E
330
1D
100
AcDbEntity
  8
0
100
AcDbLine
 10
65.9692
 20
165.9865
 30
0.0
 11
66.0917
 21
164.4255
 31
0.0
  0
LINE
  5
30F
330
1D
100
AcDbEntity
  8
0
100
AcDbLine
 10
105.5465
 20
168.1525
 30
0.0
 11
106.148
 21
169.5965
 31
0.0
  0
LINE
  5
310
330
1D
100
AcDbEntity
  8
0
100
AcDbLine
 10
105.1774
 20
166.6325
 30
0.0
 11
105.5465
 21
168.1525
 31
0.0
  0
LINE
  5
31B
330
1D
100
AcDbEntity
  8
0
100
AcDbLine
 10
117.8293
 20
165.4545
 30
0.0
 11
119.9275
 21
167.0415
 31
0.0
  0
LINE
  5
31E
330
1D
100
AcDbEntity
  8
0
100
AcDbLine
 10
122.1685
 20
168.4115
 30
0.0
 11
124.533
 21
169.5535
 31
0.0
  0
LINE
  5
31F
330
1D
100
AcDbEntity
  8
0
100
AcDbLine
 10
119.9275
 20
167.0415
 30
0.0
 11
122.1685
 21
168.4115
 31
0.0
  0
LINE
  5
323
330
1D
100
AcDbEntity
  8
0
100
AcDbLine
 10
124.8293
 20
142.2405
 30
0.0
 11
124.8311
 21
141.0695
 31
0.0
  0
LINE
  5
324
330
1D
100
AcDbEntity
  8
0
100
AcDbLine
 10
124.829
 20
139.1505
 30
0.0
 11
124.8311
 21
141.0695
 31
0.0
  0
LINE
  5
325
330
1D
100
AcDbEntity
  8
0
100
AcDbLine
 10
124.8227
 20
136.5115
 30
0.0
 11
124.829
 21
139.1505
 31
0.0
  0
LINE
  5
344
330
1D
100
AcDbEntity
  8
0
100
AcDbLine
 10
134.2904
 20
156.1355
 30
0.0
 11
134.397
 21
156.0895
 31
0.0
  0
LINE
  5
345
330
1D
100
AcDbEntity
  8
0
100
AcDbLine
 10
134.412997998606
 20
156.089487053493
 30
0.0
 11
134.5501
 21
156.0405
 31
0.0
  0
LINE
  5
346
330
1D
100
AcDbEntity
  8
0
100
AcDbLine
 10
134.5501
 20
156.0405
 30
0.0
 11
135.1744
 21
156.0255
 31
0.0
  0
LINE
  5
357
330
1D
100
AcDbEntity
  8
0
100
AcDbLine
 10
133.884
 20
156.2785
 30
0.0
 11
134.381531448121
 21
156.100730168664
 31
0.0
  0
LINE
  5
35C
330
1D
100
AcDbEntity
  8
0
100
AcDbLine
 10
133.4297
 20
156.6195
 30
0.0
 11
133.884
 21
156.2785
 31
0.0
  0
LINE
  5
364
330
1D
100
AcDbEntity
  8
0
100
AcDbLine
 10
132.9486
 20
157.3365
 30
0.0
 11
133.4297
 21
156.6195
 31
0.0
  0
LINE
  5
36D
330
1D
100
AcDbEntity
  8
0
100
AcDbLine
 10
133.0312
 20
158.4035
 30
0.0
 11
133.0454
 21
159.5905
 31
0.0
  0
LINE
  5
36E
330
1D
100
AcDbEntity
  8
0
100
AcDbLine
 10
132.7867
 20
158.2165
 30
0.0
 11
132.9486
 21
157.3365
 31
0.0
  0
LINE
  5
36F
330
1D
100
AcDbEntity
  8
0
100
AcDbLine
 10
132.7867
 20
158.2165
 30
0.0
 11
133.039219267592
 21
159.073843002197
 31
0.0
  0
LINE
  5
378
330
1D
100
AcDbEntity
  8
0
100
AcDbLine
 10
133.0454
 20
159.5905
 30
0.0
 11
133.0547
 21
161.3705
 31
0.0
  0
LINE
  5
37E
330
1D
100
AcDbEntity
  8
0
100
AcDbLine
 10
133.0547
 20
161.3705
 30
0.0
 11
133.058
 21
163.4735
 31
0.0
  0
LINE
  5
382
330
1D
100
AcDbEntity
  8
0
100
AcDbLine
 10
133.058
 20
163.4735
 30
0.0
 11
133.058448177271
 21
164.967560048113
 31
0.0
  0
LINE
  5
386
330
1D
100
AcDbEntity
  8
0
100
AcDbLine
 10
134.9415
 20
164.9645
 30
0.0
 11
135.3507
 21
164.9645
 31
0.0
  0
LINE
  5
387
330
1D
100
AcDbEntity
  8
0
100
AcDbLine
 10
134.5342
 20
164.9645
 30
0.0
 11
134.9415
 21
164.9645
 31
0.0
  0
LINE
  5
388
330
1D
100
AcDbEntity
  8
0
100
AcDbLine
 10
134.1374
 20
164.9655
 30
0.0
 11
134.5342
 21
164.9645
 31
0.0
  0
LINE
  5
38F
330
1D
100
AcDbEntity
  8
0
100
AcDbLine
 10
133.4013
 20
164.9655
 30
0.0
 11
133.7566
 21
164.9655
 31
0.0
  0
LINE
  5
390
330
1D
100
AcDbEntity
  8
0
100
AcDbLine
 10
132.0998
 20
164.9735
 30
0.0
 11
132.195
 21
164.9715
 31
0.0
  0
LINE
  5
391
330
1D
100
AcDbEntity
  8
0
100
AcDbLine
 10
132.7884
 20
164.9685
 30
0.0
 11
133.0757
 21
164.9675
 31
0.0
  0
LINE
  5
392
330
1D
100
AcDbEntity
  8
0
100
AcDbLine
 10
132.5418
 20
164.9695
 30
0.0
 11
132.7884
 21
164.9685
 31
0.0
  0
LINE
  5
393
330
1D
100
AcDbEntity
  8
0
100
AcDbLine
 10
132.3431
 20
164.9705
 30
0.0
 11
132.5418
 21
164.9695
 31
0.0
  0
LINE
  5
394
330
1D
100
AcDbEntity
  8
0
100
AcDbLine
 10
132.195
 20
164.9715
 30
0.0
 11
132.3431
 21
164.9705
 31
0.0
  0
LINE
  5
395
330
1D
100
AcDbEntity
  8
0
100
AcDbLine
 10
133.0152
 20
165.4655
 30
0.0
 11
133.3866
 21
165.4645
 31
0.0
  0
LINE
  5
396
330
1D
100
AcDbEntity
  8
0
100
AcDbLine
 10
132.6751
 20
165.4655
 30
0.0
 11
133.0152
 21
165.4655
 31
0.0
  0
LINE
  5
397
330
1D
100
AcDbEntity
  8
0
100
AcDbLine
 10
132.3727
 20
165.4675
 30
0.0
 11
132.6751
 21
165.4655
 31
0.0
  0
LINE
  5
398
330
1D
100
AcDbEntity
  8
0
100
AcDbLine
 10
132.112
 20
165.4685
 30
0.0
 11
132.3727
 21
165.4675
 31
0.0
  0
LINE
  5
399
330
1D
100
AcDbEntity
  8
0
100
AcDbLine
 10
131.8989
 20
165.4695
 30
0.0
 11
132.112
 21
165.4685
 31
0.0
  0
LINE
  5
39A
330
1D
100
AcDbEntity
  8
0
100
AcDbLine
 10
131.7347
 20
165.4715
 30
0.0
 11
131.8989
 21
165.4695
 31
0.0
  0
LINE
  5
39B
330
1D
100
AcDbEntity
  8
0
100
AcDbLine
 10
131.6242
 20
165.4725
 30
0.0
 11
131.7347
 21
165.4715
 31
0.0
  0
LINE
  5
39C
330
1D
100
AcDbEntity
  8
0
100
AcDbLine
 10
131.5667
 20
165.4745
 30
0.0
 11
131.6242
 21
165.4725
 31
0.0
  0
LINE
  5
39D
330
1D
100
AcDbEntity
  8
0
100
AcDbLine
 10
131.5667
 20
165.4745
 30
0.0
 11
132.0594
 21
164.9745
 31
0.0
  0
LINE
  5
39E
330
1D
100
AcDbEntity
  8
0
100
AcDbLine
 10
131.5649
 20
165.4755
 30
0.0
 11
131.5691
 21
179.4755
 31
0.0
  0
LINE
  5
3A3
330
1D
100
AcDbEntity
  8
0
100
AcDbLine
 10
134.6364
 20
165.4635
 30
0.0
 11
135.075
 21
165.4625
 31
0.0
  0
LINE
  5
3A4
330
1D
100
AcDbEntity
  8
0
100
AcDbLine
 10
134.2039
 20
165.4635
 30
0.0
 11
134.6364
 21
165.4635
 31
0.0
  0
LINE
  5
3A5
330
1D
100
AcDbEntity
  8
0
100
AcDbLine
 10
133.7856
 20
165.4635
 30
0.0
 11
134.2039
 21
165.4635
 31
0.0
  0
LINE
  5
3A6
330
1D
100
AcDbEntity
  8
0
100
AcDbLine
 10
133.3866
 20
165.4645
 30
0.0
 11
133.7856
 21
165.4635
 31
0.0
  0
LINE
  5
3A8
330
1D
100
AcDbEntity
  8
0
100
AcDbLine
 10
133.0757
 20
164.9675
 30
0.0
 11
133.4013
 21
164.9655
 31
0.0
  0
LINE
  5
3A9
330
1D
100
AcDbEntity
  8
0
100
AcDbLine
 10
133.7566
 20
164.9655
 30
0.0
 11
134.1374
 21
164.9655
 31
0.0
  0
LINE
  5
3CA
330
1D
100
AcDbEntity
  8
0
100
AcDbLine
 10
124.8232
 20
142.6465
 30
0.0
 11
124.8393
 21
145.6315
 31
0.0
  0
LINE
  5
3CB
330
1D
100
AcDbEntity
  8
0
100
AcDbLine
 10
124.8232
 20
142.6465
 30
0.0
 11
124.84568817324
 21
142.567434635306
 31
0.0
  0
LINE
  5
3CC
330
1D
100
AcDbEntity
  8
0
100
AcDbLine
 10
124.8223
 20
142.6455
 30
0.0
 11
124.8293
 21
142.2405
 31
0.0
  0
LINE
  5
3CD
330
1D
100
AcDbEntity
  8
0
100
AcDbLine
 10
124.8223
 20
142.6455
 30
0.0
 11
124.8393
 21
145.6315
 31
0.0
  0
LINE
  5
3CE
330
1D
100
AcDbEntity
  8
0
100
AcDbLine
 10
124.8223
 20
142.6455
 30
0.0
 11
124.845683812428
 21
142.563404848438
 31
0.0
  0
LINE
  5
432
330
1D
100
AcDbEntity
  8
0
100
AcDbLine
 10
6.9923
 20
168.9545
 30
0.0
 11
7.8074
 21
170.2885
 31
0.0
  0
LINE
  5
433
330
1D
100
AcDbEntity
  8
0
100
AcDbLine
 10
25.9437
 20
169.2075
 30
0.0
 11
28.4357
 21
170.0765
 31
0.0
  0
LINE
  5
435
330
1D
100
AcDbEntity
  8
0
100
AcDbLine
 10
46.0565
 20
169.2075
 30
0.0
 11
48.4499
 21
168.0995
 31
0.0
  0
LINE
  5
443
330
1D
100
AcDbEntity
  8
0
100
AcDbLine
 10
106.148
 20
169.5965
 30
0.0
 11
106.9638
 21
170.9275
 31
0.0
  0
LINE
  5
444
330
1D
100
AcDbEntity
  8
0
100
AcDbLine
 10
7.8074
 20
170.2885
 30
0.0
 11
8.8195
 21
171.4795
 31
0.0
  0
LINE
  5
445
330
1D
100
AcDbEntity
  8
0
100
AcDbLine
 10
28.4357
 20
170.0765
 30
0.0
 11
30.500524576755
 21
170.575872459661
 31
0.0
  0
LINE
  5
446
330
1D
100
AcDbEntity
  8
0
100
AcDbLine
 10
43.5645
 20
170.0765
 30
0.0
 11
46.0565
 21
169.2075
 31
0.0
  0
LINE
  5
44D
330
1D
100
AcDbEntity
  8
0
100
AcDbLine
 10
41.490055400864
 20
170.566125482795
 30
0.0
 11
43.5645
 21
170.0765
 31
0.0
  0
LINE
  5
456
330
1D
100
AcDbEntity
  8
0
100
AcDbLine
 10
64.1928
 20
170.2885
 30
0.0
 11
65.3625
 21
168.2555
 31
0.0
  0
LINE
  5
457
330
1D
100
AcDbEntity
  8
0
100
AcDbLine
 10
106.9638
 20
170.9275
 30
0.0
 11
107.9763
 21
172.1135
 31
0.0
  0
LINE
  5
462
330
1D
100
AcDbEntity
  8
0
100
AcDbLine
 10
124.533
 20
169.5535
 30
0.0
 11
126.9955
 21
170.4565
 31
0.0
  0
LINE
  5
463
330
1D
100
AcDbEntity
  8
0
100
AcDbLine
 10
126.9955
 20
170.4565
 30
0.0
 11
129.5346
 21
171.1105
 31
0.0
  0
LINE
  5
464
330
1D
100
AcDbEntity
  8
0
100
AcDbLine
 10
129.5346
 20
171.1105
 30
0.0
 11
131.566684679732
 21
171.424432439322
 31
0.0
  0
LINE
  5
46A
330
1D
100
AcDbEntity
  8
0
100
AcDbLine
 10
8.8195
 20
171.4795
 30
0.0
 11
10.0057
 21
172.4955
 31
0.0
  0
LINE
  5
46B
330
1D
100
AcDbEntity
  8
0
100
AcDbLine
 10
63.1807
 20
171.4795
 30
0.0
 11
64.1928
 21
170.2885
 31
0.0
  0
LINE
  5
47D
330
1D
100
AcDbEntity
  8
0
100
AcDbLine
 10
10.0057
 20
172.4955
 30
0.0
 11
12.0294
 21
173.6685
 31
0.0
  0
LINE
  5
482
330
1D
100
AcDbEntity
  8
0
100
AcDbLine
 10
12.0294
 20
173.6685
 30
0.0
 11
14.293
 21
174.2775
 31
0.0
  0
LINE
  5
484
330
1D
100
AcDbEntity
  8
0
100
AcDbLine
 10
60.6649
 20
173.3135
 30
0.0
 11
61.9945
 21
172.4955
 31
0.0
  0
LINE
  5
486
330
1D
100
AcDbEntity
  8
0
100
AcDbLine
 10
61.9945
 20
172.4955
 30
0.0
 11
63.1807
 21
171.4795
 31
0.0
  0
LINE
  5
48A
330
1D
100
AcDbEntity
  8
0
100
AcDbLine
 10
41.319490285224
 20
174.4005
 30
0.0
 11
56.1527
 21
174.4005
 31
0.0
  0
LINE
  5
48B
330
1D
100
AcDbEntity
  8
0
100
AcDbLine
 10
15.8475
 20
174.4005
 30
0.0
 11
30.668586986871
 21
174.4005
 31
0.0
  0
LINE
  5
48C
330
1D
100
AcDbEntity
  8
0
100
AcDbLine
 10
14.293
 20
174.2775
 30
0.0
 11
15.8475
 21
174.4005
 31
0.0
  0
LINE
  5
48D
330
1D
100
AcDbEntity
  8
0
100
AcDbLine
 10
30.9231
 20
180.1925
 30
0.0
 11
30.9787
 21
181.0085
 31
0.0
  0
LINE
  5
48E
330
1D
100
AcDbEntity
  8
0
100
AcDbLine
 10
31.1743
 20
181.8365
 30
0.0
 11
31.5141
 21
182.5765
 31
0.0
  0
LINE
  5
48F
330
1D
100
AcDbEntity
  8
0
100
AcDbLine
 10
30.9787
 20
181.0085
 30
0.0
 11
31.1743
 21
181.8365
 31
0.0
  0
LINE
  5
490
330
1D
100
AcDbEntity
  8
0
100
AcDbLine
 10
31.9898
 20
183.2615
 30
0.0
 11
32.5505
 21
183.8275
 31
0.0
  0
LINE
  5
491
330
1D
100
AcDbEntity
  8
0
100
AcDbLine
 10
31.5141
 20
182.5765
 30
0.0
 11
31.9898
 21
183.2615
 31
0.0
  0
LINE
  5
492
330
1D
100
AcDbEntity
  8
0
100
AcDbLine
 10
33.9411
 20
184.6925
 30
0.0
 11
34.5678
 21
184.8845
 31
0.0
  0
LINE
  5
493
330
1D
100
AcDbEntity
  8
0
100
AcDbLine
 10
34.5678
 20
184.8845
 30
0.0
 11
35.4233
 21
184.9985
 31
0.0
  0
LINE
  5
494
330
1D
100
AcDbEntity
  8
0
100
AcDbLine
 10
33.2506
 20
184.3425
 30
0.0
 11
33.9411
 21
184.6925
 31
0.0
  0
LINE
  5
495
330
1D
100
AcDbEntity
  8
0
100
AcDbLine
 10
32.5505
 20
183.8275
 30
0.0
 11
33.2506
 21
184.3425
 31
0.0
  0
LINE
  5
496
330
1D
100
AcDbEntity
  8
0
100
AcDbLine
 10
36.7782
 20
184.9795
 30
0.0
 11
37.4324
 21
184.8845
 31
0.0
  0
LINE
  5
497
330
1D
100
AcDbEntity
  8
0
100
AcDbLine
 10
40.793
 20
181.9255
 30
0.0
 11
41.0243
 21
181.0365
 31
0.0
  0
LINE
  5
498
330
1D
100
AcDbEntity
  8
0
100
AcDbLine
 10
40.3415
 20
182.8215
 30
0.0
 11
40.793
 21
181.9255
 31
0.0
  0
LINE
  5
499
330
1D
100
AcDbEntity
  8
0
100
AcDbLine
 10
40.1664
 20
183.0535
 30
0.0
 11
40.3415
 21
182.8215
 31
0.0
  0
LINE
  5
49A
330
1D
100
AcDbEntity
  8
0
100
AcDbLine
 10
38.3428
 20
184.5545
 30
0.0
 11
38.8907
 21
184.2315
 31
0.0
  0
LINE
  5
49B
330
1D
100
AcDbEntity
  8
0
100
AcDbLine
 10
38.8907
 20
184.2315
 30
0.0
 11
39.4897
 21
183.7745
 31
0.0
  0
LINE
  5
49C
330
1D
100
AcDbEntity
  8
0
100
AcDbLine
 10
39.4897
 20
183.7745
 30
0.0
 11
40.1664
 21
183.0535
 31
0.0
  0
LINE
  5
49D
330
1D
100
AcDbEntity
  8
0
100
AcDbLine
 10
37.4324
 20
184.8845
 30
0.0
 11
38.3428
 21
184.5545
 31
0.0
  0
LINE
  5
49E
330
1D
100
AcDbEntity
  8
0
100
AcDbLine
 10
41.0243
 20
181.0365
 30
0.0
 11
41.854
 21
162.3845
 31
0.0
  0
LINE
  5
49F
330
1D
100
AcDbEntity
  8
0
100
AcDbLine
 10
35.4233
 20
184.9985
 30
0.0
 11
36.7782
 21
184.9795
 31
0.0
  0
LINE
  5
4A0
330
1D
100
AcDbEntity
  8
0
100
AcDbLine
 10
56.1527
 20
174.4005
 30
0.0
 11
58.4782
 21
174.1545
 31
0.0
  0
LINE
  5
4A1
330
1D
100
AcDbEntity
  8
0
100
AcDbLine
 10
58.4782
 20
174.1545
 30
0.0
 11
60.6649
 21
173.3135
 31
0.0
  0
LINE
  5
4A3
330
1D
100
AcDbEntity
  8
0
100
AcDbLine
 10
131.9031
 20
179.4695
 30
0.0
 11
132.1171
 21
179.4685
 31
0.0
  0
LINE
  5
4A4
330
1D
100
AcDbEntity
  8
0
100
AcDbLine
 10
131.6284
 20
179.4725
 30
0.0
 11
131.7398
 21
179.4705
 31
0.0
  0
LINE
  5
4A5
330
1D
100
AcDbEntity
  8
0
100
AcDbLine
 10
131.5709
 20
179.4745
 30
0.0
 11
131.6284
 21
179.4725
 31
0.0
  0
LINE
  5
4A6
330
1D
100
AcDbEntity
  8
0
100
AcDbLine
 10
131.5709
 20
179.4745
 30
0.0
 11
132.0651
 21
179.9735
 31
0.0
  0
LINE
  5
4A7
330
1D
100
AcDbEntity
  8
0
100
AcDbLine
 10
131.7398
 20
179.4705
 30
0.0
 11
131.9031
 21
179.4695
 31
0.0
  0
LINE
  5
4A8
330
1D
100
AcDbEntity
  8
0
100
AcDbLine
 10
132.1171
 20
179.4685
 30
0.0
 11
132.3769
 21
179.4675
 31
0.0
  0
LINE
  5
4A9
330
1D
100
AcDbEntity
  8
0
100
AcDbLine
 10
132.6792
 20
179.4655
 30
0.0
 11
133.0194
 21
179.4655
 31
0.0
  0
LINE
  5
4AA
330
1D
100
AcDbEntity
  8
0
100
AcDbLine
 10
132.3769
 20
179.4675
 30
0.0
 11
132.6792
 21
179.4655
 31
0.0
  0
LINE
  5
4AB
330
1D
100
AcDbEntity
  8
0
100
AcDbLine
 10
133.3917
 20
179.4635
 30
0.0
 11
133.7897
 21
179.4635
 31
0.0
  0
LINE
  5
4AC
330
1D
100
AcDbEntity
  8
0
100
AcDbLine
 10
133.0194
 20
179.4655
 30
0.0
 11
133.3917
 21
179.4635
 31
0.0
  0
LINE
  5
4AD
330
1D
100
AcDbEntity
  8
0
100
AcDbLine
 10
133.7897
 20
179.4635
 30
0.0
 11
134.209
 21
179.4625
 31
0.0
  0
LINE
  5
4AE
330
1D
100
AcDbEntity
  8
0
100
AcDbLine
 10
134.6415
 20
179.4625
 30
0.0
 11
135.0802
 21
179.4625
 31
0.0
  0
LINE
  5
4AF
330
1D
100
AcDbEntity
  8
0
100
AcDbLine
 10
134.209
 20
179.4625
 30
0.0
 11
134.6415
 21
179.4625
 31
0.0
  0
LINE
  5
4BF
330
1D
100
AcDbEntity
  8
0
100
AcDbLine
 10
134.9461
 20
179.9635
 30
0.0
 11
135.3553
 21
179.9635
 31
0.0
  0
LINE
  5
4C3
330
1D
100
AcDbEntity
  8
0
100
AcDbLine
 10
134.539
 20
179.9645
 30
0.0
 11
134.9461
 21
179.9635
 31
0.0
  0
LINE
  5
4C4
330
1D
100
AcDbEntity
  8
0
100
AcDbLine
 10
134.1422
 20
179.9655
 30
0.0
 11
134.539
 21
179.9645
 31
0.0
  0
LINE
  5
4C6
330
1D
100
AcDbEntity
  8
0
100
AcDbLine
 10
133.7614
 20
179.9655
 30
0.0
 11
134.1422
 21
179.9655
 31
0.0
  0
LINE
  5
4C7
330
1D
100
AcDbEntity
  8
0
100
AcDbLine
 10
133.4061
 20
179.9655
 30
0.0
 11
133.7614
 21
179.9655
 31
0.0
  0
LINE
  5
4CB
330
1D
100
AcDbEntity
  8
0
100
AcDbLine
 10
133.0813
 20
179.9665
 30
0.0
 11
133.4061
 21
179.9655
 31
0.0
  0
LINE
  5
4CC
330
1D
100
AcDbEntity
  8
0
100
AcDbLine
 10
132.7931
 20
179.9675
 30
0.0
 11
133.0813
 21
179.9665
 31
0.0
  0
LINE
  5
4CD
330
1D
100
AcDbEntity
  8
0
100
AcDbLine
 10
132.5466
 20
179.9695
 30
0.0
 11
132.7931
 21
179.9675
 31
0.0
  0
LINE
  5
4CE
330
1D
100
AcDbEntity
  8
0
100
AcDbLine
 10
132.3477
 20
179.9695
 30
0.0
 11
132.5466
 21
179.9695
 31
0.0
  0
LINE
  5
4D0
330
1D
100
AcDbEntity
  8
0
100
AcDbLine
 10
132.1998
 20
179.9715
 30
0.0
 11
132.3477
 21
179.9695
 31
0.0
  0
LINE
  5
4D1
330
1D
100
AcDbEntity
  8
0
100
AcDbLine
 10
132.1046
 20
179.9735
 30
0.0
 11
132.1998
 21
179.9715
 31
0.0
  0
LINE
  5
4DC
330
1D
100
AcDbEntity
  8
0
100
AcDbLine
 10
134.7709
 20
179.9835
 30
0.0
 11
135.1801
 21
179.9835
 31
0.0
  0
LINE
  5
4DD
330
1D
100
AcDbEntity
  8
0
100
AcDbLine
 10
134.3677
 20
179.9835
 30
0.0
 11
134.7709
 21
179.9835
 31
0.0
  0
LINE
  5
4DE
330
1D
100
AcDbEntity
  8
0
100
AcDbLine
 10
133.9768
 20
179.9835
 30
0.0
 11
134.3677
 21
179.9835
 31
0.0
  0
LINE
  5
4DF
330
1D
100
AcDbEntity
  8
0
100
AcDbLine
 10
133.606
 20
179.9825
 30
0.0
 11
133.9768
 21
179.9835
 31
0.0
  0
LINE
  5
4E0
330
1D
100
AcDbEntity
  8
0
100
AcDbLine
 10
133.2628
 20
179.9825
 30
0.0
 11
133.606
 21
179.9825
 31
0.0
  0
LINE
  5
4E1
330
1D
100
AcDbEntity
  8
0
100
AcDbLine
 10
132.9528
 20
179.9805
 30
0.0
 11
133.2628
 21
179.9825
 31
0.0
  0
LINE
  5
4E2
330
1D
100
AcDbEntity
  8
0
100
AcDbLine
 10
132.6816
 20
179.9805
 30
0.0
 11
132.9528
 21
179.9805
 31
0.0
  0
LINE
  5
4E3
330
1D
100
AcDbEntity
  8
0
100
AcDbLine
 10
132.456
 20
179.9795
 30
0.0
 11
132.6816
 21
179.9805
 31
0.0
  0
LINE
  5
4E4
330
1D
100
AcDbEntity
  8
0
100
AcDbLine
 10
132.2781
 20
179.9785
 30
0.0
 11
132.456
 21
179.9795
 31
0.0
  0
LINE
  5
4E5
330
1D
100
AcDbEntity
  8
0
100
AcDbLine
 10
132.152
 20
179.9765
 30
0.0
 11
132.2781
 21
179.9785
 31
0.0
  0
LINE
  5
4E6
330
1D
100
AcDbEntity
  8
0
100
AcDbLine
 10
132.0806
 20
179.9755
 30
0.0
 11
132.152
 21
179.9765
 31
0.0
  0
LINE
  5
4E7
330
1D
100
AcDbEntity
  8
0
100
AcDbLine
 10
114.9738
 20
175.0015
 30
0.0
 11
131.56773367832
 21
174.921094399882
 31
0.0
  0
LINE
  5
4E8
330
1D
100
AcDbEntity
  8
0
100
AcDbLine
 10
113.4283
 20
174.8865
 30
0.0
 11
114.9738
 21
175.0015
 31
0.0
  0
LINE
  5
4E9
330
1D
100
AcDbEntity
  8
0
100
AcDbLine
 10
111.9205
 20
174.5285
 30
0.0
 11
113.4283
 21
174.8865
 31
0.0
  0
LINE
  5
4EA
330
1D
100
AcDbEntity
  8
0
100
AcDbLine
 10
110.4861
 20
173.9355
 30
0.0
 11
111.9205
 21
174.5285
 31
0.0
  0
LINE
  5
4EB
330
1D
100
AcDbEntity
  8
0
100
AcDbLine
 10
109.16
 20
173.1245
 30
0.0
 11
110.4861
 21
173.9355
 31
0.0
  0
LINE
  5
4EC
330
1D
100
AcDbEntity
  8
0
100
AcDbLine
 10
107.9763
 20
172.1135
 30
0.0
 11
109.16
 21
173.1245
 31
0.0
  0
LINE
  5
7A4
330
1D
100
AcDbEntity
  8
0
100
AcDbLine
 10
124.8393
 20
145.6315
 30
0.0
 11
124.8393
 21
150.329573700823
 31
0.0
  0
LINE
  5
7A5
330
1D
100
AcDbEntity
  8
0
100
AcDbLine
 10
124.8393
 20
150.329573700823
 30
0.0
 11
125.212252735363
 21
151.477342355558
 31
0.0
  0
LINE
  5
7A6
330
1D
100
AcDbEntity
  8
0
100
AcDbLine
 10
125.212252735363
 20
151.477342355558
 30
0.0
 11
126.204136805375
 21
152.717197443073
 31
0.0
  0
LINE
  5
7A7
330
1D
100
AcDbEntity
  8
0
100
AcDbLine
 10
126.204136805375
 20
152.717197443073
 30
0.0
 11
127.939933927897
 21
153.758675716586
 31
0.0
  0
LINE
  5
7A8
330
1D
100
AcDbEntity
  8
0
100
AcDbLine
 10
127.939933927897
 20
153.758675716586
 30
0.0
 11
130.171673085424
 21
154.477791667345
 31
0.0
  0
LINE
  5
7A9
330
1D
100
AcDbEntity
  8
0
100
AcDbLine
 10
130.171673085424
 20
154.477791667345
 30
0.0
 11
132.828943464504
 21
155.023700225617
 31
0.0
  0
LINE
  5
7AA
330
1D
100
AcDbEntity
  8
0
100
AcDbLine
 10
132.828943464504
 20
155.023700225617
 30
0.0
 11
133.441908931354
 21
155.129644874208
 31
0.0
  0
LINE
  5
7AB
330
1D
100
AcDbEntity
  8
0
100
AcDbLine
 10
133.441908931354
 20
155.129644874208
 30
0.0
 11
134.262979957937
 21
155.216670835551
 31
0.0
  0
LINE
  5
7AC
330
1D
100
AcDbEntity
  8
0
100
AcDbLine
 10
134.262979957937
 20
155.216670835551
 30
0.0
 11
135.0
 21
155.22
 31
0.0
  0
LINE
  5
7AD
330
1D
100
AcDbEntity
  8
0
100
AcDbLine
 10
45.6587
 20
149.2695
 30
0.0
 11
46.734
 21
147.3885
 31
0.0
  0
LINE
  5
7AE
330
1D
100
AcDbEntity
  8
0
100
AcDbLine
 10
255.7779
 20
114.0455
 30
0.0
 11
212.2928
 21
114.1245
 31
0.0
  0
LINE
  5
7AF
330
1D
100
AcDbEntity
  8
0
100
AcDbLine
 10
212.2928
 20
114.1245
 30
0.0
 11
210.7761
 21
114.4895
 31
0.0
  0
LINE
  5
7B0
330
1D
100
AcDbEntity
  8
0
100
AcDbLine
 10
210.7761
 20
114.4895
 30
0.0
 11
209.3351
 21
115.0885
 31
0.0
  0
LINE
  5
7B1
330
1D
100
AcDbEntity
  8
0
100
AcDbLine
 10
258.6647
 20
115.0885
 30
0.0
 11
255.7779
 21
114.0455
 31
0.0
  0
LINE
  5
7B2
330
1D
100
AcDbEntity
  8
0
100
AcDbLine
 10
209.3351
 20
115.0885
 30
0.0
 11
208.0055
 21
115.9065
 31
0.0
  0
LINE
  5
7B3
330
1D
100
AcDbEntity
  8
0
100
AcDbLine
 10
259.9943
 20
115.9065
 30
0.0
 11
258.6647
 21
115.0885
 31
0.0
  0
LINE
  5
7B4
330
1D
100
AcDbEntity
  8
0
100
AcDbLine
 10
261.1805
 20
116.9225
 30
0.0
 11
259.9943
 21
115.9065
 31
0.0
  0
LINE
  5
7B5
330
1D
100
AcDbEntity
  8
0
100
AcDbLine
 10
208.0055
 20
115.9065
 30
0.0
 11
206.8193
 21
116.9225
 31
0.0
  0
LINE
  5
7B6
330
1D
100
AcDbEntity
  8
0
100
AcDbLine
 10
234.2447
 20
117.2355
 30
0.0
 11
233.9999
 21
117.2455
 31
0.0
  0
LINE
  5
7B7
330
1D
100
AcDbEntity
  8
0
100
AcDbLine
 10
236.877
 20
117.3885
 30
0.0
 11
234.2447
 21
117.2355
 31
0.0
  0
LINE
  5
7B8
330
1D
100
AcDbEntity
  8
0
100
AcDbLine
 10
233.7551
 20
117.2355
 30
0.0
 11
231.1249
 21
117.4025
 31
0.0
  0
LINE
  5
7B9
330
1D
100
AcDbEntity
  8
0
100
AcDbLine
 10
233.9999
 20
117.2455
 30
0.0
 11
233.7551
 21
117.2355
 31
0.0
  0
LINE
  5
7BA
330
1D
100
AcDbEntity
  8
0
100
AcDbLine
 10
231.1249
 20
117.4025
 30
0.0
 11
228.5174
 21
117.8005
 31
0.0
  0
LINE
  5
7BB
330
1D
100
AcDbEntity
  8
0
100
AcDbLine
 10
233.9999
 20
117.2205
 30
0.0
 11
233.7551
 21
117.2355
 31
0.0
  0
LINE
  5
7BC
330
1D
100
AcDbEntity
  8
0
100
AcDbLine
 10
233.9999
 20
117.2205
 30
0.0
 11
233.759870860913
 21
117.235694888109
 31
0.0
  0
LINE
  5
7BD
330
1D
100
AcDbEntity
  8
0
100
AcDbLine
 10
206.8193
 20
116.9225
 30
0.0
 11
205.349
 21
118.7465
 31
0.0
  0
LINE
  5
7BE
330
1D
100
AcDbEntity
  8
0
100
AcDbLine
 10
239.4824
 20
117.8005
 30
0.0
 11
236.877
 21
117.3885
 31
0.0
  0
LINE
  5
7BF
330
1D
100
AcDbEntity
  8
0
100
AcDbLine
 10
228.5174
 20
117.8005
 30
0.0
 11
225.9687
 21
118.4815
 31
0.0
  0
LINE
  5
7C0
330
1D
100
AcDbEntity
  8
0
100
AcDbLine
 10
242.0303
 20
118.4815
 30
0.0
 11
239.4824
 21
117.8005
 31
0.0
  0
LINE
  5
7C1
330
1D
100
AcDbEntity
  8
0
100
AcDbLine
 10
225.9687
 20
118.4815
 30
0.0
 11
223.4995
 21
119.3935
 31
0.0
  0
LINE
  5
7C2
330
1D
100
AcDbEntity
  8
0
100
AcDbLine
 10
262.6508
 20
118.7465
 30
0.0
 11
261.1805
 21
116.9225
 31
0.0
  0
LINE
  5
7C3
330
1D
100
AcDbEntity
  8
0
100
AcDbLine
 10
205.349
 20
118.7465
 30
0.0
 11
204.346656898208
 21
121.312131317676
 31
0.0
  0
LINE
  5
7C4
330
1D
100
AcDbEntity
  8
0
100
AcDbLine
 10
163.3182
 20
118.7325
 30
0.0
 11
162.3187
 21
117.5375
 31
0.0
  0
LINE
  5
7C5
330
1D
100
AcDbEntity
  8
0
100
AcDbLine
 10
162.3187
 20
117.5375
 30
0.0
 11
161.1465
 21
116.5145
 31
0.0
  0
LINE
  5
7C6
330
1D
100
AcDbEntity
  8
0
100
AcDbLine
 10
161.1465
 20
116.5145
 30
0.0
 11
159.8301
 21
115.6905
 31
0.0
  0
LINE
  5
7C7
330
1D
100
AcDbEntity
  8
0
100
AcDbLine
 10
159.8301
 20
115.6905
 30
0.0
 11
158.4012
 21
115.0845
 31
0.0
  0
LINE
  5
7C8
330
1D
100
AcDbEntity
  8
0
100
AcDbLine
 10
158.4012
 20
115.0845
 30
0.0
 11
156.8968
 21
114.7115
 31
0.0
  0
LINE
  5
7C9
330
1D
100
AcDbEntity
  8
0
100
AcDbLine
 10
156.8968
 20
114.7115
 30
0.0
 11
155.3532
 21
114.5815
 31
0.0
  0
LINE
  5
7CA
330
1D
100
AcDbEntity
  8
0
100
AcDbLine
 10
145.6521
 20
48.0415
 30
0.0
 11
145.6256
 21
51.6845
 31
0.0
  0
LINE
  5
7CB
330
1D
100
AcDbEntity
  8
0
100
AcDbLine
 10
145.5651
 20
60.7065
 30
0.0
 11
145.5327
 21
65.9515
 31
0.0
  0
LINE
  5
7CC
330
1D
100
AcDbEntity
  8
0
100
AcDbLine
 10
145.4978
 20
71.5825
 30
0.0
 11
145.4626
 21
77.5125
 31
0.0
  0
LINE
  5
7CD
330
1D
100
AcDbEntity
  8
0
100
AcDbLine
 10
145.5327
 20
65.9515
 30
0.0
 11
145.4978
 21
71.5825
 31
0.0
  0
LINE
  5
7CE
330
1D
100
AcDbEntity
  8
0
100
AcDbLine
 10
145.5965
 20
55.9265
 30
0.0
 11
145.5651
 21
60.7065
 31
0.0
  0
LINE
  5
7CF
330
1D
100
AcDbEntity
  8
0
100
AcDbLine
 10
145.6256
 20
51.6845
 30
0.0
 11
145.5965
 21
55.9265
 31
0.0
  0
LINE
  5
7D0
330
1D
100
AcDbEntity
  8
0
100
AcDbLine
 10
145.6764
 20
45.0545
 30
0.0
 11
145.6521
 21
48.0415
 31
0.0
  0
LINE
  5
7D1
330
1D
100
AcDbEntity
  8
0
100
AcDbLine
 10
145.9603
 20
10.9711
 30
0.0
 11
145.6764
 21
45.0545
 31
0.0
  0
LINE
  5
7D2
330
1D
100
AcDbEntity
  8
0
100
AcDbLine
 10
145.9738
 20
8.2616
 30
0.0
 11
145.9603
 21
10.9711
 31
0.0
  0
LINE
  5
7D3
330
1D
100
AcDbEntity
  8
0
100
AcDbLine
 10
145.9738
 20
8.2616
 30
0.0
 11
145.1538
 21
5.6578
 31
0.0
  0
LINE
  5
7D4
330
1D
100
AcDbEntity
  8
0
100
AcDbLine
 10
155.3532
 20
114.5815
 30
0.0
 11
145.267789991649
 21
114.53237943114
 31
0.0
  0
LINE
  5
7D5
330
1D
100
AcDbEntity
  8
0
100
AcDbLine
 10
145.4626
 20
77.5125
 30
0.0
 11
145.4285
 21
83.6545
 31
0.0
  0
LINE
  5
7D6
330
1D
100
AcDbEntity
  8
0
100
AcDbLine
 10
145.4285
 20
83.6545
 30
0.0
 11
145.3936
 21
89.9165
 31
0.0
  0
LINE
  5
7D7
330
1D
100
AcDbEntity
  8
0
100
AcDbLine
 10
145.2969
 20
108.4615
 30
0.0
 11
145.2691
 21
114.2525
 31
0.0
  0
LINE
  5
7D8
330
1D
100
AcDbEntity
  8
0
100
AcDbLine
 10
145.3275
 20
102.4135
 30
0.0
 11
145.2969
 21
108.4615
 31
0.0
  0
LINE
  5
7D9
330
1D
100
AcDbEntity
  8
0
100
AcDbLine
 10
145.3595
 20
96.1995
 30
0.0
 11
145.3275
 21
102.4135
 31
0.0
  0
LINE
  5
7DA
330
1D
100
AcDbEntity
  8
0
100
AcDbLine
 10
145.3936
 20
89.9165
 30
0.0
 11
145.3595
 21
96.1995
 31
0.0
  0
LINE
  5
7DB
330
1D
100
AcDbEntity
  8
0
100
AcDbLine
 10
244.5017
 20
119.3945
 30
0.0
 11
242.0303
 21
118.4815
 31
0.0
  0
LINE
  5
7DC
330
1D
100
AcDbEntity
  8
0
100
AcDbLine
 10
223.4995
 20
119.3935
 30
0.0
 11
221.1182
 21
120.5345
 31
0.0
  0
LINE
  5
7DD
330
1D
100
AcDbEntity
  8
0
100
AcDbLine
 10
164.1209
 20
120.0715
 30
0.0
 11
163.3182
 21
118.7325
 31
0.0
  0
LINE
  5
7DE
330
1D
100
AcDbEntity
  8
0
100
AcDbLine
 10
145.2691
 20
114.2525
 30
0.0
 11
145.2436
 21
119.7005
 31
0.0
  0
LINE
  5
7DF
330
1D
100
AcDbEntity
  8
0
100
AcDbLine
 10
145.1538
 20
5.6578
 30
0.0
 11
143.5673
 21
3.3702
 31
0.0
  0
LINE
  5
7E0
330
1D
100
AcDbEntity
  8
0
100
AcDbLine
 10
143.5673
 20
3.3702
 30
0.0
 11
143.5174
 21
3.3049
 31
0.0
  0
LINE
  5
7E1
330
1D
100
AcDbEntity
  8
0
100
AcDbLine
 10
143.5174
 20
3.3049
 30
0.0
 11
141.3073
 21
1.5311
 31
0.0
  0
LINE
  5
7E2
330
1D
100
AcDbEntity
  8
0
100
AcDbLine
 10
141.3073
 20
1.5311
 30
0.0
 11
138.6429
 21
0.3994
 31
0.0
  0
LINE
  5
7E3
330
1D
100
AcDbEntity
  8
0
100
AcDbLine
 10
138.6429
 20
0.3994
 30
0.0
 11
135.7387
 21
0.0015
 31
0.0
  0
LINE
  5
7E4
330
1D
100
AcDbEntity
  8
0
100
AcDbLine
 10
145.2436
 20
119.7005
 30
0.0
 11
145.2215
 21
124.7225
 31
0.0
  0
LINE
  5
7E5
330
1D
100
AcDbEntity
  8
0
100
AcDbLine
 10
265.4222
 20
121.1225
 30
0.0
 11
264.3823
 21
121.1385
 31
0.0
  0
LINE
  5
7E6
330
1D
100
AcDbEntity
  8
0
100
AcDbLine
 10
268.7317
 20
123.0455
 30
0.0
 11
268.1554
 21
122.3595
 31
0.0
  0
LINE
  5
7E7
330
1D
100
AcDbEntity
  8
0
100
AcDbLine
 10
268.1554
 20
122.3595
 30
0.0
 11
267.6312
 21
122.0135
 31
0.0
  0
LINE
  5
7E8
330
1D
100
AcDbEntity
  8
0
100
AcDbLine
 10
267.6312
 20
122.0135
 30
0.0
 11
267.0981
 21
121.6725
 31
0.0
  0
LINE
  5
7E9
330
1D
100
AcDbEntity
  8
0
100
AcDbLine
 10
267.0981
 20
121.6725
 30
0.0
 11
266.4065
 21
121.3825
 31
0.0
  0
LINE
  5
7EA
330
1D
100
AcDbEntity
  8
0
100
AcDbLine
 10
266.4065
 20
121.3825
 30
0.0
 11
265.4222
 21
121.1225
 31
0.0
  0
LINE
  5
7EB
330
1D
100
AcDbEntity
  8
0
100
AcDbLine
 10
264.3823
 20
121.1385
 30
0.0
 11
263.2735
 21
121.4165
 31
0.0
  0
LINE
  5
7EC
330
1D
100
AcDbEntity
  8
0
100
AcDbLine
 10
246.8816
 20
120.5345
 30
0.0
 11
244.5017
 21
119.3945
 31
0.0
  0
LINE
  5
7ED
330
1D
100
AcDbEntity
  8
0
100
AcDbLine
 10
221.1182
 20
120.5345
 30
0.0
 11
218.8754
 21
121.9285
 31
0.0
  0
LINE
  5
7EE
330
1D
100
AcDbEntity
  8
0
100
AcDbLine
 10
263.2735
 20
121.4165
 30
0.0
 11
246.4379
 21
130.1735
 31
0.0
  0
LINE
  5
7EF
330
1D
100
AcDbEntity
  8
0
100
AcDbLine
 10
218.8754
 20
121.9285
 30
0.0
 11
216.7652
 21
123.5115
 31
0.0
  0
LINE
  5
7F0
330
1D
100
AcDbEntity
  8
0
100
AcDbLine
 10
249.1318
 20
121.9155
 30
0.0
 11
246.8816
 21
120.5345
 31
0.0
  0
LINE
  5
7F1
330
1D
100
AcDbEntity
  8
0
100
AcDbLine
 10
203.9361
 20
121.1885
 30
0.0
 11
203.1313
 21
121.1135
 31
0.0
  0
LINE
  5
7F2
330
1D
100
AcDbEntity
  8
0
100
AcDbLine
 10
203.1313
 20
121.1135
 30
0.0
 11
202.0042
 21
121.2385
 31
0.0
  0
LINE
  5
7F3
330
1D
100
AcDbEntity
  8
0
100
AcDbLine
 10
204.7497
 20
121.4335
 30
0.0
 11
203.9361
 21
121.1885
 31
0.0
  0
LINE
  5
7F4
330
1D
100
AcDbEntity
  8
0
100
AcDbLine
 10
205.4529
 20
121.7785
 30
0.0
 11
204.7497
 21
121.4335
 31
0.0
  0
LINE
  5
7F5
330
1D
100
AcDbEntity
  8
0
100
AcDbLine
 10
200.8382
 20
121.6965
 30
0.0
 11
200.0903
 21
122.1645
 31
0.0
  0
LINE
  5
7F6
330
1D
100
AcDbEntity
  8
0
100
AcDbLine
 10
199.4332
 20
122.8055
 30
0.0
 11
198.8839
 21
123.7285
 31
0.0
  0
LINE
  5
7F7
330
1D
100
AcDbEntity
  8
0
100
AcDbLine
 10
200.0903
 20
122.1645
 30
0.0
 11
199.4332
 21
122.8055
 31
0.0
  0
LINE
  5
7F8
330
1D
100
AcDbEntity
  8
0
100
AcDbLine
 10
263.709195110907
 20
121.307261867936
 30
0.0
 11
262.6508
 21
118.7465
 31
0.0
  0
LINE
  5
7F9
330
1D
100
AcDbEntity
  8
0
100
AcDbLine
 10
198.8839
 20
123.7285
 30
0.0
 11
198.2855
 21
124.7625
 31
0.0
  0
LINE
  5
7FA
330
1D
100
AcDbEntity
  8
0
100
AcDbLine
 10
216.7652
 20
123.5115
 30
0.0
 11
214.8373
 21
125.3175
 31
0.0
  0
LINE
  5
7FB
330
1D
100
AcDbEntity
  8
0
100
AcDbLine
 10
251.2346
 20
123.5115
 30
0.0
 11
249.1318
 21
121.9155
 31
0.0
  0
LINE
  5
7FC
330
1D
100
AcDbEntity
  8
0
100
AcDbLine
 10
269.4932
 20
124.3055
 30
0.0
 11
268.7317
 21
123.0455
 31
0.0
  0
LINE
  5
7FD
330
1D
100
AcDbEntity
  8
0
100
AcDbLine
 10
165.0586
 20
123.0455
 30
0.0
 11
164.7053
 21
121.5205
 31
0.0
  0
LINE
  5
7FE
330
1D
100
AcDbEntity
  8
0
100
AcDbLine
 10
164.7053
 20
121.5205
 30
0.0
 11
164.1209
 21
120.0715
 31
0.0
  0
LINE
  5
7FF
330
1D
100
AcDbEntity
  8
0
100
AcDbLine
 10
269.9701
 20
125.7445
 30
0.0
 11
269.8318
 21
125.1295
 31
0.0
  0
LINE
  5
800
330
1D
100
AcDbEntity
  8
0
100
AcDbLine
 10
269.6538
 20
124.6935
 30
0.0
 11
269.4932
 21
124.3055
 31
0.0
  0
LINE
  5
801
330
1D
100
AcDbEntity
  8
0
100
AcDbLine
 10
269.8318
 20
125.1295
 30
0.0
 11
269.6538
 21
124.6935
 31
0.0
  0
LINE
  5
802
330
1D
100
AcDbEntity
  8
0
100
AcDbLine
 10
269.6085
 20
128.3975
 30
0.0
 11
269.3565
 21
128.9155
 31
0.0
  0
LINE
  5
803
330
1D
100
AcDbEntity
  8
0
100
AcDbLine
 10
269.9181
 20
127.3915
 30
0.0
 11
269.6085
 21
128.3975
 31
0.0
  0
LINE
  5
804
330
1D
100
AcDbEntity
  8
0
100
AcDbLine
 10
270.0231
 20
126.5955
 30
0.0
 11
269.9701
 21
125.7445
 31
0.0
  0
LINE
  5
805
330
1D
100
AcDbEntity
  8
0
100
AcDbLine
 10
270.0231
 20
126.5955
 30
0.0
 11
269.9181
 21
127.3915
 31
0.0
  0
LINE
  5
806
330
1D
100
AcDbEntity
  8
0
100
AcDbLine
 10
268.2697
 20
130.1785
 30
0.0
 11
252.3572
 21
140.3625
 31
0.0
  0
LINE
  5
807
330
1D
100
AcDbEntity
  8
0
100
AcDbLine
 10
268.9505
 20
129.5045
 30
0.0
 11
268.2697
 21
130.1785
 31
0.0
  0
LINE
  5
808
330
1D
100
AcDbEntity
  8
0
100
AcDbLine
 10
253.999595042827
 20
126.240301094702
 30
0.0
 11
253.1722
 21
125.3075
 31
0.0
  0
LINE
  5
809
330
1D
100
AcDbEntity
  8
0
100
AcDbLine
 10
246.4379
 20
130.1735
 30
0.0
 11
245.0063
 21
130.9035
 31
0.0
  0
LINE
  5
80A
330
1D
100
AcDbEntity
  8
0
100
AcDbLine
 10
245.0063
 20
130.9035
 30
0.0
 11
244.125131546942
 21
131.364697571721
 31
0.0
  0
LINE
  5
80B
330
1D
100
AcDbEntity
  8
0
100
AcDbLine
 10
242.2679
 20
132.1675
 30
0.0
 11
240.916961065908
 21
132.639883722595
 31
0.0
  0
LINE
  5
80C
330
1D
100
AcDbEntity
  8
0
100
AcDbLine
 10
242.4242
 20
132.0995
 30
0.0
 11
242.2679
 21
132.1675
 31
0.0
  0
LINE
  5
80D
330
1D
100
AcDbEntity
  8
0
100
AcDbLine
 10
244.125131546942
 20
131.364697571721
 30
0.0
 11
242.4242
 21
132.0995
 31
0.0
  0
LINE
  5
80E
330
1D
100
AcDbEntity
  8
0
100
AcDbLine
 10
253.1722
 20
125.3075
 30
0.0
 11
251.2346
 21
123.5115
 31
0.0
  0
LINE
  5
80F
330
1D
100
AcDbEntity
  8
0
100
AcDbLine
 10
269.3565
 20
128.9155
 30
0.0
 11
268.9505
 21
129.5045
 31
0.0
  0
LINE
  5
810
330
1D
100
AcDbEntity
  8
0
100
AcDbLine
 10
259.7696
 20
136.6125
 30
0.0
 11
259.491857355812
 21
135.796319292281
 31
0.0
  0
LINE
  5
811
330
1D
100
AcDbEntity
  8
0
100
AcDbLine
 10
264.064595372349
 20
132.869766961697
 30
0.0
 11
263.9633
 21
166.3565
 31
0.0
  0
LINE
  5
812
330
1D
100
AcDbEntity
  8
0
100
AcDbLine
 10
240.916961065905
 20
132.639883722596
 30
0.0
 11
240.1578
 21
132.8345
 31
0.0
  0
LINE
  5
813
330
1D
100
AcDbEntity
  8
0
100
AcDbLine
 10
240.1578
 20
132.8345
 30
0.0
 11
239.2406
 21
133.0265
 31
0.0
  0
LINE
  5
814
330
1D
100
AcDbEntity
  8
0
100
AcDbLine
 10
239.2406
 20
133.0265
 30
0.0
 11
238.237033578813
 21
133.162078736721
 31
0.0
  0
LINE
  5
815
330
1D
100
AcDbEntity
  8
0
100
AcDbLine
 10
238.237033578818
 20
133.162078736721
 30
0.0
 11
236.0315
 21
133.2985
 31
0.0
  0
LINE
  5
816
330
1D
100
AcDbEntity
  8
0
100
AcDbLine
 10
236.0315
 20
133.2985
 30
0.0
 11
233.5443
 21
133.2765
 31
0.0
  0
LINE
  5
817
330
1D
100
AcDbEntity
  8
0
100
AcDbLine
 10
229.52552599251
 20
133.143564764051
 30
0.0
 11
228.375104203666
 21
132.961349725261
 31
0.0
  0
LINE
  5
818
330
1D
100
AcDbEntity
  8
0
100
AcDbLine
 10
233.5443
 20
133.2765
 30
0.0
 11
232.46658968478
 21
133.286068307031
 31
0.0
  0
LINE
  5
819
330
1D
100
AcDbEntity
  8
0
100
AcDbLine
 10
230.562
 20
133.2245
 30
0.0
 11
229.525525992513
 21
133.143564764051
 31
0.0
  0
LINE
  5
81A
330
1D
100
AcDbEntity
  8
0
100
AcDbLine
 10
228.375104203668
 20
132.961349725261
 30
0.0
 11
227.8409
 21
132.8345
 31
0.0
  0
LINE
  5
81B
330
1D
100
AcDbEntity
  8
0
100
AcDbLine
 10
232.466589684788
 20
133.286068307031
 30
0.0
 11
230.562
 21
133.2245
 31
0.0
  0
LINE
  5
81C
330
1D
100
AcDbEntity
  8
0
100
AcDbLine
 10
227.06853870457
 20
132.636386660812
 30
0.0
 11
225.741087357224
 21
132.174956418301
 31
0.0
  0
LINE
  5
81D
330
1D
100
AcDbEntity
  8
0
100
AcDbLine
 10
227.8409
 20
132.8345
 30
0.0
 11
227.068538704572
 21
132.636386660812
 31
0.0
  0
LINE
  5
81E
330
1D
100
AcDbEntity
  8
0
100
AcDbLine
 10
225.741087357219
 20
132.174956418299
 30
0.0
 11
223.971096110102
 21
131.406771353377
 31
0.0
  0
LINE
  5
81F
330
1D
100
AcDbEntity
  8
0
100
AcDbLine
 10
260.4003
 20
139.1815
 30
0.0
 11
259.7696
 21
136.6125
 31
0.0
  0
LINE
  5
820
330
1D
100
AcDbEntity
  8
0
100
AcDbLine
 10
198.2855
 20
124.7625
 30
0.0
 11
198.0068
 21
126.0625
 31
0.0
  0
LINE
  5
821
330
1D
100
AcDbEntity
  8
0
100
AcDbLine
 10
223.971096110103
 20
131.406771353377
 30
0.0
 11
223.4151
 21
131.1095
 31
0.0
  0
LINE
  5
822
330
1D
100
AcDbEntity
  8
0
100
AcDbLine
 10
214.8373
 20
125.3175
 30
0.0
 11
214.003768448594
 21
126.247322810421
 31
0.0
  0
LINE
  5
823
330
1D
100
AcDbEntity
  8
0
100
AcDbLine
 10
221.5431
 20
130.1875
 30
0.0
 11
205.4529
 21
121.7785
 31
0.0
  0
LINE
  5
824
330
1D
100
AcDbEntity
  8
0
100
AcDbLine
 10
223.4151
 20
131.1095
 30
0.0
 11
221.5431
 21
130.1875
 31
0.0
  0
LINE
  5
825
330
1D
100
AcDbEntity
  8
0
100
AcDbLine
 10
208.500736347458
 20
135.787766725982
 30
0.0
 11
208.2165
 21
136.6085
 31
0.0
  0
LINE
  5
826
330
1D
100
AcDbEntity
  8
0
100
AcDbLine
 10
208.2165
 20
136.6085
 30
0.0
 11
207.6134
 21
139.1845
 31
0.0
  0
LINE
  5
827
330
1D
100
AcDbEntity
  8
0
100
AcDbLine
 10
207.6134
 20
139.1845
 30
0.0
 11
207.2363
 21
141.8025
 31
0.0
  0
LINE
  5
828
330
1D
100
AcDbEntity
  8
0
100
AcDbLine
 10
199.0492
 20
129.5045
 30
0.0
 11
198.6431
 21
128.9145
 31
0.0
  0
LINE
  5
829
330
1D
100
AcDbEntity
  8
0
100
AcDbLine
 10
198.6431
 20
128.9145
 30
0.0
 11
198.3912
 21
128.3975
 31
0.0
  0
LINE
  5
82A
330
1D
100
AcDbEntity
  8
0
100
AcDbLine
 10
199.7079
 20
130.1555
 30
0.0
 11
199.0492
 21
129.5045
 31
0.0
  0
LINE
  5
82B
330
1D
100
AcDbEntity
  8
0
100
AcDbLine
 10
198.3912
 20
128.3975
 30
0.0
 11
198.1127
 21
127.4055
 31
0.0
  0
LINE
  5
82C
330
1D
100
AcDbEntity
  8
0
100
AcDbLine
 10
198.1127
 20
127.4055
 30
0.0
 11
198.0031
 21
126.3185
 31
0.0
  0
LINE
  5
82D
330
1D
100
AcDbEntity
  8
0
100
AcDbLine
 10
198.0068
 20
126.0625
 30
0.0
 11
198.0031
 21
126.3185
 31
0.0
  0
LINE
  5
82E
330
1D
100
AcDbEntity
  8
0
100
AcDbLine
 10
165.1723
 20
124.6075
 30
0.0
 11
164.9526
 21
165.0715
 31
0.0
  0
LINE
  5
82F
330
1D
100
AcDbEntity
  8
0
100
AcDbLine
 10
165.1723
 20
124.6075
 30
0.0
 11
165.0586
 21
123.0455
 31
0.0
  0
LINE
  5
830
330
1D
100
AcDbEntity
  8
0
100
AcDbLine
 10
252.3572
 20
140.3625
 30
0.0
 11
250.6354
 21
141.4975
 31
0.0
  0
LINE
  5
831
330
1D
100
AcDbEntity
  8
0
100
AcDbLine
 10
250.254500524118
 20
141.735211885603
 30
0.0
 11
248.6541
 21
142.9295
 31
0.0
  0
LINE
  5
832
330
1D
100
AcDbEntity
  8
0
100
AcDbLine
 10
250.6354
 20
141.4975
 30
0.0
 11
250.254500524116
 21
141.735211885604
 31
0.0
  0
LINE
  5
833
330
1D
100
AcDbEntity
  8
0
100
AcDbLine
 10
260.7635
 20
141.8025
 30
0.0
 11
260.4003
 21
139.1815
 31
0.0
  0
LINE
  5
834
330
1D
100
AcDbEntity
  8
0
100
AcDbLine
 10
217.5833
 20
141.6565
 30
0.0
 11
215.6426
 21
140.3625
 31
0.0
  0
LINE
  5
835
330
1D
100
AcDbEntity
  8
0
100
AcDbLine
 10
215.6426
 20
140.3625
 30
0.0
 11
199.7079
 21
130.1555
 31
0.0
  0
LINE
  5
836
330
1D
100
AcDbEntity
  8
0
100
AcDbLine
 10
207.2363
 20
141.8025
 30
0.0
 11
207.145
 21
144.4455
 31
0.0
  0
LINE
  5
837
330
1D
100
AcDbEntity
  8
0
100
AcDbLine
 10
160.845931930287
 20
137.40469327524
 30
0.0
 11
160.6771
 21
136.7335
 31
0.0
  0
LINE
  5
838
330
1D
100
AcDbEntity
  8
0
100
AcDbLine
 10
160.845931930287
 20
137.40469327524
 30
0.0
 11
160.6771
 21
136.7335
 31
0.0
  0
LINE
  5
839
330
1D
100
AcDbEntity
  8
0
100
AcDbLine
 10
159.7852
 20
134.2435
 30
0.0
 11
158.6563
 21
131.8555
 31
0.0
  0
LINE
  5
83A
330
1D
100
AcDbEntity
  8
0
100
AcDbLine
 10
160.6766
 20
136.7325
 30
0.0
 11
159.7852
 21
134.2435
 31
0.0
  0
LINE
  5
83B
330
1D
100
AcDbEntity
  8
0
100
AcDbLine
 10
161.323
 20
139.2985
 30
0.0
 11
160.6766
 21
136.7325
 31
0.0
  0
LINE
  5
83C
330
1D
100
AcDbEntity
  8
0
100
AcDbLine
 10
248.5177
 20
143.0315
 30
0.0
 11
246.8902
 21
144.5295
 31
0.0
  0
LINE
  5
83D
330
1D
100
AcDbEntity
  8
0
100
AcDbLine
 10
248.6541
 20
142.9295
 30
0.0
 11
248.5177
 21
143.0315
 31
0.0
  0
LINE
  5
83E
330
1D
100
AcDbEntity
  8
0
100
AcDbLine
 10
218.0988
 20
141.9965
 30
0.0
 11
217.5833
 21
141.6565
 31
0.0
  0
LINE
  5
83F
330
1D
100
AcDbEntity
  8
0
100
AcDbLine
 10
219.3457
 20
142.9295
 30
0.0
 11
218.0988
 21
141.9965
 31
0.0
  0
LINE
  5
840
330
1D
100
AcDbEntity
  8
0
100
AcDbLine
 10
260.869
 20
144.4465
 30
0.0
 11
260.7158
 21
147.0885
 31
0.0
  0
LINE
  5
841
330
1D
100
AcDbEntity
  8
0
100
AcDbLine
 10
260.869
 20
144.4465
 30
0.0
 11
260.7635
 21
141.8025
 31
0.0
  0
LINE
  5
842
330
1D
100
AcDbEntity
  8
0
100
AcDbLine
 10
247.416757033416
 20
143.987629227358
 30
0.0
 11
247.416757033416
 21
143.987629227358
 31
0.0
  0
LINE
  5
843
330
1D
100
AcDbEntity
  8
0
100
AcDbLine
 10
220.597265160733
 20
143.998733416926
 30
0.0
 11
219.3457
 21
142.9295
 31
0.0
  0
LINE
  5
844
330
1D
100
AcDbEntity
  8
0
100
AcDbLine
 10
246.8902
 20
144.5295
 30
0.0
 11
245.858
 21
145.7305
 31
0.0
  0
LINE
  5
845
330
1D
100
AcDbEntity
  8
0
100
AcDbLine
 10
221.1093
 20
144.5285
 30
0.0
 11
220.597265160733
 21
143.998733416926
 31
0.0
  0
LINE
  5
846
330
1D
100
AcDbEntity
  8
0
100
AcDbLine
 10
221.1093
 20
144.5285
 30
0.0
 11
220.597265160733
 21
143.998733416926
 31
0.0
  0
LINE
  5
847
330
1D
100
AcDbEntity
  8
0
100
AcDbLine
 10
161.7169
 20
141.9145
 30
0.0
 11
161.323
 21
139.2985
 31
0.0
  0
LINE
  5
848
330
1D
100
AcDbEntity
  8
0
100
AcDbLine
 10
153.9672
 20
125.5175
 30
0.0
 11
152.0204
 21
123.7475
 31
0.0
  0
LINE
  5
849
330
1D
100
AcDbEntity
  8
0
100
AcDbLine
 10
157.3018
 20
129.5905
 30
0.0
 11
155.7338
 21
127.4715
 31
0.0
  0
LINE
  5
84A
330
1D
100
AcDbEntity
  8
0
100
AcDbLine
 10
155.7338
 20
127.4715
 30
0.0
 11
153.9672
 21
125.5175
 31
0.0
  0
LINE
  5
84B
330
1D
100
AcDbEntity
  8
0
100
AcDbLine
 10
158.6563
 20
131.8555
 30
0.0
 11
157.3018
 21
129.5905
 31
0.0
  0
LINE
  5
84C
330
1D
100
AcDbEntity
  8
0
100
AcDbLine
 10
245.858
 20
145.7305
 30
0.0
 11
245.2598
 21
146.5975
 31
0.0
  0
LINE
  5
84D
330
1D
100
AcDbEntity
  8
0
100
AcDbLine
 10
245.2598
 20
146.5975
 30
0.0
 11
244.3069
 21
148.1215
 31
0.0
  0
LINE
  5
84E
330
1D
100
AcDbEntity
  8
0
100
AcDbLine
 10
222.2759
 20
145.8915
 30
0.0
 11
221.1093
 21
144.5285
 31
0.0
  0
LINE
  5
84F
330
1D
100
AcDbEntity
  8
0
100
AcDbLine
 10
260.7158
 20
147.0885
 30
0.0
 11
260.3048
 21
149.7025
 31
0.0
  0
LINE
  5
850
330
1D
100
AcDbEntity
  8
0
100
AcDbLine
 10
207.284
 20
147.0885
 30
0.0
 11
207.145
 21
144.4455
 31
0.0
  0
LINE
  5
851
330
1D
100
AcDbEntity
  8
0
100
AcDbLine
 10
161.8545
 20
144.5595
 30
0.0
 11
161.802851087367
 21
143.572083333316
 31
0.0
  0
LINE
  5
852
330
1D
100
AcDbEntity
  8
0
100
AcDbLine
 10
161.8545
 20
144.5595
 30
0.0
 11
161.802851087367
 21
143.572083333316
 31
0.0
  0
LINE
  5
853
330
1D
100
AcDbEntity
  8
0
100
AcDbLine
 10
161.854
 20
144.5585
 30
0.0
 11
161.7169
 21
141.9145
 31
0.0
  0
LINE
  5
854
330
1D
100
AcDbEntity
  8
0
100
AcDbLine
 10
161.854
 20
144.5585
 30
0.0
 11
161.7356
 21
147.2025
 31
0.0
  0
LINE
  5
855
330
1D
100
AcDbEntity
  8
0
100
AcDbLine
 10
244.3069
 20
148.1215
 30
0.0
 11
243.4175
 21
149.6895
 31
0.0
  0
LINE
  5
856
330
1D
100
AcDbEntity
  8
0
100
AcDbLine
 10
223.266
 20
147.3885
 30
0.0
 11
222.2389
 21
145.8555
 31
0.0
  0
LINE
  5
857
330
1D
100
AcDbEntity
  8
0
100
AcDbLine
 10
260.3048
 20
149.7025
 30
0.0
 11
259.641
 21
152.2635
 31
0.0
  0
LINE
  5
858
330
1D
100
AcDbEntity
  8
0
100
AcDbLine
 10
243.4175
 20
149.6895
 30
0.0
 11
241.8619
 21
152.4325
 31
0.0
  0
LINE
  5
859
330
1D
100
AcDbEntity
  8
0
100
AcDbLine
 10
207.695
 20
149.7025
 30
0.0
 11
207.284
 21
147.0885
 31
0.0
  0
LINE
  5
85A
330
1D
100
AcDbEntity
  8
0
100
AcDbLine
 10
161.7356
 20
147.2025
 30
0.0
 11
161.3603
 21
149.8245
 31
0.0
  0
LINE
  5
85B
330
1D
100
AcDbEntity
  8
0
100
AcDbLine
 10
161.3603
 20
149.8245
 30
0.0
 11
160.7334
 21
152.3945
 31
0.0
  0
LINE
  5
85C
330
1D
100
AcDbEntity
  8
0
100
AcDbLine
 10
152.0204
 20
123.7475
 30
0.0
 11
149.9101
 21
122.1805
 31
0.0
  0
LINE
  5
85D
330
1D
100
AcDbEntity
  8
0
100
AcDbLine
 10
208.3588
 20
152.2635
 30
0.0
 11
207.695
 21
149.7025
 31
0.0
  0
LINE
  5
85E
330
1D
100
AcDbEntity
  8
0
100
AcDbLine
 10
259.641
 20
152.2635
 30
0.0
 11
258.7294
 21
154.7475
 31
0.0
  0
LINE
  5
85F
330
1D
100
AcDbEntity
  8
0
100
AcDbLine
 10
226.0638
 20
152.3205
 30
0.0
 11
224.3413
 21
149.2695
 31
0.0
  0
LINE
  5
860
330
1D
100
AcDbEntity
  8
0
100
AcDbLine
 10
241.8619
 20
152.4325
 30
0.0
 11
241.326650175854
 21
153.56189021574
 31
0.0
  0
LINE
  5
861
330
1D
100
AcDbEntity
  8
0
100
AcDbLine
 10
241.326650175854
 20
153.56189021574
 30
0.0
 11
240.873754772138
 21
154.744310670544
 31
0.0
  0
LINE
  5
862
330
1D
100
AcDbEntity
  8
0
100
AcDbLine
 10
240.873754772138
 20
154.744310670544
 30
0.0
 11
240.511402447948
 21
156.027854125053
 31
0.0
  0
LINE
  5
863
330
1D
100
AcDbEntity
  8
0
100
AcDbLine
 10
258.7294
 20
154.7475
 30
0.0
 11
257.5809
 21
157.1295
 31
0.0
  0
LINE
  5
864
330
1D
100
AcDbEntity
  8
0
100
AcDbLine
 10
226.570648259956
 20
153.313560025692
 30
0.0
 11
226.0638
 21
152.3205
 31
0.0
  0
LINE
  5
865
330
1D
100
AcDbEntity
  8
0
100
AcDbLine
 10
227.128678166135
 20
154.753637202929
 30
0.0
 11
226.570648259956
 21
153.313560025692
 31
0.0
  0
LINE
  5
866
330
1D
100
AcDbEntity
  8
0
100
AcDbLine
 10
209.2704
 20
154.7475
 30
0.0
 11
208.3588
 21
152.2635
 31
0.0
  0
LINE
  5
867
330
1D
100
AcDbEntity
  8
0
100
AcDbLine
 10
160.7334
 20
152.3945
 30
0.0
 11
159.8598
 21
154.8915
 31
0.0
  0
LINE
  5
868
330
1D
100
AcDbEntity
  8
0
100
AcDbLine
 10
159.8598
 20
154.8915
 30
0.0
 11
158.7486
 21
157.2885
 31
0.0
  0
LINE
  5
869
330
1D
100
AcDbEntity
  8
0
100
AcDbLine
 10
149.9101
 20
122.1805
 30
0.0
 11
147.659
 21
120.8295
 31
0.0
  0
LINE
  5
86A
330
1D
100
AcDbEntity
  8
0
100
AcDbLine
 10
150.462543163222
 20
122.590715816125
 30
0.0
 11
149.9104
 21
122.1805
 31
0.0
  0
LINE
  5
86B
330
1D
100
AcDbEntity
  8
0
100
AcDbLine
 10
150.462543163222
 20
122.590715816125
 30
0.0
 11
149.9104
 21
122.1805
 31
0.0
  0
LINE
  5
86C
330
1D
100
AcDbEntity
  8
0
100
AcDbLine
 10
240.511402447948
 20
156.027854125053
 30
0.0
 11
240.2507
 21
157.4035
 31
0.0
  0
LINE
  5
86D
330
1D
100
AcDbEntity
  8
0
100
AcDbLine
 10
227.488397552052
 20
156.027854125053
 30
0.0
 11
227.128678166135
 21
154.753637202929
 31
0.0
  0
LINE
  5
86E
330
1D
100
AcDbEntity
  8
0
100
AcDbLine
 10
240.2507
 20
157.4035
 30
0.0
 11
240.014673077298
 21
159.382559318818
 31
0.0
  0
LINE
  5
86F
330
1D
100
AcDbEntity
  8
0
100
AcDbLine
 10
227.488397552052
 20
156.027854125053
 30
0.0
 11
227.128678166135
 21
154.753637202929
 31
0.0
  0
LINE
  5
870
330
1D
100
AcDbEntity
  8
0
100
AcDbLine
 10
257.5809
 20
157.1295
 30
0.0
 11
256.2046
 21
159.3865
 31
0.0
  0
LINE
  5
871
330
1D
100
AcDbEntity
  8
0
100
AcDbLine
 10
210.4189
 20
157.1295
 30
0.0
 11
209.2704
 21
154.7475
 31
0.0
  0
LINE
  5
872
330
1D
100
AcDbEntity
  8
0
100
AcDbLine
 10
240.2507
 20
157.4035
 30
0.0
 11
240.238175941046
 21
157.463648115743
 31
0.0
  0
LINE
  5
873
330
1D
100
AcDbEntity
  8
0
100
AcDbLine
 10
227.7491
 20
157.4035
 30
0.0
 11
227.488397552052
 21
156.027854125053
 31
0.0
  0
LINE
  5
874
330
1D
100
AcDbEntity
  8
0
100
AcDbLine
 10
240.014673077298
 20
159.382559318819
 30
0.0
 11
240.0057
 21
159.5555
 31
0.0
  0
LINE
  5
875
330
1D
100
AcDbEntity
  8
0
100
AcDbLine
 10
227.77
 20
157.5745
 30
0.0
 11
227.7491
 21
157.4035
 31
0.0
  0
LINE
  5
876
330
1D
100
AcDbEntity
  8
0
100
AcDbLine
 10
158.7486
 20
157.2885
 30
0.0
 11
157.4101
 21
159.5655
 31
0.0
  0
LINE
  5
877
330
1D
100
AcDbEntity
  8
0
100
AcDbLine
 10
147.659
 20
120.8295
 30
0.0
 11
145.2871
 21
119.7075
 31
0.0
  0
LINE
  5
878
330
1D
100
AcDbEntity
  8
0
100
AcDbLine
 10
145.2215
 20
124.7225
 30
0.0
 11
145.2036
 21
129.2405
 31
0.0
  0
LINE
  5
879
330
1D
100
AcDbEntity
  8
0
100
AcDbLine
 10
145.2036
 20
129.2405
 30
0.0
 11
145.1882
 21
133.1905
 31
0.0
  0
LINE
  5
87A
330
1D
100
AcDbEntity
  8
0
100
AcDbLine
 10
145.1882
 20
133.1905
 30
0.0
 11
145.1773
 21
136.5115
 31
0.0
  0
LINE
  5
87B
330
1D
100
AcDbEntity
  8
0
100
AcDbLine
 10
256.2046
 20
159.3865
 30
0.0
 11
254.6143
 21
161.4975
 31
0.0
  0
LINE
  5
87C
330
1D
100
AcDbEntity
  8
0
100
AcDbLine
 10
240.0057
 20
159.5555
 30
0.0
 11
239.9645
 21
160.3465
 31
0.0
  0
LINE
  5
87D
330
1D
100
AcDbEntity
  8
0
100
AcDbLine
 10
227.989708404843
 20
159.506643818889
 30
0.0
 11
227.77
 21
157.5745
 31
0.0
  0
LINE
  5
87E
330
1D
100
AcDbEntity
  8
0
100
AcDbLine
 10
211.7952
 20
159.3865
 30
0.0
 11
210.4189
 21
157.1295
 31
0.0
  0
LINE
  5
87F
330
1D
100
AcDbEntity
  8
0
100
AcDbLine
 10
239.9645
 20
160.3465
 30
0.0
 11
239.8701
 21
162.1415
 31
0.0
  0
LINE
  5
880
330
1D
100
AcDbEntity
  8
0
100
AcDbLine
 10
228.0968
 20
161.3315
 30
0.0
 11
228.092953927964
 21
161.054442531146
 31
0.0
  0
LINE
  5
881
330
1D
100
AcDbEntity
  8
0
100
AcDbLine
 10
228.0968
 20
161.3315
 30
0.0
 11
228.0713
 21
160.5115
 31
0.0
  0
LINE
  5
882
330
1D
100
AcDbEntity
  8
0
100
AcDbLine
 10
254.6143
 20
161.4975
 30
0.0
 11
252.8259
 21
163.4425
 31
0.0
  0
LINE
  5
883
330
1D
100
AcDbEntity
  8
0
100
AcDbLine
 10
228.0713
 20
160.5115
 30
0.0
 11
227.989708404843
 21
159.506643818889
 31
0.0
  0
LINE
  5
884
330
1D
100
AcDbEntity
  8
0
100
AcDbLine
 10
213.3855
 20
161.4975
 30
0.0
 11
211.7952
 21
159.3865
 31
0.0
  0
LINE
  5
885
330
1D
100
AcDbEntity
  8
0
100
AcDbLine
 10
157.4101
 20
159.5655
 30
0.0
 11
155.858
 21
161.6985
 31
0.0
  0
LINE
  5
886
330
1D
100
AcDbEntity
  8
0
100
AcDbLine
 10
228.146
 20
162.3845
 30
0.0
 11
228.0968
 21
161.3315
 31
0.0
  0
LINE
  5
887
330
1D
100
AcDbEntity
  8
0
100
AcDbLine
 10
252.8259
 20
163.4425
 30
0.0
 11
250.8564
 21
165.2015
 31
0.0
  0
LINE
  5
888
330
1D
100
AcDbEntity
  8
0
100
AcDbLine
 10
239.8701
 20
162.1415
 30
0.0
 11
239.0769
 21
180.1925
 31
0.0
  0
LINE
  5
889
330
1D
100
AcDbEntity
  8
0
100
AcDbLine
 10
215.1739
 20
163.4425
 30
0.0
 11
213.3855
 21
161.4975
 31
0.0
  0
LINE
  5
88A
330
1D
100
AcDbEntity
  8
0
100
AcDbLine
 10
217.1521
 20
165.1905
 30
0.0
 11
215.1739
 21
163.4425
 31
0.0
  0
LINE
  5
88B
330
1D
100
AcDbEntity
  8
0
100
AcDbLine
 10
250.8564
 20
165.2015
 30
0.0
 11
248.7237
 21
166.7585
 31
0.0
  0
LINE
  5
88C
330
1D
100
AcDbEntity
  8
0
100
AcDbLine
 10
203.9083
 20
164.4255
 30
0.0
 11
203.9083
 21
132.846073578417
 31
0.0
  0
LINE
  5
88D
330
1D
100
AcDbEntity
  8
0
100
AcDbLine
 10
164.9526
 20
165.0715
 30
0.0
 11
164.8226
 21
166.6325
 31
0.0
  0
LINE
  5
88E
330
1D
100
AcDbEntity
  8
0
100
AcDbLine
 10
155.858
 20
161.6985
 30
0.0
 11
154.1054
 21
163.6685
 31
0.0
  0
LINE
  5
88F
330
1D
100
AcDbEntity
  8
0
100
AcDbLine
 10
154.1054
 20
163.6685
 30
0.0
 11
152.1707
 21
165.4545
 31
0.0
  0
LINE
  5
890
330
1D
100
AcDbEntity
  8
0
100
AcDbLine
 10
263.9633
 20
166.3565
 30
0.0
 11
263.0077
 21
168.9545
 31
0.0
  0
LINE
  5
891
330
1D
100
AcDbEntity
  8
0
100
AcDbLine
 10
248.7237
 20
166.7585
 30
0.0
 11
246.4497
 21
168.0995
 31
0.0
  0
LINE
  5
892
330
1D
100
AcDbEntity
  8
0
100
AcDbLine
 10
246.4497
 20
168.0995
 30
0.0
 11
244.0563
 21
169.2075
 31
0.0
  0
LINE
  5
893
330
1D
100
AcDbEntity
  8
0
100
AcDbLine
 10
219.2761
 20
166.7585
 30
0.0
 11
217.1521
 21
165.1905
 31
0.0
  0
LINE
  5
894
330
1D
100
AcDbEntity
  8
0
100
AcDbLine
 10
221.5501
 20
168.0995
 30
0.0
 11
219.2761
 21
166.7585
 31
0.0
  0
LINE
  5
895
330
1D
100
AcDbEntity
  8
0
100
AcDbLine
 10
204.6375
 20
168.2555
 30
0.0
 11
204.0308
 21
165.9865
 31
0.0
  0
LINE
  5
896
330
1D
100
AcDbEntity
  8
0
100
AcDbLine
 10
204.0308
 20
165.9865
 30
0.0
 11
203.9083
 21
164.4255
 31
0.0
  0
LINE
  5
897
330
1D
100
AcDbEntity
  8
0
100
AcDbLine
 10
164.4535
 20
168.1525
 30
0.0
 11
163.852
 21
169.5965
 31
0.0
  0
LINE
  5
898
330
1D
100
AcDbEntity
  8
0
100
AcDbLine
 10
164.8226
 20
166.6325
 30
0.0
 11
164.4535
 21
168.1525
 31
0.0
  0
LINE
  5
899
330
1D
100
AcDbEntity
  8
0
100
AcDbLine
 10
152.1707
 20
165.4545
 30
0.0
 11
150.0725
 21
167.0415
 31
0.0
  0
LINE
  5
89A
330
1D
100
AcDbEntity
  8
0
100
AcDbLine
 10
147.8315
 20
168.4115
 30
0.0
 11
145.467
 21
169.5535
 31
0.0
  0
LINE
  5
89B
330
1D
100
AcDbEntity
  8
0
100
AcDbLine
 10
150.0725
 20
167.0415
 30
0.0
 11
147.8315
 21
168.4115
 31
0.0
  0
LINE
  5
89C
330
1D
100
AcDbEntity
  8
0
100
AcDbLine
 10
145.1707
 20
142.2405
 30
0.0
 11
145.1689
 21
141.0695
 31
0.0
  0
LINE
  5
89D
330
1D
100
AcDbEntity
  8
0
100
AcDbLine
 10
145.171
 20
139.1505
 30
0.0
 11
145.1689
 21
141.0695
 31
0.0
  0
LINE
  5
89E
330
1D
100
AcDbEntity
  8
0
100
AcDbLine
 10
145.1773
 20
136.5115
 30
0.0
 11
145.171
 21
139.1505
 31
0.0
  0
LINE
  5
89F
330
1D
100
AcDbEntity
  8
0
100
AcDbLine
 10
135.7096
 20
156.1355
 30
0.0
 11
135.603
 21
156.0895
 31
0.0
  0
LINE
  5
8A0
330
1D
100
AcDbEntity
  8
0
100
AcDbLine
 10
135.587002001394
 20
156.089487053493
 30
0.0
 11
135.4499
 21
156.0405
 31
0.0
  0
LINE
  5
8A1
330
1D
100
AcDbEntity
  8
0
100
AcDbLine
 10
135.4499
 20
156.0405
 30
0.0
 11
134.8256
 21
156.0255
 31
0.0
  0
LINE
  5
8A2
330
1D
100
AcDbEntity
  8
0
100
AcDbLine
 10
136.116
 20
156.2785
 30
0.0
 11
135.618468551879
 21
156.100730168664
 31
0.0
  0
LINE
  5
8A3
330
1D
100
AcDbEntity
  8
0
100
AcDbLine
 10
136.5703
 20
156.6195
 30
0.0
 11
136.116
 21
156.2785
 31
0.0
  0
LINE
  5
8A4
330
1D
100
AcDbEntity
  8
0
100
AcDbLine
 10
137.0514
 20
157.3365
 30
0.0
 11
136.5703
 21
156.6195
 31
0.0
  0
LINE
  5
8A5
330
1D
100
AcDbEntity
  8
0
100
AcDbLine
 10
136.9688
 20
158.4035
 30
0.0
 11
136.9546
 21
159.5905
 31
0.0
  0
LINE
  5
8A6
330
1D
100
AcDbEntity
  8
0
100
AcDbLine
 10
137.2133
 20
158.2165
 30
0.0
 11
137.0514
 21
157.3365
 31
0.0
  0
LINE
  5
8A7
330
1D
100
AcDbEntity
  8
0
100
AcDbLine
 10
137.2133
 20
158.2165
 30
0.0
 11
136.960780732408
 21
159.073843002197
 31
0.0
  0
LINE
  5
8A8
330
1D
100
AcDbEntity
  8
0
100
AcDbLine
 10
136.9546
 20
159.5905
 30
0.0
 11
136.9453
 21
161.3705
 31
0.0
  0
LINE
  5
8A9
330
1D
100
AcDbEntity
  8
0
100
AcDbLine
 10
136.9453
 20
161.3705
 30
0.0
 11
136.942
 21
163.4735
 31
0.0
  0
LINE
  5
8AA
330
1D
100
AcDbEntity
  8
0
100
AcDbLine
 10
136.942
 20
163.4735
 30
0.0
 11
136.941551822729
 21
164.967560048113
 31
0.0
  0
LINE
  5
8AB
330
1D
100
AcDbEntity
  8
0
100
AcDbLine
 10
135.0585
 20
164.9645
 30
0.0
 11
134.6493
 21
164.9645
 31
0.0
  0
LINE
  5
8AC
330
1D
100
AcDbEntity
  8
0
100
AcDbLine
 10
135.4658
 20
164.9645
 30
0.0
 11
135.0585
 21
164.9645
 31
0.0
  0
LINE
  5
8AD
330
1D
100
AcDbEntity
  8
0
100
AcDbLine
 10
135.8626
 20
164.9655
 30
0.0
 11
135.4658
 21
164.9645
 31
0.0
  0
LINE
  5
8AE
330
1D
100
AcDbEntity
  8
0
100
AcDbLine
 10
136.5987
 20
164.9655
 30
0.0
 11
136.2434
 21
164.9655
 31
0.0
  0
LINE
  5
8AF
330
1D
100
AcDbEntity
  8
0
100
AcDbLine
 10
137.9002
 20
164.9735
 30
0.0
 11
137.805
 21
164.9715
 31
0.0
  0
LINE
  5
8B0
330
1D
100
AcDbEntity
  8
0
100
AcDbLine
 10
137.2116
 20
164.9685
 30
0.0
 11
136.9243
 21
164.9675
 31
0.0
  0
LINE
  5
8B1
330
1D
100
AcDbEntity
  8
0
100
AcDbLine
 10
137.4582
 20
164.9695
 30
0.0
 11
137.2116
 21
164.9685
 31
0.0
  0
LINE
  5
8B2
330
1D
100
AcDbEntity
  8
0
100
AcDbLine
 10
137.6569
 20
164.9705
 30
0.0
 11
137.4582
 21
164.9695
 31
0.0
  0
LINE
  5
8B3
330
1D
100
AcDbEntity
  8
0
100
AcDbLine
 10
137.805
 20
164.9715
 30
0.0
 11
137.6569
 21
164.9705
 31
0.0
  0
LINE
  5
8B4
330
1D
100
AcDbEntity
  8
0
100
AcDbLine
 10
136.9848
 20
165.4655
 30
0.0
 11
136.6134
 21
165.4645
 31
0.0
  0
LINE
  5
8B5
330
1D
100
AcDbEntity
  8
0
100
AcDbLine
 10
137.3249
 20
165.4655
 30
0.0
 11
136.9848
 21
165.4655
 31
0.0
  0
LINE
  5
8B6
330
1D
100
AcDbEntity
  8
0
100
AcDbLine
 10
137.6273
 20
165.4675
 30
0.0
 11
137.3249
 21
165.4655
 31
0.0
  0
LINE
  5
8B7
330
1D
100
AcDbEntity
  8
0
100
AcDbLine
 10
137.888
 20
165.4685
 30
0.0
 11
137.6273
 21
165.4675
 31
0.0
  0
LINE
  5
8B8
330
1D
100
AcDbEntity
  8
0
100
AcDbLine
 10
138.1011
 20
165.4695
 30
0.0
 11
137.888
 21
165.4685
 31
0.0
  0
LINE
  5
8B9
330
1D
100
AcDbEntity
  8
0
100
AcDbLine
 10
138.2653
 20
165.4715
 30
0.0
 11
138.1011
 21
165.4695
 31
0.0
  0
LINE
  5
8BA
330
1D
100
AcDbEntity
  8
0
100
AcDbLine
 10
138.3758
 20
165.4725
 30
0.0
 11
138.2653
 21
165.4715
 31
0.0
  0
LINE
  5
8BB
330
1D
100
AcDbEntity
  8
0
100
AcDbLine
 10
138.4333
 20
165.4745
 30
0.0
 11
138.3758
 21
165.4725
 31
0.0
  0
LINE
  5
8BC
330
1D
100
AcDbEntity
  8
0
100
AcDbLine
 10
138.4333
 20
165.4745
 30
0.0
 11
137.9406
 21
164.9745
 31
0.0
  0
LINE
  5
8BD
330
1D
100
AcDbEntity
  8
0
100
AcDbLine
 10
138.4351
 20
165.4755
 30
0.0
 11
138.4309
 21
179.4755
 31
0.0
  0
LINE
  5
8BE
330
1D
100
AcDbEntity
  8
0
100
AcDbLine
 10
135.3636
 20
165.4635
 30
0.0
 11
134.925
 21
165.4625
 31
0.0
  0
LINE
  5
8BF
330
1D
100
AcDbEntity
  8
0
100
AcDbLine
 10
135.7961
 20
165.4635
 30
0.0
 11
135.3636
 21
165.4635
 31
0.0
  0
LINE
  5
8C0
330
1D
100
AcDbEntity
  8
0
100
AcDbLine
 10
136.2144
 20
165.4635
 30
0.0
 11
135.7961
 21
165.4635
 31
0.0
  0
LINE
  5
8C1
330
1D
100
AcDbEntity
  8
0
100
AcDbLine
 10
136.6134
 20
165.4645
 30
0.0
 11
136.2144
 21
165.4635
 31
0.0
  0
LINE
  5
8C2
330
1D
100
AcDbEntity
  8
0
100
AcDbLine
 10
136.9243
 20
164.9675
 30
0.0
 11
136.5987
 21
164.9655
 31
0.0
  0
LINE
  5
8C3
330
1D
100
AcDbEntity
  8
0
100
AcDbLine
 10
136.2434
 20
164.9655
 30
0.0
 11
135.8626
 21
164.9655
 31
0.0
  0
LINE
  5
8C4
330
1D
100
AcDbEntity
  8
0
100
AcDbLine
 10
145.1768
 20
142.6465
 30
0.0
 11
145.1607
 21
145.6315
 31
0.0
  0
LINE
  5
8C5
330
1D
100
AcDbEntity
  8
0
100
AcDbLine
 10
145.1768
 20
142.6465
 30
0.0
 11
145.15431182676
 21
142.567434635306
 31
0.0
  0
LINE
  5
8C6
330
1D
100
AcDbEntity
  8
0
100
AcDbLine
 10
145.1777
 20
142.6455
 30
0.0
 11
145.1707
 21
142.2405
 31
0.0
  0
LINE
  5
8C7
330
1D
100
AcDbEntity
  8
0
100
AcDbLine
 10
145.1777
 20
142.6455
 30
0.0
 11
145.1607
 21
145.6315
 31
0.0
  0
LINE
  5
8C8
330
1D
100
AcDbEntity
  8
0
100
AcDbLine
 10
145.1777
 20
142.6455
 30
0.0
 11
145.154316187572
 21
142.563404848438
 31
0.0
  0
LINE
  5
8C9
330
1D
100
AcDbEntity
  8
0
100
AcDbLine
 10
263.0077
 20
168.9545
 30
0.0
 11
262.1926
 21
170.2885
 31
0.0
  0
LINE
  5
8CA
330
1D
100
AcDbEntity
  8
0
100
AcDbLine
 10
244.0563
 20
169.2075
 30
0.0
 11
241.5643
 21
170.0765
 31
0.0
  0
LINE
  5
8CB
330
1D
100
AcDbEntity
  8
0
100
AcDbLine
 10
223.9435
 20
169.2075
 30
0.0
 11
221.5501
 21
168.0995
 31
0.0
  0
LINE
  5
8CC
330
1D
100
AcDbEntity
  8
0
100
AcDbLine
 10
163.852
 20
169.5965
 30
0.0
 11
163.0362
 21
170.9275
 31
0.0
  0
LINE
  5
8CD
330
1D
100
AcDbEntity
  8
0
100
AcDbLine
 10
262.1926
 20
170.2885
 30
0.0
 11
261.1805
 21
171.4795
 31
0.0
  0
LINE
  5
8CE
330
1D
100
AcDbEntity
  8
0
100
AcDbLine
 10
241.5643
 20
170.0765
 30
0.0
 11
239.499475423245
 21
170.575872459661
 31
0.0
  0
LINE
  5
8CF
330
1D
100
AcDbEntity
  8
0
100
AcDbLine
 10
226.4355
 20
170.0765
 30
0.0
 11
223.9435
 21
169.2075
 31
0.0
  0
LINE
  5
8D0
330
1D
100
AcDbEntity
  8
0
100
AcDbLine
 10
228.509944599136
 20
170.566125482795
 30
0.0
 11
226.4355
 21
170.0765
 31
0.0
  0
LINE
  5
8D1
330
1D
100
AcDbEntity
  8
0
100
AcDbLine
 10
205.8072
 20
170.2885
 30
0.0
 11
204.6375
 21
168.2555
 31
0.0
  0
LINE
  5
8D2
330
1D
100
AcDbEntity
  8
0
100
AcDbLine
 10
163.0362
 20
170.9275
 30
0.0
 11
162.0237
 21
172.1135
 31
0.0
  0
LINE
  5
8D3
330
1D
100
AcDbEntity
  8
0
100
AcDbLine
 10
145.467
 20
169.5535
 30
0.0
 11
143.0045
 21
170.4565
 31
0.0
  0
LINE
  5
8D4
330
1D
100
AcDbEntity
  8
0
100
AcDbLine
 10
143.0045
 20
170.4565
 30
0.0
 11
140.4654
 21
171.1105
 31
0.0
  0
LINE
  5
8D5
330
1D
100
AcDbEntity
  8
0
100
AcDbLine
 10
140.4654
 20
171.1105
 30
0.0
 11
138.433315320268
 21
171.424432439322
 31
0.0
  0
LINE
  5
8D6
330
1D
100
AcDbEntity
  8
0
100
AcDbLine
 10
261.1805
 20
171.4795
 30
0.0
 11
259.9943
 21
172.4955
 31
0.0
  0
LINE
  5
8D7
330
1D
100
AcDbEntity
  8
0
100
AcDbLine
 10
206.8193
 20
171.4795
 30
0.0
 11
205.8072
 21
170.2885
 31
0.0
  0
LINE
  5
8D8
330
1D
100
AcDbEntity
  8
0
100
AcDbLine
 10
259.9943
 20
172.4955
 30
0.0
 11
257.9706
 21
173.6685
 31
0.0
  0
LINE
  5
8D9
330
1D
100
AcDbEntity
  8
0
100
AcDbLine
 10
257.9706
 20
173.6685
 30
0.0
 11
255.707
 21
174.2775
 31
0.0
  0
LINE
  5
8DA
330
1D
100
AcDbEntity
  8
0
100
AcDbLine
 10
209.3351
 20
173.3135
 30
0.0
 11
208.0055
 21
172.4955
 31
0.0
  0
LINE
  5
8DB
330
1D
100
AcDbEntity
  8
0
100
AcDbLine
 10
208.0055
 20
172.4955
 30
0.0
 11
206.8193
 21
171.4795
 31
0.0
  0
LINE
  5
8DC
330
1D
100
AcDbEntity
  8
0
100
AcDbLine
 10
228.680509714776
 20
174.4005
 30
0.0
 11
213.8473
 21
174.4005
 31
0.0
  0
LINE
  5
8DD
330
1D
100
AcDbEntity
  8
0
100
AcDbLine
 10
254.1525
 20
174.4005
 30
0.0
 11
239.331413013129
 21
174.4005
 31
0.0
  0
LINE
  5
8DE
330
1D
100
AcDbEntity
  8
0
100
AcDbLine
 10
255.707
 20
174.2775
 30
0.0
 11
254.1525
 21
174.4005
 31
0.0
  0
LINE
  5
8DF
330
1D
100
AcDbEntity
  8
0
100
AcDbLine
 10
239.0769
 20
180.1925
 30
0.0
 11
239.0213
 21
181.0085
 31
0.0
  0
LINE
  5
8E0
330
1D
100
AcDbEntity
  8
0
100
AcDbLine
 10
238.8257
 20
181.8365
 30
0.0
 11
238.4859
 21
182.5765
 31
0.0
  0
LINE
  5
8E1
330
1D
100
AcDbEntity
  8
0
100
AcDbLine
 10
239.0213
 20
181.0085
 30
0.0
 11
238.8257
 21
181.8365
 31
0.0
  0
LINE
  5
8E2
330
1D
100
AcDbEntity
  8
0
100
AcDbLine
 10
238.0102
 20
183.2615
 30
0.0
 11
237.4495
 21
183.8275
 31
0.0
  0
LINE
  5
8E3
330
1D
100
AcDbEntity
  8
0
100
AcDbLine
 10
238.4859
 20
182.5765
 30
0.0
 11
238.0102
 21
183.2615
 31
0.0
  0
LINE
  5
8E4
330
1D
100
AcDbEntity
  8
0
100
AcDbLine
 10
236.0589
 20
184.6925
 30
0.0
 11
235.4322
 21
184.8845
 31
0.0
  0
LINE
  5
8E5
330
1D
100
AcDbEntity
  8
0
100
AcDbLine
 10
235.4322
 20
184.8845
 30
0.0
 11
234.5767
 21
184.9985
 31
0.0
  0
LINE
  5
8E6
330
1D
100
AcDbEntity
  8
0
100
AcDbLine
 10
236.7494
 20
184.3425
 30
0.0
 11
236.0589
 21
184.6925
 31
0.0
  0
LINE
  5
8E7
330
1D
100
AcDbEntity
  8
0
100
AcDbLine
 10
237.4495
 20
183.8275
 30
0.0
 11
236.7494
 21
184.3425
 31
0.0
  0
LINE
  5
8E8
330
1D
100
AcDbEntity
  8
0
100
AcDbLine
 10
233.2218
 20
184.9795
 30
0.0
 11
232.5676
 21
184.8845
 31
0.0
  0
LINE
  5
8E9
330
1D
100
AcDbEntity
  8
0
100
AcDbLine
 10
229.207
 20
181.9255
 30
0.0
 11
228.9757
 21
181.0365
 31
0.0
  0
LINE
  5
8EA
330
1D
100
AcDbEntity
  8
0
100
AcDbLine
 10
229.6585
 20
182.8215
 30
0.0
 11
229.207
 21
181.9255
 31
0.0
  0
LINE
  5
8EB
330
1D
100
AcDbEntity
  8
0
100
AcDbLine
 10
229.8336
 20
183.0535
 30
0.0
 11
229.6585
 21
182.8215
 31
0.0
  0
LINE
  5
8EC
330
1D
100
AcDbEntity
  8
0
100
AcDbLine
 10
231.6572
 20
184.5545
 30
0.0
 11
231.1093
 21
184.2315
 31
0.0
  0
LINE
  5
8ED
330
1D
100
AcDbEntity
  8
0
100
AcDbLine
 10
231.1093
 20
184.2315
 30
0.0
 11
230.5103
 21
183.7745
 31
0.0
  0
LINE
  5
8EE
330
1D
100
AcDbEntity
  8
0
100
AcDbLine
 10
230.5103
 20
183.7745
 30
0.0
 11
229.8336
 21
183.0535
 31
0.0
  0
LINE
  5
8EF
330
1D
100
AcDbEntity
  8
0
100
AcDbLine
 10
232.5676
 20
184.8845
 30
0.0
 11
231.6572
 21
184.5545
 31
0.0
  0
LINE
  5
8F0
330
1D
100
AcDbEntity
  8
0
100
AcDbLine
 10
228.9757
 20
181.0365
 30
0.0
 11
228.146
 21
162.3845
 31
0.0
  0
LINE
  5
8F1
330
1D
100
AcDbEntity
  8
0
100
AcDbLine
 10
234.5767
 20
184.9985
 30
0.0
 11
233.2218
 21
184.9795
 31
0.0
  0
LINE
  5
8F2
330
1D
100
AcDbEntity
  8
0
100
AcDbLine
 10
213.8473
 20
174.4005
 30
0.0
 11
211.5218
 21
174.1545
 31
0.0
  0
LINE
  5
8F3
330
1D
100
AcDbEntity
  8
0
100
AcDbLine
 10
211.5218
 20
174.1545
 30
0.0
 11
209.3351
 21
173.3135
 31
0.0
  0
LINE
  5
8F4
330
1D
100
AcDbEntity
  8
0
100
AcDbLine
 10
138.0969
 20
179.4695
 30
0.0
 11
137.8829
 21
179.4685
 31
0.0
  0
LINE
  5
8F5
330
1D
100
AcDbEntity
  8
0
100
AcDbLine
 10
138.3716
 20
179.4725
 30
0.0
 11
138.2602
 21
179.4705
 31
0.0
  0
LINE
  5
8F6
330
1D
100
AcDbEntity
  8
0
100
AcDbLine
 10
138.4291
 20
179.4745
 30
0.0
 11
138.3716
 21
179.4725
 31
0.0
  0
LINE
  5
8F7
330
1D
100
AcDbEntity
  8
0
100
AcDbLine
 10
138.4291
 20
179.4745
 30
0.0
 11
137.9349
 21
179.9735
 31
0.0
  0
LINE
  5
8F8
330
1D
100
AcDbEntity
  8
0
100
AcDbLine
 10
138.2602
 20
179.4705
 30
0.0
 11
138.0969
 21
179.4695
 31
0.0
  0
LINE
  5
8F9
330
1D
100
AcDbEntity
  8
0
100
AcDbLine
 10
137.8829
 20
179.4685
 30
0.0
 11
137.6231
 21
179.4675
 31
0.0
  0
LINE
  5
8FA
330
1D
100
AcDbEntity
  8
0
100
AcDbLine
 10
137.3208
 20
179.4655
 30
0.0
 11
136.9806
 21
179.4655
 31
0.0
  0
LINE
  5
8FB
330
1D
100
AcDbEntity
  8
0
100
AcDbLine
 10
137.6231
 20
179.4675
 30
0.0
 11
137.3208
 21
179.4655
 31
0.0
  0
LINE
  5
8FC
330
1D
100
AcDbEntity
  8
0
100
AcDbLine
 10
136.6083
 20
179.4635
 30
0.0
 11
136.2103
 21
179.4635
 31
0.0
  0
LINE
  5
8FD
330
1D
100
AcDbEntity
  8
0
100
AcDbLine
 10
136.9806
 20
179.4655
 30
0.0
 11
136.6083
 21
179.4635
 31
0.0
  0
LINE
  5
8FE
330
1D
100
AcDbEntity
  8
0
100
AcDbLine
 10
136.2103
 20
179.4635
 30
0.0
 11
135.791
 21
179.4625
 31
0.0
  0
LINE
  5
8FF
330
1D
100
AcDbEntity
  8
0
100
AcDbLine
 10
135.3585
 20
179.4625
 30
0.0
 11
134.9198
 21
179.4625
 31
0.0
  0
LINE
  5
900
330
1D
100
AcDbEntity
  8
0
100
AcDbLine
 10
135.791
 20
179.4625
 30
0.0
 11
135.3585
 21
179.4625
 31
0.0
  0
LINE
  5
901
330
1D
100
AcDbEntity
  8
0
100
AcDbLine
 10
135.0539
 20
179.9635
 30
0.0
 11
134.6447
 21
179.9635
 31
0.0
  0
LINE
  5
902
330
1D
100
AcDbEntity
  8
0
100
AcDbLine
 10
135.461
 20
179.9645
 30
0.0
 11
135.0539
 21
179.9635
 31
0.0
  0
LINE
  5
903
330
1D
100
AcDbEntity
  8
0
100
AcDbLine
 10
135.8578
 20
179.9655
 30
0.0
 11
135.461
 21
179.9645
 31
0.0
  0
LINE
  5
904
330
1D
100
AcDbEntity
  8
0
100
AcDbLine
 10
136.2386
 20
179.9655
 30
0.0
 11
135.8578
 21
179.9655
 31
0.0
  0
LINE
  5
905
330
1D
100
AcDbEntity
  8
0
100
AcDbLine
 10
136.5939
 20
179.9655
 30
0.0
 11
136.2386
 21
179.9655
 31
0.0
  0
LINE
  5
906
330
1D
100
AcDbEntity
  8
0
100
AcDbLine
 10
136.9187
 20
179.9665
 30
0.0
 11
136.5939
 21
179.9655
 31
0.0
  0
LINE
  5
907
330
1D
100
AcDbEntity
  8
0
100
AcDbLine
 10
137.2069
 20
179.9675
 30
0.0
 11
136.9187
 21
179.9665
 31
0.0
  0
LINE
  5
908
330
1D
100
AcDbEntity
  8
0
100
AcDbLine
 10
137.4534
 20
179.9695
 30
0.0
 11
137.2069
 21
179.9675
 31
0.0
  0
LINE
  5
909
330
1D
100
AcDbEntity
  8
0
100
AcDbLine
 10
137.6523
 20
179.9695
 30
0.0
 11
137.4534
 21
179.9695
 31
0.0
  0
LINE
  5
90A
330
1D
100
AcDbEntity
  8
0
100
AcDbLine
 10
137.8002
 20
179.9715
 30
0.0
 11
137.6523
 21
179.9695
 31
0.0
  0
LINE
  5
90B
330
1D
100
AcDbEntity
  8
0
100
AcDbLine
 10
137.8954
 20
179.9735
 30
0.0
 11
137.8002
 21
179.9715
 31
0.0
  0
LINE
  5
90C
330
1D
100
AcDbEntity
  8
0
100
AcDbLine
 10
135.2291
 20
179.9835
 30
0.0
 11
134.8199
 21
179.9835
 31
0.0
  0
LINE
  5
90D
330
1D
100
AcDbEntity
  8
0
100
AcDbLine
 10
135.6323
 20
179.9835
 30
0.0
 11
135.2291
 21
179.9835
 31
0.0
  0
LINE
  5
90E
330
1D
100
AcDbEntity
  8
0
100
AcDbLine
 10
136.0232
 20
179.9835
 30
0.0
 11
135.6323
 21
179.9835
 31
0.0
  0
LINE
  5
90F
330
1D
100
AcDbEntity
  8
0
100
AcDbLine
 10
136.394
 20
179.9825
 30
0.0
 11
136.0232
 21
179.9835
 31
0.0
  0
LINE
  5
910
330
1D
100
AcDbEntity
  8
0
100
AcDbLine
 10
136.7372
 20
179.9825
 30
0.0
 11
136.394
 21
179.9825
 31
0.0
  0
LINE
  5
911
330
1D
100
AcDbEntity
  8
0
100
AcDbLine
 10
137.0472
 20
179.9805
 30
0.0
 11
136.7372
 21
179.9825
 31
0.0
  0
LINE
  5
912
330
1D
100
AcDbEntity
  8
0
100
AcDbLine
 10
137.3184
 20
179.9805
 30
0.0
 11
137.0472
 21
179.9805
 31
0.0
  0
LINE
  5
913
330
1D
100
AcDbEntity
  8
0
100
AcDbLine
 10
137.544
 20
179.9795
 30
0.0
 11
137.3184
 21
179.9805
 31
0.0
  0
LINE
  5
914
330
1D
100
AcDbEntity
  8
0
100
AcDbLine
 10
137.7219
 20
179.9785
 30
0.0
 11
137.544
 21
179.9795
 31
0.0
  0
LINE
  5
915
330
1D
100
AcDbEntity
  8
0
100
AcDbLine
 10
137.848
 20
179.9765
 30
0.0
 11
137.7219
 21
179.9785
 31
0.0
  0
LINE
  5
916
330
1D
100
AcDbEntity
  8
0
100
AcDbLine
 10
137.9194
 20
179.9755
 30
0.0
 11
137.848
 21
179.9765
 31
0.0
  0
LINE
  5
917
330
1D
100
AcDbEntity
  8
0
100
AcDbLine
 10
155.0262
 20
175.0015
 30
0.0
 11
138.43226632168
 21
174.921094399882
 31
0.0
  0
LINE
  5
918
330
1D
100
AcDbEntity
  8
0
100
AcDbLine
 10
156.5717
 20
174.8865
 30
0.0
 11
155.0262
 21
175.0015
 31
0.0
  0
LINE
  5
919
330
1D
100
AcDbEntity
  8
0
100
AcDbLine
 10
158.0795
 20
174.5285
 30
0.0
 11
156.5717
 21
174.8865
 31
0.0
  0
LINE
  5
91A
330
1D
100
AcDbEntity
  8
0
100
AcDbLine
 10
159.5139
 20
173.9355
 30
0.0
 11
158.0795
 21
174.5285
 31
0.0
  0
LINE
  5
91B
330
1D
100
AcDbEntity
  8
0
100
AcDbLine
 10
160.84
 20
173.1245
 30
0.0
 11
159.5139
 21
173.9355
 31
0.0
  0
LINE
  5
91C
330
1D
100
AcDbEntity
  8
0
100
AcDbLine
 10
162.0237
 20
172.1135
 30
0.0
 11
160.84
 21
173.1245
 31
0.0
  0
LINE
  5
91D
330
1D
100
AcDbEntity
  8
0
100
AcDbLine
 10
145.1607
 20
145.6315
 30
0.0
 11
145.1607
 21
150.329573700823
 31
0.0
  0
LINE
  5
91E
330
1D
100
AcDbEntity
  8
0
100
AcDbLine
 10
145.1607
 20
150.329573700823
 30
0.0
 11
144.787747264637
 21
151.477342355558
 31
0.0
  0
LINE
  5
91F
330
1D
100
AcDbEntity
  8
0
100
AcDbLine
 10
144.787747264637
 20
151.477342355558
 30
0.0
 11
143.795863194625
 21
152.717197443073
 31
0.0
  0
LINE
  5
920
330
1D
100
AcDbEntity
  8
0
100
AcDbLine
 10
143.795863194625
 20
152.717197443073
 30
0.0
 11
142.060066072103
 21
153.758675716586
 31
0.0
  0
LINE
  5
921
330
1D
100
AcDbEntity
  8
0
100
AcDbLine
 10
142.060066072103
 20
153.758675716586
 30
0.0
 11
139.828326914576
 21
154.477791667345
 31
0.0
  0
LINE
  5
922
330
1D
100
AcDbEntity
  8
0
100
AcDbLine
 10
139.828326914576
 20
154.477791667345
 30
0.0
 11
137.171056535496
 21
155.023700225617
 31
0.0
  0
LINE
  5
923
330
1D
100
AcDbEntity
  8
0
100
AcDbLine
 10
137.171056535496
 20
155.023700225617
 30
0.0
 11
136.558091068646
 21
155.129644874208
 31
0.0
  0
LINE
  5
924
330
1D
100
AcDbEntity
  8
0
100
AcDbLine
 10
136.558091068646
 20
155.129644874208
 30
0.0
 11
135.737020042063
 21
155.216670835551
 31
0.0
  0
LINE
  5
925
330
1D
100
AcDbEntity
  8
0
100
AcDbLine
 10
135.737020042063
 20
155.216670835551
 30
0.0
 11
135.0
 21
155.22
 31
0.0
  0
LINE
  5
926
330
1D
100
AcDbEntity
  8
0
100
AcDbLine
 10
224.3413
 20
149.2695
 30
0.0
 11
223.266
 21
147.3885
 31
0.0
  0
LINE
  5
927
330
1D
100
AcDbEntity
  8
0
100
AcDbLine
 10
202.0042
 20
121.2385
 30
0.0
 11
200.8382
 21
121.6965
 31
0.0
  0
LINE
  5
928
330
1D
100
AcDbEntity
  8
0
100
AcDbLine
 10
134.2613
 20
0.0015
 30
0.0
 11
135.7387
 21
0.0015
 31
0.0
  0
LINE
  5
929
330
1D
100
AcDbEntity
  8
0
100
AcDbLine
 10
67.9958
 20
121.2385
 30
0.0
 11
69.1618
 21
121.6965
 31
0.0
  0
ENDSEC
  0
SECTION
  2
OBJECTS
  0
DICTIONARY
  5
C
330
0
100
AcDbDictionary
281
     1
  3
ACAD_GROUP
350
D
  3
ACAD_LAYOUT
350
1A
  3
ACAD_MLEADERSTYLE
350
92C
  3
ACAD_MLINESTYLE
350
17
  3
ACAD_PLOTSETTINGS
350
19
  3
ACAD_PLOTSTYLENAME
350
E
  3
ACAD_SCALELIST
350
782
  3
AcDbVariableDictionary
350
92A
  3
DWGPROPS
350
92F
  0
DICTIONARY
  5
D
102
{ACAD_REACTORS
330
C
102
}
330
C
100
AcDbDictionary
281
     1
  0
DICTIONARY
  5
1A
102
{ACAD_REACTORS
330
C
102
}
330
C
100
AcDbDictionary
281
     1
  3
Layout1
350
1C
  3
Model
350
1E
  0
DICTIONARY
  5
92C
102
{ACAD_REACTORS
330
C
102
}
330
C
100
AcDbDictionary
281
     1
  0
DICTIONARY
  5
17
102
{ACAD_REACTORS
330
C
102
}
330
C
100
AcDbDictionary
281
     1
  3
Standard
350
18
  0
DICTIONARY
  5
19
102
{ACAD_REACTORS
330
C
102
}
330
C
100
AcDbDictionary
281
     1
  0
ACDBDICTIONARYWDFLT
  5
E
102
{ACAD_REACTORS
330
C
102
}
330
C
100
AcDbDictionary
281
     1
  3
Normal
350
F
100
AcDbDictionaryWithDefault
340
F
  0
DICTIONARY
  5
782
102
{ACAD_REACTORS
330
C
102
}
330
C
100
AcDbDictionary
281
     1
  3
A0
350
783
  3
A1
350
784
  3
A2
350
785
  3
A3
350
786
  3
A4
350
787
  3
A5
350
788
  3
A6
350
789
  3
A7
350
78A
  3
A8
350
78B
  3
A9
350
78C
  3
B0
350
78D
  3
B1
350
78E
  3
B2
350
78F
  3
B3
350
790
  3
B4
350
791
  3
B5
350
792
  3
B6
350
793
  3
B7
350
794
  3
B8
350
795
  3
B9
350
796
  3
C0
350
797
  3
C1
350
798
  3
C2
350
799
  3
C3
350
79A
  3
C4
350
79B
  3
C5
350
79C
  3
C6
350
79D
  3
C7
350
79E
  3
C8
350
79F
  3
C9
350
7A0
  3
D0
350
7A1
  3
D1
350
7A2
  3
D2
350
7A3
  0
DICTIONARY
  5
92A
102
{ACAD_REACTORS
330
C
102
}
330
C
100
AcDbDictionary
281
     1
  3
CANNOSCALE
350
92D
  0
XRECORD
  5
92F
102
{ACAD_REACTORS
330
C
102
}
330
C
100
AcDbXrecord
280
     1
  1
DWGPROPS COOKIE
  2

  3

  4

  6

  7

  8
MARTIN
  9

300
=
301
=
302
=
303
=
304
=
305
=
306
=
307
=
308
=
309
=
 40
0.0
 41
2455824.814493634
 42
2455824.826804109
  1

 90
        0
  0
LAYOUT
  5
1C
102
{ACAD_REACTORS
330
1A
102
}
330
1A
100
AcDbPlotSettings
  1

  2
none_device
  4

  6

 40
0.0
 41
0.0
 42
0.0
 43
0.0
 44
0.0
 45
0.0
 46
0.0
 47
0.0
 48
0.0
 49
0.0
140
0.0
141
0.0
142
1.0
143
1.0
 70
   688
 72
     0
 73
     0
 74
     5
  7

 75
    16
147
1.0
148
0.0
149
0.0
100
AcDbLayout
  1
Layout1
 70
     1
 71
     1
 10
0.0
 20
0.0
 11
12.0
 21
9.0
 12
0.0
 22
0.0
 32
0.0
 14
1.000000000000E+20
 24
1.000000000000E+20
 34
1.000000000000E+20
 15
-1.000000000000E+20
 25
-1.000000000000E+20
 35
-1.000000000000E+20
146
0.0
 13
0.0
 23
0.0
 33
0.0
 16
1.0
 26
0.0
 36
0.0
 17
0.0
 27
1.0
 37
0.0
 76
     0
330
1B
  0
LAYOUT
  5
1E
102
{ACAD_REACTORS
330
1A
102
}
330
1A
100
AcDbPlotSettings
  1

  2
none_device
  4

  6

 40
0.0
 41
0.0
 42
0.0
 43
0.0
 44
0.0
 45
0.0
 46
0.0
 47
0.0
 48
0.0
 49
0.0
140
0.0
141
0.0
142
1.0
143
1.0
 70
  1712
 72
     0
 73
     0
 74
     0
  7

 75
     0
147
1.0
148
0.0
149
0.0
100
AcDbLayout
  1
Model
 70
     1
 71
     0
 10
0.0
 20
0.0
 11
12.0
 21
9.0
 12
0.0
 22
0.0
 32
0.0
 14
-0.0231
 24
0.0015
 34
0.0
 15
270.0231
 25
184.9985
 35
0.0
146
0.0
 13
0.0
 23
0.0
 33
0.0
 16
1.0
 26
0.0
 36
0.0
 17
0.0
 27
1.0
 37
0.0
 76
     0
330
1D
331
77D
  0
MLINESTYLE
  5
18
102
{ACAD_REACTORS
330
17
102
}
330
17
100
AcDbMlineStyle
  2
Standard
 70
     0
  3

 62
   256
 51
90.0
 52
90.0
 71
     2
 49
0.5
 62
   256
  6
BYLAYER
 49
-0.5
 62
   256
  6
BYLAYER
  0
ACDBPLACEHOLDER
  5
F
102
{ACAD_REACTORS
330
E
102
}
330
E
  0
SCALE
  5
783
102
{ACAD_REACTORS
330
782
102
}
330
782
100
AcDbScale
 70
     0
300
1:1
140
1.0
141
1.0
290
     1
  0
SCALE
  5
784
102
{ACAD_REACTORS
330
782
102
}
330
782
100
AcDbScale
 70
     0
300
1:2
140
1.0
141
2.0
290
     0
  0
SCALE
  5
785
102
{ACAD_REACTORS
330
782
102
}
330
782
100
AcDbScale
 70
     0
300
1:4
140
1.0
141
4.0
290
     0
  0
SCALE
  5
786
102
{ACAD_REACTORS
330
782
102
}
330
782
100
AcDbScale
 70
     0
300
1:5
140
1.0
141
5.0
290
     0
  0
SCALE
  5
787
102
{ACAD_REACTORS
330
782
102
}
330
782
100
AcDbScale
 70
     0
300
1:8
140
1.0
141
8.0
290
     0
  0
SCALE
  5
788
102
{ACAD_REACTORS
330
782
102
}
330
782
100
AcDbScale
 70
     0
300
1:10
140
1.0
141
10.0
290
     0
  0
SCALE
  5
789
102
{ACAD_REACTORS
330
782
102
}
330
782
100
AcDbScale
 70
     0
300
1:16
140
1.0
141
16.0
290
     0
  0
SCALE
  5
78A
102
{ACAD_REACTORS
330
782
102
}
330
782
100
AcDbScale
 70
     0
300
1:20
140
1.0
141
20.0
290
     0
  0
SCALE
  5
78B
102
{ACAD_REACTORS
330
782
102
}
330
782
100
AcDbScale
 70
     0
300
1:30
140
1.0
141
30.0
290
     0
  0
SCALE
  5
78C
102
{ACAD_REACTORS
330
782
102
}
330
782
100
AcDbScale
 70
     0
300
1:40
140
1.0
141
40.0
290
     0
  0
SCALE
  5
78D
102
{ACAD_REACTORS
330
782
102
}
330
782
100
AcDbScale
 70
     0
300
1:50
140
1.0
141
50.0
290
     0
  0
SCALE
  5
78E
102
{ACAD_REACTORS
330
782
102
}
330
782
100
AcDbScale
 70
     0
300
1:100
140
1.0
141
100.0
290
     0
  0
SCALE
  5
78F
102
{ACAD_REACTORS
330
782
102
}
330
782
100
AcDbScale
 70
     0
300
2:1
140
2.0
141
1.0
290
     0
  0
SCALE
  5
790
102
{ACAD_REACTORS
330
782
102
}
330
782
100
AcDbScale
 70
     0
300
4:1
140
4.0
141
1.0
290
     0
  0
SCALE
  5
791
102
{ACAD_REACTORS
330
782
102
}
330
782
100
AcDbScale
 70
     0
300
8:1
140
8.0
141
1.0
290
     0
  0
SCALE
  5
792
102
{ACAD_REACTORS
330
782
102
}
330
782
100
AcDbScale
 70
     0
300
10:1
140
10.0
141
1.0
290
     0
  0
SCALE
  5
793
102
{ACAD_REACTORS
330
782
102
}
330
782
100
AcDbScale
 70
     0
300
100:1
140
100.0
141
1.0
290
     0
  0
SCALE
  5
794
102
{ACAD_REACTORS
330
782
102
}
330
782
100
AcDbScale
 70
     0
300
1/128" = 1'-0"
140
0.0078125
141
12.0
290
     0
  0
SCALE
  5
795
102
{ACAD_REACTORS
330
782
102
}
330
782
100
AcDbScale
 70
     0
300
1/64" = 1'-0"
140
0.015625
141
12.0
290
     0
  0
SCALE
  5
796
102
{ACAD_REACTORS
330
782
102
}
330
782
100
AcDbScale
 70
     0
300
1/32" = 1'-0"
140
0.03125
141
12.0
290
     0
  0
SCALE
  5
797
102
{ACAD_REACTORS
330
782
102
}
330
782
100
AcDbScale
 70
     0
300
1/16" = 1'-0"
140
0.0625
141
12.0
290
     0
  0
SCALE
  5
798
102
{ACAD_REACTORS
330
782
102
}
330
782
100
AcDbScale
 70
     0
300
3/32" = 1'-0"
140
0.09375
141
12.0
290
     0
  0
SCALE
  5
799
102
{ACAD_REACTORS
330
782
102
}
330
782
100
AcDbScale
 70
     0
300
1/8" = 1'-0"
140
0.125
141
12.0
290
     0
  0
SCALE
  5
79A
102
{ACAD_REACTORS
330
782
102
}
330
782
100
AcDbScale
 70
     0
300
3/16" = 1'-0"
140
0.1875
141
12.0
290
     0
  0
SCALE
  5
79B
102
{ACAD_REACTORS
330
782
102
}
330
782
100
AcDbScale
 70
     0
300
1/4" = 1'-0"
140
0.25
141
12.0
290
     0
  0
SCALE
  5
79C
102
{ACAD_REACTORS
330
782
102
}
330
782
100
AcDbScale
 70
     0
300
3/8" = 1'-0"
140
0.375
141
12.0
290
     0
  0
SCALE
  5
79D
102
{ACAD_REACTORS
330
782
102
}
330
782
100
AcDbScale
 70
     0
300
1/2" = 1'-0"
140
0.5
141
12.0
290
     0
  0
SCALE
  5
79E
102
{ACAD_REACTORS
330
782
102
}
330
782
100
AcDbScale
 70
     0
300
3/4" = 1'-0"
140
0.75
141
12.0
290
     0
  0
SCALE
  5
79F
102
{ACAD_REACTORS
330
782
102
}
330
782
100
AcDbScale
 70
     0
300
1" = 1'-0"
140
1.0
141
12.0
290
     0
  0
SCALE
  5
7A0
102
{ACAD_REACTORS
330
782
102
}
330
782
100
AcDbScale
 70
     0
300
1-1/2" = 1'-0"
140
1.5
141
12.0
290
     0
  0
SCALE
  5
7A1
102
{ACAD_REACTORS
330
782
102
}
330
782
100
AcDbScale
 70
     0
300
3" = 1'-0"
140
3.0
141
12.0
290
     0
  0
SCALE
  5
7A2
102
{ACAD_REACTORS
330
782
102
}
330
782
100
AcDbScale
 70
     0
300
6" = 1'-0"
140
6.0
141
12.0
290
     0
  0
SCALE
  5
7A3
102
{ACAD_REACTORS
330
782
102
}
330
782
100
AcDbScale
 70
     0
300
1'-0" = 1'-0"
140
12.0
141
12.0
290
     0
  0
DICTIONARYVAR
  5
92D
102
{ACAD_REACTORS
330
92A
102
}
330
92A
100
DictionaryVariables
280
     0
  1
1:1
  0
ENDSEC
  0
SECTION
  2
THUMBNAILIMAGE
 90
    16364
310
28000000B40000005500000001000800000000000000000000000000000000000000000000000000FFFFFF000000FF0000FFFF0000FF0000FFFF0000FF000000FF00FF000000000080808000C0C0C0000000FF007F7FFF000000A5005252A50000007F003F3F7F0000004C0026264C000000260013132600003FFF007F9FFF
310
000029A5005267A500001F7F003F4F7F0000134C00262F4C000009260013172600007FFF007FBFFF000052A500527CA500003F7F003F5F7F0000264C0026394C0000132600131C260000BFFF007FDFFF00007CA5005291A500005F7F003F6F7F0000394C0026424C00001C26001321260000FFFF007FFFFF0000A5A50052A5
310
A500007F7F003F7F7F00004C4C00264C4C00002626001326260000FFBF007FFFDF0000A57C0052A59100007F5F003F7F6F00004C3900264C420000261C001326210000FF7F007FFFBF0000A5520052A57C00007F3F003F7F5F00004C2600264C39000026130013261C0000FF3F007FFF9F0000A5290052A56700007F1F003F
310
7F4F00004C1300264C2F00002609001326170000FF00007FFF7F0000A5000052A55200007F00003F7F3F00004C0000264C260000260000132613003FFF00009FFF7F0029A5000067A552001F7F00004F7F3F00134C00002F4C260009260000172613007FFF0000BFFF7F0052A500007CA552003F7F00005F7F3F00264C0000
310
394C2600132600001C261300BFFF0000DFFF7F007CA5000091A552005F7F00006F7F3F00394C0000424C26001C26000021261300FFFF0000FFFF7F00A5A50000A5A552007F7F00007F7F3F004C4C00004C4C26002626000026261300FFBF0000FFDF7F00A57C0000A59152007F5F00007F6F3F004C3900004C422600261C00
310
0026211300FF7F0000FFBF7F00A5520000A57C52007F3F00007F5F3F004C2600004C39260026130000261C1300FF3F0000FF9F7F00A5290000A56752007F1F00007F4F3F004C1300004C2F26002609000026171300FF000000FF7F7F00A5000000A55252007F0000007F3F3F004C0000004C2626002600000026131300FF00
310
3F00FF7F9F00A5002900A55267007F001F007F3F4F004C0013004C262F002600090026131700FF007F00FF7FBF00A5005200A5527C007F003F007F3F5F004C0026004C2639002600130026131C00FF00BF00FF7FDF00A5007C00A55291007F005F007F3F6F004C0039004C26420026001C0026132100FF00FF00FF7FFF00A5
310
00A500A552A5007F007F007F3F7F004C004C004C264C002600260026132600BF00FF00DF7FFF007C00A5009152A5005F007F006F3F7F0039004C0042264C001C002600211326007F00FF00BF7FFF005200A5007C52A5003F007F005F3F7F0026004C0039264C00130026001C1326003F00FF009F7FFF002900A5006752A500
310
1F007F004F3F7F0013004C002F264C000900260017132600000000002D2D2D005B5B5B0089898900B7B7B700B3B3B30000000000000000000000000000000000000000000000000000000000000000000000000000000000000000000000000000000000000000000000000000000000000000000000000000000000000000
310
00000000000000000007070707070000000000000000000000000000000000000000000000000000000000000000000000000000000000000000000000000000000000000000000000000000000000000000000000000000000000000000000000000000000000000000000000000000000000000000000000000000000000
310
00000000000000000000000000000000000000000000000000000000000000000000000000000000000000000000000000000000000000000000000007070000000000070700000000000000000000000000000000000000000000000000000000000000000000000000000000000000000000000000000000000000000000
310
00000000000000000000000000000000000000000000000000000000000000000000000000000000000000000000000000000000000000000000000000000000000000000000000000000000000000000000000000000000000000000000000000000000000000000000000000000000070000000000000000000700000000
310
00000000000000000000000000000000000000000000000000000000000000000000000000000000000000000000000000000000000000000000000000000000000000000000000000000000000000000000000000000000000000000000000000000000000000000000000000000000000000000000000000000000000000
310
00000000000000000000000000000000000000000000000000000000000000000000000000000700000000000000000007000000000000000000000000000000000000000000000000000000000000000000000000000000000000000000000000000000000000000000000000000000000000000000000000000000000000
310
00000000000000000000000000000000000000000000000000000000000000000000000000000000000000000000000000000000000000000000000000000000000000000000000000000000000000000000000000000000000000070000000000000000000700000000000000000000000000000000000000000000000000
310
00000000000000000000000000000000000000000000000000000000000000000000000000000000000000000000000000000000000000000000000000000000000000000000000000000000000000000000000000000000000000000000000000000000000000000000000000000000000000000000000000000000000000
310
00000000000000000000000000000000000700000000000000000007000000000000000000000000000000000000000000000000000000000000000000000000000000000000000000000000000000000000000000000000000000000000000000000000000000000000000000000000000000000000000000000000000000
310
00000000000000000000000000000000000000000000000000000000000000000000000000000000000000000000000000000000000000000000000000000000000000000000070000000000000000000700000000000000000000000000000000000000000000000000000000000000000000000000000000000000000000
310
00000000000000000000000000000000000000000000000000000000000000000000000000000000000000000000000000000000000000000000000000000000000000000000000000000000000000000000000000000000000000000000000000000000000000000000000000000000000000000000000000000007000000
310
00000000000007000000000000000000000000000000000000000000000000000000000000000000000000000000000000000000000000000000000000000000000000000000000000000000000000000000000000000000000000000000000000000000000000000000000000000000000000000000000000000000000000
310
00000000000000000000000000000000000000000000000000000000000000000000000000000000000000000000000000070000000000000000000700000000000000000000000000000000000000000000000000000000000000000000000000000000000000000000000000000000000000000000000000000000000000
310
00000000000000000000000000000000000000000000000000000000000000000000000000000000000000000000000000000000000000000000000000000000000000000000000000000000000000000000000000000000000000000000000000000000000007000000000000000000070000000000000000000000000000
310
00000000000000000000000000000000000000000000000000000000000000000000000000000000000000000000000000000000000000000000000000000000000000000000000000000000000000000000000000000000000000000000000000000000000000000000000000000000000000000000000000000000000000
310
00000000000000000000000000000000000000000000000000000000070000000000000000000700000000000000000000000000000000000000000000000000000000000000000000000000000000000000000000000000000000000000000000000000000000000000000000000000000000000000000000000000000000
310
00000000000000000000000000000000000000000000000000000000000000000000000000000000000000000000000000000000000000000000000000000000000000000000000000000000000000000007000000000000000000070000000000000000000000000000000000000000000000000000000000000000000000
310
00000000000000000000000000000000000000000000000000000000000000000000000000000000000000000000000000000000000000000000000000000000000000000000000000000000000000000000000000000000000000000000000000000000000000000000000000000000000000000000000000000000000000
310
00000000000000070000000000000000000700000000000000000000000000000000000000000000000000000000000000000000000000000000000000000000000000000000000000000000000000000000000000000000000000000000000000000000000000000000000000000000000000000000000000000000000000
310
00000000000000000000000000000000000000000000000000000000000000000000000000000000000000000000000000000000000000000000000007000000000000000000070000000000000000000000000000000000000000000000000000000000000000000000000000000000000000000000000000000000000000
310
00000000000000000000000000000000000000000000000000000000000000000000000000000000000000000000000000000000000000000000000000000000000000000000000000000000000000000000000000000000000000000000000000000000000000000000000000000000000700000000000000000007000000
310
00000000000000000000000000000000000000000000000000000000000000000000000000000000000000000000000000000000000000000000000000000000000000000000000000000000000000000000000000000000000000000000000000000000000000000000000000000000000000000000000000000000000000
310
00000000000000000000000000000000000000000000000000000000000000000000000000000007000000000000000000070000000000000000000000000000000000000000000000000000000000000000000000000000000000000000000000000000000000000000000000000000000000000000000000000000000000
310
00000000000000000000000000000000000000000000000000000000000000000000000000000000000000000000000000000000000000000000000000000000000000000000000000000000000000000000000000000000000000000700000000000000000007000000000000000000000000000000000000000000000000
310
00000000000000000000000000000000000000000000000000000000000000000000000000000000000000000000000000000000000000000000000000000000000000000000000000000000000000000000000000000000000000000000000000000000000000000000000000000000000000000000000000000000000000
310
00000000000000000000000000000000000007000000000000000000070000000000000000000000000000000000000000000000000000000000000000000000000000000000000000000000000000000000000000000000000000000000000000000000000000000000000000000000000000000000000000000000000000
310
00000000000000000000000000000000000000000000000000000000000000000000000000000000000000000000000000000000000000000000000000000000000000000000000700000000000000000007000000000000000000000000000000000000000000000000000000000000000000000000000000000000000000
310
00000000000000000000000000000000000000000000000000000000000000000000000000000000000000000000000000000000000000000000000000000000000000000000000000000000000000000000000000000000000000000000000000000000000000000000000000000000000000000000000000000000070000
310
00000000000000070000000000000000000000000000000000000000000000000000000000000000000000000000000000000000000000000000000000000000000000000000000000000000000000000000000000000000000000000000000000000000000000000000000000000000000000000000000000000000000000
310
00000000000000000000000000000000000000000000000000000000000000000000000000000000000000000000000000000700000000000000000007000000000000000000000000000000000000000000000000000000000000000000000000000000000000000000000000000000000000000000000000000000000000
310
00000000000000000000000000000000000000000000000000000000000000000000000000000000000000000000000000000000000000000000000000000000000000000000000000000000000000000000000000000000000000000000000000000000000000070000000000000000000700000000000000000000000000
310
00000000000000000000000000000000000000000000000000000000000000000000000000000000000000000000000000000000000000000000000000000000000000000000000000000000000000000000000000000000000000000000000000000000000000000000000000000000000000000000000000000000000000
310
00000000000000000000000000000000000000000000000000000000000700000000000000000007000000000000000000000000000000000000000000000000000000000000000000000000000000000000000000000000000000000000000000000000000000000000000000000000000000000000000000000000000000
310
00000000000000000000000000000000000000000000000000000000000000000000000000000000000000000000000000000000000000000000000000000000000000000000000000000000000000000000070000000000000000000700000000000000000000000000000000000000000000000000000000000000000000
310
00000000000000000000000000000000000000000000000000000000000000000000000000000000000000000000000000000000000000000000000000000000000000000000000000000000000000000000000000000000000000000000000000000000000000000000000000000000000000000000000000000000000000
310
00000000000000000700000000000000000007000000000000000000000000000000000000000000000000000000000000000000000000000000000000000000000000000000000000000000000000000000000000000000000000000000000000000000000000000000000000000000000000000000000000000000000000
310
00000000000000000000000000000000000000000000000000000000000000000000000000000000000000000000000000000000000000000000000000070000000000000000000700000000000000000000000000000000000000000000000000000000000000000000000000000000000000000000000000000000000000
310
00000000000000000000000000000000000000000000000000000000000000000000000000000000000000000000000000000000000000000000000000000000000000000000000000000000000000000000000000000000000000000000000000000000000000000000000000000000000007000000000000000000070000
310
00000000000000000000000000000000000000000000000000000000000000000000000000000000000000000000000000000000000000000000000000000000000000000000000000000000000000000000000000000000000000000000000000000000000000000000000000000000000000000000000000000000000000
310
00000000000000000000000000000000000000000000000000000000000000000000000000000000070000000000000000000700000000000000000000000000000000000000000000000000000000000000000000000000000000000000000000000000000000000000000000000000000000000000000000000000000000
310
00000000000000000000000000000000000000000000000000000000000000000000000000000000000000000000000000000000000000000000000000000000000000000000000000000000000000000000000000000000000000000007000000000000000000070000000000000000000000000000000000000000000000
310
00000000000000000000000000000000000000000000000000000000000000000000000000000000000000000000000000000000000000000000000000000000000000000000000000000000000000000000000000000000000000000000000000000000000000000000000000000000000000000000000000000000000000
310
00000000000000000000000000000000000000070000000000000000000700000000000000000000000000000000000000000000000000000000000000000000000000000000000000000000000000000000000000000000000000000000000000000000000000000000000000000000000000000000000000000000000000
310
00000000000000000000000000000000000000000000000000000000000000000000000000000000000000000000000000000000000000000000000000000000000000000000000007000000000000000000070000000000000000000000000000000000000000000000000000000000000000000000000000000000000000
310
00000000000000000000000000000000000000000000000000000000000000000000000000000000000000000000000000000000000000000000000000000000000000000000000000000000000000000000000000000000000000000000000000000000000000000000000000000000000000000000000000000000000700
310
00000000000000000700000000000000000000000000000000000000000000000000000000000000000000000000000000000000000000000000000000000000000000000000000000000000000000000000000000000000000000000000000000000000000000000000000000000000000000000000000000000000000000
310
00000000000000000000000000000000000000000000000000000000000000000000000000000000000000000000000000000007000000000000000000070000000000000000000000000000000000000000000000000000000000000000000000000000000000000000000000000000000000000000000000000000000000
310
00000000000000000000000000000000000000000000000000000000000000000000000000000000000000000000000000000000000000000000000000000000000000000000000000000000000000000000000000000000000000000000000000000000000000000700000000000000000007000000000000000000000000
310
00000000000000000000000000000000000000000000000000000000000000000000000000000000000000000000000000000000000000000000000000000000000000000000000000000000000000000000000000000000000000000000000000000000000000000000000000000000000000000000000000000000000000
310
00000000000000000000000000000000000000000000000000000000000007000000000000000000070000000000000000000000000000000000000000000000000000000000000000000000000000000000000000000000000000000000000000000000000000000000000000000000000000000000000000000000000000
310
00000000000000000000000000000000000000000000000000000000000000000000000000000000000000000000000000000000000000000000000000000000000000000000000000000000000000000000000700000000000000000007000000000000000000000000000000000000000000000000000000000000000000
310
00000000000000000000000000000000000000000000000000000000000000000000000000000000000000000000000000000000000000000000000000000000000000000000000000000000000000000000000000000000000000000000000000000000000000000000000000000000000000000000000000000000000000
310
00000000000000000007000000000000000000070000000000000000000000000000000000000000000000000000000000000000000000000000000000000000000000000000000000000000000000000000000000000000000000000000000000000000000000000000000000000000000000000000000000000000000000
310
00000000000000000000000000000000000000000000000000000000000000000000000000000000000000000000000000000000000000000000000000000700000000000000000007000000000000000000000000000000000000000000000000000000000000000000000000000000000000000000000000000000000000
310
00000000000000000000000000000000000000000000000000000000000000000000000000000000000000000000000000000000000000000000000000000000000000000000000000000000000000000000000000000000000000000000000000000000000000000000000000000000000000070000000000000000000700
310
00000000000000000000000000000000000000000000000000000000000000000000000000000000000000000000000000000000000000000000000000000000000000000000000000000000000000000000000000000000000000000000000000000000000000000000000000000000000000000000000000000000000000
310
00000000000000000000000000000000000000000000000000000000000000000000000000000000000700000000000000000007000000000000000000000000000000000000000000000000000000000000000000000000000000000000000000000000000000000000000000000000000000000000000000000000000000
310
00000000000000000000000000000000000000000000000000000000000000000000000000000000000000000000000000000000000000000000000000000000000000000000000000000000000000000000000000000000000000000000070000000000000000000700000000000000000000000000000000000000000000
310
00000000000000000000000000000000000000000000000000000000000000000000000000000000000000000000000000000000000000000000000000000000000000000000000000000000000000000000000000000000000000000000000000000000000000000000000000000000000000000000000000000000000000
310
00000000000000000000000000000000000000000700000000000000000007000000000000000000000000000000000000000000000000000000000000000000000000000000000000000000000000000000000000000000000000000000000000000000000000000000000000000000000000000000000000000000000000
310
00000000000000000000000000000000000000000000000000000000000000000000000000000000000000000000000000000000000000000000000000000000000000000000000000070000000000000000000700000000000000000000000000000000000000000000000000000000000000000000000000000000000000
310
00000000000000000000000000000000000000000000000000000000000000000000000000000000000000000000000000000000000000000000000000000000000000000000000000000000000000000000000000000000000000000000000000000000000000000000000000000000000000000000000000000000000007
310
00000000000000000007000000000000000000000000000000000000000000000000000000000000000000000000000000000000000000000000000000000000000000000000000000000000000000000000000000000000000000000000000000000000000000000000000000000000000000000000000000000000000000
310
00000000000000000000000000000000000000000000000000000000000000000000000000000000000000000000000000000000070000000000000000000700000000000000000000000000000000000000000000000000000000000000000000000000000000000000000000000000000000000000000000000000000000
310
00000000000000000000000000000000000000000000000000000000000000000000000000000000000000000000000000000000000000000000000000000000000000000000000000000000000000000000000000000000000000000000000000000000000000000007000000000000000000070000000000000000000000
310
00000000000000000000000000000000000000000000000000000000000000000000000000000000000000000000000000000000000000000000000000000000000000000000000000000000000000000000000000000000000000000000000000000000000000000000000000000000000000000000000000000000000000
310
00000000000000000000000000000000000000000000000000000000000000070000000000000000000700000000000000000000000000000000000000000000000000000000000000000000000000000000000000000000000000000000000000000000000000000000000000000000000000000000000000000000000000
310
00000000000000000000000000000000000000000000000000000000000000000000000000000000000000000000000000000000000000000000000000000000000000000000000000000000000000000000000007000000000000000000070000000000000000000000000000000000000000000000000000000000000000
310
00000000000000000000000000000000000000000000000000000000000000000000000000000000000000000000000000000000000000000000000000000000000000000000000000000000000000000000000000000000000000000000000000000000000000000000000000000000000000000000000000000000000000
310
00000000000000000000070000000000000000000700000000000000000000000000000000000000000000000000000000000000000000000000000000000000000000000000000000000000000000000000000000000000000000000000000000000000000000000000000000000000000000000000000000000000000000
310
00000000000000000000000000000000000000000000000000000000000000000000000000000000000000000000000000000000000000000000000000000007000000000000000000070000000000000000000000000000000000000000000000000000000000000000000000000000000000000000000000000000000000
310
00000000000000000000000000000000000000000000000000000000000000000000000000000000000000000000000000000000000000000000000000000000000000000000000000000000000000000000000000000000000000000000000000000000000000000000000000000000000000000700000000000000000007
310
00000000000000000000000000000000000000000000000000000000000000000000000000000000000000000000000000000000000000000000000000000000000000000000000000000000000000000000000000000000000000000000000000000000000000000000000000000000000000000000000007070707070707
310
07070707070707070707070707070000000000000000000000000000000000000000000000000707070707000000000000000000070707070700000000000000000000000000000000000000000000000007070707070707070707070707070707070707070700000000000000000000000000000000000000000000000000
310
00000000000000000000000000000000000000000000000000000000000000000000000000000000000000000707000000000000000000000000000000000000000000070000000000000000000000000000000000000000070707000000000700000000000000000007000000000707070000000000000000000000000000
310
00000000000007000000000000000000000000000000000000000000070700000000000000000000000000000000000000000000000000000000000000000000000000000000000000000000000000000000000000000000000000000000000707000000000000000007070707070707070000000000000000070000000000
310
00000000000000000000000000070700000000000007000000000000000000070000000000000707000000000000000000000000000000000000070000000000000000070707070707070700000000000000000707000000000000000000000000000000000000000000000000000000000000000000000000000000000000
310
00000000000000000000000000000000000000000707000000000000000707000000000000000007070000000000000007070000000000000000000000000000000007000000000000070700000000000000000007070000000000000700000000000000000000000000000000070700000000000000070700000000000000
310
00070700000000000000070700000000000000000000000000000000000000000000000000000000000000000000000000000000000000000000000000000000000000000000000007070707000000000707000000000000000000000000070700000007070707070000000000000000000000000000070700000000000700
310
07000000000000000000070007000000000007070000000000000000000000000000070707070700000007070000000000000000000000000707000000000707070700000000000000000000000000000000000000000000000000000000000000000000000000000000000000000000000000000000000000000000070000
310
00000707000700000000000000000000000000000000070707000000000700000000000000000000000000000700000000070700000700000000000000000007000007070000000007000000000000000000000000000007000000000707070000000000000000000000000000000007000707000000000700000000000000
310
00000000000000000000000000000000000000000000000000000000000000000000000000000000000000000000000000000700000000000007070700000000000000000000000000000707000000000000000700000000000000000000000000070000000007000000070000000000000000000700000007000000000700
310
00000000000000000000000007000000000000000707000000000000000000000000000007070700000000000007000000000000000000000000000000000000000000000000000000000000000000000000000000000000000000000000000000000000000000070700000000000000000707000000000000000000000707
310
00000000000000000700000000000000000000000000000700000007000000000700000000000000000007000000000700000007000000000000000000000000000007000000000000000007070000000000000000000007070000000000000000070700000000000000000000000000000000000000000000000000000000
310
00000000000000000000000000000000000000000000000000000000000000070700000000000000070707000000000000070700000000000000000707000000000000000000000000000000070000070000000000070000000000000000000700000000000700000700000000000000000000000000000007070000000000
310
00000007070000000000000707070000000000000007070000000000000000000000000000000000000000000000000000000000000000000000000000000000000000000000000000000000000000000000000000070700000000000000000707070707070707000000000000000007000000000000000000000000000000
310
00000700000700000000000700000000000000000007000000000007000007000000000000000000000000000000000007000000000000000007070707070707070000000000000000070700000000000000000000000000000000000000000000000000000000000000000000000000000000000000000000000000000000
310
00000000000000000000000700070000000000000000000000000000000000000000000007000700000000000000000000000000000000070007000000000000070000000000000000000700000000000007000700000000000000000000000000000000070007000000000000000000000000000000000000000000000700
310
07000000000000000000000000000000000000000000000000000000000000000000000000000000000000000000000000000000000000000000000000000000070007070700000000000000000000000000000000000007070700070000000000000000000000000000000007000700000000000007000000000000000000
310
07000000000000070007000000000000000000000000000000000700070707000000000000000000000000000000000000070707000700000000000000000000000000000000000000000000000000000000000000000000000000000000000000000000000000000000000000000000000000000007000700000700000000
310
00000000000000000000000007000007000700000000000000000000000000000000070007000000000000070000000000000000000700000000000007000700000000000000000000000000000000070007000007000000000000000000000000000000000700000700070000000000000000000000000000000000000000
310
00000000000000000000000000000000000000000000000000000000000000000000000000000000000000070700000000070700000000000000000000000007070000000700070000000000000000000000000000000007000700000000000007000000000000000000070000000000000700070000000000000000000000
310
00000000000700070000000707000000000000000000000000070700000000070700000000000000000000000000000000000000000000000000000000000000000000000000000000000000000000000000000000000000000000000000000007070000000000070700000000000000000000070000000000000007000000
310
00000000000000000000000000070007000000000000070000000000000000000700000000000007070000000000000000000000000000000000070000000000000007000000000000000000000707000000000007070000000000000000000000000000000000000000000000000000000000000000000000000000000000
310
00000000000000000000000000000000000000000000070700000000000007000000000000000000070700000000000700070000000000000000000000000000000000070700000000000007000000000000000000070000000000000707000000000000000000000000000000000007000700000000000707000000000000
310
00000007000000000000070700000000000000000000000000000000000000000000000000000000000000000000000000000000000000000000000000000000000000000000000000000007000700000000000007000000000000000007000000000000070007000000000000000000000000000000000007070000000000
310
00070000000000000000000700000000000007070000000000000000000000000000000000070007000000000000070000000000000000070000000000000700070000000000000000000000000000000000000000000000000000000000000000000000000000000000000000000000000000000000000000000000000000
310
00070007000000000000000700000000000007000000000000000700070000000000000000000000000000000000070700000000000007070000000000000007070000000000000707000000000000000000000000000000000007000700000000000000070000000000000700000000000000070007000000000000000000
310
00000000000000000000000000000000000000000000000000000000000000000000000000000000000000000000000000000000000007000700000000000000070000000000000700000000000000070007000000000000000000000000000000000007070000000000000007070700000007070700000000000007000700
310
00000000000000000000000000000000070007000000000000000700000000000007000000000000000700070000000000000000000000000000000000000000000000000000000000000000000000000000000000000000000000000000000000000000000000000000000700070000000000000007000000000007000000
310
00000000000700070000000000000000000000000000000000070007000000000000000000070707000000000000000000070007000000000000000000000000000000000007000700000000000000000700000000000700000000000000070007000000000000000000000000000000000000000000000000000000000000
310
00000000000000000000000000000000000000000000000000000000000000000007000007000000000000000700000000070000000000000007000007000000000000000000000000000000000007000700000000000000000007000700000000000000000007000700000000000000000000000000000000000700000700
310
00000000000007000000000700000000000000070000070000000000000000000000000000000000000000000000000000000000000000000000000000000000000000000000000000000000000000000000000000000700000700000000000000070000000007000000000000070000000700000000000000000000000000
310
00000000070000070000000000000000070007000000000000000007000007000000000000000000000000000000000007000000070000000000000700000000070000000000000007000007000000000000000000000000000000000000000000000000000000000000000000000000000000000000000000000000000000
310
00000000000000000000000007000000070700000000000700000000070000000000070700000007000000000000000000000000000000000007000000070000000000000007000700000000000000070000000700000000000000000000000000000000000700000007070000000000070000000007000000000007070000
310
00070000000000000000000000000000000000000000000000000000000000000000000000000000000000000000000000000000000000000000000000000000000700000000000700000000070000000007000000000700000000000700000000000000000000000000000000000700000007070000000000070707070700
310
00000000070700000007000000000000000000000000000000000007000000000007000000000700000000070000000007000000000007000000000000000000000000000000000000000000000000000000000000000000000000000000000000000000000000000000000000000000000000000000070000000000000700
310
00000700000000070000000700000000000007000000000000000000000000000000000007000000000007000000000700000007000000000700000000000700000000000000000000000000000000000700000000000007000000070000000007000000070000000000000700000000000000000000000000000000000000
310
00000000000000000000000000000000000000000000000000000000000000000000000000000000000000000700000000000000070707070000000007070707000000000000000700000000000000000000000000000000000700000000000007070000070000000700000707000000000000070000000000000000000000
310
00000000000007000000000000000707070700000000070707070000000000000007000000000000000000000000000000000000000000000000000000000000000000000000000000000000000000000000000000000000000000000000000000000700000000000000000007000000000700000000000000000007000000
310
00000000000000000000000000000007070000000000000007070700000007070700000000000000070700000000000000000000000000000000000007000000000000000000070000000007000000000000000000070000000000000000000000000000000000000000000000000000000000000000000000000000000000
310
00000000000000000000000000000000000000000000000000070707070707070707070000000007070707070707070707000000000000000000000000000000000000000007070700000000000000070000000700000000000000070707000000000000000000000000000000000000000007070707070707070707000000
310
00070707070707070707070000000000000000000000000000000000000000000000000000000000000000000000000000000000000000000000000000000000000000000000000000000000000000000000000000000007000000000700000000000000000000000000000000000000000000000000000000000000070707
310
07070707070700000007070707070707070700000000000000000000000000000000000000000000000000000000000000070000000007000000000000000000000000000000000000000000000000000000000000000000000000000000000000000000000000000000000000000000000000000000000000000000000000
310
00000000000000000000000000070000000007000000000000000000000000000000000000000000000000000000000000000000000000000000070000000700000000000000000000000000000000000000000000000000000000000000000000000000000007000000000700000000000000000000000000000000000000
310
00000000000000000000000000000000000000000000000000000000000000000000000000000000000000000000000000000000000000000000000000000000000007000000000700000000000000000000000000000000000000000000000000000000000000000000000000000007070707070000000000000000000000
310
00000000000000000000000000000000000000000000000000000000070000000007000000000000000000000000000000000000000000000000000000000000000000000000000000000000000000000000000000000000000000000000000000000000000000000000000000000000000000000000000707000007070000
310
00000000000000000000000000000000000000000000000000000000000000000000000000000000000000000000000000000000000000000000000000000000000000000000000000000000000000000007070000070700000000000000000000000000000000000000000000000000000000000000000000000000000000
310
00000000000000000000000000000000000000000000000000000000000000000000000000000000000000000000070707070000000000000000000000000000000000000000000000000000000000000000000000000000000000000000000000000000000000000000000000000000000000000000000000000000000000
310
00000000000000000707070700000000000000000000000000000000000000000000000000000000000000000000000000000000000000000000000000000000000000000000000000000000000000000000000000000000000000000000000000000000000000000000000000000000000000000000000000000000000000
310
000000000000000000000000000000000000000000000000000000000000000000000000000000000000000000000000000000000000000000000000000000000000000000000000000000000000000000000000000000000000000000000000000000000000000000000000
  0
ENDSEC
  0
EOF
