  0
SECTION
  2
HEADER
  9
$ACADVER
  1
AC1015
  9
$ACADMAINTVER
 70
    13
  9
$DWGCODEPAGE
  3
ANSI_1252
  9
$INSBASE
 10
0.0
 20
0.0
 30
0.0
  9
$EXTMIN
 10
0.0
 20
-0.0303999999999687
 30
0.0
  9
$EXTMAX
 10
700.0
 20
281.0304
 30
0.0
  9
$LIMMIN
 10
0.0
 20
0.0
  9
$LIMMAX
 10
12.0
 20
9.0
  9
$ORTHOMODE
 70
     0
  9
$REGENMODE
 70
     1
  9
$FILLMODE
 70
     1
  9
$QTEXTMODE
 70
     0
  9
$MIRRTEXT
 70
     1
  9
$LTSCALE
 40
1.0
  9
$ATTMODE
 70
     1
  9
$TEXTSIZE
 40
0.2
  9
$TRACEWID
 40
0.05
  9
$TEXTSTYLE
  7
Standard
  9
$CLAYER
  8
0
  9
$CELTYPE
  6
Continuous
  9
$CECOLOR
 62
   256
  9
$CELTSCALE
 40
1.0
  9
$DISPSILH
 70
     0
  9
$DIMSCALE
 40
1.0
  9
$DIMASZ
 40
0.18
  9
$DIMEXO
 40
0.0625
  9
$DIMDLI
 40
0.38
  9
$DIMRND
 40
0.0
  9
$DIMDLE
 40
0.0
  9
$DIMEXE
 40
0.18
  9
$DIMTP
 40
0.0
  9
$DIMTM
 40
0.0
  9
$DIMTXT
 40
0.18
  9
$DIMCEN
 40
0.09
  9
$DIMTSZ
 40
0.0
  9
$DIMTOL
 70
     0
  9
$DIMLIM
 70
     0
  9
$DIMTIH
 70
     1
  9
$DIMTOH
 70
     1
  9
$DIMSE1
 70
     0
  9
$DIMSE2
 70
     0
  9
$DIMTAD
 70
     0
  9
$DIMZIN
 70
     0
  9
$DIMBLK
  1

  9
$DIMASO
 70
     1
  9
$DIMSHO
 70
     1
  9
$DIMPOST
  1

  9
$DIMAPOST
  1

  9
$DIMALT
 70
     0
  9
$DIMALTD
 70
     2
  9
$DIMALTF
 40
25.4
  9
$DIMLFAC
 40
1.0
  9
$DIMTOFL
 70
     0
  9
$DIMTVP
 40
0.0
  9
$DIMTIX
 70
     0
  9
$DIMSOXD
 70
     0
  9
$DIMSAH
 70
     0
  9
$DIMBLK1
  1

  9
$DIMBLK2
  1

  9
$DIMSTYLE
  2
Standard
  9
$DIMCLRD
 70
     0
  9
$DIMCLRE
 70
     0
  9
$DIMCLRT
 70
     0
  9
$DIMTFAC
 40
1.0
  9
$DIMGAP
 40
0.09
  9
$DIMJUST
 70
     0
  9
$DIMSD1
 70
     0
  9
$DIMSD2
 70
     0
  9
$DIMTOLJ
 70
     1
  9
$DIMTZIN
 70
     0
  9
$DIMALTZ
 70
     0
  9
$DIMALTTZ
 70
     0
  9
$DIMUPT
 70
     0
  9
$DIMDEC
 70
     4
  9
$DIMTDEC
 70
     4
  9
$DIMALTU
 70
     2
  9
$DIMALTTD
 70
     2
  9
$DIMTXSTY
  7
Standard
  9
$DIMAUNIT
 70
     0
  9
$DIMADEC
 70
     0
  9
$DIMALTRND
 40
0.0
  9
$DIMAZIN
 70
     0
  9
$DIMDSEP
 70
    46
  9
$DIMATFIT
 70
     3
  9
$DIMFRAC
 70
     0
  9
$DIMLDRBLK
  1

  9
$DIMLUNIT
 70
     2
  9
$DIMLWD
 70
    -2
  9
$DIMLWE
 70
    -2
  9
$DIMTMOVE
 70
     0
  9
$LUNITS
 70
     2
  9
$LUPREC
 70
     4
  9
$SKETCHINC
 40
0.1
  9
$FILLETRAD
 40
0.0
  9
$AUNITS
 70
     0
  9
$AUPREC
 70
     0
  9
$MENU
  1
.
  9
$ELEVATION
 40
0.0
  9
$PELEVATION
 40
0.0
  9
$THICKNESS
 40
0.0
  9
$LIMCHECK
 70
     0
  9
$CHAMFERA
 40
0.0
  9
$CHAMFERB
 40
0.0
  9
$CHAMFERC
 40
0.0
  9
$CHAMFERD
 40
0.0
  9
$SKPOLY
 70
     0
  9
$TDCREATE
 40
2455508.947160185
  9
$TDUCREATE
 40
2455508.905493518
  9
$TDUPDATE
 40
2455508.948307651
  9
$TDUUPDATE
 40
2455508.906640983
  9
$TDINDWG
 40
0.0011474653
  9
$TDUSRTIMER
 40
0.0011474653
  9
$USRTIMER
 70
     1
  9
$ANGBASE
 50
0.0
  9
$ANGDIR
 70
     0
  9
$PDMODE
 70
     0
  9
$PDSIZE
 40
0.0
  9
$PLINEWID
 40
0.0
  9
$SPLFRAME
 70
     0
  9
$SPLINETYPE
 70
     6
  9
$SPLINESEGS
 70
     8
  9
$HANDSEED
  5
179
  9
$SURFTAB1
 70
     6
  9
$SURFTAB2
 70
     6
  9
$SURFTYPE
 70
     6
  9
$SURFU
 70
     6
  9
$SURFV
 70
     6
  9
$UCSBASE
  2

  9
$UCSNAME
  2

  9
$UCSORG
 10
0.0
 20
0.0
 30
0.0
  9
$UCSXDIR
 10
1.0
 20
0.0
 30
0.0
  9
$UCSYDIR
 10
0.0
 20
1.0
 30
0.0
  9
$UCSORTHOREF
  2

  9
$UCSORTHOVIEW
 70
     1
  9
$UCSORGTOP
 10
0.0
 20
0.0
 30
0.0
  9
$UCSORGBOTTOM
 10
0.0
 20
0.0
 30
0.0
  9
$UCSORGLEFT
 10
0.0
 20
0.0
 30
0.0
  9
$UCSORGRIGHT
 10
0.0
 20
0.0
 30
0.0
  9
$UCSORGFRONT
 10
0.0
 20
0.0
 30
0.0
  9
$UCSORGBACK
 10
0.0
 20
0.0
 30
0.0
  9
$PUCSBASE
  2

  9
$PUCSNAME
  2

  9
$PUCSORG
 10
0.0
 20
0.0
 30
0.0
  9
$PUCSXDIR
 10
1.0
 20
0.0
 30
0.0
  9
$PUCSYDIR
 10
0.0
 20
1.0
 30
0.0
  9
$PUCSORTHOREF
  2

  9
$PUCSORTHOVIEW
 70
     0
  9
$PUCSORGTOP
 10
0.0
 20
0.0
 30
0.0
  9
$PUCSORGBOTTOM
 10
0.0
 20
0.0
 30
0.0
  9
$PUCSORGLEFT
 10
0.0
 20
0.0
 30
0.0
  9
$PUCSORGRIGHT
 10
0.0
 20
0.0
 30
0.0
  9
$PUCSORGFRONT
 10
0.0
 20
0.0
 30
0.0
  9
$PUCSORGBACK
 10
0.0
 20
0.0
 30
0.0
  9
$USERI1
 70
     0
  9
$USERI2
 70
     0
  9
$USERI3
 70
     0
  9
$USERI4
 70
     0
  9
$USERI5
 70
     0
  9
$USERR1
 40
0.0
  9
$USERR2
 40
0.0
  9
$USERR3
 40
0.0
  9
$USERR4
 40
0.0
  9
$USERR5
 40
0.0
  9
$WORLDVIEW
 70
     1
  9
$SHADEDGE
 70
     3
  9
$SHADEDIF
 70
    70
  9
$TILEMODE
 70
     1
  9
$MAXACTVP
 70
    64
  9
$PINSBASE
 10
0.0
 20
0.0
 30
0.0
  9
$PLIMCHECK
 70
     0
  9
$PEXTMIN
 10
1.000000000000000E+20
 20
1.000000000000000E+20
 30
1.000000000000000E+20
  9
$PEXTMAX
 10
-1.000000000000000E+20
 20
-1.000000000000000E+20
 30
-1.000000000000000E+20
  9
$PLIMMIN
 10
0.0
 20
0.0
  9
$PLIMMAX
 10
12.0
 20
9.0
  9
$UNITMODE
 70
     0
  9
$VISRETAIN
 70
     1
  9
$PLINEGEN
 70
     0
  9
$PSLTSCALE
 70
     1
  9
$TREEDEPTH
 70
  3020
  9
$CMLSTYLE
  2
Standard
  9
$CMLJUST
 70
     0
  9
$CMLSCALE
 40
1.0
  9
$PROXYGRAPHICS
 70
     1
  9
$MEASUREMENT
 70
     0
  9
$CELWEIGHT
370
    -1
  9
$ENDCAPS
280
     0
  9
$JOINSTYLE
280
     0
  9
$LWDISPLAY
290
     0
  9
$INSUNITS
 70
     0
  9
$HYPERLINKBASE
  1

  9
$STYLESHEET
  1

  9
$XEDIT
290
     1
  9
$CEPSNTYPE
380
     0
  9
$PSTYLEMODE
290
     1
  9
$FINGERPRINTGUID
  2
{A45B1A43-D84E-431F-975A-B557C1F67B2B}
  9
$VERSIONGUID
  2
{E7337637-2C88-4A7C-AFF8-402F0EBE7A8E}
  9
$EXTNAMES
290
     1
  9
$PSVPSCALE
 40
0.0
  9
$OLESTARTUP
290
     0
  0
ENDSEC
  0
SECTION
  2
CLASSES
  0
CLASS
  1
ACDBDICTIONARYWDFLT
  2
AcDbDictionaryWithDefault
  3
AutoCAD 2000
 90
        0
280
     0
281
     0
  0
CLASS
  1
ACDBPLACEHOLDER
  2
AcDbPlaceHolder
  3
AutoCAD 2000
 90
        0
280
     0
281
     0
  0
CLASS
  1
LAYOUT
  2
AcDbLayout
  3
AutoCAD 2000
 90
        0
280
     0
281
     0
  0
CLASS
  1
DICTIONARYVAR
  2
AcDbDictionaryVar
  3
AutoCAD 2000
 90
        0
280
     0
281
     0
  0
ENDSEC
  0
SECTION
  2
TABLES
  0
TABLE
  2
VPORT
  5
8
330
0
100
AcDbSymbolTable
 70
     4
  0
VPORT
  5
178
330
8
100
AcDbSymbolTableRecord
100
AcDbViewportTableRecord
  2
*Active
 70
     0
 10
0.0
 20
0.0
 11
1.0
 21
1.0
 12
350.0
 22
140.5
 13
0.0
 23
0.0
 14
1.0
 24
1.0
 15
0.0
 25
0.0
 16
0.0
 26
0.0
 36
1.0
 17
0.0
 27
0.0
 37
0.0
 40
338.717796378753
 41
2.073363431151241
 42
50.0
 43
0.0
 44
0.0
 50
0.0
 51
0.0
 71
     0
 72
   100
 73
     1
 74
     3
 75
     0
 76
     0
 77
     0
 78
     0
281
     0
 65
     1
110
0.0
120
0.0
130
0.0
111
1.0
121
0.0
131
0.0
112
0.0
122
1.0
132
0.0
 79
     1
146
0.0
  0
ENDTAB
  0
TABLE
  2
LTYPE
  5
5
330
0
100
AcDbSymbolTable
 70
     1
  0
LTYPE
  5
13
330
5
100
AcDbSymbolTableRecord
100
AcDbLinetypeTableRecord
  2
ByBlock
 70
     0
  3

 72
    65
 73
     0
 40
0.0
  0
LTYPE
  5
14
330
5
100
AcDbSymbolTableRecord
100
AcDbLinetypeTableRecord
  2
ByLayer
 70
     0
  3

 72
    65
 73
     0
 40
0.0
  0
LTYPE
  5
15
330
5
100
AcDbSymbolTableRecord
100
AcDbLinetypeTableRecord
  2
Continuous
 70
     0
  3
Solid line
 72
    65
 73
     0
 40
0.0
  0
ENDTAB
  0
TABLE
  2
LAYER
  5
2
330
0
100
AcDbSymbolTable
 70
     1
  0
LAYER
  5
10
330
2
100
AcDbSymbolTableRecord
100
AcDbLayerTableRecord
  2
0
 70
     0
 62
     7
  6
Continuous
370
    -3
390
F
  0
ENDTAB
  0
TABLE
  2
STYLE
  5
3
330
0
100
AcDbSymbolTable
 70
     1
  0
STYLE
  5
11
330
3
100
AcDbSymbolTableRecord
100
AcDbTextStyleTableRecord
  2
Standard
 70
     0
 40
0.0
 41
1.0
 50
0.0
 71
     0
 42
0.2
  3
txt
  4

  0
ENDTAB
  0
TABLE
  2
VIEW
  5
6
330
0
100
AcDbSymbolTable
 70
     0
  0
ENDTAB
  0
TABLE
  2
UCS
  5
7
330
0
100
AcDbSymbolTable
 70
     0
  0
ENDTAB
  0
TABLE
  2
APPID
  5
9
330
0
100
AcDbSymbolTable
 70
     1
  0
APPID
  5
12
330
9
100
AcDbSymbolTableRecord
100
AcDbRegAppTableRecord
  2
ACAD
 70
     0
  0
ENDTAB
  0
TABLE
  2
DIMSTYLE
  5
A
330
0
100
AcDbSymbolTable
 70
     1
100
AcDbDimStyleTable
 71
     0
  0
DIMSTYLE
105
170
330
A
100
AcDbSymbolTableRecord
100
AcDbDimStyleTableRecord
  2
Standard
 70
     0
340
11
  0
ENDTAB
  0
TABLE
  2
BLOCK_RECORD
  5
1
330
0
100
AcDbSymbolTable
 70
     0
  0
BLOCK_RECORD
  5
1E
330
1
100
AcDbSymbolTableRecord
100
AcDbBlockTableRecord
  2
*Model_Space
340
21
  0
BLOCK_RECORD
  5
1A
330
1
100
AcDbSymbolTableRecord
100
AcDbBlockTableRecord
  2
*Paper_Space
340
1D
  0
ENDTAB
  0
ENDSEC
  0
SECTION
  2
BLOCKS
  0
BLOCK
  5
1F
330
1E
100
AcDbEntity
  8
0
100
AcDbBlockBegin
  2
*Model_Space
 70
     0
 10
0.0
 20
0.0
 30
0.0
  3
*Model_Space
  1

  0
ENDBLK
  5
20
330
1E
100
AcDbEntity
  8
0
100
AcDbBlockEnd
  0
BLOCK
  5
1B
330
1A
100
AcDbEntity
 67
     1
  8
0
100
AcDbBlockBegin
  2
*Paper_Space
 70
     0
 10
0.0
 20
0.0
 30
0.0
  3
*Paper_Space
  1

  0
ENDBLK
  5
1C
330
1A
100
AcDbEntity
 67
     1
  8
0
100
AcDbBlockEnd
  0
ENDSEC
  0
SECTION
  2
ENTITIES
  0
LINE
  5
22
330
1E
100
AcDbEntity
  8
0
100
AcDbLine
 10
325.109
 20
6.055800000000029
 30
0.0
 11
330.8759999999999
 21
3.475800000000029
 31
0.0
  0
LINE
  5
23
330
1E
100
AcDbEntity
  8
0
100
AcDbLine
 10
330.8759999999999
 20
3.475800000000029
 30
0.0
 11
337.08
 21
1.623500000000039
 31
0.0
  0
LINE
  5
24
330
1E
100
AcDbEntity
  8
0
100
AcDbLine
 10
337.08
 20
1.623500000000039
 30
0.0
 11
343.577
 21
0.432700000000042
 31
0.0
  0
LINE
  5
25
330
1E
100
AcDbEntity
  8
0
100
AcDbLine
 10
343.577
 20
0.432700000000042
 30
0.0
 11
350.0
 21
-0.0303999999999687
 31
0.0
  0
LINE
  5
26
330
1E
100
AcDbEntity
  8
0
100
AcDbLine
 10
350.0
 20
-0.0303999999999687
 30
0.0
 11
356.423
 21
0.432700000000042
 31
0.0
  0
LINE
  5
27
330
1E
100
AcDbEntity
  8
0
100
AcDbLine
 10
300.0
 20
45.285
 30
0.0
 11
300.0
 21
54.16009999999999
 31
0.0
  0
LINE
  5
28
330
1E
100
AcDbEntity
  8
0
100
AcDbLine
 10
300.0
 20
45.285
 30
0.0
 11
300.5109999999999
 21
39.4635
 31
0.0
  0
LINE
  5
29
330
1E
100
AcDbEntity
  8
0
100
AcDbLine
 10
301.825
 20
33.5759
 30
0.0
 11
303.869
 21
27.9527
 31
0.0
  0
LINE
  5
2A
330
1E
100
AcDbEntity
  8
0
100
AcDbLine
 10
300.5109999999999
 20
39.4635
 30
0.0
 11
301.825
 21
33.5759
 31
0.0
  0
LINE
  5
2B
330
1E
100
AcDbEntity
  8
0
100
AcDbLine
 10
301.825
 20
42.4508
 30
0.0
 11
303.869
 21
36.8277
 31
0.0
  0
LINE
  5
2C
330
1E
100
AcDbEntity
  8
0
100
AcDbLine
 10
300.5109999999999
 20
48.3385
 30
0.0
 11
301.825
 21
42.4508
 31
0.0
  0
LINE
  5
2D
330
1E
100
AcDbEntity
  8
0
100
AcDbLine
 10
306.7149999999999
 20
22.7266
 30
0.0
 11
310.365
 21
17.765
 31
0.0
  0
LINE
  5
2E
330
1E
100
AcDbEntity
  8
0
100
AcDbLine
 10
303.869
 20
27.9527
 30
0.0
 11
306.7149999999999
 21
22.7266
 31
0.0
  0
LINE
  5
2F
330
1E
100
AcDbEntity
  8
0
100
AcDbLine
 10
306.7149999999999
 20
31.6017
 30
0.0
 11
310.365
 21
26.64
 31
0.0
  0
LINE
  5
30
330
1E
100
AcDbEntity
  8
0
100
AcDbLine
 10
303.869
 20
36.8277
 30
0.0
 11
306.7149999999999
 21
31.6017
 31
0.0
  0
LINE
  5
31
330
1E
100
AcDbEntity
  8
0
100
AcDbLine
 10
310.365
 20
17.765
 30
0.0
 11
314.672
 21
13.2665
 31
0.0
  0
LINE
  5
32
330
1E
100
AcDbEntity
  8
0
100
AcDbLine
 10
314.672
 20
13.2665
 30
0.0
 11
319.6349999999999
 21
9.363600000000051
 31
0.0
  0
LINE
  5
33
330
1E
100
AcDbEntity
  8
0
100
AcDbLine
 10
314.672
 20
22.14160000000009
 30
0.0
 11
319.6349999999999
 21
18.2386
 31
0.0
  0
LINE
  5
34
330
1E
100
AcDbEntity
  8
0
100
AcDbLine
 10
315.1829999999999
 20
23.0274
 30
0.0
 11
320.073
 21
19.1903
 31
0.0
  0
LINE
  5
35
330
1E
100
AcDbEntity
  8
0
100
AcDbLine
 10
310.365
 20
26.64
 30
0.0
 11
314.672
 21
22.14160000000009
 31
0.0
  0
LINE
  5
36
330
1E
100
AcDbEntity
  8
0
100
AcDbLine
 10
310.949
 20
27.4596
 30
0.0
 11
315.1829999999999
 21
23.0274
 31
0.0
  0
LINE
  5
37
330
1E
100
AcDbEntity
  8
0
100
AcDbLine
 10
307.299
 20
32.355
 30
0.0
 11
310.949
 21
27.4596
 31
0.0
  0
LINE
  5
38
330
1E
100
AcDbEntity
  8
0
100
AcDbLine
 10
304.5989999999999
 20
37.515
 30
0.0
 11
307.299
 21
32.355
 31
0.0
  0
LINE
  5
39
330
1E
100
AcDbEntity
  8
0
100
AcDbLine
 10
302.482
 20
43.3365
 30
0.0
 11
304.5989999999999
 21
37.515
 31
0.0
  0
LINE
  5
3A
330
1E
100
AcDbEntity
  8
0
100
AcDbLine
 10
301.241
 20
48.8273
 30
0.0
 11
302.482
 21
43.3365
 31
0.0
  0
LINE
  5
3B
330
1E
100
AcDbEntity
  8
0
100
AcDbLine
 10
300.0
 20
54.16009999999999
 30
0.0
 11
300.5109999999999
 21
59.9816
 31
0.0
  0
LINE
  5
3C
330
1E
100
AcDbEntity
  8
0
100
AcDbLine
 10
300.0
 20
54.16009999999999
 30
0.0
 11
300.5109999999999
 21
48.3385
 31
0.0
  0
LINE
  5
3D
330
1E
100
AcDbEntity
  8
0
100
AcDbLine
 10
300.0
 20
54.16009999999999
 30
0.0
 11
300.0
 21
45.285
 31
0.0
  0
LINE
  5
3E
330
1E
100
AcDbEntity
  8
0
100
AcDbLine
 10
0.0
 20
81.0304
 30
0.0
 11
0.0
 21
281.0304
 31
0.0
  0
LINE
  5
3F
330
1E
100
AcDbEntity
  8
0
100
AcDbLine
 10
0.0
 20
81.0304
 30
0.0
 11
309.887240138673
 21
81.0304
 31
0.0
  0
LINE
  5
40
330
1E
100
AcDbEntity
  8
0
100
AcDbLine
 10
0.0
 20
81.0304
 30
0.0
 11
309.887240138673
 21
81.0304
 31
0.0
  0
LINE
  5
41
330
1E
100
AcDbEntity
  8
0
100
AcDbLine
 10
0.0
 20
81.0304
 30
0.0
 11
149.0
 21
131.0303999999999
 31
0.0
  0
LINE
  5
42
330
1E
100
AcDbEntity
  8
0
100
AcDbLine
 10
300.5109999999999
 20
59.9816
 30
0.0
 11
301.825
 21
65.86929999999999
 31
0.0
  0
LINE
  5
43
330
1E
100
AcDbEntity
  8
0
100
AcDbLine
 10
303.869
 20
71.4924
 30
0.0
 11
306.7149999999999
 21
76.7185
 31
0.0
  0
LINE
  5
44
330
1E
100
AcDbEntity
  8
0
100
AcDbLine
 10
301.825
 20
65.86929999999999
 30
0.0
 11
303.869
 21
71.4924
 31
0.0
  0
LINE
  5
45
330
1E
100
AcDbEntity
  8
0
100
AcDbLine
 10
306.7149999999999
 20
76.7185
 30
0.0
 11
310.365
 21
81.6798
 31
0.0
  0
LINE
  5
46
330
1E
100
AcDbEntity
  8
0
100
AcDbLine
 10
310.365
 20
81.6798
 30
0.0
 11
314.672
 21
86.17879999999999
 31
0.0
  0
LINE
  5
47
330
1E
100
AcDbEntity
  8
0
100
AcDbLine
 10
310.949
 20
81.70579999999999
 30
0.0
 11
315.1829999999999
 21
86.1378
 31
0.0
  0
LINE
  5
48
330
1E
100
AcDbEntity
  8
0
100
AcDbLine
 10
307.299
 20
76.81029999999999
 30
0.0
 11
310.949
 21
81.70579999999999
 31
0.0
  0
LINE
  5
49
330
1E
100
AcDbEntity
  8
0
100
AcDbLine
 10
304.5989999999999
 20
71.65040000000001
 30
0.0
 11
307.299
 21
76.81029999999999
 31
0.0
  0
LINE
  5
4A
330
1E
100
AcDbEntity
  8
0
100
AcDbLine
 10
302.482
 20
65.8288
 30
0.0
 11
304.5989999999999
 21
71.65040000000001
 31
0.0
  0
LINE
  5
4B
330
1E
100
AcDbEntity
  8
0
100
AcDbLine
 10
301.241
 20
60.33809999999999
 30
0.0
 11
302.482
 21
65.8288
 31
0.0
  0
LINE
  5
4C
330
1E
100
AcDbEntity
  8
0
100
AcDbLine
 10
300.73
 20
54.5827
 30
0.0
 11
301.241
 21
60.33809999999999
 31
0.0
  0
LINE
  5
4D
330
1E
100
AcDbEntity
  8
0
100
AcDbLine
 10
300.73
 20
54.5827
 30
0.0
 11
301.241
 21
48.8273
 31
0.0
  0
LINE
  5
4E
330
1E
100
AcDbEntity
  8
0
100
AcDbLine
 10
319.6349999999999
 20
9.363600000000051
 30
0.0
 11
325.109
 21
6.055800000000029
 31
0.0
  0
LINE
  5
4F
330
1E
100
AcDbEntity
  8
0
100
AcDbLine
 10
319.6349999999999
 20
18.2386
 30
0.0
 11
325.109
 21
14.9307
 31
0.0
  0
LINE
  5
50
330
1E
100
AcDbEntity
  8
0
100
AcDbLine
 10
320.073
 20
19.1903
 30
0.0
 11
325.475
 21
15.8827
 31
0.0
  0
LINE
  5
51
330
1E
100
AcDbEntity
  8
0
100
AcDbLine
 10
314.672
 20
86.17879999999999
 30
0.0
 11
319.6349999999999
 21
90.08180000000001
 31
0.0
  0
LINE
  5
52
330
1E
100
AcDbEntity
  8
0
100
AcDbLine
 10
319.6349999999999
 20
90.08180000000001
 30
0.0
 11
325.109
 21
93.38880000000001
 31
0.0
  0
LINE
  5
53
330
1E
100
AcDbEntity
  8
0
100
AcDbLine
 10
315.1829999999999
 20
86.1378
 30
0.0
 11
320.073
 21
89.97480000000001
 31
0.0
  0
LINE
  5
54
330
1E
100
AcDbEntity
  8
0
100
AcDbLine
 10
325.109
 20
14.9307
 30
0.0
 11
330.8759999999999
 21
12.35079999999999
 31
0.0
  0
LINE
  5
55
330
1E
100
AcDbEntity
  8
0
100
AcDbLine
 10
330.8759999999999
 20
12.35079999999999
 30
0.0
 11
337.08
 21
10.4984
 31
0.0
  0
LINE
  5
56
330
1E
100
AcDbEntity
  8
0
100
AcDbLine
 10
325.475
 20
15.8827
 30
0.0
 11
331.1679999999999
 21
13.4349
 31
0.0
  0
LINE
  5
57
330
1E
100
AcDbEntity
  8
0
100
AcDbLine
 10
331.1679999999999
 20
13.4349
 30
0.0
 11
337.591
 21
11.5165
 31
0.0
  0
LINE
  5
58
330
1E
100
AcDbEntity
  8
0
100
AcDbLine
 10
320.073
 20
89.97480000000001
 30
0.0
 11
325.475
 21
93.28279999999999
 31
0.0
  0
LINE
  5
59
330
1E
100
AcDbEntity
  8
0
100
AcDbLine
 10
325.109
 20
93.38880000000001
 30
0.0
 11
330.8759999999999
 21
95.9698
 31
0.0
  0
LINE
  5
5A
330
1E
100
AcDbEntity
  8
0
100
AcDbLine
 10
330.8759999999999
 20
95.9698
 30
0.0
 11
337.08
 21
97.8218
 31
0.0
  0
LINE
  5
5B
330
1E
100
AcDbEntity
  8
0
100
AcDbLine
 10
325.475
 20
93.28279999999999
 30
0.0
 11
331.1679999999999
 21
95.7308
 31
0.0
  0
LINE
  5
5C
330
1E
100
AcDbEntity
  8
0
100
AcDbLine
 10
343.577
 20
9.30770000000006
 30
0.0
 11
350.0
 21
8.844600000000051
 31
0.0
  0
LINE
  5
5D
330
1E
100
AcDbEntity
  8
0
100
AcDbLine
 10
337.08
 20
10.4984
 30
0.0
 11
343.577
 21
9.30770000000006
 31
0.0
  0
LINE
  5
5E
330
1E
100
AcDbEntity
  8
0
100
AcDbLine
 10
337.591
 20
11.5165
 30
0.0
 11
343.6499999999999
 21
10.3919
 31
0.0
  0
LINE
  5
5F
330
1E
100
AcDbEntity
  8
0
100
AcDbLine
 10
343.6499999999999
 20
10.3919
 30
0.0
 11
350.0
 21
9.928800000000029
 31
0.0
  0
LINE
  5
60
330
1E
100
AcDbEntity
  8
0
100
AcDbLine
 10
331.1679999999999
 20
95.7308
 30
0.0
 11
337.591
 21
97.64879999999999
 31
0.0
  0
LINE
  5
61
330
1E
100
AcDbEntity
  8
0
100
AcDbLine
 10
341.36
 20
98.60638981068191
 30
0.0
 11
341.36
 21
108.1158
 31
0.0
  0
LINE
  5
62
330
1E
100
AcDbEntity
  8
0
100
AcDbLine
 10
337.08
 20
97.8218
 30
0.0
 11
343.577
 21
99.01279999999999
 31
0.0
  0
LINE
  5
63
330
1E
100
AcDbEntity
  8
0
100
AcDbLine
 10
343.577
 20
99.01279999999999
 30
0.0
 11
350.0
 21
99.47580000000002
 31
0.0
  0
LINE
  5
64
330
1E
100
AcDbEntity
  8
0
100
AcDbLine
 10
337.591
 20
97.64879999999999
 30
0.0
 11
343.6499999999999
 21
98.7738
 31
0.0
  0
LINE
  5
65
330
1E
100
AcDbEntity
  8
0
100
AcDbLine
 10
343.6499999999999
 20
98.7738
 30
0.0
 11
350.0
 21
99.2368
 31
0.0
  0
LINE
  5
66
330
1E
100
AcDbEntity
  8
0
100
AcDbLine
 10
338.384
 20
106.7358
 30
0.0
 11
339.6319999999999
 21
105.4327999999999
 31
0.0
  0
LINE
  5
67
330
1E
100
AcDbEntity
  8
0
100
AcDbLine
 10
338.0
 20
108.1158
 30
0.0
 11
338.384
 21
109.5347999999999
 31
0.0
  0
LINE
  5
68
330
1E
100
AcDbEntity
  8
0
100
AcDbLine
 10
338.0
 20
108.1158
 30
0.0
 11
338.384
 21
106.7358
 31
0.0
  0
LINE
  5
69
330
1E
100
AcDbEntity
  8
0
100
AcDbLine
 10
338.0
 20
108.1158
 30
0.0
 11
338.0
 21
167.9750999999999
 31
0.0
  0
LINE
  5
6A
330
1E
100
AcDbEntity
  8
0
100
AcDbLine
 10
339.6319999999999
 20
105.4327999999999
 30
0.0
 11
341.36
 21
104.4040999999999
 31
0.0
  0
LINE
  5
6B
330
1E
100
AcDbEntity
  8
0
100
AcDbLine
 10
338.384
 20
109.5347999999999
 30
0.0
 11
339.6319999999999
 21
110.8368
 31
0.0
  0
LINE
  5
6C
330
1E
100
AcDbEntity
  8
0
100
AcDbLine
 10
339.6319999999999
 20
110.8368
 30
0.0
 11
341.5519999999999
 21
111.9798
 31
0.0
  0
LINE
  5
6D
330
1E
100
AcDbEntity
  8
0
100
AcDbLine
 10
341.5519999999999
 20
111.9798
 30
0.0
 11
344.0479999999999
 21
112.8487999999999
 31
0.0
  0
LINE
  5
6E
330
1E
100
AcDbEntity
  8
0
100
AcDbLine
 10
344.0479999999999
 20
112.8487999999999
 30
0.0
 11
346.928
 21
113.3598
 31
0.0
  0
LINE
  5
6F
330
1E
100
AcDbEntity
  8
0
100
AcDbLine
 10
346.928
 20
113.3598
 30
0.0
 11
350.0
 21
113.5577999999999
 31
0.0
  0
LINE
  5
70
330
1E
100
AcDbEntity
  8
0
100
AcDbLine
 10
347.7919999999999
 20
111.9018
 30
0.0
 11
350.0
 21
112.0588
 31
0.0
  0
LINE
  5
71
330
1E
100
AcDbEntity
  8
0
100
AcDbLine
 10
345.68
 20
111.5067999999999
 30
0.0
 11
347.7919999999999
 21
111.9018
 31
0.0
  0
LINE
  5
72
330
1E
100
AcDbEntity
  8
0
100
AcDbLine
 10
343.8559999999999
 20
110.8767999999999
 30
0.0
 11
345.68
 21
111.5067999999999
 31
0.0
  0
LINE
  5
73
330
1E
100
AcDbEntity
  8
0
100
AcDbLine
 10
342.5119999999999
 20
110.0867999999999
 30
0.0
 11
343.8559999999999
 21
110.8767999999999
 31
0.0
  0
LINE
  5
74
330
1E
100
AcDbEntity
  8
0
100
AcDbLine
 10
341.648
 20
109.1397999999999
 30
0.0
 11
342.5119999999999
 21
110.0867999999999
 31
0.0
  0
LINE
  5
75
330
1E
100
AcDbEntity
  8
0
100
AcDbLine
 10
341.36
 20
108.1158
 30
0.0
 11
341.36
 21
98.60638981068191
 31
0.0
  0
LINE
  5
76
330
1E
100
AcDbEntity
  8
0
100
AcDbLine
 10
341.36
 20
108.1158
 30
0.0
 11
341.648
 21
109.1397999999999
 31
0.0
  0
LINE
  5
77
330
1E
100
AcDbEntity
  8
0
100
AcDbLine
 10
149.0
 20
131.0303999999999
 30
0.0
 11
149.0
 21
231.0303999999999
 31
0.0
  0
LINE
  5
78
330
1E
100
AcDbEntity
  8
0
100
AcDbLine
 10
149.0
 20
131.0303999999999
 30
0.0
 11
338.0
 21
131.0303999999999
 31
0.0
  0
LINE
  5
79
330
1E
100
AcDbEntity
  8
0
100
AcDbLine
 10
149.0
 20
131.0303999999999
 30
0.0
 11
149.0
 21
231.0303999999999
 31
0.0
  0
LINE
  5
7A
330
1E
100
AcDbEntity
  8
0
100
AcDbLine
 10
332.64
 20
165.6503999999999
 30
0.0
 11
337.302474017561
 21
163.785410392975
 31
0.0
  0
LINE
  5
7B
330
1E
100
AcDbEntity
  8
0
100
AcDbLine
 10
332.16
 20
165.1904
 30
0.0
 11
337.706691882498
 21
163.0010843317639
 31
0.0
  0
LINE
  5
7C
330
1E
100
AcDbEntity
  8
0
100
AcDbLine
 10
336.485
 20
165.3716
 30
0.0
 11
337.838
 21
162.7462999999999
 31
0.0
  0
LINE
  5
7D
330
1E
100
AcDbEntity
  8
0
100
AcDbLine
 10
325.22
 20
171.2504
 30
0.0
 11
332.64
 21
165.6503999999999
 31
0.0
  0
LINE
  5
7E
330
1E
100
AcDbEntity
  8
0
100
AcDbLine
 10
324.85
 20
170.8804
 30
0.0
 11
332.16
 21
165.1904
 31
0.0
  0
LINE
  5
7F
330
1E
100
AcDbEntity
  8
0
100
AcDbLine
 10
319.62
 20
178.6704
 30
0.0
 11
325.22
 21
171.2504
 31
0.0
  0
LINE
  5
80
330
1E
100
AcDbEntity
  8
0
100
AcDbLine
 10
319.16
 20
178.1904
 30
0.0
 11
324.85
 21
170.8804
 31
0.0
  0
LINE
  5
81
330
1E
100
AcDbEntity
  8
0
100
AcDbLine
 10
336.694
 20
170.6819
 30
0.0
 11
338.019
 21
173.2196
 31
0.0
  0
LINE
  5
82
330
1E
100
AcDbEntity
  8
0
100
AcDbLine
 10
336.485
 20
170.9
 30
0.0
 11
337.838
 21
173.5252999999999
 31
0.0
  0
LINE
  5
83
330
1E
100
AcDbEntity
  8
0
100
AcDbLine
 10
336.0
 20
168.1357999999999
 30
0.0
 11
336.485
 21
165.3716
 31
0.0
  0
LINE
  5
84
330
1E
100
AcDbEntity
  8
0
100
AcDbLine
 10
336.0
 20
168.1357999999999
 30
0.0
 11
336.1969999999999
 21
167.9750999999999
 31
0.0
  0
LINE
  5
85
330
1E
100
AcDbEntity
  8
0
100
AcDbLine
 10
336.0
 20
168.1357999999999
 30
0.0
 11
336.485
 21
170.9
 31
0.0
  0
LINE
  5
86
330
1E
100
AcDbEntity
  8
0
100
AcDbLine
 10
336.1969999999999
 20
167.9750999999999
 30
0.0
 11
336.694
 21
165.2683
 31
0.0
  0
LINE
  5
87
330
1E
100
AcDbEntity
  8
0
100
AcDbLine
 10
336.1969999999999
 20
167.9750999999999
 30
0.0
 11
336.694
 21
170.6819
 31
0.0
  0
LINE
  5
88
330
1E
100
AcDbEntity
  8
0
100
AcDbLine
 10
337.838
 20
173.5252999999999
 30
0.0
 11
340.0819999999999
 21
175.7336999999999
 31
0.0
  0
LINE
  5
89
330
1E
100
AcDbEntity
  8
0
100
AcDbLine
 10
337.838
 20
162.7462999999999
 30
0.0
 11
338.0
 21
162.586870053476
 31
0.0
  0
LINE
  5
8A
330
1E
100
AcDbEntity
  8
0
100
AcDbLine
 10
336.694
 20
165.2683
 30
0.0
 11
338.0
 21
162.7669896603769
 31
0.0
  0
LINE
  5
8B
330
1E
100
AcDbEntity
  8
0
100
AcDbLine
 10
316.2599999999999
 20
187.0704
 30
0.0
 11
319.62
 21
178.6704
 31
0.0
  0
LINE
  5
8C
330
1E
100
AcDbEntity
  8
0
100
AcDbLine
 10
315.73
 20
186.8804
 30
0.0
 11
319.16
 21
178.1904
 31
0.0
  0
LINE
  5
8D
330
1E
100
AcDbEntity
  8
0
100
AcDbLine
 10
315.0
 20
196.0303999999999
 30
0.0
 11
316.2599999999999
 21
204.9904
 31
0.0
  0
LINE
  5
8E
330
1E
100
AcDbEntity
  8
0
100
AcDbLine
 10
315.0
 20
196.0303999999999
 30
0.0
 11
316.2599999999999
 21
187.0704
 31
0.0
  0
LINE
  5
8F
330
1E
100
AcDbEntity
  8
0
100
AcDbLine
 10
149.0
 20
231.0303999999999
 30
0.0
 11
346.280487804878
 21
231.0303999999999
 31
0.0
  0
LINE
  5
90
330
1E
100
AcDbEntity
  8
0
100
AcDbLine
 10
149.0
 20
231.0303999999999
 30
0.0
 11
346.280487804878
 21
231.0303999999999
 31
0.0
  0
LINE
  5
91
330
1E
100
AcDbEntity
  8
0
100
AcDbLine
 10
149.0
 20
231.0303999999999
 30
0.0
 11
149.0
 21
131.0303999999999
 31
0.0
  0
LINE
  5
92
330
1E
100
AcDbEntity
  8
0
100
AcDbLine
 10
0.0
 20
281.0304
 30
0.0
 11
700.0
 21
281.0304
 31
0.0
  0
LINE
  5
93
330
1E
100
AcDbEntity
  8
0
100
AcDbLine
 10
0.0
 20
281.0304
 30
0.0
 11
0.0
 21
81.0304
 31
0.0
  0
LINE
  5
94
330
1E
100
AcDbEntity
  8
0
100
AcDbLine
 10
0.0
 20
281.0304
 30
0.0
 11
149.0
 21
231.0303999999999
 31
0.0
  0
LINE
  5
95
330
1E
100
AcDbEntity
  8
0
100
AcDbLine
 10
319.62
 20
213.3904
 30
0.0
 11
325.22
 21
220.8104
 31
0.0
  0
LINE
  5
96
330
1E
100
AcDbEntity
  8
0
100
AcDbLine
 10
316.2599999999999
 20
204.9904
 30
0.0
 11
319.62
 21
213.3904
 31
0.0
  0
LINE
  5
97
330
1E
100
AcDbEntity
  8
0
100
AcDbLine
 10
332.64
 20
226.4104
 30
0.0
 11
341.04
 21
229.7703999999999
 31
0.0
  0
LINE
  5
98
330
1E
100
AcDbEntity
  8
0
100
AcDbLine
 10
325.22
 20
220.8104
 30
0.0
 11
332.64
 21
226.4104
 31
0.0
  0
LINE
  5
99
330
1E
100
AcDbEntity
  8
0
100
AcDbLine
 10
332.16
 20
226.8704
 30
0.0
 11
340.85
 21
230.3004
 31
0.0
  0
LINE
  5
9A
330
1E
100
AcDbEntity
  8
0
100
AcDbLine
 10
324.85
 20
221.1803999999999
 30
0.0
 11
332.16
 21
226.8704
 31
0.0
  0
LINE
  5
9B
330
1E
100
AcDbEntity
  8
0
100
AcDbLine
 10
324.85
 20
221.1803999999999
 30
0.0
 11
325.22
 21
220.8104
 31
0.0
  0
LINE
  5
9C
330
1E
100
AcDbEntity
  8
0
100
AcDbLine
 10
319.16
 20
213.8704
 30
0.0
 11
324.85
 21
221.1803999999999
 31
0.0
  0
LINE
  5
9D
330
1E
100
AcDbEntity
  8
0
100
AcDbLine
 10
315.73
 20
205.1803999999999
 30
0.0
 11
319.16
 21
213.8704
 31
0.0
  0
LINE
  5
9E
330
1E
100
AcDbEntity
  8
0
100
AcDbLine
 10
314.5
 20
196.0303999999999
 30
0.0
 11
315.73
 21
205.1803999999999
 31
0.0
  0
LINE
  5
9F
330
1E
100
AcDbEntity
  8
0
100
AcDbLine
 10
314.5
 20
196.0303999999999
 30
0.0
 11
315.73
 21
186.8804
 31
0.0
  0
LINE
  5
A0
330
1E
100
AcDbEntity
  8
0
100
AcDbLine
 10
335.0
 20
196.0075999999999
 30
0.0
 11
335.0
 21
182.2670999999999
 31
0.0
  0
LINE
  5
A1
330
1E
100
AcDbEntity
  8
0
100
AcDbLine
 10
335.0
 20
196.0075999999999
 30
0.0
 11
335.5199999999999
 21
201.0543999999999
 31
0.0
  0
LINE
  5
A2
330
1E
100
AcDbEntity
  8
0
100
AcDbLine
 10
335.0
 20
182.2670999999999
 30
0.0
 11
335.5199999999999
 21
179.3053999999999
 31
0.0
  0
LINE
  5
A3
330
1E
100
AcDbEntity
  8
0
100
AcDbLine
 10
335.0
 20
182.2670999999999
 30
0.0
 11
335.211
 21
182.1163999999999
 31
0.0
  0
LINE
  5
A4
330
1E
100
AcDbEntity
  8
0
100
AcDbLine
 10
335.0
 20
182.2670999999999
 30
0.0
 11
335.5199999999999
 21
185.2288
 31
0.0
  0
LINE
  5
A5
330
1E
100
AcDbEntity
  8
0
100
AcDbLine
 10
336.485
 20
184.8806999999999
 30
0.0
 11
337.838
 21
187.5059
 31
0.0
  0
LINE
  5
A6
330
1E
100
AcDbEntity
  8
0
100
AcDbLine
 10
336.0
 20
182.1163999999999
 30
0.0
 11
336.0
 21
168.1357999999999
 31
0.0
  0
LINE
  5
A7
330
1E
100
AcDbEntity
  8
0
100
AcDbLine
 10
336.0
 20
182.1163999999999
 30
0.0
 11
336.485
 21
184.8806999999999
 31
0.0
  0
LINE
  5
A8
330
1E
100
AcDbEntity
  8
0
100
AcDbLine
 10
335.744
 20
185.0166
 30
0.0
 11
337.163
 21
187.7355
 31
0.0
  0
LINE
  5
A9
330
1E
100
AcDbEntity
  8
0
100
AcDbLine
 10
335.5199999999999
 20
201.0543999999999
 30
0.0
 11
336.9689999999999
 21
205.8473999999999
 31
0.0
  0
LINE
  5
AA
330
1E
100
AcDbEntity
  8
0
100
AcDbLine
 10
336.9689999999999
 20
205.8473999999999
 30
0.0
 11
339.373
 21
209.8794
 31
0.0
  0
LINE
  5
AB
330
1E
100
AcDbEntity
  8
0
100
AcDbLine
 10
335.5199999999999
 20
185.2288
 30
0.0
 11
336.9689999999999
 21
188.0415999999999
 31
0.0
  0
LINE
  5
AC
330
1E
100
AcDbEntity
  8
0
100
AcDbLine
 10
337.838
 20
187.5059
 30
0.0
 11
340.0819999999999
 21
189.7142999999999
 31
0.0
  0
LINE
  5
AD
330
1E
100
AcDbEntity
  8
0
100
AcDbLine
 10
337.163
 20
187.7355
 30
0.0
 11
339.5299999999999
 21
190.1372
 31
0.0
  0
LINE
  5
AE
330
1E
100
AcDbEntity
  8
0
100
AcDbLine
 10
336.9689999999999
 20
188.0415999999999
 30
0.0
 11
339.373
 21
190.4077
 31
0.0
  0
LINE
  5
AF
330
1E
100
AcDbEntity
  8
0
100
AcDbLine
 10
335.5199999999999
 20
179.3053999999999
 30
0.0
 11
336.0
 21
178.373623602484
 31
0.0
  0
LINE
  5
B0
330
1E
100
AcDbEntity
  8
0
100
AcDbLine
 10
335.211
 20
182.1163999999999
 30
0.0
 11
335.744
 21
179.2162999999999
 31
0.0
  0
LINE
  5
B1
330
1E
100
AcDbEntity
  8
0
100
AcDbLine
 10
335.211
 20
182.1163999999999
 30
0.0
 11
335.744
 21
185.0166
 31
0.0
  0
LINE
  5
B2
330
1E
100
AcDbEntity
  8
0
100
AcDbLine
 10
335.744
 20
179.2162999999999
 30
0.0
 11
336.0
 21
178.725768639887
 31
0.0
  0
LINE
  5
B3
330
1E
100
AcDbEntity
  8
0
100
AcDbLine
 10
338.019
 20
173.2196
 30
0.0
 11
340.228
 21
175.4611999999999
 31
0.0
  0
LINE
  5
B4
330
1E
100
AcDbEntity
  8
0
100
AcDbLine
 10
340.228
 20
175.4611999999999
 30
0.0
 11
343.154
 21
177.153
 31
0.0
  0
LINE
  5
B5
330
1E
100
AcDbEntity
  8
0
100
AcDbLine
 10
340.0819999999999
 20
189.7142999999999
 30
0.0
 11
342.9649999999999
 21
191.4333
 31
0.0
  0
LINE
  5
B6
330
1E
100
AcDbEntity
  8
0
100
AcDbLine
 10
340.0819999999999
 20
175.7336999999999
 30
0.0
 11
342.9649999999999
 21
177.4525999999999
 31
0.0
  0
LINE
  5
B7
330
1E
100
AcDbEntity
  8
0
100
AcDbLine
 10
339.5299999999999
 20
190.1372
 30
0.0
 11
342.665
 21
191.9499
 31
0.0
  0
LINE
  5
B8
330
1E
100
AcDbEntity
  8
0
100
AcDbLine
 10
339.373
 20
190.4077
 30
0.0
 11
342.4619999999999
 21
192.2494
 31
0.0
  0
LINE
  5
B9
330
1E
100
AcDbEntity
  8
0
100
AcDbLine
 10
343.154
 20
177.153
 30
0.0
 11
346.466
 21
178.168
 31
0.0
  0
LINE
  5
BA
330
1E
100
AcDbEntity
  8
0
100
AcDbLine
 10
342.9649999999999
 20
191.4333
 30
0.0
 11
346.3919999999999
 21
192.4695
 31
0.0
  0
LINE
  5
BB
330
1E
100
AcDbEntity
  8
0
100
AcDbLine
 10
342.9649999999999
 20
177.4525999999999
 30
0.0
 11
346.3919999999999
 21
178.4888
 31
0.0
  0
LINE
  5
BC
330
1E
100
AcDbEntity
  8
0
100
AcDbLine
 10
342.665
 20
191.9499
 30
0.0
 11
346.214
 21
193.0374
 31
0.0
  0
LINE
  5
BD
330
1E
100
AcDbEntity
  8
0
100
AcDbLine
 10
342.4619999999999
 20
192.2494
 30
0.0
 11
346.134
 21
193.3596
 31
0.0
  0
LINE
  5
BE
330
1E
100
AcDbEntity
  8
0
100
AcDbLine
 10
346.466
 20
178.168
 30
0.0
 11
350.0
 21
178.5487
 31
0.0
  0
LINE
  5
BF
330
1E
100
AcDbEntity
  8
0
100
AcDbLine
 10
346.3919999999999
 20
178.4888
 30
0.0
 11
350.0
 21
178.8604
 31
0.0
  0
LINE
  5
C0
330
1E
100
AcDbEntity
  8
0
100
AcDbLine
 10
350.0
 20
178.5487
 30
0.0
 11
353.534
 21
178.168
 31
0.0
  0
LINE
  5
C1
330
1E
100
AcDbEntity
  8
0
100
AcDbLine
 10
346.3919999999999
 20
192.4695
 30
0.0
 11
350.0
 21
192.8411
 31
0.0
  0
LINE
  5
C2
330
1E
100
AcDbEntity
  8
0
100
AcDbLine
 10
350.0
 20
192.8411
 30
0.0
 11
353.608
 21
192.4695
 31
0.0
  0
LINE
  5
C3
330
1E
100
AcDbEntity
  8
0
100
AcDbLine
 10
350.0
 20
178.8604
 30
0.0
 11
353.608
 21
178.4888
 31
0.0
  0
LINE
  5
C4
330
1E
100
AcDbEntity
  8
0
100
AcDbLine
 10
346.214
 20
193.0374
 30
0.0
 11
350.0
 21
193.4452999999999
 31
0.0
  0
LINE
  5
C5
330
1E
100
AcDbEntity
  8
0
100
AcDbLine
 10
346.134
 20
193.3596
 30
0.0
 11
350.0
 21
193.7578
 31
0.0
  0
LINE
  5
C6
330
1E
100
AcDbEntity
  8
0
100
AcDbLine
 10
350.0
 20
193.4452999999999
 30
0.0
 11
353.786
 21
193.0374
 31
0.0
  0
LINE
  5
C7
330
1E
100
AcDbEntity
  8
0
100
AcDbLine
 10
339.373
 20
209.8794
 30
0.0
 11
342.4619999999999
 21
213.0184
 31
0.0
  0
LINE
  5
C8
330
1E
100
AcDbEntity
  8
0
100
AcDbLine
 10
342.4619999999999
 20
213.0184
 30
0.0
 11
346.134
 21
214.9104
 31
0.0
  0
LINE
  5
C9
330
1E
100
AcDbEntity
  8
0
100
AcDbLine
 10
341.04
 20
229.7703999999999
 30
0.0
 11
350.0
 21
231.0303999999999
 31
0.0
  0
LINE
  5
CA
330
1E
100
AcDbEntity
  8
0
100
AcDbLine
 10
350.0
 20
231.0303999999999
 30
0.0
 11
358.9599999999999
 21
229.7703999999999
 31
0.0
  0
LINE
  5
CB
330
1E
100
AcDbEntity
  8
0
100
AcDbLine
 10
340.85
 20
230.3004
 30
0.0
 11
350.0
 21
231.5303999999999
 31
0.0
  0
LINE
  5
CC
330
1E
100
AcDbEntity
  8
0
100
AcDbLine
 10
350.0
 20
231.5303999999999
 30
0.0
 11
350.0
 21
231.0303999999999
 31
0.0
  0
LINE
  5
CD
330
1E
100
AcDbEntity
  8
0
100
AcDbLine
 10
350.0
 20
231.5303999999999
 30
0.0
 11
359.1499999999999
 21
230.3004
 31
0.0
  0
LINE
  5
CE
330
1E
100
AcDbEntity
  8
0
100
AcDbLine
 10
346.134
 20
214.9104
 30
0.0
 11
350.0
 21
215.5883999999999
 31
0.0
  0
LINE
  5
CF
330
1E
100
AcDbEntity
  8
0
100
AcDbLine
 10
350.0
 20
215.5883999999999
 30
0.0
 11
353.866
 21
214.9104
 31
0.0
  0
LINE
  5
D0
330
1E
100
AcDbEntity
  8
0
100
AcDbLine
 10
350.0
 20
193.7578
 30
0.0
 11
353.866
 21
193.3596
 31
0.0
  0
LINE
  5
D1
330
1E
100
AcDbEntity
  8
0
100
AcDbLine
 10
338.0
 20
167.9750999999999
 30
0.0
 11
338.0
 21
108.1158
 31
0.0
  0
LINE
  5
D2
330
1E
100
AcDbEntity
  8
0
100
AcDbLine
 10
350.0
 20
113.5577999999999
 30
0.0
 11
353.0719999999999
 21
113.3598
 31
0.0
  0
LINE
  5
D3
330
1E
100
AcDbEntity
  8
0
100
AcDbLine
 10
350.0
 20
112.0588
 30
0.0
 11
352.208
 21
111.9018
 31
0.0
  0
LINE
  5
D4
330
1E
100
AcDbEntity
  8
0
100
AcDbLine
 10
350.0
 20
99.47580000000002
 30
0.0
 11
356.423
 21
99.01279999999999
 31
0.0
  0
LINE
  5
D5
330
1E
100
AcDbEntity
  8
0
100
AcDbLine
 10
350.0
 20
99.2368
 30
0.0
 11
356.35
 21
98.7738
 31
0.0
  0
LINE
  5
D6
330
1E
100
AcDbEntity
  8
0
100
AcDbLine
 10
350.0
 20
8.844600000000051
 30
0.0
 11
356.423
 21
9.30770000000006
 31
0.0
  0
LINE
  5
D7
330
1E
100
AcDbEntity
  8
0
100
AcDbLine
 10
356.423
 20
0.432700000000042
 30
0.0
 11
362.92
 21
1.623500000000039
 31
0.0
  0
LINE
  5
D8
330
1E
100
AcDbEntity
  8
0
100
AcDbLine
 10
380.365
 20
9.363600000000051
 30
0.0
 11
385.329
 21
13.2665
 31
0.0
  0
LINE
  5
D9
330
1E
100
AcDbEntity
  8
0
100
AcDbLine
 10
374.8909999999999
 20
6.055800000000029
 30
0.0
 11
380.365
 21
9.363600000000051
 31
0.0
  0
LINE
  5
DA
330
1E
100
AcDbEntity
  8
0
100
AcDbLine
 10
369.124
 20
3.475800000000029
 30
0.0
 11
374.8909999999999
 21
6.055800000000029
 31
0.0
  0
LINE
  5
DB
330
1E
100
AcDbEntity
  8
0
100
AcDbLine
 10
362.92
 20
1.623500000000039
 30
0.0
 11
369.124
 21
3.475800000000029
 31
0.0
  0
LINE
  5
DC
330
1E
100
AcDbEntity
  8
0
100
AcDbLine
 10
356.423
 20
9.30770000000006
 30
0.0
 11
362.92
 21
10.4984
 31
0.0
  0
LINE
  5
DD
330
1E
100
AcDbEntity
  8
0
100
AcDbLine
 10
358.6399999999999
 20
98.60638981068191
 30
0.0
 11
358.6399999999999
 21
108.1158
 31
0.0
  0
LINE
  5
DE
330
1E
100
AcDbEntity
  8
0
100
AcDbLine
 10
362.4089999999999
 20
97.64879999999999
 30
0.0
 11
368.832
 21
95.7308
 31
0.0
  0
LINE
  5
DF
330
1E
100
AcDbEntity
  8
0
100
AcDbLine
 10
356.144
 20
110.8767999999999
 30
0.0
 11
357.488
 21
110.0867999999999
 31
0.0
  0
LINE
  5
E0
330
1E
100
AcDbEntity
  8
0
100
AcDbLine
 10
354.32
 20
111.5067999999999
 30
0.0
 11
356.144
 21
110.8767999999999
 31
0.0
  0
LINE
  5
E1
330
1E
100
AcDbEntity
  8
0
100
AcDbLine
 10
353.534
 20
178.168
 30
0.0
 11
356.8459999999999
 21
177.153
 31
0.0
  0
LINE
  5
E2
330
1E
100
AcDbEntity
  8
0
100
AcDbLine
 10
353.608
 20
192.4695
 30
0.0
 11
357.035
 21
191.4333
 31
0.0
  0
LINE
  5
E3
330
1E
100
AcDbEntity
  8
0
100
AcDbLine
 10
353.608
 20
178.4888
 30
0.0
 11
357.035
 21
177.4525999999999
 31
0.0
  0
LINE
  5
E4
330
1E
100
AcDbEntity
  8
0
100
AcDbLine
 10
353.786
 20
193.0374
 30
0.0
 11
357.335
 21
191.9499
 31
0.0
  0
LINE
  5
E5
330
1E
100
AcDbEntity
  8
0
100
AcDbLine
 10
353.7195121951219
 20
231.0303999999999
 30
0.0
 11
551.0
 21
231.0303999999999
 31
0.0
  0
LINE
  5
E6
330
1E
100
AcDbEntity
  8
0
100
AcDbLine
 10
353.866
 20
214.9104
 30
0.0
 11
357.538
 21
213.0184
 31
0.0
  0
LINE
  5
E7
330
1E
100
AcDbEntity
  8
0
100
AcDbLine
 10
353.866
 20
193.3596
 30
0.0
 11
357.538
 21
192.2494
 31
0.0
  0
LINE
  5
E8
330
1E
100
AcDbEntity
  8
0
100
AcDbLine
 10
355.952
 20
112.8487999999999
 30
0.0
 11
358.448
 21
111.9798
 31
0.0
  0
LINE
  5
E9
330
1E
100
AcDbEntity
  8
0
100
AcDbLine
 10
353.0719999999999
 20
113.3598
 30
0.0
 11
355.952
 21
112.8487999999999
 31
0.0
  0
LINE
  5
EA
330
1E
100
AcDbEntity
  8
0
100
AcDbLine
 10
352.208
 20
111.9018
 30
0.0
 11
354.32
 21
111.5067999999999
 31
0.0
  0
LINE
  5
EB
330
1E
100
AcDbEntity
  8
0
100
AcDbLine
 10
358.6399999999999
 20
104.4040999999999
 30
0.0
 11
360.368
 21
105.4327999999999
 31
0.0
  0
LINE
  5
EC
330
1E
100
AcDbEntity
  8
0
100
AcDbLine
 10
360.368
 20
105.4327999999999
 30
0.0
 11
361.6159999999999
 21
106.7358
 31
0.0
  0
LINE
  5
ED
330
1E
100
AcDbEntity
  8
0
100
AcDbLine
 10
362.0
 20
108.1158
 30
0.0
 11
362.0
 21
167.9750999999999
 31
0.0
  0
LINE
  5
EE
330
1E
100
AcDbEntity
  8
0
100
AcDbLine
 10
361.6159999999999
 20
106.7358
 30
0.0
 11
362.0
 21
108.1158
 31
0.0
  0
LINE
  5
EF
330
1E
100
AcDbEntity
  8
0
100
AcDbLine
 10
361.6159999999999
 20
109.5347999999999
 30
0.0
 11
362.0
 21
108.1158
 31
0.0
  0
LINE
  5
F0
330
1E
100
AcDbEntity
  8
0
100
AcDbLine
 10
358.6399999999999
 20
108.1158
 30
0.0
 11
358.6399999999999
 21
98.60638981068191
 31
0.0
  0
LINE
  5
F1
330
1E
100
AcDbEntity
  8
0
100
AcDbLine
 10
358.352
 20
109.1397999999999
 30
0.0
 11
358.6399999999999
 21
108.1158
 31
0.0
  0
LINE
  5
F2
330
1E
100
AcDbEntity
  8
0
100
AcDbLine
 10
356.8459999999999
 20
177.153
 30
0.0
 11
359.7719999999999
 21
175.4611999999999
 31
0.0
  0
LINE
  5
F3
330
1E
100
AcDbEntity
  8
0
100
AcDbLine
 10
357.035
 20
191.4333
 30
0.0
 11
359.918
 21
189.7142999999999
 31
0.0
  0
LINE
  5
F4
330
1E
100
AcDbEntity
  8
0
100
AcDbLine
 10
357.035
 20
177.4525999999999
 30
0.0
 11
359.918
 21
175.7336999999999
 31
0.0
  0
LINE
  5
F5
330
1E
100
AcDbEntity
  8
0
100
AcDbLine
 10
357.335
 20
191.9499
 30
0.0
 11
360.47
 21
190.1372
 31
0.0
  0
LINE
  5
F6
330
1E
100
AcDbEntity
  8
0
100
AcDbLine
 10
357.538
 20
213.0184
 30
0.0
 11
360.6269999999999
 21
209.8794
 31
0.0
  0
LINE
  5
F7
330
1E
100
AcDbEntity
  8
0
100
AcDbLine
 10
357.538
 20
192.2494
 30
0.0
 11
360.6269999999999
 21
190.4077
 31
0.0
  0
LINE
  5
F8
330
1E
100
AcDbEntity
  8
0
100
AcDbLine
 10
359.7719999999999
 20
175.4611999999999
 30
0.0
 11
361.981
 21
173.2196
 31
0.0
  0
LINE
  5
F9
330
1E
100
AcDbEntity
  8
0
100
AcDbLine
 10
359.7719999999999
 20
175.4611999999999
 30
0.0
 11
359.918
 21
175.7336999999999
 31
0.0
  0
LINE
  5
FA
330
1E
100
AcDbEntity
  8
0
100
AcDbLine
 10
359.918
 20
189.7142999999999
 30
0.0
 11
362.162
 21
187.5059
 31
0.0
  0
LINE
  5
FB
330
1E
100
AcDbEntity
  8
0
100
AcDbLine
 10
359.918
 20
175.7336999999999
 30
0.0
 11
362.162
 21
173.5252999999999
 31
0.0
  0
LINE
  5
FC
330
1E
100
AcDbEntity
  8
0
100
AcDbLine
 10
362.0
 20
131.0303999999999
 30
0.0
 11
551.0
 21
131.0303999999999
 31
0.0
  0
LINE
  5
FD
330
1E
100
AcDbEntity
  8
0
100
AcDbLine
 10
362.0
 20
162.7669896603769
 30
0.0
 11
363.3059999999999
 21
165.2683
 31
0.0
  0
LINE
  5
FE
330
1E
100
AcDbEntity
  8
0
100
AcDbLine
 10
362.0
 20
162.586870053476
 30
0.0
 11
362.162
 21
162.7462999999999
 31
0.0
  0
LINE
  5
FF
330
1E
100
AcDbEntity
  8
0
100
AcDbLine
 10
361.981
 20
173.2196
 30
0.0
 11
363.3059999999999
 21
170.6819
 31
0.0
  0
LINE
  5
100
330
1E
100
AcDbEntity
  8
0
100
AcDbLine
 10
360.47
 20
190.1372
 30
0.0
 11
362.8369999999999
 21
187.7355
 31
0.0
  0
LINE
  5
101
330
1E
100
AcDbEntity
  8
0
100
AcDbLine
 10
360.47
 20
190.1372
 30
0.0
 11
360.6269999999999
 21
190.4077
 31
0.0
  0
LINE
  5
102
330
1E
100
AcDbEntity
  8
0
100
AcDbLine
 10
359.1499999999999
 20
230.3004
 30
0.0
 11
367.8399999999999
 21
226.8704
 31
0.0
  0
LINE
  5
103
330
1E
100
AcDbEntity
  8
0
100
AcDbLine
 10
358.9599999999999
 20
229.7703999999999
 30
0.0
 11
367.36
 21
226.4104
 31
0.0
  0
LINE
  5
104
330
1E
100
AcDbEntity
  8
0
100
AcDbLine
 10
360.6269999999999
 20
209.8794
 30
0.0
 11
363.031
 21
205.8473999999999
 31
0.0
  0
LINE
  5
105
330
1E
100
AcDbEntity
  8
0
100
AcDbLine
 10
360.6269999999999
 20
190.4077
 30
0.0
 11
363.031
 21
188.0415999999999
 31
0.0
  0
LINE
  5
106
330
1E
100
AcDbEntity
  8
0
100
AcDbLine
 10
362.2933081175019
 20
163.0010843317639
 30
0.0
 11
367.8399999999999
 21
165.1904
 31
0.0
  0
LINE
  5
107
330
1E
100
AcDbEntity
  8
0
100
AcDbLine
 10
362.162
 20
162.7462999999999
 30
0.0
 11
363.5149999999999
 21
165.3716
 31
0.0
  0
LINE
  5
108
330
1E
100
AcDbEntity
  8
0
100
AcDbLine
 10
362.162
 20
187.5059
 30
0.0
 11
363.5149999999999
 21
184.8806999999999
 31
0.0
  0
LINE
  5
109
330
1E
100
AcDbEntity
  8
0
100
AcDbLine
 10
362.162
 20
173.5252999999999
 30
0.0
 11
363.5149999999999
 21
170.9
 31
0.0
  0
LINE
  5
10A
330
1E
100
AcDbEntity
  8
0
100
AcDbLine
 10
362.0
 20
167.9750999999999
 30
0.0
 11
362.0
 21
108.1158
 31
0.0
  0
LINE
  5
10B
330
1E
100
AcDbEntity
  8
0
100
AcDbLine
 10
360.368
 20
110.8368
 30
0.0
 11
361.6159999999999
 21
109.5347999999999
 31
0.0
  0
LINE
  5
10C
330
1E
100
AcDbEntity
  8
0
100
AcDbLine
 10
358.448
 20
111.9798
 30
0.0
 11
360.368
 21
110.8368
 31
0.0
  0
LINE
  5
10D
330
1E
100
AcDbEntity
  8
0
100
AcDbLine
 10
357.488
 20
110.0867999999999
 30
0.0
 11
358.352
 21
109.1397999999999
 31
0.0
  0
LINE
  5
10E
330
1E
100
AcDbEntity
  8
0
100
AcDbLine
 10
356.423
 20
99.01279999999999
 30
0.0
 11
362.92
 21
97.8218
 31
0.0
  0
LINE
  5
10F
330
1E
100
AcDbEntity
  8
0
100
AcDbLine
 10
356.35
 20
98.7738
 30
0.0
 11
362.4089999999999
 21
97.64879999999999
 31
0.0
  0
LINE
  5
110
330
1E
100
AcDbEntity
  8
0
100
AcDbLine
 10
385.329
 20
13.2665
 30
0.0
 11
389.6349999999999
 21
17.765
 31
0.0
  0
LINE
  5
111
330
1E
100
AcDbEntity
  8
0
100
AcDbLine
 10
369.124
 20
12.35079999999999
 30
0.0
 11
374.8909999999999
 21
14.9307
 31
0.0
  0
LINE
  5
112
330
1E
100
AcDbEntity
  8
0
100
AcDbLine
 10
362.92
 20
10.4984
 30
0.0
 11
369.124
 21
12.35079999999999
 31
0.0
  0
LINE
  5
113
330
1E
100
AcDbEntity
  8
0
100
AcDbLine
 10
374.5249999999999
 20
93.28279999999999
 30
0.0
 11
379.9269999999999
 21
89.97480000000001
 31
0.0
  0
LINE
  5
114
330
1E
100
AcDbEntity
  8
0
100
AcDbLine
 10
362.697525982438
 20
163.785410392975
 30
0.0
 11
367.36
 21
165.6503999999999
 31
0.0
  0
LINE
  5
115
330
1E
100
AcDbEntity
  8
0
100
AcDbLine
 10
362.8369999999999
 20
187.7355
 30
0.0
 11
364.2559999999999
 21
185.0166
 31
0.0
  0
LINE
  5
116
330
1E
100
AcDbEntity
  8
0
100
AcDbLine
 10
363.5149999999999
 20
165.3716
 30
0.0
 11
364.0
 21
168.1357999999999
 31
0.0
  0
LINE
  5
117
330
1E
100
AcDbEntity
  8
0
100
AcDbLine
 10
363.3059999999999
 20
165.2683
 30
0.0
 11
363.803
 21
167.9750999999999
 31
0.0
  0
LINE
  5
118
330
1E
100
AcDbEntity
  8
0
100
AcDbLine
 10
363.3059999999999
 20
170.6819
 30
0.0
 11
363.803
 21
167.9750999999999
 31
0.0
  0
LINE
  5
119
330
1E
100
AcDbEntity
  8
0
100
AcDbLine
 10
363.803
 20
167.9750999999999
 30
0.0
 11
364.0
 21
168.1357999999999
 31
0.0
  0
LINE
  5
11A
330
1E
100
AcDbEntity
  8
0
100
AcDbLine
 10
363.5149999999999
 20
170.9
 30
0.0
 11
363.5149999999999
 21
184.8806999999999
 31
0.0
  0
LINE
  5
11B
330
1E
100
AcDbEntity
  8
0
100
AcDbLine
 10
363.5149999999999
 20
170.9
 30
0.0
 11
364.0
 21
168.1357999999999
 31
0.0
  0
LINE
  5
11C
330
1E
100
AcDbEntity
  8
0
100
AcDbLine
 10
363.5149999999999
 20
184.8806999999999
 30
0.0
 11
364.0
 21
182.1163999999999
 31
0.0
  0
LINE
  5
11D
330
1E
100
AcDbEntity
  8
0
100
AcDbLine
 10
364.0
 20
182.1163999999999
 30
0.0
 11
364.0
 21
168.1357999999999
 31
0.0
  0
LINE
  5
11E
330
1E
100
AcDbEntity
  8
0
100
AcDbLine
 10
364.2559999999999
 20
179.2162999999999
 30
0.0
 11
364.7889999999999
 21
182.1163999999999
 31
0.0
  0
LINE
  5
11F
330
1E
100
AcDbEntity
  8
0
100
AcDbLine
 10
364.0
 20
178.725768639887
 30
0.0
 11
364.2559999999999
 21
179.2162999999999
 31
0.0
  0
LINE
  5
120
330
1E
100
AcDbEntity
  8
0
100
AcDbLine
 10
364.0
 20
178.373623602485
 30
0.0
 11
364.48
 21
179.3053999999999
 31
0.0
  0
LINE
  5
121
330
1E
100
AcDbEntity
  8
0
100
AcDbLine
 10
364.48
 20
179.3053999999999
 30
0.0
 11
365.0
 21
182.2670999999999
 31
0.0
  0
LINE
  5
122
330
1E
100
AcDbEntity
  8
0
100
AcDbLine
 10
364.2559999999999
 20
185.0166
 30
0.0
 11
364.7889999999999
 21
182.1163999999999
 31
0.0
  0
LINE
  5
123
330
1E
100
AcDbEntity
  8
0
100
AcDbLine
 10
364.48
 20
201.0543999999999
 30
0.0
 11
365.0
 21
196.0075999999999
 31
0.0
  0
LINE
  5
124
330
1E
100
AcDbEntity
  8
0
100
AcDbLine
 10
363.031
 20
205.8473999999999
 30
0.0
 11
364.48
 21
201.0543999999999
 31
0.0
  0
LINE
  5
125
330
1E
100
AcDbEntity
  8
0
100
AcDbLine
 10
363.031
 20
188.0415999999999
 30
0.0
 11
364.48
 21
185.2288
 31
0.0
  0
LINE
  5
126
330
1E
100
AcDbEntity
  8
0
100
AcDbLine
 10
367.8399999999999
 20
165.1904
 30
0.0
 11
375.15
 21
170.8804
 31
0.0
  0
LINE
  5
127
330
1E
100
AcDbEntity
  8
0
100
AcDbLine
 10
367.36
 20
165.6503999999999
 30
0.0
 11
374.7799999999999
 21
171.2504
 31
0.0
  0
LINE
  5
128
330
1E
100
AcDbEntity
  8
0
100
AcDbLine
 10
364.7889999999999
 20
182.1163999999999
 30
0.0
 11
365.0
 21
182.2670999999999
 31
0.0
  0
LINE
  5
129
330
1E
100
AcDbEntity
  8
0
100
AcDbLine
 10
367.8399999999999
 20
226.8704
 30
0.0
 11
375.15
 21
221.1803999999999
 31
0.0
  0
LINE
  5
12A
330
1E
100
AcDbEntity
  8
0
100
AcDbLine
 10
367.36
 20
226.4104
 30
0.0
 11
374.7799999999999
 21
220.8104
 31
0.0
  0
LINE
  5
12B
330
1E
100
AcDbEntity
  8
0
100
AcDbLine
 10
365.0
 20
196.0075999999999
 30
0.0
 11
365.0
 21
182.2670999999999
 31
0.0
  0
LINE
  5
12C
330
1E
100
AcDbEntity
  8
0
100
AcDbLine
 10
364.48
 20
185.2288
 30
0.0
 11
364.48
 21
201.0543999999999
 31
0.0
  0
LINE
  5
12D
330
1E
100
AcDbEntity
  8
0
100
AcDbLine
 10
364.48
 20
185.2288
 30
0.0
 11
365.0
 21
182.2670999999999
 31
0.0
  0
LINE
  5
12E
330
1E
100
AcDbEntity
  8
0
100
AcDbLine
 10
369.124
 20
95.9698
 30
0.0
 11
374.8909999999999
 21
93.38880000000001
 31
0.0
  0
LINE
  5
12F
330
1E
100
AcDbEntity
  8
0
100
AcDbLine
 10
362.92
 20
97.8218
 30
0.0
 11
369.124
 21
95.9698
 31
0.0
  0
LINE
  5
130
330
1E
100
AcDbEntity
  8
0
100
AcDbLine
 10
368.832
 20
95.7308
 30
0.0
 11
374.5249999999999
 21
93.28279999999999
 31
0.0
  0
LINE
  5
131
330
1E
100
AcDbEntity
  8
0
100
AcDbLine
 10
389.6349999999999
 20
17.765
 30
0.0
 11
393.285
 21
22.7266
 31
0.0
  0
LINE
  5
132
330
1E
100
AcDbEntity
  8
0
100
AcDbLine
 10
380.365
 20
18.2386
 30
0.0
 11
385.329
 21
22.14160000000009
 31
0.0
  0
LINE
  5
133
330
1E
100
AcDbEntity
  8
0
100
AcDbLine
 10
374.8909999999999
 20
14.9307
 30
0.0
 11
380.365
 21
18.2386
 31
0.0
  0
LINE
  5
134
330
1E
100
AcDbEntity
  8
0
100
AcDbLine
 10
385.329
 20
22.14160000000009
 30
0.0
 11
389.6349999999999
 21
26.64
 31
0.0
  0
LINE
  5
135
330
1E
100
AcDbEntity
  8
0
100
AcDbLine
 10
384.818
 20
23.0274
 30
0.0
 11
389.0509999999999
 21
27.4596
 31
0.0
  0
LINE
  5
136
330
1E
100
AcDbEntity
  8
0
100
AcDbLine
 10
393.285
 20
22.7266
 30
0.0
 11
396.1309999999999
 21
27.9527
 31
0.0
  0
LINE
  5
137
330
1E
100
AcDbEntity
  8
0
100
AcDbLine
 10
389.6349999999999
 20
26.64
 30
0.0
 11
393.285
 21
31.6017
 31
0.0
  0
LINE
  5
138
330
1E
100
AcDbEntity
  8
0
100
AcDbLine
 10
393.285
 20
31.6017
 30
0.0
 11
396.1309999999999
 21
36.8277
 31
0.0
  0
LINE
  5
139
330
1E
100
AcDbEntity
  8
0
100
AcDbLine
 10
389.0509999999999
 20
27.4596
 30
0.0
 11
392.7009999999999
 21
32.355
 31
0.0
  0
LINE
  5
13A
330
1E
100
AcDbEntity
  8
0
100
AcDbLine
 10
392.7009999999999
 20
32.355
 30
0.0
 11
395.401
 21
37.515
 31
0.0
  0
LINE
  5
13B
330
1E
100
AcDbEntity
  8
0
100
AcDbLine
 10
396.1309999999999
 20
27.9527
 30
0.0
 11
398.175
 21
33.5759
 31
0.0
  0
LINE
  5
13C
330
1E
100
AcDbEntity
  8
0
100
AcDbLine
 10
398.175
 20
33.5759
 30
0.0
 11
399.489
 21
39.4635
 31
0.0
  0
LINE
  5
13D
330
1E
100
AcDbEntity
  8
0
100
AcDbLine
 10
396.1309999999999
 20
36.8277
 30
0.0
 11
398.175
 21
42.4508
 31
0.0
  0
LINE
  5
13E
330
1E
100
AcDbEntity
  8
0
100
AcDbLine
 10
398.175
 20
42.4508
 30
0.0
 11
399.489
 21
48.3385
 31
0.0
  0
LINE
  5
13F
330
1E
100
AcDbEntity
  8
0
100
AcDbLine
 10
395.401
 20
37.515
 30
0.0
 11
397.518
 21
43.3365
 31
0.0
  0
LINE
  5
140
330
1E
100
AcDbEntity
  8
0
100
AcDbLine
 10
393.285
 20
76.7185
 30
0.0
 11
396.1309999999999
 21
71.4924
 31
0.0
  0
LINE
  5
141
330
1E
100
AcDbEntity
  8
0
100
AcDbLine
 10
374.7799999999999
 20
171.2504
 30
0.0
 11
380.3799999999999
 21
178.6704
 31
0.0
  0
LINE
  5
142
330
1E
100
AcDbEntity
  8
0
100
AcDbLine
 10
374.7799999999999
 20
220.8104
 30
0.0
 11
380.3799999999999
 21
213.3904
 31
0.0
  0
LINE
  5
143
330
1E
100
AcDbEntity
  8
0
100
AcDbLine
 10
375.15
 20
170.8804
 30
0.0
 11
380.8399999999999
 21
178.1904
 31
0.0
  0
LINE
  5
144
330
1E
100
AcDbEntity
  8
0
100
AcDbLine
 10
380.8399999999999
 20
178.1904
 30
0.0
 11
384.2699999999999
 21
186.8804
 31
0.0
  0
LINE
  5
145
330
1E
100
AcDbEntity
  8
0
100
AcDbLine
 10
380.3799999999999
 20
178.6704
 30
0.0
 11
383.74
 21
187.0704
 31
0.0
  0
LINE
  5
146
330
1E
100
AcDbEntity
  8
0
100
AcDbLine
 10
383.74
 20
187.0704
 30
0.0
 11
385.0
 21
196.0303999999999
 31
0.0
  0
LINE
  5
147
330
1E
100
AcDbEntity
  8
0
100
AcDbLine
 10
375.15
 20
221.1803999999999
 30
0.0
 11
380.8399999999999
 21
213.8704
 31
0.0
  0
LINE
  5
148
330
1E
100
AcDbEntity
  8
0
100
AcDbLine
 10
380.8399999999999
 20
213.8704
 30
0.0
 11
384.2699999999999
 21
205.1803999999999
 31
0.0
  0
LINE
  5
149
330
1E
100
AcDbEntity
  8
0
100
AcDbLine
 10
380.3799999999999
 20
213.3904
 30
0.0
 11
383.74
 21
204.9904
 31
0.0
  0
LINE
  5
14A
330
1E
100
AcDbEntity
  8
0
100
AcDbLine
 10
384.2699999999999
 20
186.8804
 30
0.0
 11
385.5
 21
196.0303999999999
 31
0.0
  0
LINE
  5
14B
330
1E
100
AcDbEntity
  8
0
100
AcDbLine
 10
385.0
 20
196.0303999999999
 30
0.0
 11
385.5
 21
196.0303999999999
 31
0.0
  0
LINE
  5
14C
330
1E
100
AcDbEntity
  8
0
100
AcDbLine
 10
384.2699999999999
 20
205.1803999999999
 30
0.0
 11
385.5
 21
196.0303999999999
 31
0.0
  0
LINE
  5
14D
330
1E
100
AcDbEntity
  8
0
100
AcDbLine
 10
383.74
 20
204.9904
 30
0.0
 11
385.0
 21
196.0303999999999
 31
0.0
  0
LINE
  5
14E
330
1E
100
AcDbEntity
  8
0
100
AcDbLine
 10
380.365
 20
90.08180000000001
 30
0.0
 11
385.329
 21
86.17879999999999
 31
0.0
  0
LINE
  5
14F
330
1E
100
AcDbEntity
  8
0
100
AcDbLine
 10
374.8909999999999
 20
93.38880000000001
 30
0.0
 11
380.365
 21
90.08180000000001
 31
0.0
  0
LINE
  5
150
330
1E
100
AcDbEntity
  8
0
100
AcDbLine
 10
379.9269999999999
 20
89.97480000000001
 30
0.0
 11
384.818
 21
86.1378
 31
0.0
  0
LINE
  5
151
330
1E
100
AcDbEntity
  8
0
100
AcDbLine
 10
385.329
 20
86.17879999999999
 30
0.0
 11
389.6349999999999
 21
81.6798
 31
0.0
  0
LINE
  5
152
330
1E
100
AcDbEntity
  8
0
100
AcDbLine
 10
384.818
 20
86.1378
 30
0.0
 11
389.0509999999999
 21
81.70579999999999
 31
0.0
  0
LINE
  5
153
330
1E
100
AcDbEntity
  8
0
100
AcDbLine
 10
390.1127598613269
 20
81.0304
 30
0.0
 11
700.0
 21
81.0304
 31
0.0
  0
LINE
  5
154
330
1E
100
AcDbEntity
  8
0
100
AcDbLine
 10
389.6349999999999
 20
81.6798
 30
0.0
 11
393.285
 21
76.7185
 31
0.0
  0
LINE
  5
155
330
1E
100
AcDbEntity
  8
0
100
AcDbLine
 10
389.0509999999999
 20
81.70579999999999
 30
0.0
 11
392.7009999999999
 21
76.81029999999999
 31
0.0
  0
LINE
  5
156
330
1E
100
AcDbEntity
  8
0
100
AcDbLine
 10
392.7009999999999
 20
76.81029999999999
 30
0.0
 11
395.401
 21
71.65040000000001
 31
0.0
  0
LINE
  5
157
330
1E
100
AcDbEntity
  8
0
100
AcDbLine
 10
396.1309999999999
 20
71.4924
 30
0.0
 11
398.175
 21
65.86929999999999
 31
0.0
  0
LINE
  5
158
330
1E
100
AcDbEntity
  8
0
100
AcDbLine
 10
398.175
 20
65.86929999999999
 30
0.0
 11
399.489
 21
59.9816
 31
0.0
  0
LINE
  5
159
330
1E
100
AcDbEntity
  8
0
100
AcDbLine
 10
395.401
 20
71.65040000000001
 30
0.0
 11
397.518
 21
65.8288
 31
0.0
  0
LINE
  5
15A
330
1E
100
AcDbEntity
  8
0
100
AcDbLine
 10
397.518
 20
65.8288
 30
0.0
 11
398.759
 21
60.33809999999999
 31
0.0
  0
LINE
  5
15B
330
1E
100
AcDbEntity
  8
0
100
AcDbLine
 10
398.759
 20
60.33809999999999
 30
0.0
 11
399.2699999999999
 21
54.5827
 31
0.0
  0
LINE
  5
15C
330
1E
100
AcDbEntity
  8
0
100
AcDbLine
 10
397.518
 20
43.3365
 30
0.0
 11
398.759
 21
48.8273
 31
0.0
  0
LINE
  5
15D
330
1E
100
AcDbEntity
  8
0
100
AcDbLine
 10
400.0
 20
45.285
 30
0.0
 11
400.0
 21
54.16009999999999
 31
0.0
  0
LINE
  5
15E
330
1E
100
AcDbEntity
  8
0
100
AcDbLine
 10
399.489
 20
39.4635
 30
0.0
 11
400.0
 21
45.285
 31
0.0
  0
LINE
  5
15F
330
1E
100
AcDbEntity
  8
0
100
AcDbLine
 10
551.0
 20
231.0303999999999
 30
0.0
 11
700.0
 21
281.0304
 31
0.0
  0
LINE
  5
160
330
1E
100
AcDbEntity
  8
0
100
AcDbLine
 10
551.0
 20
231.0303999999999
 30
0.0
 11
551.0
 21
131.0303999999999
 31
0.0
  0
LINE
  5
161
330
1E
100
AcDbEntity
  8
0
100
AcDbLine
 10
551.0
 20
231.0303999999999
 30
0.0
 11
551.0
 21
131.0303999999999
 31
0.0
  0
LINE
  5
162
330
1E
100
AcDbEntity
  8
0
100
AcDbLine
 10
551.0
 20
131.0303999999999
 30
0.0
 11
700.0
 21
81.0304
 31
0.0
  0
LINE
  5
163
330
1E
100
AcDbEntity
  8
0
100
AcDbLine
 10
551.0
 20
131.0303999999999
 30
0.0
 11
551.0
 21
231.0303999999999
 31
0.0
  0
LINE
  5
164
330
1E
100
AcDbEntity
  8
0
100
AcDbLine
 10
700.0
 20
281.0304
 30
0.0
 11
700.0
 21
81.0304
 31
0.0
  0
LINE
  5
165
330
1E
100
AcDbEntity
  8
0
100
AcDbLine
 10
700.0
 20
81.0304
 30
0.0
 11
700.0
 21
281.0304
 31
0.0
  0
LINE
  5
166
330
1E
100
AcDbEntity
  8
0
100
AcDbLine
 10
400.0
 20
54.16009999999999
 30
0.0
 11
400.0
 21
45.285
 31
0.0
  0
LINE
  5
167
330
1E
100
AcDbEntity
  8
0
100
AcDbLine
 10
399.489
 20
59.9816
 30
0.0
 11
400.0
 21
54.16009999999999
 31
0.0
  0
LINE
  5
168
330
1E
100
AcDbEntity
  8
0
100
AcDbLine
 10
399.489
 20
48.3385
 30
0.0
 11
400.0
 21
54.16009999999999
 31
0.0
  0
LINE
  5
169
330
1E
100
AcDbEntity
  8
0
100
AcDbLine
 10
398.759
 20
48.8273
 30
0.0
 11
399.2699999999999
 21
54.5827
 31
0.0
  0
LINE
  5
16A
330
1E
100
AcDbEntity
  8
0
100
AcDbLine
 10
379.9269999999999
 20
19.1903
 30
0.0
 11
384.818
 21
23.0274
 31
0.0
  0
LINE
  5
16B
330
1E
100
AcDbEntity
  8
0
100
AcDbLine
 10
374.5249999999999
 20
15.8827
 30
0.0
 11
379.9269999999999
 21
19.1903
 31
0.0
  0
LINE
  5
16C
330
1E
100
AcDbEntity
  8
0
100
AcDbLine
 10
368.832
 20
13.4349
 30
0.0
 11
374.5249999999999
 21
15.8827
 31
0.0
  0
LINE
  5
16D
330
1E
100
AcDbEntity
  8
0
100
AcDbLine
 10
362.4089999999999
 20
11.5165
 30
0.0
 11
368.832
 21
13.4349
 31
0.0
  0
LINE
  5
16E
330
1E
100
AcDbEntity
  8
0
100
AcDbLine
 10
356.35
 20
10.3919
 30
0.0
 11
362.4089999999999
 21
11.5165
 31
0.0
  0
LINE
  5
16F
330
1E
100
AcDbEntity
  8
0
100
AcDbLine
 10
350.0
 20
9.928800000000029
 30
0.0
 11
356.35
 21
10.3919
 31
0.0
  0
ENDSEC
  0
SECTION
  2
OBJECTS
  0
DICTIONARY
  5
C
330
0
100
AcDbDictionary
281
     1
  3
ACAD_GROUP
350
D
  3
ACAD_LAYOUT
350
19
  3
ACAD_MLINESTYLE
350
16
  3
ACAD_PLOTSETTINGS
350
18
  3
ACAD_PLOTSTYLENAME
350
E
  3
AcDbVariableDictionary
350
175
  0
DICTIONARY
  5
D
102
{ACAD_REACTORS
330
C
102
}
330
C
100
AcDbDictionary
281
     1
  0
DICTIONARY
  5
19
102
{ACAD_REACTORS
330
C
102
}
330
C
100
AcDbDictionary
281
     1
  3
Layout1
350
1D
  3
Model
350
21
  0
DICTIONARY
  5
16
102
{ACAD_REACTORS
330
C
102
}
330
C
100
AcDbDictionary
281
     1
  3
Standard
350
17
  0
DICTIONARY
  5
18
102
{ACAD_REACTORS
330
C
102
}
330
C
100
AcDbDictionary
281
     1
  0
ACDBDICTIONARYWDFLT
  5
E
102
{ACAD_REACTORS
330
C
102
}
330
C
100
AcDbDictionary
281
     1
  3
Normal
350
F
100
AcDbDictionaryWithDefault
340
F
  0
DICTIONARY
  5
175
102
{ACAD_REACTORS
330
C
102
}
330
C
100
AcDbDictionary
281
     1
  3
DIMASSOC
350
176
  0
LAYOUT
  5
1D
102
{ACAD_REACTORS
330
19
102
}
330
19
100
AcDbPlotSettings
  1

  2
C:\Programme\AutoCAD LT 2002 Deu\plotters\DWF ePlot (optimized for plotting).pc3
  4

  6

 40
0.0
 41
0.0
 42
0.0
 43
0.0
 44
0.0
 45
0.0
 46
0.0
 47
0.0
 48
0.0
 49
0.0
140
0.0
141
0.0
142
1.0
143
1.0
 70
   688
 72
     0
 73
     0
 74
     5
  7

 75
    16
147
1.0
148
0.0
149
0.0
100
AcDbLayout
  1
Layout1
 70
     1
 71
     1
 10
0.0
 20
0.0
 11
12.0
 21
9.0
 12
0.0
 22
0.0
 32
0.0
 14
1.000000000000000E+20
 24
1.000000000000000E+20
 34
1.000000000000000E+20
 15
-1.000000000000000E+20
 25
-1.000000000000000E+20
 35
-1.000000000000000E+20
146
0.0
 13
0.0
 23
0.0
 33
0.0
 16
1.0
 26
0.0
 36
0.0
 17
0.0
 27
1.0
 37
0.0
 76
     0
330
1A
  0
LAYOUT
  5
21
102
{ACAD_REACTORS
330
19
102
}
330
19
100
AcDbPlotSettings
  1

  2
C:\Programme\AutoCAD LT 2002 Deu\plotters\DWF ePlot (optimized for plotting).pc3
  4

  6

 40
0.0
 41
0.0
 42
0.0
 43
0.0
 44
0.0
 45
0.0
 46
0.0
 47
0.0
 48
0.0
 49
0.0
140
0.0
141
0.0
142
1.0
143
1.0
 70
  1712
 72
     0
 73
     0
 74
     0
  7

 75
     0
147
1.0
148
0.0
149
0.0
100
AcDbLayout
  1
Model
 70
     1
 71
     0
 10
0.0
 20
0.0
 11
12.0
 21
9.0
 12
0.0
 22
0.0
 32
0.0
 14
0.0
 24
0.0
 34
0.0
 15
0.0
 25
0.0
 35
0.0
146
0.0
 13
0.0
 23
0.0
 33
0.0
 16
1.0
 26
0.0
 36
0.0
 17
0.0
 27
1.0
 37
0.0
 76
     0
330
1E
  0
MLINESTYLE
  5
17
102
{ACAD_REACTORS
330
16
102
}
330
16
100
AcDbMlineStyle
  2
STANDARD
 70
     0
  3

 62
   256
 51
90.0
 52
90.0
 71
     2
 49
0.5
 62
   256
  6
BYLAYER
 49
-0.5
 62
   256
  6
BYLAYER
  0
ACDBPLACEHOLDER
  5
F
102
{ACAD_REACTORS
330
E
102
}
330
E
  0
DICTIONARYVAR
  5
176
102
{ACAD_REACTORS
330
175
102
}
330
175
100
DictionaryVariables
280
     0
  1
1
  0
ENDSEC
  0
EOF
