  0
SECTION
  2
HEADER
  9
$ACADVER
  1
AC1015
  9
$ACADMAINTVER
 70
    13
  9
$DWGCODEPAGE
  3
ANSI_1252
  9
$INSBASE
 10
0.0
 20
0.0
 30
0.0
  9
$EXTMIN
 10
-0.0303999999999687
 20
0.177000000000038
 30
0.0
  9
$EXTMAX
 10
281.0304
 20
780.823
 30
0.0
  9
$LIMMIN
 10
0.0
 20
0.0
  9
$LIMMAX
 10
12.0
 20
9.0
  9
$ORTHOMODE
 70
     0
  9
$REGENMODE
 70
     1
  9
$FILLMODE
 70
     1
  9
$QTEXTMODE
 70
     0
  9
$MIRRTEXT
 70
     1
  9
$LTSCALE
 40
1.0
  9
$ATTMODE
 70
     1
  9
$TEXTSIZE
 40
0.2
  9
$TRACEWID
 40
0.05
  9
$TEXTSTYLE
  7
Standard
  9
$CLAYER
  8
0
  9
$CELTYPE
  6
Continuous
  9
$CECOLOR
 62
   256
  9
$CELTSCALE
 40
1.0
  9
$DISPSILH
 70
     0
  9
$DIMSCALE
 40
1.0
  9
$DIMASZ
 40
0.18
  9
$DIMEXO
 40
0.0625
  9
$DIMDLI
 40
0.38
  9
$DIMRND
 40
0.0
  9
$DIMDLE
 40
0.0
  9
$DIMEXE
 40
0.18
  9
$DIMTP
 40
0.0
  9
$DIMTM
 40
0.0
  9
$DIMTXT
 40
0.18
  9
$DIMCEN
 40
0.09
  9
$DIMTSZ
 40
0.0
  9
$DIMTOL
 70
     0
  9
$DIMLIM
 70
     0
  9
$DIMTIH
 70
     1
  9
$DIMTOH
 70
     1
  9
$DIMSE1
 70
     0
  9
$DIMSE2
 70
     0
  9
$DIMTAD
 70
     0
  9
$DIMZIN
 70
     0
  9
$DIMBLK
  1

  9
$DIMASO
 70
     1
  9
$DIMSHO
 70
     1
  9
$DIMPOST
  1

  9
$DIMAPOST
  1

  9
$DIMALT
 70
     0
  9
$DIMALTD
 70
     2
  9
$DIMALTF
 40
25.4
  9
$DIMLFAC
 40
1.0
  9
$DIMTOFL
 70
     0
  9
$DIMTVP
 40
0.0
  9
$DIMTIX
 70
     0
  9
$DIMSOXD
 70
     0
  9
$DIMSAH
 70
     0
  9
$DIMBLK1
  1

  9
$DIMBLK2
  1

  9
$DIMSTYLE
  2
Standard
  9
$DIMCLRD
 70
     0
  9
$DIMCLRE
 70
     0
  9
$DIMCLRT
 70
     0
  9
$DIMTFAC
 40
1.0
  9
$DIMGAP
 40
0.09
  9
$DIMJUST
 70
     0
  9
$DIMSD1
 70
     0
  9
$DIMSD2
 70
     0
  9
$DIMTOLJ
 70
     1
  9
$DIMTZIN
 70
     0
  9
$DIMALTZ
 70
     0
  9
$DIMALTTZ
 70
     0
  9
$DIMUPT
 70
     0
  9
$DIMDEC
 70
     4
  9
$DIMTDEC
 70
     4
  9
$DIMALTU
 70
     2
  9
$DIMALTTD
 70
     2
  9
$DIMTXSTY
  7
Standard
  9
$DIMAUNIT
 70
     0
  9
$DIMADEC
 70
     0
  9
$DIMALTRND
 40
0.0
  9
$DIMAZIN
 70
     0
  9
$DIMDSEP
 70
    46
  9
$DIMATFIT
 70
     3
  9
$DIMFRAC
 70
     0
  9
$DIMLDRBLK
  1

  9
$DIMLUNIT
 70
     2
  9
$DIMLWD
 70
    -2
  9
$DIMLWE
 70
    -2
  9
$DIMTMOVE
 70
     0
  9
$LUNITS
 70
     2
  9
$LUPREC
 70
     4
  9
$SKETCHINC
 40
0.1
  9
$FILLETRAD
 40
0.0
  9
$AUNITS
 70
     0
  9
$AUPREC
 70
     0
  9
$MENU
  1
.
  9
$ELEVATION
 40
0.0
  9
$PELEVATION
 40
0.0
  9
$THICKNESS
 40
0.0
  9
$LIMCHECK
 70
     0
  9
$CHAMFERA
 40
0.0
  9
$CHAMFERB
 40
0.0
  9
$CHAMFERC
 40
0.0
  9
$CHAMFERD
 40
0.0
  9
$SKPOLY
 70
     0
  9
$TDCREATE
 40
2455508.947175555
  9
$TDUCREATE
 40
2455508.905508889
  9
$TDUPDATE
 40
2455508.947525671
  9
$TDUUPDATE
 40
2455508.905859004
  9
$TDINDWG
 40
0.0003503009
  9
$TDUSRTIMER
 40
0.0003503009
  9
$USRTIMER
 70
     1
  9
$ANGBASE
 50
0.0
  9
$ANGDIR
 70
     0
  9
$PDMODE
 70
     0
  9
$PDSIZE
 40
0.0
  9
$PLINEWID
 40
0.0
  9
$SPLFRAME
 70
     0
  9
$SPLINETYPE
 70
     6
  9
$SPLINESEGS
 70
     8
  9
$HANDSEED
  5
364
  9
$SURFTAB1
 70
     6
  9
$SURFTAB2
 70
     6
  9
$SURFTYPE
 70
     6
  9
$SURFU
 70
     6
  9
$SURFV
 70
     6
  9
$UCSBASE
  2

  9
$UCSNAME
  2

  9
$UCSORG
 10
0.0
 20
0.0
 30
0.0
  9
$UCSXDIR
 10
1.0
 20
0.0
 30
0.0
  9
$UCSYDIR
 10
0.0
 20
1.0
 30
0.0
  9
$UCSORTHOREF
  2

  9
$UCSORTHOVIEW
 70
     1
  9
$UCSORGTOP
 10
0.0
 20
0.0
 30
0.0
  9
$UCSORGBOTTOM
 10
0.0
 20
0.0
 30
0.0
  9
$UCSORGLEFT
 10
0.0
 20
0.0
 30
0.0
  9
$UCSORGRIGHT
 10
0.0
 20
0.0
 30
0.0
  9
$UCSORGFRONT
 10
0.0
 20
0.0
 30
0.0
  9
$UCSORGBACK
 10
0.0
 20
0.0
 30
0.0
  9
$PUCSBASE
  2

  9
$PUCSNAME
  2

  9
$PUCSORG
 10
0.0
 20
0.0
 30
0.0
  9
$PUCSXDIR
 10
1.0
 20
0.0
 30
0.0
  9
$PUCSYDIR
 10
0.0
 20
1.0
 30
0.0
  9
$PUCSORTHOREF
  2

  9
$PUCSORTHOVIEW
 70
     0
  9
$PUCSORGTOP
 10
0.0
 20
0.0
 30
0.0
  9
$PUCSORGBOTTOM
 10
0.0
 20
0.0
 30
0.0
  9
$PUCSORGLEFT
 10
0.0
 20
0.0
 30
0.0
  9
$PUCSORGRIGHT
 10
0.0
 20
0.0
 30
0.0
  9
$PUCSORGFRONT
 10
0.0
 20
0.0
 30
0.0
  9
$PUCSORGBACK
 10
0.0
 20
0.0
 30
0.0
  9
$USERI1
 70
     0
  9
$USERI2
 70
     0
  9
$USERI3
 70
     0
  9
$USERI4
 70
     0
  9
$USERI5
 70
     0
  9
$USERR1
 40
0.0
  9
$USERR2
 40
0.0
  9
$USERR3
 40
0.0
  9
$USERR4
 40
0.0
  9
$USERR5
 40
0.0
  9
$WORLDVIEW
 70
     1
  9
$SHADEDGE
 70
     3
  9
$SHADEDIF
 70
    70
  9
$TILEMODE
 70
     1
  9
$MAXACTVP
 70
    64
  9
$PINSBASE
 10
0.0
 20
0.0
 30
0.0
  9
$PLIMCHECK
 70
     0
  9
$PEXTMIN
 10
1.000000000000000E+20
 20
1.000000000000000E+20
 30
1.000000000000000E+20
  9
$PEXTMAX
 10
-1.000000000000000E+20
 20
-1.000000000000000E+20
 30
-1.000000000000000E+20
  9
$PLIMMIN
 10
0.0
 20
0.0
  9
$PLIMMAX
 10
12.0
 20
9.0
  9
$UNITMODE
 70
     0
  9
$VISRETAIN
 70
     1
  9
$PLINEGEN
 70
     0
  9
$PSLTSCALE
 70
     1
  9
$TREEDEPTH
 70
  3020
  9
$CMLSTYLE
  2
Standard
  9
$CMLJUST
 70
     0
  9
$CMLSCALE
 40
1.0
  9
$PROXYGRAPHICS
 70
     1
  9
$MEASUREMENT
 70
     0
  9
$CELWEIGHT
370
    -1
  9
$ENDCAPS
280
     0
  9
$JOINSTYLE
280
     0
  9
$LWDISPLAY
290
     0
  9
$INSUNITS
 70
     0
  9
$HYPERLINKBASE
  1

  9
$STYLESHEET
  1

  9
$XEDIT
290
     1
  9
$CEPSNTYPE
380
     0
  9
$PSTYLEMODE
290
     1
  9
$FINGERPRINTGUID
  2
{17B39413-D4DB-4AFB-BC46-B53ABB92C552}
  9
$VERSIONGUID
  2
{82CF79DC-F21C-4665-8495-0A799B6567BA}
  9
$EXTNAMES
290
     1
  9
$PSVPSCALE
 40
0.0
  9
$OLESTARTUP
290
     0
  0
ENDSEC
  0
SECTION
  2
CLASSES
  0
CLASS
  1
ACDBDICTIONARYWDFLT
  2
AcDbDictionaryWithDefault
  3
AutoCAD 2000
 90
        0
280
     0
281
     0
  0
CLASS
  1
ACDBPLACEHOLDER
  2
AcDbPlaceHolder
  3
AutoCAD 2000
 90
        0
280
     0
281
     0
  0
CLASS
  1
LAYOUT
  2
AcDbLayout
  3
AutoCAD 2000
 90
        0
280
     0
281
     0
  0
CLASS
  1
DICTIONARYVAR
  2
AcDbDictionaryVar
  3
AutoCAD 2000
 90
        0
280
     0
281
     0
  0
ENDSEC
  0
SECTION
  2
TABLES
  0
TABLE
  2
VPORT
  5
8
330
0
100
AcDbSymbolTable
 70
     3
  0
VPORT
  5
363
330
8
100
AcDbSymbolTableRecord
100
AcDbViewportTableRecord
  2
*Active
 70
     0
 10
0.0
 20
0.0
 11
1.0
 21
1.0
 12
140.5
 22
390.5
 13
0.0
 23
0.0
 14
1.0
 24
1.0
 15
0.0
 25
0.0
 16
0.0
 26
0.0
 36
1.0
 17
0.0
 27
0.0
 37
0.0
 40
785.9265817361894
 41
2.073363431151241
 42
50.0
 43
0.0
 44
0.0
 50
0.0
 51
0.0
 71
     0
 72
   100
 73
     1
 74
     3
 75
     0
 76
     0
 77
     0
 78
     0
281
     0
 65
     1
110
0.0
120
0.0
130
0.0
111
1.0
121
0.0
131
0.0
112
0.0
122
1.0
132
0.0
 79
     1
146
0.0
  0
ENDTAB
  0
TABLE
  2
LTYPE
  5
5
330
0
100
AcDbSymbolTable
 70
     1
  0
LTYPE
  5
13
330
5
100
AcDbSymbolTableRecord
100
AcDbLinetypeTableRecord
  2
ByBlock
 70
     0
  3

 72
    65
 73
     0
 40
0.0
  0
LTYPE
  5
14
330
5
100
AcDbSymbolTableRecord
100
AcDbLinetypeTableRecord
  2
ByLayer
 70
     0
  3

 72
    65
 73
     0
 40
0.0
  0
LTYPE
  5
15
330
5
100
AcDbSymbolTableRecord
100
AcDbLinetypeTableRecord
  2
Continuous
 70
     0
  3
Solid line
 72
    65
 73
     0
 40
0.0
  0
ENDTAB
  0
TABLE
  2
LAYER
  5
2
330
0
100
AcDbSymbolTable
 70
     1
  0
LAYER
  5
10
330
2
100
AcDbSymbolTableRecord
100
AcDbLayerTableRecord
  2
0
 70
     0
 62
     7
  6
Continuous
370
    -3
390
F
  0
ENDTAB
  0
TABLE
  2
STYLE
  5
3
330
0
100
AcDbSymbolTable
 70
     1
  0
STYLE
  5
11
330
3
100
AcDbSymbolTableRecord
100
AcDbTextStyleTableRecord
  2
Standard
 70
     0
 40
0.0
 41
1.0
 50
0.0
 71
     0
 42
0.2
  3
txt
  4

  0
ENDTAB
  0
TABLE
  2
VIEW
  5
6
330
0
100
AcDbSymbolTable
 70
     0
  0
ENDTAB
  0
TABLE
  2
UCS
  5
7
330
0
100
AcDbSymbolTable
 70
     0
  0
ENDTAB
  0
TABLE
  2
APPID
  5
9
330
0
100
AcDbSymbolTable
 70
     1
  0
APPID
  5
12
330
9
100
AcDbSymbolTableRecord
100
AcDbRegAppTableRecord
  2
ACAD
 70
     0
  0
ENDTAB
  0
TABLE
  2
DIMSTYLE
  5
A
330
0
100
AcDbSymbolTable
 70
     1
100
AcDbDimStyleTable
 71
     0
  0
DIMSTYLE
105
35C
330
A
100
AcDbSymbolTableRecord
100
AcDbDimStyleTableRecord
  2
Standard
 70
     0
340
11
  0
ENDTAB
  0
TABLE
  2
BLOCK_RECORD
  5
1
330
0
100
AcDbSymbolTable
 70
     0
  0
BLOCK_RECORD
  5
1E
330
1
100
AcDbSymbolTableRecord
100
AcDbBlockTableRecord
  2
*Model_Space
340
21
  0
BLOCK_RECORD
  5
1A
330
1
100
AcDbSymbolTableRecord
100
AcDbBlockTableRecord
  2
*Paper_Space
340
1D
  0
ENDTAB
  0
ENDSEC
  0
SECTION
  2
BLOCKS
  0
BLOCK
  5
1F
330
1E
100
AcDbEntity
  8
0
100
AcDbBlockBegin
  2
*Model_Space
 70
     0
 10
0.0
 20
0.0
 30
0.0
  3
*Model_Space
  1

  0
ENDBLK
  5
20
330
1E
100
AcDbEntity
  8
0
100
AcDbBlockEnd
  0
BLOCK
  5
1B
330
1A
100
AcDbEntity
 67
     1
  8
0
100
AcDbBlockBegin
  2
*Paper_Space
 70
     0
 10
0.0
 20
0.0
 30
0.0
  3
*Paper_Space
  1

  0
ENDBLK
  5
1C
330
1A
100
AcDbEntity
 67
     1
  8
0
100
AcDbBlockEnd
  0
ENDSEC
  0
SECTION
  2
ENTITIES
  0
LINE
  5
22
330
1E
100
AcDbEntity
  8
0
100
AcDbLine
 10
0.208500000000045
 20
759.9789999999999
 30
0.0
 11
0.6717000000000571
 21
759.7619999999999
 31
0.0
  0
LINE
  5
23
330
1E
100
AcDbEntity
  8
0
100
AcDbLine
 10
3.31634567493839
 20
757.425785467036
 30
0.0
 11
3.90460000000005
 21
757.151
 31
0.0
  0
LINE
  5
24
330
1E
100
AcDbEntity
  8
0
100
AcDbLine
 10
3.16570000000004
 20
757.496
 30
0.0
 11
3.55643206995588
 21
758.3341415556441
 31
0.0
  0
LINE
  5
25
330
1E
100
AcDbEntity
  8
0
100
AcDbLine
 10
3.16570000000004
 20
757.496
 30
0.0
 11
3.827200000000039
 21
757.188
 31
0.0
  0
LINE
  5
26
330
1E
100
AcDbEntity
  8
0
100
AcDbLine
 10
3.16570000000004
 20
757.496
 30
0.0
 11
4.210497006297839
 21
757.00902993684
 31
0.0
  0
LINE
  5
27
330
1E
100
AcDbEntity
  8
0
100
AcDbLine
 10
3.16570000000004
 20
757.496
 30
0.0
 11
4.210497006297639
 21
757.00902993684
 31
0.0
  0
LINE
  5
28
330
1E
100
AcDbEntity
  8
0
100
AcDbLine
 10
2.195048561972229
 20
759.051969994284
 30
0.0
 11
3.541361330239549
 21
758.3018139987269
 31
0.0
  0
LINE
  5
29
330
1E
100
AcDbEntity
  8
0
100
AcDbLine
 10
2.195048561972229
 20
759.051969994284
 30
0.0
 11
3.541361330239549
 21
758.3018139987269
 31
0.0
  0
LINE
  5
2A
330
1E
100
AcDbEntity
  8
0
100
AcDbLine
 10
1.796300000000019
 20
759.238
 30
0.0
 11
3.714700000000049
 21
758.343
 31
0.0
  0
LINE
  5
2B
330
1E
100
AcDbEntity
  8
0
100
AcDbLine
 10
1.796300000000019
 20
759.238
 30
0.0
 11
2.195048561972229
 21
759.051969994284
 31
0.0
  0
LINE
  5
2C
330
1E
100
AcDbEntity
  8
0
100
AcDbLine
 10
1.796300000000019
 20
759.238
 30
0.0
 11
2.195048561972229
 21
759.051969994284
 31
0.0
  0
LINE
  5
2D
330
1E
100
AcDbEntity
  8
0
100
AcDbLine
 10
0.6717000000000571
 20
759.7619999999999
 30
0.0
 11
1.796300000000019
 21
759.238
 31
0.0
  0
LINE
  5
2E
330
1E
100
AcDbEntity
  8
0
100
AcDbLine
 10
6.03049999985049
 20
756.160232326828
 30
0.0
 11
6.365100000000049
 21
756.0039999999998
 31
0.0
  0
LINE
  5
2F
330
1E
100
AcDbEntity
  8
0
100
AcDbLine
 10
6.030499999850439
 20
756.160232326828
 30
0.0
 11
6.365100000000049
 21
756.0039999999998
 31
0.0
  0
LINE
  5
30
330
1E
100
AcDbEntity
  8
0
100
AcDbLine
 10
6.365100000000049
 20
756.0039999999998
 30
0.0
 11
6.5751380710702
 21
755.90620449601
 31
0.0
  0
LINE
  5
31
330
1E
100
AcDbEntity
  8
0
100
AcDbLine
 10
6.365100000000049
 20
756.0039999999998
 30
0.0
 11
6.575138071070179
 21
755.90620449601
 31
0.0
  0
LINE
  5
32
330
1E
100
AcDbEntity
  8
0
100
AcDbLine
 10
5.88080000000003
 20
756.23
 30
0.0
 11
6.335595752414299
 21
756.0180424753099
 31
0.0
  0
LINE
  5
33
330
1E
100
AcDbEntity
  8
0
100
AcDbLine
 10
5.88080000000003
 20
756.23
 30
0.0
 11
6.335595752414269
 21
756.0180424753109
 31
0.0
  0
LINE
  5
34
330
1E
100
AcDbEntity
  8
0
100
AcDbLine
 10
6.74058066227602
 20
755.8291730249719
 30
0.0
 11
7.026600000000049
 21
755.696
 31
0.0
  0
LINE
  5
35
330
1E
100
AcDbEntity
  8
0
100
AcDbLine
 10
6.74062901917462
 20
755.8292767531509
 30
0.0
 11
7.026600000000049
 21
755.696
 31
0.0
  0
LINE
  5
36
330
1E
100
AcDbEntity
  8
0
100
AcDbLine
 10
6.74050000000003
 20
755.8289999999999
 30
0.0
 11
7.10254903717195
 21
756.605614889248
 31
0.0
  0
LINE
  5
37
330
1E
100
AcDbEntity
  8
0
100
AcDbLine
 10
5.594600000000029
 20
756.3639999999999
 30
0.0
 11
5.998451641591779
 21
757.229703507115
 31
0.0
  0
LINE
  5
38
330
1E
100
AcDbEntity
  8
0
100
AcDbLine
 10
5.594600000000029
 20
756.3639999999999
 30
0.0
 11
6.74050000000003
 21
755.8289999999999
 31
0.0
  0
LINE
  5
39
330
1E
100
AcDbEntity
  8
0
100
AcDbLine
 10
7.026600000000049
 20
755.696
 30
0.0
 11
7.272401592997449
 21
756.22290463328
 31
0.0
  0
LINE
  5
3A
330
1E
100
AcDbEntity
  8
0
100
AcDbLine
 10
6.99594532301699
 20
756.37694412048
 30
0.0
 11
8.50520242841241
 21
755.53599668751
 31
0.0
  0
LINE
  5
3B
330
1E
100
AcDbEntity
  8
0
100
AcDbLine
 10
3.90460000000005
 20
757.151
 30
0.0
 11
4.89020000011197
 21
756.6916611973649
 31
0.0
  0
LINE
  5
3C
330
1E
100
AcDbEntity
  8
0
100
AcDbLine
 10
3.90460000000005
 20
757.151
 30
0.0
 11
4.89020000011196
 21
756.6916611973649
 31
0.0
  0
LINE
  5
3D
330
1E
100
AcDbEntity
  8
0
100
AcDbLine
 10
3.827200000000039
 20
757.188
 30
0.0
 11
4.1967962819922
 21
757.9803668515969
 31
0.0
  0
LINE
  5
3E
330
1E
100
AcDbEntity
  8
0
100
AcDbLine
 10
3.827200000000039
 20
757.188
 30
0.0
 11
4.97300000000003
 21
756.653
 31
0.0
  0
LINE
  5
3F
330
1E
100
AcDbEntity
  8
0
100
AcDbLine
 10
5.554016957607609
 20
756.382646954043
 30
0.0
 11
5.88080000000003
 21
756.23
 31
0.0
  0
LINE
  5
40
330
1E
100
AcDbEntity
  8
0
100
AcDbLine
 10
4.973027678305619
 20
756.6530593644479
 30
0.0
 11
5.050400000000029
 21
756.6169999999999
 31
0.0
  0
LINE
  5
41
330
1E
100
AcDbEntity
  8
0
100
AcDbLine
 10
4.93310000000003
 20
756.672
 30
0.0
 11
5.35557867428848
 21
757.5781325405
 31
0.0
  0
LINE
  5
42
330
1E
100
AcDbEntity
  8
0
100
AcDbLine
 10
4.93310000000003
 20
756.672
 30
0.0
 11
5.594600000000029
 21
756.3639999999999
 31
0.0
  0
LINE
  5
43
330
1E
100
AcDbEntity
  8
0
100
AcDbLine
 10
4.93310000000003
 20
756.672
 30
0.0
 11
5.89840000009633
 21
756.222161270572
 31
0.0
  0
LINE
  5
44
330
1E
100
AcDbEntity
  8
0
100
AcDbLine
 10
4.93310000000003
 20
756.672
 30
0.0
 11
5.89840000009628
 21
756.222161270572
 31
0.0
  0
LINE
  5
45
330
1E
100
AcDbEntity
  8
0
100
AcDbLine
 10
6.99594532301699
 20
756.37694412048
 30
0.0
 11
8.50520242841241
 21
755.53599668751
 31
0.0
  0
LINE
  5
46
330
1E
100
AcDbEntity
  8
0
100
AcDbLine
 10
8.963800000000029
 20
754.7919999999999
 30
0.0
 11
9.386599467823039
 21
755.6989278693359
 31
0.0
  0
LINE
  5
47
330
1E
100
AcDbEntity
  8
0
100
AcDbLine
 10
8.963800000000029
 20
754.7919999999999
 30
0.0
 11
10.1096
 21
754.258
 31
0.0
  0
LINE
  5
48
330
1E
100
AcDbEntity
  8
0
100
AcDbLine
 10
8.302300000000039
 20
755.1010000000001
 30
0.0
 11
8.697919719616589
 21
755.949157751947
 31
0.0
  0
LINE
  5
49
330
1E
100
AcDbEntity
  8
0
100
AcDbLine
 10
8.302300000000039
 20
755.1010000000001
 30
0.0
 11
8.963800000000029
 21
754.7919999999999
 31
0.0
  0
LINE
  5
4A
330
1E
100
AcDbEntity
  8
0
100
AcDbLine
 10
8.302300000000039
 20
755.1010000000001
 30
0.0
 11
8.50520242841241
 21
755.53599668751
 31
0.0
  0
LINE
  5
4B
330
1E
100
AcDbEntity
  8
0
100
AcDbLine
 10
7.449295353287889
 20
756.602097220108
 30
0.0
 11
8.72505767278818
 21
756.0073380301609
 31
0.0
  0
LINE
  5
4C
330
1E
100
AcDbEntity
  8
0
100
AcDbLine
 10
7.88250000000004
 20
756.4
 30
0.0
 11
11.0579
 21
754.919
 31
0.0
  0
LINE
  5
4D
330
1E
100
AcDbEntity
  8
0
100
AcDbLine
 10
7.381089474025079
 20
756.633894736683
 30
0.0
 11
7.88250000000004
 21
756.4
 31
0.0
  0
LINE
  5
4E
330
1E
100
AcDbEntity
  8
0
100
AcDbLine
 10
6.162500000000029
 20
757.202
 30
0.0
 11
9.470100000000039
 21
755.6599999999999
 31
0.0
  0
LINE
  5
4F
330
1E
100
AcDbEntity
  8
0
100
AcDbLine
 10
3.714700000000049
 20
758.343
 30
0.0
 11
6.162500000000029
 21
757.202
 31
0.0
  0
LINE
  5
50
330
1E
100
AcDbEntity
  8
0
100
AcDbLine
 10
6.055800000000029
 20
758.355
 30
0.0
 11
9.363600000000051
 21
756.813
 31
0.0
  0
LINE
  5
51
330
1E
100
AcDbEntity
  8
0
100
AcDbLine
 10
3.475800000000029
 20
759.5579999999999
 30
0.0
 11
6.055800000000029
 21
758.355
 31
0.0
  0
LINE
  5
52
330
1E
100
AcDbEntity
  8
0
100
AcDbLine
 10
1.623500000000039
 20
760.422
 30
0.0
 11
3.475800000000029
 21
759.5579999999999
 31
0.0
  0
LINE
  5
53
330
1E
100
AcDbEntity
  8
0
100
AcDbLine
 10
0.432700000000042
 20
760.977
 30
0.0
 11
1.623500000000039
 21
760.422
 31
0.0
  0
LINE
  5
54
330
1E
100
AcDbEntity
  8
0
100
AcDbLine
 10
-0.0303999999999687
 20
761.1939999999999
 30
0.0
 11
0.432700000000042
 21
760.977
 31
0.0
  0
LINE
  5
55
330
1E
100
AcDbEntity
  8
0
100
AcDbLine
 10
-0.0303999999999687
 20
761.1939999999999
 30
0.0
 11
8.844600000000051
 21
780.2260000000001
 31
0.0
  0
LINE
  5
56
330
1E
100
AcDbEntity
  8
0
100
AcDbLine
 10
-0.0303999999999687
 20
761.1939999999999
 30
0.0
 11
0.208500000000045
 21
759.9789999999999
 31
0.0
  0
LINE
  5
57
330
1E
100
AcDbEntity
  8
0
100
AcDbLine
 10
9.470100000000039
 20
755.6599999999999
 30
0.0
 11
13.3071000000001
 21
753.87
 31
0.0
  0
LINE
  5
58
330
1E
100
AcDbEntity
  8
0
100
AcDbLine
 10
9.363600000000051
 20
756.813
 30
0.0
 11
13.2665
 21
754.993
 31
0.0
  0
LINE
  5
59
330
1E
100
AcDbEntity
  8
0
100
AcDbLine
 10
9.30770000000006
 20
780.01
 30
0.0
 11
10.4984
 21
779.455
 31
0.0
  0
LINE
  5
5A
330
1E
100
AcDbEntity
  8
0
100
AcDbLine
 10
8.844600000000051
 20
780.2260000000001
 30
0.0
 11
9.30770000000006
 21
780.01
 31
0.0
  0
LINE
  5
5B
330
1E
100
AcDbEntity
  8
0
100
AcDbLine
 10
8.844600000000051
 20
780.2260000000001
 30
0.0
 11
9.928800000000029
 21
780.823
 31
0.0
  0
LINE
  5
5C
330
1E
100
AcDbEntity
  8
0
100
AcDbLine
 10
10.1096
 20
754.258
 30
0.0
 11
10.4471323272903
 21
754.9820252122309
 31
0.0
  0
LINE
  5
5D
330
1E
100
AcDbEntity
  8
0
100
AcDbLine
 10
10.9214
 20
753.3279999999999
 30
0.0
 11
11.25211647074509
 21
754.0374048289881
 31
0.0
  0
LINE
  5
5E
330
1E
100
AcDbEntity
  8
0
100
AcDbLine
 10
10.9214
 20
753.3279999999999
 30
0.0
 11
11.583
 21
753.0199999999999
 31
0.0
  0
LINE
  5
5F
330
1E
100
AcDbEntity
  8
0
100
AcDbLine
 10
10.9214
 20
753.3279999999999
 30
0.0
 11
11.79792996163769
 21
752.9194932802279
 31
0.0
  0
LINE
  5
60
330
1E
100
AcDbEntity
  8
0
100
AcDbLine
 10
10.9214
 20
753.3279999999999
 30
0.0
 11
11.79792996163769
 21
752.9194932802279
 31
0.0
  0
LINE
  5
61
330
1E
100
AcDbEntity
  8
0
100
AcDbLine
 10
10.2517178752377
 20
754.562850577149
 30
0.0
 11
12.0872516622539
 21
753.5401040743799
 31
0.0
  0
LINE
  5
62
330
1E
100
AcDbEntity
  8
0
100
AcDbLine
 10
10.2517178752377
 20
754.562850577149
 30
0.0
 11
12.0872516622539
 21
753.5401040743799
 31
0.0
  0
LINE
  5
63
330
1E
100
AcDbEntity
  8
0
100
AcDbLine
 10
10.532207434704
 20
755.1645159478449
 30
0.0
 11
11.55510193250069
 21
754.6873251344341
 31
0.0
  0
LINE
  5
64
330
1E
100
AcDbEntity
  8
0
100
AcDbLine
 10
10.532207434704
 20
755.1645159478449
 30
0.0
 11
11.55510193250069
 21
754.6873251344341
 31
0.0
  0
LINE
  5
65
330
1E
100
AcDbEntity
  8
0
100
AcDbLine
 10
11.0579
 20
754.919
 30
0.0
 11
11.91572429790069
 21
754.5190910885479
 31
0.0
  0
LINE
  5
66
330
1E
100
AcDbEntity
  8
0
100
AcDbLine
 10
10.4984
 20
779.455
 30
0.0
 11
12.35079999999999
 21
778.591
 31
0.0
  0
LINE
  5
67
330
1E
100
AcDbEntity
  8
0
100
AcDbLine
 10
11.583
 20
753.0199999999999
 30
0.0
 11
11.8912971356605
 21
753.680949372713
 31
0.0
  0
LINE
  5
68
330
1E
100
AcDbEntity
  8
0
100
AcDbLine
 10
11.583
 20
753.0199999999999
 30
0.0
 11
11.79805629896079
 21
752.919764280662
 31
0.0
  0
LINE
  5
69
330
1E
100
AcDbEntity
  8
0
100
AcDbLine
 10
12.45919999999999
 20
752.611
 30
0.0
 11
12.67043068445
 21
753.063851396383
 31
0.0
  0
LINE
  5
6A
330
1E
100
AcDbEntity
  8
0
100
AcDbLine
 10
12.45919999999999
 20
752.611
 30
0.0
 11
13.605
 21
752.076
 31
0.0
  0
LINE
  5
6B
330
1E
100
AcDbEntity
  8
0
100
AcDbLine
 10
11.7977
 20
752.9189999999999
 30
0.0
 11
12.15594254167619
 21
753.687449749241
 31
0.0
  0
LINE
  5
6C
330
1E
100
AcDbEntity
  8
0
100
AcDbLine
 10
11.7977
 20
752.9189999999999
 30
0.0
 11
12.45919999999999
 21
752.611
 31
0.0
  0
LINE
  5
6D
330
1E
100
AcDbEntity
  8
0
100
AcDbLine
 10
11.7977
 20
752.9189999999999
 30
0.0
 11
12.7937999999817
 21
752.45476767325
 31
0.0
  0
LINE
  5
6E
330
1E
100
AcDbEntity
  8
0
100
AcDbLine
 10
11.7977
 20
752.9189999999999
 30
0.0
 11
12.7937999999815
 21
752.45476767325
 31
0.0
  0
LINE
  5
6F
330
1E
100
AcDbEntity
  8
0
100
AcDbLine
 10
12.6551000000001
 20
753.071
 30
0.0
 11
13.0775152301424
 21
753.9771036585989
 31
0.0
  0
LINE
  5
70
330
1E
100
AcDbEntity
  8
0
100
AcDbLine
 10
12.6551000000001
 20
753.071
 30
0.0
 11
13.9783
 21
752.454
 31
0.0
  0
LINE
  5
71
330
1E
100
AcDbEntity
  8
0
100
AcDbLine
 10
13.605343949021
 20
752.076737702088
 30
0.0
 11
13.9141
 21
751.933
 31
0.0
  0
LINE
  5
72
330
1E
100
AcDbEntity
  8
0
100
AcDbLine
 10
13.9141
 20
751.933
 30
0.0
 11
14.1322556309938
 21
752.4006422611619
 31
0.0
  0
LINE
  5
73
330
1E
100
AcDbEntity
  8
0
100
AcDbLine
 10
13.9141
 20
751.933
 30
0.0
 11
14.1322556309938
 21
752.4006422611619
 31
0.0
  0
LINE
  5
74
330
1E
100
AcDbEntity
  8
0
100
AcDbLine
 10
13.6054044776547
 20
752.0768675239419
 30
0.0
 11
13.9141
 21
751.933
 31
0.0
  0
LINE
  5
75
330
1E
100
AcDbEntity
  8
0
100
AcDbLine
 10
13.605
 20
752.076
 30
0.0
 11
13.8164314471708
 21
752.529478307962
 31
0.0
  0
LINE
  5
76
330
1E
100
AcDbEntity
  8
0
100
AcDbLine
 10
13.9783
 20
752.454
 30
0.0
 11
14.4007718650931
 21
753.3602251436509
 31
0.0
  0
LINE
  5
77
330
1E
100
AcDbEntity
  8
0
100
AcDbLine
 10
14.3398
 20
752.285
 30
0.0
 11
15.1577386080483
 21
751.85371876052
 31
0.0
  0
LINE
  5
78
330
1E
100
AcDbEntity
  8
0
100
AcDbLine
 10
13.99029936578419
 20
752.479739292672
 30
0.0
 11
14.3398
 21
752.285
 31
0.0
  0
LINE
  5
79
330
1E
100
AcDbEntity
  8
0
100
AcDbLine
 10
13.3071000000001
 20
753.87
 30
0.0
 11
17.7395
 21
751.804
 31
0.0
  0
LINE
  5
7A
330
1E
100
AcDbEntity
  8
0
100
AcDbLine
 10
13.2665
 20
754.993
 30
0.0
 11
17.765
 21
752.895
 31
0.0
  0
LINE
  5
7B
330
1E
100
AcDbEntity
  8
0
100
AcDbLine
 10
14.9658000000001
 20
751.442
 30
0.0
 11
16.1118
 21
750.9069999999999
 31
0.0
  0
LINE
  5
7C
330
1E
100
AcDbEntity
  8
0
100
AcDbLine
 10
15.6273
 20
751.1339999999998
 30
0.0
 11
15.99199594830349
 21
751.9162926576829
 31
0.0
  0
LINE
  5
7D
330
1E
100
AcDbEntity
  8
0
100
AcDbLine
 10
15.6273
 20
751.1339999999998
 30
0.0
 11
16.77329999999999
 21
750.5989999999999
 31
0.0
  0
LINE
  5
7E
330
1E
100
AcDbEntity
  8
0
100
AcDbLine
 10
14.96579999999999
 20
751.442
 30
0.0
 11
15.3009094783963
 21
752.160828069489
 31
0.0
  0
LINE
  5
7F
330
1E
100
AcDbEntity
  8
0
100
AcDbLine
 10
14.96579999999999
 20
751.442
 30
0.0
 11
15.6273
 21
751.1339999999998
 31
0.0
  0
LINE
  5
80
330
1E
100
AcDbEntity
  8
0
100
AcDbLine
 10
14.96579999999999
 20
751.442
 30
0.0
 11
16.1118
 21
750.9069999999999
 31
0.0
  0
LINE
  5
81
330
1E
100
AcDbEntity
  8
0
100
AcDbLine
 10
14.96579999999999
 20
751.442
 30
0.0
 11
15.1577386080483
 21
751.85371876052
 31
0.0
  0
LINE
  5
82
330
1E
100
AcDbEntity
  8
0
100
AcDbLine
 10
15.8078050687471
 20
752.7043884414689
 30
0.0
 11
18.93019999999999
 21
751.248
 31
0.0
  0
LINE
  5
83
330
1E
100
AcDbEntity
  8
0
100
AcDbLine
 10
15.8078050687463
 20
752.7043884414701
 30
0.0
 11
18.93019999999999
 21
751.248
 31
0.0
  0
LINE
  5
84
330
1E
100
AcDbEntity
  8
0
100
AcDbLine
 10
14.9307
 20
777.388
 30
0.0
 11
18.2386
 21
775.846
 31
0.0
  0
LINE
  5
85
330
1E
100
AcDbEntity
  8
0
100
AcDbLine
 10
12.35079999999999
 20
778.591
 30
0.0
 11
14.9307
 21
777.388
 31
0.0
  0
LINE
  5
86
330
1E
100
AcDbEntity
  8
0
100
AcDbLine
 10
16.1118
 20
750.9069999999999
 30
0.0
 11
16.77329999999999
 21
750.5989999999999
 31
0.0
  0
LINE
  5
87
330
1E
100
AcDbEntity
  8
0
100
AcDbLine
 10
16.77329999999999
 20
750.5989999999999
 30
0.0
 11
17.10158670609019
 21
751.302804438518
 31
0.0
  0
LINE
  5
88
330
1E
100
AcDbEntity
  8
0
100
AcDbLine
 10
16.9241220973867
 20
750.9223431619321
 30
0.0
 11
19.6010834804043
 21
749.510839643271
 31
0.0
  0
LINE
  5
89
330
1E
100
AcDbEntity
  8
0
100
AcDbLine
 10
16.9241220973867
 20
750.9223431619321
 30
0.0
 11
19.6010834804043
 21
749.510839643271
 31
0.0
  0
LINE
  5
8A
330
1E
100
AcDbEntity
  8
0
100
AcDbLine
 10
17.4075407703414
 20
751.9587305677459
 30
0.0
 11
17.7395
 21
751.804
 31
0.0
  0
LINE
  5
8B
330
1E
100
AcDbEntity
  8
0
100
AcDbLine
 10
17.7395
 20
751.804
 30
0.0
 11
22.6349
 21
749.5210000000001
 31
0.0
  0
LINE
  5
8C
330
1E
100
AcDbEntity
  8
0
100
AcDbLine
 10
17.7395
 20
751.804
 30
0.0
 11
19.1846673868931
 21
751.1300372708509
 31
0.0
  0
LINE
  5
8D
330
1E
100
AcDbEntity
  8
0
100
AcDbLine
 10
17.765
 20
752.895
 30
0.0
 11
22.7266
 21
750.5819999999999
 31
0.0
  0
LINE
  5
8E
330
1E
100
AcDbEntity
  8
0
100
AcDbLine
 10
36.00149700620979
 20
739.97802993688
 30
0.0
 11
36.76399999999979
 21
739.6219999999999
 31
0.0
  0
LINE
  5
8F
330
1E
100
AcDbEntity
  8
0
100
AcDbLine
 10
36.00149700620989
 20
739.97802993688
 30
0.0
 11
36.764
 21
739.6219999999999
 31
0.0
  0
LINE
  5
90
330
1E
100
AcDbEntity
  8
0
100
AcDbLine
 10
36.764
 20
739.6219999999999
 30
0.0
 11
37.1865736522807
 21
740.528443482708
 31
0.0
  0
LINE
  5
91
330
1E
100
AcDbEntity
  8
0
100
AcDbLine
 10
34.95670000000009
 20
740.465
 30
0.0
 11
36.00149700620979
 21
739.97802993688
 31
0.0
  0
LINE
  5
92
330
1E
100
AcDbEntity
  8
0
100
AcDbLine
 10
35.6182
 20
740.1569999999999
 30
0.0
 11
35.82938892608349
 21
740.6097618718209
 31
0.0
  0
LINE
  5
93
330
1E
100
AcDbEntity
  8
0
100
AcDbLine
 10
35.6182
 20
740.1569999999999
 30
0.0
 11
36.764
 21
739.6219999999999
 31
0.0
  0
LINE
  5
94
330
1E
100
AcDbEntity
  8
0
100
AcDbLine
 10
35.8589
 20
740.596
 30
0.0
 11
36.070176239648
 21
741.049199032752
 31
0.0
  0
LINE
  5
95
330
1E
100
AcDbEntity
  8
0
100
AcDbLine
 10
35.26209999999999
 20
741.426
 30
0.0
 11
35.4734269756432
 21
741.8792542373609
 31
0.0
  0
LINE
  5
96
330
1E
100
AcDbEntity
  8
0
100
AcDbLine
 10
35.26209999999999
 20
741.426
 30
0.0
 11
36.58529999999999
 21
740.8089999999999
 31
0.0
  0
LINE
  5
97
330
1E
100
AcDbEntity
  8
0
100
AcDbLine
 10
34.5358
 20
741.2130000000001
 30
0.0
 11
34.90756459261699
 21
742.010455284447
 31
0.0
  0
LINE
  5
98
330
1E
100
AcDbEntity
  8
0
100
AcDbLine
 10
34.5358
 20
741.2130000000001
 30
0.0
 11
35.8589
 21
740.596
 31
0.0
  0
LINE
  5
99
330
1E
100
AcDbEntity
  8
0
100
AcDbLine
 10
34.5358
 20
741.2130000000001
 30
0.0
 11
34.86545943800769
 21
741.9201374362379
 31
0.0
  0
LINE
  5
9A
330
1E
100
AcDbEntity
  8
0
100
AcDbLine
 10
34.5358
 20
741.2130000000001
 30
0.0
 11
34.7472893309299
 21
741.6666561251489
 31
0.0
  0
LINE
  5
9B
330
1E
100
AcDbEntity
  8
0
100
AcDbLine
 10
34.5358
 20
741.2130000000001
 30
0.0
 11
35.1679757823278
 21
740.918198051775
 31
0.0
  0
LINE
  5
9C
330
1E
100
AcDbEntity
  8
0
100
AcDbLine
 10
36.1344
 20
741.571
 30
0.0
 11
36.40363403424689
 21
742.148521656519
 31
0.0
  0
LINE
  5
9D
330
1E
100
AcDbEntity
  8
0
100
AcDbLine
 10
34.81139999999999
 20
742.1879999999999
 30
0.0
 11
35.0227387419979
 21
742.641333103694
 31
0.0
  0
LINE
  5
9E
330
1E
100
AcDbEntity
  8
0
100
AcDbLine
 10
34.81139999999999
 20
742.1879999999999
 30
0.0
 11
36.1344
 21
741.571
 31
0.0
  0
LINE
  5
9F
330
1E
100
AcDbEntity
  8
0
100
AcDbLine
 10
36.1985
 20
742.0930000000001
 30
0.0
 11
36.6211538171771
 21
742.9990081825681
 31
0.0
  0
LINE
  5
A0
330
1E
100
AcDbEntity
  8
0
100
AcDbLine
 10
34.9567
 20
740.465
 30
0.0
 11
35.1679757823278
 21
740.918198051775
 31
0.0
  0
LINE
  5
A1
330
1E
100
AcDbEntity
  8
0
100
AcDbLine
 10
34.9567
 20
740.465
 30
0.0
 11
35.6182
 21
740.1569999999999
 31
0.0
  0
LINE
  5
A2
330
1E
100
AcDbEntity
  8
0
100
AcDbLine
 10
34.9567
 20
740.465
 30
0.0
 11
36.00149700620979
 21
739.97802993688
 31
0.0
  0
LINE
  5
A3
330
1E
100
AcDbEntity
  8
0
100
AcDbLine
 10
34.9567
 20
740.465
 30
0.0
 11
36.00149700620989
 21
739.97802993688
 31
0.0
  0
LINE
  5
A4
330
1E
100
AcDbEntity
  8
0
100
AcDbLine
 10
36.58529999999999
 20
740.8089999999999
 30
0.0
 11
36.9805179720438
 21
741.6567640597669
 31
0.0
  0
LINE
  5
A5
330
1E
100
AcDbEntity
  8
0
100
AcDbLine
 10
36.4507556785445
 20
740.8717371873779
 30
0.0
 11
37.0049
 21
740.613
 31
0.0
  0
LINE
  5
A6
330
1E
100
AcDbEntity
  8
0
100
AcDbLine
 10
38.2618
 20
740.028
 30
0.0
 11
39.58489999999999
 21
739.4099999999999
 31
0.0
  0
LINE
  5
A7
330
1E
100
AcDbEntity
  8
0
100
AcDbLine
 10
33.3665
 20
742.3099999999999
 30
0.0
 11
33.96179999999999
 21
742.0319999999999
 31
0.0
  0
LINE
  5
A8
330
1E
100
AcDbEntity
  8
0
100
AcDbLine
 10
34.8755
 20
742.71
 30
0.0
 11
35.29805121186739
 21
743.6158954045239
 31
0.0
  0
LINE
  5
A9
330
1E
100
AcDbEntity
  8
0
100
AcDbLine
 10
34.8755
 20
742.71
 30
0.0
 11
36.1985
 21
742.0930000000001
 31
0.0
  0
LINE
  5
AA
330
1E
100
AcDbEntity
  8
0
100
AcDbLine
 10
34.8755
 20
742.71
 30
0.0
 11
35.2482030137817
 21
743.5090272846339
 31
0.0
  0
LINE
  5
AB
330
1E
100
AcDbEntity
  8
0
100
AcDbLine
 10
32.5727
 20
742.68
 30
0.0
 11
32.8373
 21
742.556
 31
0.0
  0
LINE
  5
AC
330
1E
100
AcDbEntity
  8
0
100
AcDbLine
 10
37.43036836241449
 20
742.621717630215
 30
0.0
 11
39.107
 21
741.84
 31
0.0
  0
LINE
  5
AD
330
1E
100
AcDbEntity
  8
0
100
AcDbLine
 10
41.95389999999999
 20
737.2029999999999
 30
0.0
 11
42.74779999999999
 21
736.8319999999999
 31
0.0
  0
LINE
  5
AE
330
1E
100
AcDbEntity
  8
0
100
AcDbLine
 10
41.2528
 20
737.5289999999999
 30
0.0
 11
41.95389999999999
 21
737.2029999999999
 31
0.0
  0
LINE
  5
AF
330
1E
100
AcDbEntity
  8
0
100
AcDbLine
 10
40.7235
 20
737.7760000000001
 30
0.0
 11
41.2528
 21
737.5289999999999
 31
0.0
  0
LINE
  5
B0
330
1E
100
AcDbEntity
  8
0
100
AcDbLine
 10
40.4059
 20
737.924
 30
0.0
 11
40.7235
 21
737.7760000000001
 31
0.0
  0
LINE
  5
B1
330
1E
100
AcDbEntity
  8
0
100
AcDbLine
 10
40.2869
 20
737.9789999999999
 30
0.0
 11
40.4059
 21
737.924
 31
0.0
  0
LINE
  5
B2
330
1E
100
AcDbEntity
  8
0
100
AcDbLine
 10
40.2869
 20
737.9789999999999
 30
0.0
 11
40.70949999999999
 21
738.8860000000001
 31
0.0
  0
LINE
  5
B3
330
1E
100
AcDbEntity
  8
0
100
AcDbLine
 10
41.0403
 20
738.7319999999999
 30
0.0
 11
42.4957
 21
738.053
 31
0.0
  0
LINE
  5
B4
330
1E
100
AcDbEntity
  8
0
100
AcDbLine
 10
42.9331
 20
736.7449999999999
 30
0.0
 11
44.2561
 21
736.1289999999999
 31
0.0
  0
LINE
  5
B5
330
1E
100
AcDbEntity
  8
0
100
AcDbLine
 10
42.9331
 20
736.7449999999999
 30
0.0
 11
43.3557959869052
 21
737.652206010703
 31
0.0
  0
LINE
  5
B6
330
1E
100
AcDbEntity
  8
0
100
AcDbLine
 10
42.9331
 20
736.7449999999999
 30
0.0
 11
43.3557000000001
 21
737.6519999999999
 31
0.0
  0
LINE
  5
B7
330
1E
100
AcDbEntity
  8
0
100
AcDbLine
 10
42.9331
 20
736.7449999999999
 30
0.0
 11
44.0762278409633
 21
736.212749999975
 31
0.0
  0
LINE
  5
B8
330
1E
100
AcDbEntity
  8
0
100
AcDbLine
 10
42.9331
 20
736.7449999999999
 30
0.0
 11
44.0762278409633
 21
736.212749999975
 31
0.0
  0
LINE
  5
B9
330
1E
100
AcDbEntity
  8
0
100
AcDbLine
 10
44.0762278409633
 20
736.212749999975
 30
0.0
 11
44.44139999999999
 21
736.0419999999999
 31
0.0
  0
LINE
  5
BA
330
1E
100
AcDbEntity
  8
0
100
AcDbLine
 10
44.2561
 20
736.1289999999999
 30
0.0
 11
44.4673042388809
 21
736.582044587188
 31
0.0
  0
LINE
  5
BB
330
1E
100
AcDbEntity
  8
0
100
AcDbLine
 10
44.4674
 20
736.582
 30
0.0
 11
44.67860426659839
 21
737.0350446466431
 31
0.0
  0
LINE
  5
BC
330
1E
100
AcDbEntity
  8
0
100
AcDbLine
 10
44.0762278409633
 20
736.212749999975
 30
0.0
 11
44.44139999999999
 21
736.0419999999999
 31
0.0
  0
LINE
  5
BD
330
1E
100
AcDbEntity
  8
0
100
AcDbLine
 10
44.44139999999999
 20
736.0419999999999
 30
0.0
 11
45.2352
 21
735.672
 31
0.0
  0
LINE
  5
BE
330
1E
100
AcDbEntity
  8
0
100
AcDbLine
 10
45.2352
 20
735.672
 30
0.0
 11
45.9363
 21
735.346
 31
0.0
  0
LINE
  5
BF
330
1E
100
AcDbEntity
  8
0
100
AcDbLine
 10
43.35569999999999
 20
737.6519999999999
 30
0.0
 11
44.6787
 21
737.035
 31
0.0
  0
LINE
  5
C0
330
1E
100
AcDbEntity
  8
0
100
AcDbLine
 10
43.35569999999999
 20
737.6519999999999
 30
0.0
 11
43.567287200205
 21
738.1058660600709
 31
0.0
  0
LINE
  5
C1
330
1E
100
AcDbEntity
  8
0
100
AcDbLine
 10
43.1444
 20
737.1979999999999
 30
0.0
 11
44.4674
 21
736.582
 31
0.0
  0
LINE
  5
C2
330
1E
100
AcDbEntity
  8
0
100
AcDbLine
 10
43.1444
 20
737.1979999999999
 30
0.0
 11
43.3558913800951
 21
737.6519107471519
 31
0.0
  0
LINE
  5
C3
330
1E
100
AcDbEntity
  8
0
100
AcDbLine
 10
44.6787
 20
737.035
 30
0.0
 11
45.10125240530029
 21
737.9413979067789
 31
0.0
  0
LINE
  5
C4
330
1E
100
AcDbEntity
  8
0
100
AcDbLine
 10
43.567
 20
738.1060000000001
 30
0.0
 11
44.88999999999999
 21
737.4889999999999
 31
0.0
  0
LINE
  5
C5
330
1E
100
AcDbEntity
  8
0
100
AcDbLine
 10
43.567
 20
738.1060000000001
 30
0.0
 11
43.7783000000001
 21
738.5589999999999
 31
0.0
  0
LINE
  5
C6
330
1E
100
AcDbEntity
  8
0
100
AcDbLine
 10
43.7783
 20
738.5589999999999
 30
0.0
 11
45.1013
 21
737.942
 31
0.0
  0
LINE
  5
C7
330
1E
100
AcDbEntity
  8
0
100
AcDbLine
 10
43.7783
 20
738.5589999999999
 30
0.0
 11
44.2007034592232
 21
739.464578641875
 31
0.0
  0
LINE
  5
C8
330
1E
100
AcDbEntity
  8
0
100
AcDbLine
 10
44.67882041673079
 20
737.035258300441
 30
0.0
 11
45.53869999999999
 21
736.6339999999999
 31
0.0
  0
LINE
  5
C9
330
1E
100
AcDbEntity
  8
0
100
AcDbLine
 10
44.67847197040179
 20
737.0347608641009
 30
0.0
 11
44.86399999999999
 21
736.948
 31
0.0
  0
LINE
  5
CA
330
1E
100
AcDbEntity
  8
0
100
AcDbLine
 10
44.88999999999999
 20
737.4889999999999
 30
0.0
 11
45.1508299958322
 21
738.0481859352199
 31
0.0
  0
LINE
  5
CB
330
1E
100
AcDbEntity
  8
0
100
AcDbLine
 10
45.1013
 20
737.942
 30
0.0
 11
45.523715483554
 21
738.8476044204919
 31
0.0
  0
LINE
  5
CC
330
1E
100
AcDbEntity
  8
0
100
AcDbLine
 10
44.86399999999999
 20
736.948
 30
0.0
 11
45.65789999999999
 21
736.5779999999999
 31
0.0
  0
LINE
  5
CD
330
1E
100
AcDbEntity
  8
0
100
AcDbLine
 10
42.74779999999999
 20
736.8319999999999
 30
0.0
 11
42.93339608098279
 21
736.745635460131
 31
0.0
  0
LINE
  5
CE
330
1E
100
AcDbEntity
  8
0
100
AcDbLine
 10
42.4957
 20
738.053
 30
0.0
 11
43.3557960304001
 21
737.652205990435
 31
0.0
  0
LINE
  5
CF
330
1E
100
AcDbEntity
  8
0
100
AcDbLine
 10
44.8624
 20
739.1560000000001
 30
0.0
 11
50.6179
 21
736.472
 31
0.0
  0
LINE
  5
D0
330
1E
100
AcDbEntity
  8
0
100
AcDbLine
 10
45.53869999999999
 20
736.6339999999999
 30
0.0
 11
46.9941
 21
735.955
 31
0.0
  0
LINE
  5
D1
330
1E
100
AcDbEntity
  8
0
100
AcDbLine
 10
45.53869999999999
 20
736.6339999999999
 30
0.0
 11
45.9078477843609
 21
736.4617783801151
 31
0.0
  0
LINE
  5
D2
330
1E
100
AcDbEntity
  8
0
100
AcDbLine
 10
45.53869999999999
 20
736.6339999999999
 30
0.0
 11
45.9078477843609
 21
736.4617783801151
 31
0.0
  0
LINE
  5
D3
330
1E
100
AcDbEntity
  8
0
100
AcDbLine
 10
45.65789999999999
 20
736.5779999999999
 30
0.0
 11
45.9078477843609
 21
736.4617783801151
 31
0.0
  0
LINE
  5
D4
330
1E
100
AcDbEntity
  8
0
100
AcDbLine
 10
45.65789999999999
 20
736.5779999999999
 30
0.0
 11
45.9078477843609
 21
736.4617783801151
 31
0.0
  0
LINE
  5
D5
330
1E
100
AcDbEntity
  8
0
100
AcDbLine
 10
45.9363
 20
735.346
 30
0.0
 11
46.46569999999999
 21
735.0989999999999
 31
0.0
  0
LINE
  5
D6
330
1E
100
AcDbEntity
  8
0
100
AcDbLine
 10
46.46569999999999
 20
735.0989999999999
 30
0.0
 11
46.78309999999999
 21
734.95
 31
0.0
  0
LINE
  5
D7
330
1E
100
AcDbEntity
  8
0
100
AcDbLine
 10
47.32469110837509
 20
735.8007665503729
 30
0.0
 11
48.4495
 21
735.276
 31
0.0
  0
LINE
  5
D8
330
1E
100
AcDbEntity
  8
0
100
AcDbLine
 10
46.9022
 20
734.895
 30
0.0
 11
47.32469110837509
 21
735.8007665503729
 31
0.0
  0
LINE
  5
D9
330
1E
100
AcDbEntity
  8
0
100
AcDbLine
 10
46.9941
 20
735.955
 30
0.0
 11
48.4495
 21
735.276
 31
0.0
  0
LINE
  5
DA
330
1E
100
AcDbEntity
  8
0
100
AcDbLine
 10
47.1208654429962
 20
735.8958590519478
 30
0.0
 11
47.2595078249241
 21
735.8311770557069
 31
0.0
  0
LINE
  5
DB
330
1E
100
AcDbEntity
  8
0
100
AcDbLine
 10
47.1208654429962
 20
735.8958590519478
 30
0.0
 11
47.2058
 21
735.8560000000001
 31
0.0
  0
LINE
  5
DC
330
1E
100
AcDbEntity
  8
0
100
AcDbLine
 10
47.1208654429962
 20
735.8958590519478
 30
0.0
 11
47.2058
 21
735.8560000000001
 31
0.0
  0
LINE
  5
DD
330
1E
100
AcDbEntity
  8
0
100
AcDbLine
 10
47.1208654429962
 20
735.8958590519478
 30
0.0
 11
47.2595078249241
 21
735.8311770557069
 31
0.0
  0
LINE
  5
DE
330
1E
100
AcDbEntity
  8
0
100
AcDbLine
 10
47.2058
 20
735.8560000000001
 30
0.0
 11
47.2595078249241
 21
735.8311770557069
 31
0.0
  0
LINE
  5
DF
330
1E
100
AcDbEntity
  8
0
100
AcDbLine
 10
47.2058
 20
735.8560000000001
 30
0.0
 11
47.2595078249241
 21
735.8311770557069
 31
0.0
  0
LINE
  5
E0
330
1E
100
AcDbEntity
  8
0
100
AcDbLine
 10
46.78309999999999
 20
734.95
 30
0.0
 11
46.9022
 21
734.895
 31
0.0
  0
LINE
  5
E1
330
1E
100
AcDbEntity
  8
0
100
AcDbLine
 10
45.285
 20
740.0629999999999
 30
0.0
 11
51.1066
 21
737.348
 31
0.0
  0
LINE
  5
E2
330
1E
100
AcDbEntity
  8
0
100
AcDbLine
 10
39.2393
 20
741.778
 30
0.0
 11
44.862399999999
 21
739.156000000001
 31
0.0
  0
LINE
  5
E3
330
1E
100
AcDbEntity
  8
0
100
AcDbLine
 10
39.2393
 20
741.778
 30
0.0
 11
44.8624
 21
739.1560000000001
 31
0.0
  0
LINE
  5
E4
330
1E
100
AcDbEntity
  8
0
100
AcDbLine
 10
39.107
 20
741.84
 30
0.0
 11
44.8624
 21
739.1560000000001
 31
0.0
  0
LINE
  5
E5
330
1E
100
AcDbEntity
  8
0
100
AcDbLine
 10
39.107
 20
741.84
 30
0.0
 11
44.2007034592232
 21
739.464578641875
 31
0.0
  0
LINE
  5
E6
330
1E
100
AcDbEntity
  8
0
100
AcDbLine
 10
39.107
 20
741.84
 30
0.0
 11
44.2007034592232
 21
739.464578641875
 31
0.0
  0
LINE
  5
E7
330
1E
100
AcDbEntity
  8
0
100
AcDbLine
 10
27.1333
 20
744.6649999999999
 30
0.0
 11
27.3443850738098
 21
745.117788971625
 31
0.0
  0
LINE
  5
E8
330
1E
100
AcDbEntity
  8
0
100
AcDbLine
 10
27.1333
 20
744.6649999999999
 30
0.0
 11
28.2792
 21
744.13
 31
0.0
  0
LINE
  5
E9
330
1E
100
AcDbEntity
  8
0
100
AcDbLine
 10
26.4718
 20
744.9739999999999
 30
0.0
 11
26.8283679234225
 21
745.7384357279241
 31
0.0
  0
LINE
  5
EA
330
1E
100
AcDbEntity
  8
0
100
AcDbLine
 10
26.4718
 20
744.9739999999999
 30
0.0
 11
27.1333
 21
744.6649999999999
 31
0.0
  0
LINE
  5
EB
330
1E
100
AcDbEntity
  8
0
100
AcDbLine
 10
27.09519999999999
 20
745.2339999999999
 30
0.0
 11
27.3063158698106
 21
745.6868014574309
 31
0.0
  0
LINE
  5
EC
330
1E
100
AcDbEntity
  8
0
100
AcDbLine
 10
27.09519999999999
 20
745.2339999999999
 30
0.0
 11
28.4182
 21
744.6169999999999
 31
0.0
  0
LINE
  5
ED
330
1E
100
AcDbEntity
  8
0
100
AcDbLine
 10
27.3788
 20
745.653
 30
0.0
 11
27.71478855143179
 21
746.3737137289939
 31
0.0
  0
LINE
  5
EE
330
1E
100
AcDbEntity
  8
0
100
AcDbLine
 10
26.0557
 20
746.2699999999999
 30
0.0
 11
26.267423668168
 21
746.7241587912781
 31
0.0
  0
LINE
  5
EF
330
1E
100
AcDbEntity
  8
0
100
AcDbLine
 10
26.0557
 20
746.2699999999999
 30
0.0
 11
27.3788
 21
745.653
 31
0.0
  0
LINE
  5
F0
330
1E
100
AcDbEntity
  8
0
100
AcDbLine
 10
27.4429
 20
746.176
 30
0.0
 11
27.8653013504074
 21
747.0820738858121
 31
0.0
  0
LINE
  5
F1
330
1E
100
AcDbEntity
  8
0
100
AcDbLine
 10
26.1198
 20
746.7929999999999
 30
0.0
 11
26.5421870499507
 21
747.699043210554
 31
0.0
  0
LINE
  5
F2
330
1E
100
AcDbEntity
  8
0
100
AcDbLine
 10
26.1198
 20
746.7929999999999
 30
0.0
 11
27.4429
 21
746.176
 31
0.0
  0
LINE
  5
F3
330
1E
100
AcDbEntity
  8
0
100
AcDbLine
 10
23.4368
 20
746.941
 30
0.0
 11
23.76575253920419
 21
747.6462318990041
 31
0.0
  0
LINE
  5
F4
330
1E
100
AcDbEntity
  8
0
100
AcDbLine
 10
22.7753
 20
747.2489999999999
 30
0.0
 11
23.4368
 21
746.941
 31
0.0
  0
LINE
  5
F5
330
1E
100
AcDbEntity
  8
0
100
AcDbLine
 10
21.16379999999999
 20
748.001
 30
0.0
 11
21.426593713036
 21
748.5643292417149
 31
0.0
  0
LINE
  5
F6
330
1E
100
AcDbEntity
  8
0
100
AcDbLine
 10
21.109195946715
 20
748.026420266644
 30
0.0
 11
21.16379999999999
 21
748.001
 31
0.0
  0
LINE
  5
F7
330
1E
100
AcDbEntity
  8
0
100
AcDbLine
 10
21.10920665131089
 20
748.0264432258681
 30
0.0
 11
21.16379999999999
 21
748.001
 31
0.0
  0
LINE
  5
F8
330
1E
100
AcDbEntity
  8
0
100
AcDbLine
 10
21.109
 20
748.0260000000001
 30
0.0
 11
21.3201296188542
 21
748.478830946389
 31
0.0
  0
LINE
  5
F9
330
1E
100
AcDbEntity
  8
0
100
AcDbLine
 10
22.29109999999999
 20
747.475
 30
0.0
 11
22.6532516168723
 21
748.2514064479089
 31
0.0
  0
LINE
  5
FA
330
1E
100
AcDbEntity
  8
0
100
AcDbLine
 10
22.29109999999999
 20
747.475
 30
0.0
 11
23.4368
 21
746.941
 31
0.0
  0
LINE
  5
FB
330
1E
100
AcDbEntity
  8
0
100
AcDbLine
 10
21.6294
 20
747.7829999999999
 30
0.0
 11
21.95998978964579
 21
748.492049199844
 31
0.0
  0
LINE
  5
FC
330
1E
100
AcDbEntity
  8
0
100
AcDbLine
 10
21.6294
 20
747.7829999999999
 30
0.0
 11
22.29109999999999
 21
747.475
 31
0.0
  0
LINE
  5
FD
330
1E
100
AcDbEntity
  8
0
100
AcDbLine
 10
21.6294
 20
747.7829999999999
 30
0.0
 11
22.7753
 21
747.2489999999999
 31
0.0
  0
LINE
  5
FE
330
1E
100
AcDbEntity
  8
0
100
AcDbLine
 10
21.6294
 20
747.7829999999999
 30
0.0
 11
21.88167500205369
 21
748.324079591534
 31
0.0
  0
LINE
  5
FF
330
1E
100
AcDbEntity
  8
0
100
AcDbLine
 10
23.6417116818756
 20
747.38030426829
 30
0.0
 11
27.2057132869185
 21
745.5010837319219
 31
0.0
  0
LINE
  5
100
330
1E
100
AcDbEntity
  8
0
100
AcDbLine
 10
23.6417116818756
 20
747.38030426829
 30
0.0
 11
27.2057132869185
 21
745.5010837319219
 31
0.0
  0
LINE
  5
101
330
1E
100
AcDbEntity
  8
0
100
AcDbLine
 10
29.4388
 20
743.59
 30
0.0
 11
30.1003
 21
743.2819999999999
 31
0.0
  0
LINE
  5
102
330
1E
100
AcDbEntity
  8
0
100
AcDbLine
 10
30.1003
 20
743.2819999999999
 30
0.0
 11
30.442012976354
 21
744.0145019675298
 31
0.0
  0
LINE
  5
103
330
1E
100
AcDbEntity
  8
0
100
AcDbLine
 10
28.95459999999999
 20
743.816
 30
0.0
 11
29.3295151869481
 21
744.619674812197
 31
0.0
  0
LINE
  5
104
330
1E
100
AcDbEntity
  8
0
100
AcDbLine
 10
28.95459999999999
 20
743.816
 30
0.0
 11
30.1003
 21
743.2819999999999
 31
0.0
  0
LINE
  5
105
330
1E
100
AcDbEntity
  8
0
100
AcDbLine
 10
28.2792
 20
744.13
 30
0.0
 11
28.59310710018569
 21
744.8037989347259
 31
0.0
  0
LINE
  5
106
330
1E
100
AcDbEntity
  8
0
100
AcDbLine
 10
28.4182
 20
744.6169999999999
 30
0.0
 11
28.7391609630192
 21
745.305397286116
 31
0.0
  0
LINE
  5
107
330
1E
100
AcDbEntity
  8
0
100
AcDbLine
 10
28.29309999999999
 20
744.1239999999999
 30
0.0
 11
28.66282498779149
 21
744.9169863987529
 31
0.0
  0
LINE
  5
108
330
1E
100
AcDbEntity
  8
0
100
AcDbLine
 10
28.29309999999999
 20
744.1239999999999
 30
0.0
 11
28.95459999999999
 21
743.816
 31
0.0
  0
LINE
  5
109
330
1E
100
AcDbEntity
  8
0
100
AcDbLine
 10
28.29309999999999
 20
744.1239999999999
 30
0.0
 11
29.4388
 21
743.59
 31
0.0
  0
LINE
  5
10A
330
1E
100
AcDbEntity
  8
0
100
AcDbLine
 10
28.29309999999999
 20
744.1239999999999
 30
0.0
 11
28.59815014350889
 21
744.77827174989
 31
0.0
  0
LINE
  5
10B
330
1E
100
AcDbEntity
  8
0
100
AcDbLine
 10
30.3597002667735
 20
743.83805499041
 30
0.0
 11
32.4403
 21
742.741
 31
0.0
  0
LINE
  5
10C
330
1E
100
AcDbEntity
  8
0
100
AcDbLine
 10
32.86008680697189
 20
744.7526726018739
 30
0.0
 11
34.5424
 21
743.968
 31
0.0
  0
LINE
  5
10D
330
1E
100
AcDbEntity
  8
0
100
AcDbLine
 10
30.3597002667735
 20
743.83805499041
 30
0.0
 11
32.4403
 21
742.741
 31
0.0
  0
LINE
  5
10E
330
1E
100
AcDbEntity
  8
0
100
AcDbLine
 10
32.8600868069718
 20
744.7526726018739
 30
0.0
 11
33.6163
 21
744.3999999999999
 31
0.0
  0
LINE
  5
10F
330
1E
100
AcDbEntity
  8
0
100
AcDbLine
 10
32.8600868069729
 20
744.7526726018739
 30
0.0
 11
33.6163
 21
744.3999999999999
 31
0.0
  0
LINE
  5
110
330
1E
100
AcDbEntity
  8
0
100
AcDbLine
 10
28.50980128316999
 20
744.813466492828
 30
0.0
 11
28.5938876609736
 21
744.7691295745239
 31
0.0
  0
LINE
  5
111
330
1E
100
AcDbEntity
  8
0
100
AcDbLine
 10
32.86008680697079
 20
744.752672601875
 30
0.0
 11
34.5424
 21
743.968
 31
0.0
  0
LINE
  5
112
330
1E
100
AcDbEntity
  8
0
100
AcDbLine
 10
27.79469999999999
 20
747.115
 30
0.0
 11
33.6163
 21
744.3999999999999
 31
0.0
  0
LINE
  5
113
330
1E
100
AcDbEntity
  8
0
100
AcDbLine
 10
19.9633
 20
748.5599999999999
 30
0.0
 11
20.1745342563122
 21
749.0130553728779
 31
0.0
  0
LINE
  5
114
330
1E
100
AcDbEntity
  8
0
100
AcDbLine
 10
19.9633
 20
748.5599999999999
 30
0.0
 11
21.109
 21
748.0260000000001
 31
0.0
  0
LINE
  5
115
330
1E
100
AcDbEntity
  8
0
100
AcDbLine
 10
21.3455
 20
748.467
 30
0.0
 11
21.63535081820469
 21
749.0887457801759
 31
0.0
  0
LINE
  5
116
330
1E
100
AcDbEntity
  8
0
100
AcDbLine
 10
19.3565
 20
748.8430000000001
 30
0.0
 11
19.63800721431369
 21
748.711927857886
 31
0.0
  0
LINE
  5
117
330
1E
100
AcDbEntity
  8
0
100
AcDbLine
 10
19.3565
 20
748.8430000000001
 30
0.0
 11
19.6380072143136
 21
748.711927857886
 31
0.0
  0
LINE
  5
118
330
1E
100
AcDbEntity
  8
0
100
AcDbLine
 10
19.3565
 20
748.8430000000001
 30
0.0
 11
19.77953739180889
 21
748.6458262483839
 31
0.0
  0
LINE
  5
119
330
1E
100
AcDbEntity
  8
0
100
AcDbLine
 10
19.3565
 20
748.8430000000001
 30
0.0
 11
19.7795373918088
 21
748.6458262483839
 31
0.0
  0
LINE
  5
11A
330
1E
100
AcDbEntity
  8
0
100
AcDbLine
 10
19.3017
 20
748.8689999999999
 30
0.0
 11
19.62478076030139
 21
749.5616435608919
 31
0.0
  0
LINE
  5
11B
330
1E
100
AcDbEntity
  8
0
100
AcDbLine
 10
19.3017
 20
748.8689999999999
 30
0.0
 11
19.9633
 21
748.5599999999999
 31
0.0
  0
LINE
  5
11C
330
1E
100
AcDbEntity
  8
0
100
AcDbLine
 10
20.0224
 20
749.0839999999999
 30
0.0
 11
20.3753091969939
 21
749.841009434631
 31
0.0
  0
LINE
  5
11D
330
1E
100
AcDbEntity
  8
0
100
AcDbLine
 10
20.0224
 20
749.0839999999999
 30
0.0
 11
21.3455
 21
748.467
 31
0.0
  0
LINE
  5
11E
330
1E
100
AcDbEntity
  8
0
100
AcDbLine
 10
20.0224
 20
749.0839999999999
 30
0.0
 11
20.3335353970452
 21
749.751402360202
 31
0.0
  0
LINE
  5
11F
330
1E
100
AcDbEntity
  8
0
100
AcDbLine
 10
21.3919189025412
 20
748.566571072299
 30
0.0
 11
21.8757821149845
 21
748.311440523444
 31
0.0
  0
LINE
  5
120
330
1E
100
AcDbEntity
  8
0
100
AcDbLine
 10
21.3919189025412
 20
748.566571072299
 30
0.0
 11
21.8757821149845
 21
748.311440523444
 31
0.0
  0
LINE
  5
121
330
1E
100
AcDbEntity
  8
0
100
AcDbLine
 10
18.762
 20
750.2239999999999
 30
0.0
 11
19.1846673868931
 21
751.1300372708509
 31
0.0
  0
LINE
  5
122
330
1E
100
AcDbEntity
  8
0
100
AcDbLine
 10
18.762
 20
750.2239999999999
 30
0.0
 11
20.0852
 21
749.6069999999999
 31
0.0
  0
LINE
  5
123
330
1E
100
AcDbEntity
  8
0
100
AcDbLine
 10
18.762
 20
750.2239999999999
 30
0.0
 11
19.170283976844
 21
751.0992047391949
 31
0.0
  0
LINE
  5
124
330
1E
100
AcDbEntity
  8
0
100
AcDbLine
 10
20.0852
 20
749.6069999999999
 30
0.0
 11
20.5077947175277
 21
750.5129886750591
 31
0.0
  0
LINE
  5
125
330
1E
100
AcDbEntity
  8
0
100
AcDbLine
 10
22.0090408775197
 20
749.8128732640079
 30
0.0
 11
22.47458903715549
 21
749.595762006817
 31
0.0
  0
LINE
  5
126
330
1E
100
AcDbEntity
  8
0
100
AcDbLine
 10
18.93019999999999
 20
751.248
 30
0.0
 11
23.62699999999999
 21
749.058
 31
0.0
  0
LINE
  5
127
330
1E
100
AcDbEntity
  8
0
100
AcDbLine
 10
22.6349
 20
749.5210000000001
 30
0.0
 11
27.79469999999999
 21
747.115
 31
0.0
  0
LINE
  5
128
330
1E
100
AcDbEntity
  8
0
100
AcDbLine
 10
24.28198543207809
 20
748.7529687682511
 30
0.0
 11
26.5421870499507
 21
747.699043210554
 31
0.0
  0
LINE
  5
129
330
1E
100
AcDbEntity
  8
0
100
AcDbLine
 10
22.87233999057869
 20
749.4102824106881
 30
0.0
 11
23.13629999999999
 21
749.2869999999999
 31
0.0
  0
LINE
  5
12A
330
1E
100
AcDbEntity
  8
0
100
AcDbLine
 10
23.13629999999999
 20
749.2869999999999
 30
0.0
 11
24.09789980314839
 21
748.838807371143
 31
0.0
  0
LINE
  5
12B
330
1E
100
AcDbEntity
  8
0
100
AcDbLine
 10
22.87233999057869
 20
749.4102824106881
 30
0.0
 11
23.13629999999999
 21
749.2869999999999
 31
0.0
  0
LINE
  5
12C
330
1E
100
AcDbEntity
  8
0
100
AcDbLine
 10
23.62699999999999
 20
749.058
 30
0.0
 11
26.9347333336484
 21
747.515999999853
 31
0.0
  0
LINE
  5
12D
330
1E
100
AcDbEntity
  8
0
100
AcDbLine
 10
23.62699999999999
 20
749.058
 30
0.0
 11
26.934733333649
 21
747.515999999853
 31
0.0
  0
LINE
  5
12E
330
1E
100
AcDbEntity
  8
0
100
AcDbLine
 10
22.7266
 20
750.5819999999999
 30
0.0
 11
27.9527
 21
748.1449999999999
 31
0.0
  0
LINE
  5
12F
330
1E
100
AcDbEntity
  8
0
100
AcDbLine
 10
27.9527
 20
748.1449999999999
 30
0.0
 11
33.5759
 21
745.5219999999999
 31
0.0
  0
LINE
  5
130
330
1E
100
AcDbEntity
  8
0
100
AcDbLine
 10
34.5424
 20
743.968
 30
0.0
 11
39.2393
 21
741.778
 31
0.0
  0
LINE
  5
131
330
1E
100
AcDbEntity
  8
0
100
AcDbLine
 10
33.6163
 20
744.3999999999999
 30
0.0
 11
39.107
 21
741.84
 31
0.0
  0
LINE
  5
132
330
1E
100
AcDbEntity
  8
0
100
AcDbLine
 10
33.6163
 20
744.3999999999999
 30
0.0
 11
35.29805121186739
 21
743.6158954045239
 31
0.0
  0
LINE
  5
133
330
1E
100
AcDbEntity
  8
0
100
AcDbLine
 10
33.5759
 20
745.5219999999999
 30
0.0
 11
39.4635
 21
742.7769999999999
 31
0.0
  0
LINE
  5
134
330
1E
100
AcDbEntity
  8
0
100
AcDbLine
 10
39.4635
 20
742.7769999999999
 30
0.0
 11
45.285
 21
740.0629999999999
 31
0.0
  0
LINE
  5
135
330
1E
100
AcDbEntity
  8
0
100
AcDbLine
 10
53.076
 20
732.567
 30
0.0
 11
53.4476338867921
 21
733.364174913339
 31
0.0
  0
LINE
  5
136
330
1E
100
AcDbEntity
  8
0
100
AcDbLine
 10
52.2325
 20
732.4089999999999
 30
0.0
 11
52.4436447322844
 21
732.8618633616839
 31
0.0
  0
LINE
  5
137
330
1E
100
AcDbEntity
  8
0
100
AcDbLine
 10
51.08679999999999
 20
732.943
 30
0.0
 11
52.2325
 21
732.4089999999999
 31
0.0
  0
LINE
  5
138
330
1E
100
AcDbEntity
  8
0
100
AcDbLine
 10
51.44919999999999
 20
733.8769999999999
 30
0.0
 11
52.77219999999999
 21
733.261
 31
0.0
  0
LINE
  5
139
330
1E
100
AcDbEntity
  8
0
100
AcDbLine
 10
51.44919999999999
 20
733.8769999999999
 30
0.0
 11
51.8446789952055
 21
734.7258923172439
 31
0.0
  0
LINE
  5
13A
330
1E
100
AcDbEntity
  8
0
100
AcDbLine
 10
51.44919999999999
 20
733.8769999999999
 30
0.0
 11
51.6698957278718
 21
734.3507215126719
 31
0.0
  0
LINE
  5
13B
330
1E
100
AcDbEntity
  8
0
100
AcDbLine
 10
50.42519999999999
 20
733.2519999999999
 30
0.0
 11
51.571
 21
732.7180000000001
 31
0.0
  0
LINE
  5
13C
330
1E
100
AcDbEntity
  8
0
100
AcDbLine
 10
50.42519999999999
 20
733.2519999999999
 30
0.0
 11
50.8480179817867
 21
734.15846732489
 31
0.0
  0
LINE
  5
13D
330
1E
100
AcDbEntity
  8
0
100
AcDbLine
 10
50.42519999999999
 20
733.2519999999999
 30
0.0
 11
51.08679999999999
 21
732.943
 31
0.0
  0
LINE
  5
13E
330
1E
100
AcDbEntity
  8
0
100
AcDbLine
 10
51.7528
 20
733.1839999999999
 30
0.0
 11
53.076
 21
732.567
 31
0.0
  0
LINE
  5
13F
330
1E
100
AcDbEntity
  8
0
100
AcDbLine
 10
51.7528
 20
733.1839999999999
 30
0.0
 11
51.9641236825233
 21
733.6372471742751
 31
0.0
  0
LINE
  5
140
330
1E
100
AcDbEntity
  8
0
100
AcDbLine
 10
52.32269999999999
 20
734.0219999999999
 30
0.0
 11
53.6457
 21
733.4049999999999
 31
0.0
  0
LINE
  5
141
330
1E
100
AcDbEntity
  8
0
100
AcDbLine
 10
52.32269999999999
 20
734.0219999999999
 30
0.0
 11
52.5922477071379
 21
734.600194501942
 31
0.0
  0
LINE
  5
142
330
1E
100
AcDbEntity
  8
0
100
AcDbLine
 10
52.77219999999999
 20
733.261
 30
0.0
 11
52.9833378103957
 21
733.713902094472
 31
0.0
  0
LINE
  5
143
330
1E
100
AcDbEntity
  8
0
100
AcDbLine
 10
53.6457
 20
733.4049999999999
 30
0.0
 11
53.85713486614821
 21
733.8585392952279
 31
0.0
  0
LINE
  5
144
330
1E
100
AcDbEntity
  8
0
100
AcDbLine
 10
54.0041
 20
733.7899999999999
 30
0.0
 11
54.42680772520779
 21
734.6961237407739
 31
0.0
  0
LINE
  5
145
330
1E
100
AcDbEntity
  8
0
100
AcDbLine
 10
52.6811
 20
734.4069999999999
 30
0.0
 11
54.0041
 21
733.7899999999999
 31
0.0
  0
LINE
  5
146
330
1E
100
AcDbEntity
  8
0
100
AcDbLine
 10
52.6811
 20
734.4069999999999
 30
0.0
 11
53.103746182823
 21
735.3129918174318
 31
0.0
  0
LINE
  5
147
330
1E
100
AcDbEntity
  8
0
100
AcDbLine
 10
52.4436447322844
 20
732.8618633616839
 30
0.0
 11
53.076
 21
732.567
 31
0.0
  0
LINE
  5
148
330
1E
100
AcDbEntity
  8
0
100
AcDbLine
 10
51.571
 20
732.7180000000001
 30
0.0
 11
52.2325
 21
732.4089999999999
 31
0.0
  0
LINE
  5
149
330
1E
100
AcDbEntity
  8
0
100
AcDbLine
 10
51.571
 20
732.7180000000001
 30
0.0
 11
51.782030995614
 21
733.1703697670089
 31
0.0
  0
LINE
  5
14A
330
1E
100
AcDbEntity
  8
0
100
AcDbLine
 10
54.0726
 20
732.654
 30
0.0
 11
54.668
 21
732.3769999999999
 31
0.0
  0
LINE
  5
14B
330
1E
100
AcDbEntity
  8
0
100
AcDbLine
 10
55.1972
 20
732.1299999999999
 30
0.0
 11
55.46179999999999
 21
732.0069999999999
 31
0.0
  0
LINE
  5
14C
330
1E
100
AcDbEntity
  8
0
100
AcDbLine
 10
55.594
 20
731.945
 30
0.0
 11
57.7713991621996
 21
731.0564978479269
 31
0.0
  0
LINE
  5
14D
330
1E
100
AcDbEntity
  8
0
100
AcDbLine
 10
49.7726
 20
734.6589999999999
 30
0.0
 11
51.02949999999999
 21
734.0739999999999
 31
0.0
  0
LINE
  5
14E
330
1E
100
AcDbEntity
  8
0
100
AcDbLine
 10
49.7726
 20
734.6589999999999
 30
0.0
 11
50.8480179817867
 21
734.15846732489
 31
0.0
  0
LINE
  5
14F
330
1E
100
AcDbEntity
  8
0
100
AcDbLine
 10
48.4495
 20
735.276
 30
0.0
 11
49.7726
 21
734.6589999999999
 31
0.0
  0
LINE
  5
150
330
1E
100
AcDbEntity
  8
0
100
AcDbLine
 10
56.1086
 20
733.9119999999999
 30
0.0
 11
61.93010000000001
 21
731.198
 31
0.0
  0
LINE
  5
151
330
1E
100
AcDbEntity
  8
0
100
AcDbLine
 10
50.6179
 20
736.472
 30
0.0
 11
56.1086
 21
733.9119999999999
 31
0.0
  0
LINE
  5
152
330
1E
100
AcDbEntity
  8
0
100
AcDbLine
 10
58.173
 20
730.19
 30
0.0
 11
59.3188
 21
729.656
 31
0.0
  0
LINE
  5
153
330
1E
100
AcDbEntity
  8
0
100
AcDbLine
 10
57.51149999999999
 20
730.4989999999999
 30
0.0
 11
58.6572
 21
729.965
 31
0.0
  0
LINE
  5
154
330
1E
100
AcDbEntity
  8
0
100
AcDbLine
 10
57.51149999999999
 20
730.4989999999999
 30
0.0
 11
57.85340013600571
 21
731.232394399643
 31
0.0
  0
LINE
  5
155
330
1E
100
AcDbEntity
  8
0
100
AcDbLine
 10
57.51149999999999
 20
730.4989999999999
 30
0.0
 11
58.173
 21
730.19
 31
0.0
  0
LINE
  5
156
330
1E
100
AcDbEntity
  8
0
100
AcDbLine
 10
57.51149999999999
 20
730.4989999999999
 30
0.0
 11
57.7750838021083
 21
731.0644016010679
 31
0.0
  0
LINE
  5
157
330
1E
100
AcDbEntity
  8
0
100
AcDbLine
 10
58.6572
 20
729.965
 30
0.0
 11
59.3188
 21
729.656
 31
0.0
  0
LINE
  5
158
330
1E
100
AcDbEntity
  8
0
100
AcDbLine
 10
58.6572
 20
729.965
 30
0.0
 11
59.0323291369244
 21
730.769133439142
 31
0.0
  0
LINE
  5
159
330
1E
100
AcDbEntity
  8
0
100
AcDbLine
 10
59.61619999999999
 20
730.07
 30
0.0
 11
60.9392
 21
729.4529999999999
 31
0.0
  0
LINE
  5
15A
330
1E
100
AcDbEntity
  8
0
100
AcDbLine
 10
59.61619999999999
 20
730.07
 30
0.0
 11
59.93700796685351
 21
730.75768962018
 31
0.0
  0
LINE
  5
15B
330
1E
100
AcDbEntity
  8
0
100
AcDbLine
 10
59.3327
 20
729.6499999999999
 30
0.0
 11
60.4786
 21
729.115
 31
0.0
  0
LINE
  5
15C
330
1E
100
AcDbEntity
  8
0
100
AcDbLine
 10
59.3327
 20
729.6499999999999
 30
0.0
 11
59.6468109862059
 21
730.3237851608979
 31
0.0
  0
LINE
  5
15D
330
1E
100
AcDbEntity
  8
0
100
AcDbLine
 10
59.3188
 20
729.656
 30
0.0
 11
59.6886957098789
 21
730.4493525635989
 31
0.0
  0
LINE
  5
15E
330
1E
100
AcDbEntity
  8
0
100
AcDbLine
 10
59.6200587853744
 20
730.302140042451
 30
0.0
 11
59.7077926643466
 21
730.266339651953
 31
0.0
  0
LINE
  5
15F
330
1E
100
AcDbEntity
  8
0
100
AcDbLine
 10
58.9415557412579
 20
732.5912679065919
 30
0.0
 11
61.1362
 21
731.568
 31
0.0
  0
LINE
  5
160
330
1E
100
AcDbEntity
  8
0
100
AcDbLine
 10
58.9415557412543
 20
732.5912679065939
 30
0.0
 11
61.71242436339079
 21
731.299481006228
 31
0.0
  0
LINE
  5
161
330
1E
100
AcDbEntity
  8
0
100
AcDbLine
 10
58.9415557412543
 20
732.5912679065939
 30
0.0
 11
61.1362
 21
731.568
 31
0.0
  0
LINE
  5
162
330
1E
100
AcDbEntity
  8
0
100
AcDbLine
 10
56.9943
 20
734.603
 30
0.0
 11
62.6173
 21
731.9810000000001
 31
0.0
  0
LINE
  5
163
330
1E
100
AcDbEntity
  8
0
100
AcDbLine
 10
51.1066
 20
737.348
 30
0.0
 11
56.9943
 21
734.603
 31
0.0
  0
LINE
  5
164
330
1E
100
AcDbEntity
  8
0
100
AcDbLine
 10
59.9816
 20
756.38
 30
0.0
 11
65.86929999999999
 21
753.6339999999999
 31
0.0
  0
LINE
  5
165
330
1E
100
AcDbEntity
  8
0
100
AcDbLine
 10
54.16009999999999
 20
759.095
 30
0.0
 11
59.9816
 21
756.38
 31
0.0
  0
LINE
  5
166
330
1E
100
AcDbEntity
  8
0
100
AcDbLine
 10
61.1401
 20
728.807
 30
0.0
 11
61.4970329132253
 21
729.5727311225619
 31
0.0
  0
LINE
  5
167
330
1E
100
AcDbEntity
  8
0
100
AcDbLine
 10
60.9392
 20
729.4529999999999
 30
0.0
 11
61.1506473712759
 21
729.906262317227
 31
0.0
  0
LINE
  5
168
330
1E
100
AcDbEntity
  8
0
100
AcDbLine
 10
62.4014
 20
729.323
 30
0.0
 11
62.6125661265664
 21
729.775659436104
 31
0.0
  0
LINE
  5
169
330
1E
100
AcDbEntity
  8
0
100
AcDbLine
 10
60.4786
 20
729.115
 30
0.0
 11
61.1401
 21
728.807
 31
0.0
  0
LINE
  5
16A
330
1E
100
AcDbEntity
  8
0
100
AcDbLine
 10
60.4786
 20
729.115
 30
0.0
 11
60.69028853433639
 21
729.569083427298
 31
0.0
  0
LINE
  5
16B
330
1E
100
AcDbEntity
  8
0
100
AcDbLine
 10
64.5976
 20
727.747
 30
0.0
 11
65.74339999999999
 21
727.212
 31
0.0
  0
LINE
  5
16C
330
1E
100
AcDbEntity
  8
0
100
AcDbLine
 10
64.5976
 20
727.747
 30
0.0
 11
64.9266995860812
 21
728.452936523385
 31
0.0
  0
LINE
  5
16D
330
1E
100
AcDbEntity
  8
0
100
AcDbLine
 10
64.5976
 20
727.747
 30
0.0
 11
64.9266995860812
 21
728.452936523385
 31
0.0
  0
LINE
  5
16E
330
1E
100
AcDbEntity
  8
0
100
AcDbLine
 10
64.5976
 20
727.747
 30
0.0
 11
64.80814325243921
 21
728.198626735296
 31
0.0
  0
LINE
  5
16F
330
1E
100
AcDbEntity
  8
0
100
AcDbLine
 10
66.405
 20
726.903
 30
0.0
 11
66.73575963323969
 21
727.612888753782
 31
0.0
  0
LINE
  5
170
330
1E
100
AcDbEntity
  8
0
100
AcDbLine
 10
65.74339999999999
 20
727.212
 30
0.0
 11
66.405
 21
726.903
 31
0.0
  0
LINE
  5
171
330
1E
100
AcDbEntity
  8
0
100
AcDbLine
 10
65.74339999999999
 20
727.212
 30
0.0
 11
66.10589475253279
 21
727.989570972955
 31
0.0
  0
LINE
  5
172
330
1E
100
AcDbEntity
  8
0
100
AcDbLine
 10
61.07829999999999
 20
729.94
 30
0.0
 11
62.4014
 21
729.323
 31
0.0
  0
LINE
  5
173
330
1E
100
AcDbEntity
  8
0
100
AcDbLine
 10
61.07829999999999
 20
729.94
 30
0.0
 11
61.4139688180391
 21
730.6596307362599
 31
0.0
  0
LINE
  5
174
330
1E
100
AcDbEntity
  8
0
100
AcDbLine
 10
61.07829999999999
 20
729.94
 30
0.0
 11
61.36035066682589
 21
730.5446803221589
 31
0.0
  0
LINE
  5
175
330
1E
100
AcDbEntity
  8
0
100
AcDbLine
 10
62.7598
 20
729.7069999999999
 30
0.0
 11
63.18252867073329
 21
730.613776005726
 31
0.0
  0
LINE
  5
176
330
1E
100
AcDbEntity
  8
0
100
AcDbLine
 10
61.4367
 20
730.3239999999999
 30
0.0
 11
62.7598
 21
729.7069999999999
 31
0.0
  0
LINE
  5
177
330
1E
100
AcDbEntity
  8
0
100
AcDbLine
 10
61.4367
 20
730.3239999999999
 30
0.0
 11
61.8595353130236
 21
731.230897459496
 31
0.0
  0
LINE
  5
178
330
1E
100
AcDbEntity
  8
0
100
AcDbLine
 10
61.2132866397032
 20
729.652012862332
 30
0.0
 11
64.80284817233649
 21
728.187268500291
 31
0.0
  0
LINE
  5
179
330
1E
100
AcDbEntity
  8
0
100
AcDbLine
 10
66.87050000000001
 20
726.6869999999999
 30
0.0
 11
66.92554103898659
 21
726.661302333661
 31
0.0
  0
LINE
  5
17A
330
1E
100
AcDbEntity
  8
0
100
AcDbLine
 10
66.87050000000001
 20
726.6869999999999
 30
0.0
 11
67.13351033384419
 21
727.25110473827
 31
0.0
  0
LINE
  5
17B
330
1E
100
AcDbEntity
  8
0
100
AcDbLine
 10
66.9254
 20
726.661
 30
0.0
 11
68.0711
 21
726.1269999999999
 31
0.0
  0
LINE
  5
17C
330
1E
100
AcDbEntity
  8
0
100
AcDbLine
 10
66.9254
 20
726.661
 30
0.0
 11
67.1368336160002
 21
727.1142328311749
 31
0.0
  0
LINE
  5
17D
330
1E
100
AcDbEntity
  8
0
100
AcDbLine
 10
66.9254
 20
726.661
 30
0.0
 11
67.5869
 21
726.3519999999999
 31
0.0
  0
LINE
  5
17E
330
1E
100
AcDbEntity
  8
0
100
AcDbLine
 10
66.6518391594899
 20
727.4327754795489
 30
0.0
 11
67.15830150266249
 21
727.2261101654139
 31
0.0
  0
LINE
  5
17F
330
1E
100
AcDbEntity
  8
0
100
AcDbLine
 10
63.18252867073329
 20
730.613776005726
 30
0.0
 11
64.4492088298409
 21
730.022904078793
 31
0.0
  0
LINE
  5
180
330
1E
100
AcDbEntity
  8
0
100
AcDbLine
 10
67.11159999999999
 20
727.126
 30
0.0
 11
68.4347
 21
726.5089999999998
 31
0.0
  0
LINE
  5
181
330
1E
100
AcDbEntity
  8
0
100
AcDbLine
 10
67.11159999999999
 20
727.126
 30
0.0
 11
67.40140641647139
 21
727.7472341495869
 31
0.0
  0
LINE
  5
182
330
1E
100
AcDbEntity
  8
0
100
AcDbLine
 10
67.5869
 20
726.3519999999999
 30
0.0
 11
68.7328
 21
725.818
 31
0.0
  0
LINE
  5
183
330
1E
100
AcDbEntity
  8
0
100
AcDbLine
 10
67.09010000000001
 20
728.791
 30
0.0
 11
71.9855
 21
726.508
 31
0.0
  0
LINE
  5
184
330
1E
100
AcDbEntity
  8
0
100
AcDbLine
 10
61.1362
 20
731.568
 30
0.0
 11
64.44920882984071
 21
730.022904078793
 31
0.0
  0
LINE
  5
185
330
1E
100
AcDbEntity
  8
0
100
AcDbLine
 10
61.1362
 20
731.568
 30
0.0
 11
64.4492088298421
 21
730.022904078793
 31
0.0
  0
LINE
  5
186
330
1E
100
AcDbEntity
  8
0
100
AcDbLine
 10
61.93010000000001
 20
731.198
 30
0.0
 11
67.09010000000001
 21
728.791
 31
0.0
  0
LINE
  5
187
330
1E
100
AcDbEntity
  8
0
100
AcDbLine
 10
70.1177
 20
726.276
 30
0.0
 11
70.5402915480441
 21
727.181981880095
 31
0.0
  0
LINE
  5
188
330
1E
100
AcDbEntity
  8
0
100
AcDbLine
 10
68.7328
 20
725.818
 30
0.0
 11
69.0562487927387
 21
726.511815264121
 31
0.0
  0
LINE
  5
189
330
1E
100
AcDbEntity
  8
0
100
AcDbLine
 10
68.0711
 20
726.1269999999999
 30
0.0
 11
68.7328
 21
725.818
 31
0.0
  0
LINE
  5
18A
330
1E
100
AcDbEntity
  8
0
100
AcDbLine
 10
68.0711
 20
726.1269999999999
 30
0.0
 11
68.282428931113
 21
726.580008426803
 31
0.0
  0
LINE
  5
18B
330
1E
100
AcDbEntity
  8
0
100
AcDbLine
 10
68.4347
 20
726.5089999999998
 30
0.0
 11
68.7876378495714
 21
727.2655638038839
 31
0.0
  0
LINE
  5
18C
330
1E
100
AcDbEntity
  8
0
100
AcDbLine
 10
68.7945
 20
726.893
 30
0.0
 11
70.1177
 21
726.276
 31
0.0
  0
LINE
  5
18D
330
1E
100
AcDbEntity
  8
0
100
AcDbLine
 10
68.7945
 20
726.893
 30
0.0
 11
69.2171642171016
 21
727.79903047603
 31
0.0
  0
LINE
  5
18E
330
1E
100
AcDbEntity
  8
0
100
AcDbLine
 10
68.7945
 20
726.893
 30
0.0
 11
69.15627451327471
 21
727.66850623217
 31
0.0
  0
LINE
  5
18F
330
1E
100
AcDbEntity
  8
0
100
AcDbLine
 10
69.0326794837666
 20
726.4612578136169
 30
0.0
 11
71.83477287875899
 21
725.3178450416349
 31
0.0
  0
LINE
  5
190
330
1E
100
AcDbEntity
  8
0
100
AcDbLine
 10
69.0326794837666
 20
726.4612578136169
 30
0.0
 11
71.83477287875899
 21
725.3178450416349
 31
0.0
  0
LINE
  5
191
330
1E
100
AcDbEntity
  8
0
100
AcDbLine
 10
67.8435
 20
729.543
 30
0.0
 11
72.80509999999999
 21
727.2289999999999
 31
0.0
  0
LINE
  5
192
330
1E
100
AcDbEntity
  8
0
100
AcDbLine
 10
62.6173
 20
731.9810000000001
 30
0.0
 11
67.8435
 21
729.543
 31
0.0
  0
LINE
  5
193
330
1E
100
AcDbEntity
  8
0
100
AcDbLine
 10
71.4924
 20
751.013
 30
0.0
 11
76.7185
 21
748.5759999999999
 31
0.0
  0
LINE
  5
194
330
1E
100
AcDbEntity
  8
0
100
AcDbLine
 10
65.86929999999999
 20
753.6339999999999
 30
0.0
 11
71.4924
 21
751.013
 31
0.0
  0
LINE
  5
195
330
1E
100
AcDbEntity
  8
0
100
AcDbLine
 10
71.68380000000009
 20
724.9939999999999
 30
0.0
 11
72.6798999999448
 21
724.529767673267
 31
0.0
  0
LINE
  5
196
330
1E
100
AcDbEntity
  8
0
100
AcDbLine
 10
71.6838
 20
724.9939999999999
 30
0.0
 11
72.8296
 21
724.46
 31
0.0
  0
LINE
  5
197
330
1E
100
AcDbEntity
  8
0
100
AcDbLine
 10
71.6838
 20
724.9939999999999
 30
0.0
 11
72.01205321709591
 21
725.6981210158479
 31
0.0
  0
LINE
  5
198
330
1E
100
AcDbEntity
  8
0
100
AcDbLine
 10
71.6838
 20
724.9939999999999
 30
0.0
 11
72.6798999999448
 21
724.529767673267
 31
0.0
  0
LINE
  5
199
330
1E
100
AcDbEntity
  8
0
100
AcDbLine
 10
71.6838
 20
724.9939999999999
 30
0.0
 11
71.83477287875899
 21
725.3178450416349
 31
0.0
  0
LINE
  5
19A
330
1E
100
AcDbEntity
  8
0
100
AcDbLine
 10
73.4911
 20
724.151
 30
0.0
 11
73.8263968702543
 21
724.8701449494509
 31
0.0
  0
LINE
  5
19B
330
1E
100
AcDbEntity
  8
0
100
AcDbLine
 10
75.6887
 20
723.126
 30
0.0
 11
75.97130913708891
 21
722.994414793313
 31
0.0
  0
LINE
  5
19C
330
1E
100
AcDbEntity
  8
0
100
AcDbLine
 10
75.6887
 20
723.126
 30
0.0
 11
75.97130913708901
 21
722.994414793313
 31
0.0
  0
LINE
  5
19D
330
1E
100
AcDbEntity
  8
0
100
AcDbLine
 10
75.51349999999999
 20
723.208
 30
0.0
 11
75.69410000005809
 21
723.1238387293559
 31
0.0
  0
LINE
  5
19E
330
1E
100
AcDbEntity
  8
0
100
AcDbLine
 10
75.51349999999999
 20
723.208
 30
0.0
 11
75.69410000005809
 21
723.1238387293559
 31
0.0
  0
LINE
  5
19F
330
1E
100
AcDbEntity
  8
0
100
AcDbLine
 10
76.7730970064367
 20
722.621029936775
 30
0.0
 11
77.5356
 21
722.2649999999999
 31
0.0
  0
LINE
  5
1A0
330
1E
100
AcDbEntity
  8
0
100
AcDbLine
 10
76.7730970064365
 20
722.621029936775
 30
0.0
 11
77.5356
 21
722.2649999999999
 31
0.0
  0
LINE
  5
1A1
330
1E
100
AcDbEntity
  8
0
100
AcDbLine
 10
77.5356
 20
722.2649999999999
 30
0.0
 11
77.86647142170579
 21
722.974737207232
 31
0.0
  0
LINE
  5
1A2
330
1E
100
AcDbEntity
  8
0
100
AcDbLine
 10
76.874
 20
722.574
 30
0.0
 11
77.5356
 21
722.2649999999999
 31
0.0
  0
LINE
  5
1A3
330
1E
100
AcDbEntity
  8
0
100
AcDbLine
 10
76.874
 20
722.574
 30
0.0
 11
77.1824641278765
 21
723.235307382527
 31
0.0
  0
LINE
  5
1A4
330
1E
100
AcDbEntity
  8
0
100
AcDbLine
 10
76.6594088247421
 20
722.6740189295519
 30
0.0
 11
76.874
 21
722.574
 31
0.0
  0
LINE
  5
1A5
330
1E
100
AcDbEntity
  8
0
100
AcDbLine
 10
76.6594
 20
722.6739999999999
 30
0.0
 11
77.0173947123159
 21
723.4419181417759
 31
0.0
  0
LINE
  5
1A6
330
1E
100
AcDbEntity
  8
0
100
AcDbLine
 10
75.9979
 20
722.982
 30
0.0
 11
76.6594
 21
722.6739999999999
 31
0.0
  0
LINE
  5
1A7
330
1E
100
AcDbEntity
  8
0
100
AcDbLine
 10
75.9979
 20
722.982
 30
0.0
 11
76.20915569171879
 21
723.435154956325
 31
0.0
  0
LINE
  5
1A8
330
1E
100
AcDbEntity
  8
0
100
AcDbLine
 10
78.76999999999999
 20
722.241
 30
0.0
 11
79.91589999999999
 21
721.7069999999999
 31
0.0
  0
LINE
  5
1A9
330
1E
100
AcDbEntity
  8
0
100
AcDbLine
 10
78.76999999999999
 20
722.241
 30
0.0
 11
79.10769435453541
 21
722.96537276949
 31
0.0
  0
LINE
  5
1AA
330
1E
100
AcDbEntity
  8
0
100
AcDbLine
 10
78.76999999999999
 20
722.241
 30
0.0
 11
78.91236437412449
 21
722.546379330676
 31
0.0
  0
LINE
  5
1AB
330
1E
100
AcDbEntity
  8
0
100
AcDbLine
 10
79.91589999999999
 20
721.7069999999999
 30
0.0
 11
80.5774
 21
721.3989999999999
 31
0.0
  0
LINE
  5
1AC
330
1E
100
AcDbEntity
  8
0
100
AcDbLine
 10
79.91589999999999
 20
721.7069999999999
 30
0.0
 11
80.3381617659809
 21
722.613096084416
 31
0.0
  0
LINE
  5
1AD
330
1E
100
AcDbEntity
  8
0
100
AcDbLine
 10
76.2245
 20
723.428
 30
0.0
 11
76.64730156462809
 21
724.334932367097
 31
0.0
  0
LINE
  5
1AE
330
1E
100
AcDbEntity
  8
0
100
AcDbLine
 10
75.2045
 20
723.3519999999999
 30
0.0
 11
75.3054029935819
 21
723.3049700632169
 31
0.0
  0
LINE
  5
1AF
330
1E
100
AcDbEntity
  8
0
100
AcDbLine
 10
75.2045
 20
723.3519999999999
 30
0.0
 11
75.3054029935819
 21
723.3049700632169
 31
0.0
  0
LINE
  5
1B0
330
1E
100
AcDbEntity
  8
0
100
AcDbLine
 10
74.9013
 20
724.045
 30
0.0
 11
76.2245
 21
723.428
 31
0.0
  0
LINE
  5
1B1
330
1E
100
AcDbEntity
  8
0
100
AcDbLine
 10
74.9013
 20
724.045
 30
0.0
 11
75.32409147886379
 21
724.951803443961
 31
0.0
  0
LINE
  5
1B2
330
1E
100
AcDbEntity
  8
0
100
AcDbLine
 10
74.9013
 20
724.045
 30
0.0
 11
75.2116327777551
 21
724.7106019473199
 31
0.0
  0
LINE
  5
1B3
330
1E
100
AcDbEntity
  8
0
100
AcDbLine
 10
74.5429
 20
723.661
 30
0.0
 11
75.6887
 21
723.126
 31
0.0
  0
LINE
  5
1B4
330
1E
100
AcDbEntity
  8
0
100
AcDbLine
 10
74.5429
 20
723.661
 30
0.0
 11
74.7724486356293
 21
724.1533943166071
 31
0.0
  0
LINE
  5
1B5
330
1E
100
AcDbEntity
  8
0
100
AcDbLine
 10
74.5429
 20
723.661
 30
0.0
 11
75.2045
 21
723.3519999999999
 31
0.0
  0
LINE
  5
1B6
330
1E
100
AcDbEntity
  8
0
100
AcDbLine
 10
74.852
 20
723.5169999999999
 30
0.0
 11
75.9979
 21
722.982
 31
0.0
  0
LINE
  5
1B7
330
1E
100
AcDbEntity
  8
0
100
AcDbLine
 10
74.852
 20
723.5169999999999
 30
0.0
 11
75.06311378275509
 21
723.9695472309859
 31
0.0
  0
LINE
  5
1B8
330
1E
100
AcDbEntity
  8
0
100
AcDbLine
 10
74.852
 20
723.5169999999999
 30
0.0
 11
75.51349999999999
 21
723.208
 31
0.0
  0
LINE
  5
1B9
330
1E
100
AcDbEntity
  8
0
100
AcDbLine
 10
76.94899288261409
 20
723.2951924942959
 30
0.0
 11
78.91236437412449
 21
722.546379330676
 31
0.0
  0
LINE
  5
1BA
330
1E
100
AcDbEntity
  8
0
100
AcDbLine
 10
74.53990000000001
 20
724.2139999999999
 30
0.0
 11
74.91363679644258
 21
724.071459969183
 31
0.0
  0
LINE
  5
1BB
330
1E
100
AcDbEntity
  8
0
100
AcDbLine
 10
72.6798999999448
 20
724.529767673267
 30
0.0
 11
73.4911
 21
724.151
 31
0.0
  0
LINE
  5
1BC
330
1E
100
AcDbEntity
  8
0
100
AcDbLine
 10
72.8296
 20
724.46
 30
0.0
 11
73.4911
 21
724.151
 31
0.0
  0
LINE
  5
1BD
330
1E
100
AcDbEntity
  8
0
100
AcDbLine
 10
72.8296
 20
724.46
 30
0.0
 11
73.19453433381099
 21
725.2427114009219
 31
0.0
  0
LINE
  5
1BE
330
1E
100
AcDbEntity
  8
0
100
AcDbLine
 10
73.6834216742991
 20
724.563491654447
 30
0.0
 11
74.53990000000001
 21
724.2139999999999
 31
0.0
  0
LINE
  5
1BF
330
1E
100
AcDbEntity
  8
0
100
AcDbLine
 10
74.9625
 20
725.1199999999999
 30
0.0
 11
77.75832540630741
 21
723.8166147991109
 31
0.0
  0
LINE
  5
1C0
330
1E
100
AcDbEntity
  8
0
100
AcDbLine
 10
74.9625
 20
725.1199999999999
 30
0.0
 11
77.75832540630791
 21
723.8166147991109
 31
0.0
  0
LINE
  5
1C1
330
1E
100
AcDbEntity
  8
0
100
AcDbLine
 10
76.4178
 20
724.4419999999999
 30
0.0
 11
80.2547
 21
722.6519999999999
 31
0.0
  0
LINE
  5
1C2
330
1E
100
AcDbEntity
  8
0
100
AcDbLine
 10
80.5774
 20
721.3989999999999
 30
0.0
 11
80.9730283678914
 21
722.2469756359351
 31
0.0
  0
LINE
  5
1C3
330
1E
100
AcDbEntity
  8
0
100
AcDbLine
 10
81.0304
 20
50.177
 30
0.0
 11
131.0303999999999
 21
250.177
 31
0.0
  0
LINE
  5
1C4
330
1E
100
AcDbEntity
  8
0
100
AcDbLine
 10
81.0304
 20
50.177
 30
0.0
 11
281.0304
 21
50.177
 31
0.0
  0
LINE
  5
1C5
330
1E
100
AcDbEntity
  8
0
100
AcDbLine
 10
81.0304
 20
50.177
 30
0.0
 11
81.0304
 21
0.177000000000049
 31
0.0
  0
LINE
  5
1C6
330
1E
100
AcDbEntity
  8
0
100
AcDbLine
 10
81.0304
 20
50.177
 30
0.0
 11
131.0303999999999
 21
250.177
 31
0.0
  0
LINE
  5
1C7
330
1E
100
AcDbEntity
  8
0
100
AcDbLine
 10
81.0304
 20
50.177
 30
0.0
 11
281.0304
 21
50.177
 31
0.0
  0
LINE
  5
1C8
330
1E
100
AcDbEntity
  8
0
100
AcDbLine
 10
81.0304
 20
0.17700000000005
 30
0.0
 11
281.0304
 21
0.177000000000038
 31
0.0
  0
LINE
  5
1C9
330
1E
100
AcDbEntity
  8
0
100
AcDbLine
 10
81.0304
 20
0.17700000000005
 30
0.0
 11
281.0304
 21
0.177000000000038
 31
0.0
  0
LINE
  5
1CA
330
1E
100
AcDbEntity
  8
0
100
AcDbLine
 10
81.0304
 20
0.17700000000005
 30
0.0
 11
81.0304
 21
50.177
 31
0.0
  0
LINE
  5
1CB
330
1E
100
AcDbEntity
  8
0
100
AcDbLine
 10
80.78033010979291
 20
721.833953109705
 30
0.0
 11
82.3946389283073
 21
721.2182694763839
 31
0.0
  0
LINE
  5
1CC
330
1E
100
AcDbEntity
  8
0
100
AcDbLine
 10
80.2547
 20
722.6519999999999
 30
0.0
 11
83.56279999999999
 21
721.11
 31
0.0
  0
LINE
  5
1CD
330
1E
100
AcDbEntity
  8
0
100
AcDbLine
 10
74.12505332990559
 20
725.510703521967
 30
0.0
 11
75.17668874391941
 21
725.0205113496519
 31
0.0
  0
LINE
  5
1CE
330
1E
100
AcDbEntity
  8
0
100
AcDbLine
 10
77.30360000000001
 20
725.1319999999999
 30
0.0
 11
81.2068
 21
723.312
 31
0.0
  0
LINE
  5
1CF
330
1E
100
AcDbEntity
  8
0
100
AcDbLine
 10
81.2068
 20
723.312
 30
0.0
 11
84.5138
 21
721.7699999999999
 31
0.0
  0
LINE
  5
1D0
330
1E
100
AcDbEntity
  8
0
100
AcDbLine
 10
73.87156600026859
 20
725.628859969642
 30
0.0
 11
74.9625
 21
725.1199999999999
 31
0.0
  0
LINE
  5
1D1
330
1E
100
AcDbEntity
  8
0
100
AcDbLine
 10
73.8715660002688
 20
725.628859969642
 30
0.0
 11
74.9625
 21
725.1199999999999
 31
0.0
  0
LINE
  5
1D2
330
1E
100
AcDbEntity
  8
0
100
AcDbLine
 10
71.9855
 20
726.508
 30
0.0
 11
76.4178
 21
724.4419999999999
 31
0.0
  0
LINE
  5
1D3
330
1E
100
AcDbEntity
  8
0
100
AcDbLine
 10
72.80509999999999
 20
727.2289999999999
 30
0.0
 11
77.30360000000001
 21
725.1319999999999
 31
0.0
  0
LINE
  5
1D4
330
1E
100
AcDbEntity
  8
0
100
AcDbLine
 10
81.6798
 20
746.2619999999999
 30
0.0
 11
86.17879999999999
 21
744.1639999999999
 31
0.0
  0
LINE
  5
1D5
330
1E
100
AcDbEntity
  8
0
100
AcDbLine
 10
76.7185
 20
748.5759999999999
 30
0.0
 11
81.6798
 21
746.2619999999999
 31
0.0
  0
LINE
  5
1D6
330
1E
100
AcDbEntity
  8
0
100
AcDbLine
 10
85.71380000000001
 20
719.003
 30
0.0
 11
86.1048732690889
 21
719.8410801854111
 31
0.0
  0
LINE
  5
1D7
330
1E
100
AcDbEntity
  8
0
100
AcDbLine
 10
85.0528
 20
719.312
 30
0.0
 11
85.71380000000001
 21
719.003
 31
0.0
  0
LINE
  5
1D8
330
1E
100
AcDbEntity
  8
0
100
AcDbLine
 10
85.0528
 20
719.312
 30
0.0
 11
85.42225771996671
 21
720.104257264591
 31
0.0
  0
LINE
  5
1D9
330
1E
100
AcDbEntity
  8
0
100
AcDbLine
 10
84.5737999999053
 20
719.535198952924
 30
0.0
 11
85.71380000000001
 21
719.003
 31
0.0
  0
LINE
  5
1DA
330
1E
100
AcDbEntity
  8
0
100
AcDbLine
 10
87.1348
 20
719.444
 30
0.0
 11
87.5318
 21
719.2589999999999
 31
0.0
  0
LINE
  5
1DB
330
1E
100
AcDbEntity
  8
0
100
AcDbLine
 10
87.9288
 20
719.0739999999999
 30
0.0
 11
89.05280000000001
 21
718.5499999999999
 31
0.0
  0
LINE
  5
1DC
330
1E
100
AcDbEntity
  8
0
100
AcDbLine
 10
89.05280000000001
 20
718.5499999999999
 30
0.0
 11
89.51680000000001
 21
718.3339999999999
 31
0.0
  0
LINE
  5
1DD
330
1E
100
AcDbEntity
  8
0
100
AcDbLine
 10
89.51680000000001
 20
718.3339999999999
 30
0.0
 11
90.60080000000001
 21
718.931
 31
0.0
  0
LINE
  5
1DE
330
1E
100
AcDbEntity
  8
0
100
AcDbLine
 10
82.6928000000862
 20
720.411853403101
 30
0.0
 11
82.99879999999999
 21
720.2689999999998
 31
0.0
  0
LINE
  5
1DF
330
1E
100
AcDbEntity
  8
0
100
AcDbLine
 10
82.6928000000862
 20
720.411853403101
 30
0.0
 11
82.99879999999999
 21
720.2689999999998
 31
0.0
  0
LINE
  5
1E0
330
1E
100
AcDbEntity
  8
0
100
AcDbLine
 10
82.99879999999999
 20
720.2689999999998
 30
0.0
 11
83.6608
 21
719.9609999999999
 31
0.0
  0
LINE
  5
1E1
330
1E
100
AcDbEntity
  8
0
100
AcDbLine
 10
81.8528
 20
720.8039999999999
 30
0.0
 11
82.1389852280434
 21
720.6703969485139
 31
0.0
  0
LINE
  5
1E2
330
1E
100
AcDbEntity
  8
0
100
AcDbLine
 10
81.8528
 20
720.8039999999999
 30
0.0
 11
82.09888176279269
 21
721.3310687401659
 31
0.0
  0
LINE
  5
1E3
330
1E
100
AcDbEntity
  8
0
100
AcDbLine
 10
82.13880000000001
 20
720.6699999999999
 30
0.0
 11
83.2848
 21
720.1360000000001
 31
0.0
  0
LINE
  5
1E4
330
1E
100
AcDbEntity
  8
0
100
AcDbLine
 10
82.13880000000001
 20
720.6699999999999
 30
0.0
 11
82.50123283749429
 21
721.446702995717
 31
0.0
  0
LINE
  5
1E5
330
1E
100
AcDbEntity
  8
0
100
AcDbLine
 10
83.8288
 20
719.8819999999999
 30
0.0
 11
84.96979999977099
 21
719.3503298430389
 31
0.0
  0
LINE
  5
1E6
330
1E
100
AcDbEntity
  8
0
100
AcDbLine
 10
83.90680000000001
 20
719.8459999999999
 30
0.0
 11
85.0528
 21
719.312
 31
0.0
  0
LINE
  5
1E7
330
1E
100
AcDbEntity
  8
0
100
AcDbLine
 10
83.94679999999999
 20
719.8279999999999
 30
0.0
 11
84.36927738050499
 21
720.7339514952369
 31
0.0
  0
LINE
  5
1E8
330
1E
100
AcDbEntity
  8
0
100
AcDbLine
 10
83.2848
 20
720.1360000000001
 30
0.0
 11
83.94679999999999
 21
719.8279999999999
 31
0.0
  0
LINE
  5
1E9
330
1E
100
AcDbEntity
  8
0
100
AcDbLine
 10
83.2848
 20
720.1360000000001
 30
0.0
 11
83.688572469289
 21
721.002318919315
 31
0.0
  0
LINE
  5
1EA
330
1E
100
AcDbEntity
  8
0
100
AcDbLine
 10
83.56279999999999
 20
721.11
 30
0.0
 11
86.00979999999999
 21
719.9689999999999
 31
0.0
  0
LINE
  5
1EB
330
1E
100
AcDbEntity
  8
0
100
AcDbLine
 10
86.08987476569259
 20
719.8089380026011
 30
0.0
 11
87.5318
 21
719.2589999999999
 31
0.0
  0
LINE
  5
1EC
330
1E
100
AcDbEntity
  8
0
100
AcDbLine
 10
86.13690294626209
 20
719.909720616517
 30
0.0
 11
87.9288
 21
719.0739999999999
 31
0.0
  0
LINE
  5
1ED
330
1E
100
AcDbEntity
  8
0
100
AcDbLine
 10
86.00979999999999
 20
719.9689999999999
 30
0.0
 11
87.9288
 21
719.0739999999999
 31
0.0
  0
LINE
  5
1EE
330
1E
100
AcDbEntity
  8
0
100
AcDbLine
 10
86.00979999999999
 20
719.9689999999999
 30
0.0
 11
87.1348
 21
719.444
 31
0.0
  0
LINE
  5
1EF
330
1E
100
AcDbEntity
  8
0
100
AcDbLine
 10
84.5138
 20
721.7699999999999
 30
0.0
 11
87.09380000000001
 21
720.566
 31
0.0
  0
LINE
  5
1F0
330
1E
100
AcDbEntity
  8
0
100
AcDbLine
 10
87.09380000000001
 20
720.566
 30
0.0
 11
88.94679999999999
 21
719.7029999999999
 31
0.0
  0
LINE
  5
1F1
330
1E
100
AcDbEntity
  8
0
100
AcDbLine
 10
88.94679999999999
 20
719.7029999999999
 30
0.0
 11
90.1378
 21
719.1469999999999
 31
0.0
  0
LINE
  5
1F2
330
1E
100
AcDbEntity
  8
0
100
AcDbLine
 10
90.79881240822679
 20
719.3841075660909
 30
0.0
 11
104.2107270189509
 21
703.2360878695889
 31
0.0
  0
LINE
  5
1F3
330
1E
100
AcDbEntity
  8
0
100
AcDbLine
 10
98.8625322461792
 20
736.648808432848
 30
0.0
 11
99.47580000000002
 21
737.9639999999999
 31
0.0
  0
LINE
  5
1F4
330
1E
100
AcDbEntity
  8
0
100
AcDbLine
 10
98.8625322461792
 20
736.648808432848
 30
0.0
 11
112.0588
 21
720.7999999999999
 31
0.0
  0
LINE
  5
1F5
330
1E
100
AcDbEntity
  8
0
100
AcDbLine
 10
90.60080000000001
 20
718.931
 30
0.0
 11
90.81060250826141
 21
719.380934776309
 31
0.0
  0
LINE
  5
1F6
330
1E
100
AcDbEntity
  8
0
100
AcDbLine
 10
90.1378
 20
719.1469999999999
 30
0.0
 11
90.60080000000001
 21
718.931
 31
0.0
  0
LINE
  5
1F7
330
1E
100
AcDbEntity
  8
0
100
AcDbLine
 10
97.8218
 20
738.7360000000001
 30
0.0
 11
99.01279999999999
 21
738.1799999999999
 31
0.0
  0
LINE
  5
1F8
330
1E
100
AcDbEntity
  8
0
100
AcDbLine
 10
99.01279999999999
 20
738.1799999999999
 30
0.0
 11
99.47580000000002
 21
737.9639999999999
 31
0.0
  0
LINE
  5
1F9
330
1E
100
AcDbEntity
  8
0
100
AcDbLine
 10
102.6727999999999
 20
699.7939999999999
 30
0.0
 11
102.8697999999999
 21
700.2349999999999
 31
0.0
  0
LINE
  5
1FA
330
1E
100
AcDbEntity
  8
0
100
AcDbLine
 10
102.6727999999999
 20
699.7939999999999
 30
0.0
 11
158.8131132370619
 21
632.8973472534529
 31
0.0
  0
LINE
  5
1FB
330
1E
100
AcDbEntity
  8
0
100
AcDbLine
 10
102.8697999999999
 20
700.2349999999999
 30
0.0
 11
103.4218
 21
701.471
 31
0.0
  0
LINE
  5
1FC
330
1E
100
AcDbEntity
  8
0
100
AcDbLine
 10
103.4218
 20
701.471
 30
0.0
 11
104.2898
 21
703.413
 31
0.0
  0
LINE
  5
1FD
330
1E
100
AcDbEntity
  8
0
100
AcDbLine
 10
103.4218
 20
701.471
 30
0.0
 11
104.2107270189509
 21
703.2360878695889
 31
0.0
  0
LINE
  5
1FE
330
1E
100
AcDbEntity
  8
0
100
AcDbLine
 10
104.2898
 20
703.413
 30
0.0
 11
105.4327999999999
 21
705.9719999999999
 31
0.0
  0
LINE
  5
1FF
330
1E
100
AcDbEntity
  8
0
100
AcDbLine
 10
106.0997383886399
 20
707.4630142180409
 30
0.0
 11
106.7358
 21
708.8849999999999
 31
0.0
  0
LINE
  5
200
330
1E
100
AcDbEntity
  8
0
100
AcDbLine
 10
106.0997383886399
 20
707.4630142180409
 30
0.0
 11
106.7358
 21
708.8849999999999
 31
0.0
  0
LINE
  5
201
330
1E
100
AcDbEntity
  8
0
100
AcDbLine
 10
106.0997383886399
 20
707.4630142180409
 30
0.0
 11
106.1827999999999
 21
707.6489999999998
 31
0.0
  0
LINE
  5
202
330
1E
100
AcDbEntity
  8
0
100
AcDbLine
 10
105.4327999999999
 20
705.9719999999999
 30
0.0
 11
106.7358
 21
708.8849999999999
 31
0.0
  0
LINE
  5
203
330
1E
100
AcDbEntity
  8
0
100
AcDbLine
 10
106.0997383886399
 20
707.4630142180409
 30
0.0
 11
106.1827999999999
 21
707.6489999999998
 31
0.0
  0
LINE
  5
204
330
1E
100
AcDbEntity
  8
0
100
AcDbLine
 10
106.7358
 20
708.8849999999999
 30
0.0
 11
108.1158
 21
711.9739999999999
 31
0.0
  0
LINE
  5
205
330
1E
100
AcDbEntity
  8
0
100
AcDbLine
 10
106.1827999999999
 20
707.6489999999998
 30
0.0
 11
107.1288
 21
709.7669999999999
 31
0.0
  0
LINE
  5
206
330
1E
100
AcDbEntity
  8
0
100
AcDbLine
 10
107.1288
 20
709.7669999999999
 30
0.0
 11
108.1158
 21
711.9739999999999
 31
0.0
  0
LINE
  5
207
330
1E
100
AcDbEntity
  8
0
100
AcDbLine
 10
108.1158
 20
711.9739999999999
 30
0.0
 11
109.1397999999999
 21
714.268
 31
0.0
  0
LINE
  5
208
330
1E
100
AcDbEntity
  8
0
100
AcDbLine
 10
108.1158
 20
711.9739999999999
 30
0.0
 11
109.5347999999999
 21
715.151
 31
0.0
  0
LINE
  5
209
330
1E
100
AcDbEntity
  8
0
100
AcDbLine
 10
109.5347999999999
 20
715.151
 30
0.0
 11
110.8368
 21
718.0629999999999
 31
0.0
  0
LINE
  5
20A
330
1E
100
AcDbEntity
  8
0
100
AcDbLine
 10
109.5347999999999
 20
715.151
 30
0.0
 11
110.6826857143309
 21
717.7183142858149
 31
0.0
  0
LINE
  5
20B
330
1E
100
AcDbEntity
  8
0
100
AcDbLine
 10
109.5347999999999
 20
715.151
 30
0.0
 11
110.6826857143309
 21
717.7183142858149
 31
0.0
  0
LINE
  5
20C
330
1E
100
AcDbEntity
  8
0
100
AcDbLine
 10
109.1397999999999
 20
714.268
 30
0.0
 11
110.0867999999999
 21
716.3869999999999
 31
0.0
  0
LINE
  5
20D
330
1E
100
AcDbEntity
  8
0
100
AcDbLine
 10
110.8368
 20
718.0629999999999
 30
0.0
 11
111.9798
 21
720.623
 31
0.0
  0
LINE
  5
20E
330
1E
100
AcDbEntity
  8
0
100
AcDbLine
 10
111.2567193548259
 20
719.0035017920849
 30
0.0
 11
111.56372420299
 21
719.691106701359
 31
0.0
  0
LINE
  5
20F
330
1E
100
AcDbEntity
  8
0
100
AcDbLine
 10
111.2567193548249
 20
719.0035017920849
 30
0.0
 11
111.56372420299
 21
719.691106701359
 31
0.0
  0
LINE
  5
210
330
1E
100
AcDbEntity
  8
0
100
AcDbLine
 10
111.2567193548249
 20
719.0035017920849
 30
0.0
 11
111.5067999999999
 21
719.564
 31
0.0
  0
LINE
  5
211
330
1E
100
AcDbEntity
  8
0
100
AcDbLine
 10
110.0867999999999
 20
716.3869999999999
 30
0.0
 11
110.6826857143309
 21
717.7183142858149
 31
0.0
  0
LINE
  5
212
330
1E
100
AcDbEntity
  8
0
100
AcDbLine
 10
110.0867999999999
 20
716.3869999999999
 30
0.0
 11
110.6826857143309
 21
717.7183142858149
 31
0.0
  0
LINE
  5
213
330
1E
100
AcDbEntity
  8
0
100
AcDbLine
 10
111.2567193548259
 20
719.0035017920849
 30
0.0
 11
111.5067999999999
 21
719.564
 31
0.0
  0
LINE
  5
214
330
1E
100
AcDbEntity
  8
0
100
AcDbLine
 10
111.9798
 20
720.623
 30
0.0
 11
112.8487999999999
 21
722.5639999999999
 31
0.0
  0
LINE
  5
215
330
1E
100
AcDbEntity
  8
0
100
AcDbLine
 10
111.5067999999999
 20
719.564
 30
0.0
 11
111.56372420299
 21
719.691106701359
 31
0.0
  0
LINE
  5
216
330
1E
100
AcDbEntity
  8
0
100
AcDbLine
 10
131.0303999999999
 20
550.177
 30
0.0
 11
231.0303999999999
 21
550.177
 31
0.0
  0
LINE
  5
217
330
1E
100
AcDbEntity
  8
0
100
AcDbLine
 10
131.0303999999999
 20
250.177
 30
0.0
 11
131.0303999999999
 21
450.1769999999999
 31
0.0
  0
LINE
  5
218
330
1E
100
AcDbEntity
  8
0
100
AcDbLine
 10
131.0303999999999
 20
250.177
 30
0.0
 11
131.0303999999999
 21
550.177
 31
0.0
  0
LINE
  5
219
330
1E
100
AcDbEntity
  8
0
100
AcDbLine
 10
131.0303999999999
 20
250.177
 30
0.0
 11
231.0303999999999
 21
250.177
 31
0.0
  0
LINE
  5
21A
330
1E
100
AcDbEntity
  8
0
100
AcDbLine
 10
160.5303999999999
 20
606.6769999999999
 30
0.0
 11
160.5303999999999
 21
600.177
 31
0.0
  0
LINE
  5
21B
330
1E
100
AcDbEntity
  8
0
100
AcDbLine
 10
160.5303999999999
 20
606.6769999999999
 30
0.0
 11
161.7604
 21
606.6769999999999
 31
0.0
  0
LINE
  5
21C
330
1E
100
AcDbEntity
  8
0
100
AcDbLine
 10
160.5303999999999
 20
606.6769999999999
 30
0.0
 11
161.0304
 21
607.177
 31
0.0
  0
LINE
  5
21D
330
1E
100
AcDbEntity
  8
0
100
AcDbLine
 10
160.5303999999999
 20
600.177
 30
0.0
 11
161.7604
 21
600.177
 31
0.0
  0
LINE
  5
21E
330
1E
100
AcDbEntity
  8
0
100
AcDbLine
 10
161.7604
 20
606.6769999999999
 30
0.0
 11
165.1904
 21
606.6769999999999
 31
0.0
  0
LINE
  5
21F
330
1E
100
AcDbEntity
  8
0
100
AcDbLine
 10
161.7604
 20
600.177
 30
0.0
 11
165.1904
 21
600.177
 31
0.0
  0
LINE
  5
220
330
1E
100
AcDbEntity
  8
0
100
AcDbLine
 10
161.0304
 20
607.177
 30
0.0
 11
162.2904
 21
607.177
 31
0.0
  0
LINE
  5
221
330
1E
100
AcDbEntity
  8
0
100
AcDbLine
 10
168.0303999999999
 20
565.1769999999999
 30
0.0
 11
168.0303999999999
 21
560.177
 31
0.0
  0
LINE
  5
222
330
1E
100
AcDbEntity
  8
0
100
AcDbLine
 10
168.0303999999999
 20
565.1769999999999
 30
0.0
 11
169.0383999999999
 21
565.1769999999999
 31
0.0
  0
LINE
  5
223
330
1E
100
AcDbEntity
  8
0
100
AcDbLine
 10
168.0303999999999
 20
560.177
 30
0.0
 11
169.0383999999999
 21
560.177
 31
0.0
  0
LINE
  5
224
330
1E
100
AcDbEntity
  8
0
100
AcDbLine
 10
168.0303999999999
 20
560.177
 30
0.0
 11
168.0303999999999
 21
565.1769999999999
 31
0.0
  0
LINE
  5
225
330
1E
100
AcDbEntity
  8
0
100
AcDbLine
 10
167.0303999999999
 20
600.177
 30
0.0
 11
167.0303999999999
 21
580.177
 31
0.0
  0
LINE
  5
226
330
1E
100
AcDbEntity
  8
0
100
AcDbLine
 10
167.0303999999999
 20
600.177
 30
0.0
 11
168.0743999999999
 21
600.177
 31
0.0
  0
LINE
  5
227
330
1E
100
AcDbEntity
  8
0
100
AcDbLine
 10
168.0743999999999
 20
600.177
 30
0.0
 11
170.8583999999999
 21
600.177
 31
0.0
  0
LINE
  5
228
330
1E
100
AcDbEntity
  8
0
100
AcDbLine
 10
167.0303999999999
 20
580.177
 30
0.0
 11
168.0743999999999
 21
580.177
 31
0.0
  0
LINE
  5
229
330
1E
100
AcDbEntity
  8
0
100
AcDbLine
 10
167.0303999999999
 20
580.177
 30
0.0
 11
167.0303999999999
 21
600.177
 31
0.0
  0
LINE
  5
22A
330
1E
100
AcDbEntity
  8
0
100
AcDbLine
 10
169.0383999999999
 20
565.1769999999999
 30
0.0
 11
171.7264
 21
565.1769999999999
 31
0.0
  0
LINE
  5
22B
330
1E
100
AcDbEntity
  8
0
100
AcDbLine
 10
169.0383999999999
 20
560.177
 30
0.0
 11
171.0303999999999
 21
560.177
 31
0.0
  0
LINE
  5
22C
330
1E
100
AcDbEntity
  8
0
100
AcDbLine
 10
169.0383999999999
 20
560.177
 30
0.0
 11
171.7264
 21
560.177
 31
0.0
  0
LINE
  5
22D
330
1E
100
AcDbEntity
  8
0
100
AcDbLine
 10
168.0743999999999
 20
580.177
 30
0.0
 11
170.8583999999999
 21
580.177
 31
0.0
  0
LINE
  5
22E
330
1E
100
AcDbEntity
  8
0
100
AcDbLine
 10
165.1904
 20
606.6769999999999
 30
0.0
 11
170.8804
 21
606.6769999999999
 31
0.0
  0
LINE
  5
22F
330
1E
100
AcDbEntity
  8
0
100
AcDbLine
 10
165.1904
 20
600.177
 30
0.0
 11
170.8804
 21
600.177
 31
0.0
  0
LINE
  5
230
330
1E
100
AcDbEntity
  8
0
100
AcDbLine
 10
165.1904
 20
600.177
 30
0.0
 11
167.0303999999999
 21
600.177
 31
0.0
  0
LINE
  5
231
330
1E
100
AcDbEntity
  8
0
100
AcDbLine
 10
162.2904
 20
607.177
 30
0.0
 11
165.6503999999999
 21
607.177
 31
0.0
  0
LINE
  5
232
330
1E
100
AcDbEntity
  8
0
100
AcDbLine
 10
165.6503999999999
 20
607.177
 30
0.0
 11
171.2504
 21
607.177
 31
0.0
  0
LINE
  5
233
330
1E
100
AcDbEntity
  8
0
100
AcDbLine
 10
170.8583999999999
 20
600.177
 30
0.0
 11
175.4984
 21
600.177
 31
0.0
  0
LINE
  5
234
330
1E
100
AcDbEntity
  8
0
100
AcDbLine
 10
170.8583999999999
 20
580.177
 30
0.0
 11
171.0303999999999
 21
580.177
 31
0.0
  0
LINE
  5
235
330
1E
100
AcDbEntity
  8
0
100
AcDbLine
 10
170.8583999999999
 20
580.177
 30
0.0
 11
175.4984
 21
580.177
 31
0.0
  0
LINE
  5
236
330
1E
100
AcDbEntity
  8
0
100
AcDbLine
 10
170.8804
 20
606.6769999999999
 30
0.0
 11
178.1904
 21
606.6769999999999
 31
0.0
  0
LINE
  5
237
330
1E
100
AcDbEntity
  8
0
100
AcDbLine
 10
171.0303999999999
 20
560.177
 30
0.0
 11
171.0303999999999
 21
550.177
 31
0.0
  0
LINE
  5
238
330
1E
100
AcDbEntity
  8
0
100
AcDbLine
 10
171.0303999999999
 20
580.177
 30
0.0
 11
171.0303999999999
 21
565.1769999999999
 31
0.0
  0
LINE
  5
239
330
1E
100
AcDbEntity
  8
0
100
AcDbLine
 10
171.0303999999999
 20
580.177
 30
0.0
 11
171.9303999999999
 21
580.177
 31
0.0
  0
LINE
  5
23A
330
1E
100
AcDbEntity
  8
0
100
AcDbLine
 10
171.0303999999999
 20
565.1769999999999
 30
0.0
 11
171.0303999999999
 21
580.177
 31
0.0
  0
LINE
  5
23B
330
1E
100
AcDbEntity
  8
0
100
AcDbLine
 10
171.7264
 20
565.1769999999999
 30
0.0
 11
176.2064
 21
565.1769999999999
 31
0.0
  0
LINE
  5
23C
330
1E
100
AcDbEntity
  8
0
100
AcDbLine
 10
171.7264
 20
560.177
 30
0.0
 11
176.2064
 21
560.177
 31
0.0
  0
LINE
  5
23D
330
1E
100
AcDbEntity
  8
0
100
AcDbLine
 10
176.2064
 20
565.1769999999999
 30
0.0
 11
182.1424
 21
565.1769999999999
 31
0.0
  0
LINE
  5
23E
330
1E
100
AcDbEntity
  8
0
100
AcDbLine
 10
176.2064
 20
560.177
 30
0.0
 11
182.1424
 21
560.177
 31
0.0
  0
LINE
  5
23F
330
1E
100
AcDbEntity
  8
0
100
AcDbLine
 10
171.9303999999999
 20
580.177
 30
0.0
 11
174.3304
 21
580.177
 31
0.0
  0
LINE
  5
240
330
1E
100
AcDbEntity
  8
0
100
AcDbLine
 10
174.3304
 20
580.177
 30
0.0
 11
178.3304
 21
580.177
 31
0.0
  0
LINE
  5
241
330
1E
100
AcDbEntity
  8
0
100
AcDbLine
 10
171.0303999999999
 20
550.177
 30
0.0
 11
171.0303999999999
 21
560.177
 31
0.0
  0
LINE
  5
242
330
1E
100
AcDbEntity
  8
0
100
AcDbLine
 10
175.4984
 20
600.177
 30
0.0
 11
181.6464
 21
600.177
 31
0.0
  0
LINE
  5
243
330
1E
100
AcDbEntity
  8
0
100
AcDbLine
 10
175.4984
 20
580.177
 30
0.0
 11
181.6464
 21
580.177
 31
0.0
  0
LINE
  5
244
330
1E
100
AcDbEntity
  8
0
100
AcDbLine
 10
170.8804
 20
600.177
 30
0.0
 11
178.1904
 21
600.177
 31
0.0
  0
LINE
  5
245
330
1E
100
AcDbEntity
  8
0
100
AcDbLine
 10
178.1904
 20
606.6769999999999
 30
0.0
 11
186.8804
 21
606.6769999999999
 31
0.0
  0
LINE
  5
246
330
1E
100
AcDbEntity
  8
0
100
AcDbLine
 10
178.3304
 20
580.177
 30
0.0
 11
183.6304
 21
580.177
 31
0.0
  0
LINE
  5
247
330
1E
100
AcDbEntity
  8
0
100
AcDbLine
 10
178.1904
 20
600.177
 30
0.0
 11
186.8804
 21
600.177
 31
0.0
  0
LINE
  5
248
330
1E
100
AcDbEntity
  8
0
100
AcDbLine
 10
171.2504
 20
607.177
 30
0.0
 11
178.6704
 21
607.177
 31
0.0
  0
LINE
  5
249
330
1E
100
AcDbEntity
  8
0
100
AcDbLine
 10
182.1424
 20
565.1769999999999
 30
0.0
 11
187.6400999999999
 21
565.1769999999999
 31
0.0
  0
LINE
  5
24A
330
1E
100
AcDbEntity
  8
0
100
AcDbLine
 10
182.1424
 20
560.177
 30
0.0
 11
187.4490999999999
 21
560.177
 31
0.0
  0
LINE
  5
24B
330
1E
100
AcDbEntity
  8
0
100
AcDbLine
 10
183.6304
 20
580.177
 30
0.0
 11
189.6304
 21
580.177
 31
0.0
  0
LINE
  5
24C
330
1E
100
AcDbEntity
  8
0
100
AcDbLine
 10
181.6464
 20
600.177
 30
0.0
 11
188.6064
 21
600.177
 31
0.0
  0
LINE
  5
24D
330
1E
100
AcDbEntity
  8
0
100
AcDbLine
 10
181.6464
 20
580.177
 30
0.0
 11
188.6064
 21
580.177
 31
0.0
  0
LINE
  5
24E
330
1E
100
AcDbEntity
  8
0
100
AcDbLine
 10
178.6704
 20
607.177
 30
0.0
 11
187.0704
 21
607.177
 31
0.0
  0
LINE
  5
24F
330
1E
100
AcDbEntity
  8
0
100
AcDbLine
 10
171.7633999999999
 20
615.0449999999999
 30
0.0
 11
171.9884954869059
 21
615.2337743467681
 31
0.0
  0
LINE
  5
250
330
1E
100
AcDbEntity
  8
0
100
AcDbLine
 10
171.3917999999999
 20
614.7330000000001
 30
0.0
 11
171.7633999999999
 21
615.0449999999999
 31
0.0
  0
LINE
  5
251
330
1E
100
AcDbEntity
  8
0
100
AcDbLine
 10
174.280731845121
 20
617.157323590756
 30
0.0
 11
174.5185999999999
 21
617.3569999999999
 31
0.0
  0
LINE
  5
252
330
1E
100
AcDbEntity
  8
0
100
AcDbLine
 10
174.5185999999999
 20
617.3569999999999
 30
0.0
 11
176.7268999999999
 21
619.21
 31
0.0
  0
LINE
  5
253
330
1E
100
AcDbEntity
  8
0
100
AcDbLine
 10
174.280731845122
 20
617.1573235907569
 30
0.0
 11
176.4972999999999
 21
619.0169999999999
 31
0.0
  0
LINE
  5
254
330
1E
100
AcDbEntity
  8
0
100
AcDbLine
 10
174.280731845121
 20
617.157323590756
 30
0.0
 11
176.4972999999999
 21
619.0169999999999
 31
0.0
  0
LINE
  5
255
330
1E
100
AcDbEntity
  8
0
100
AcDbLine
 10
176.7268999999999
 20
619.21
 30
0.0
 11
179.2400280907049
 21
621.317914545284
 31
0.0
  0
LINE
  5
256
330
1E
100
AcDbEntity
  8
0
100
AcDbLine
 10
179.3053999999999
 20
621.067
 30
0.0
 11
182.2670999999999
 21
623.552
 31
0.0
  0
LINE
  5
257
330
1E
100
AcDbEntity
  8
0
100
AcDbLine
 10
179.2162999999999
 20
621.2979999999999
 30
0.0
 11
182.1163999999999
 21
623.7319999999999
 31
0.0
  0
LINE
  5
258
330
1E
100
AcDbEntity
  8
0
100
AcDbLine
 10
176.4972999999999
 20
619.0169999999999
 30
0.0
 11
179.2162999999999
 21
621.2979999999999
 31
0.0
  0
LINE
  5
259
330
1E
100
AcDbEntity
  8
0
100
AcDbLine
 10
176.4926
 20
618.707
 30
0.0
 11
179.3053999999999
 21
621.067
 31
0.0
  0
LINE
  5
25A
330
1E
100
AcDbEntity
  8
0
100
AcDbLine
 10
174.1265
 20
616.722
 30
0.0
 11
176.4926
 21
618.707
 31
0.0
  0
LINE
  5
25B
330
1E
100
AcDbEntity
  8
0
100
AcDbLine
 10
174.0955999999999
 20
617.002
 30
0.0
 11
176.4972999999999
 21
619.0169999999999
 31
0.0
  0
LINE
  5
25C
330
1E
100
AcDbEntity
  8
0
100
AcDbLine
 10
172.2847999999999
 20
615.1759999999999
 30
0.0
 11
174.1265
 21
616.722
 31
0.0
  0
LINE
  5
25D
330
1E
100
AcDbEntity
  8
0
100
AcDbLine
 10
172.2829999999999
 20
615.481
 30
0.0
 11
174.0955999999999
 21
617.002
 31
0.0
  0
LINE
  5
25E
330
1E
100
AcDbEntity
  8
0
100
AcDbLine
 10
171.1954
 20
614.5679999999999
 30
0.0
 11
172.2829999999999
 21
615.481
 31
0.0
  0
LINE
  5
25F
330
1E
100
AcDbEntity
  8
0
100
AcDbLine
 10
171.1954
 20
614.5679999999999
 30
0.0
 11
171.9884954869059
 21
615.2337743467681
 31
0.0
  0
LINE
  5
260
330
1E
100
AcDbEntity
  8
0
100
AcDbLine
 10
171.1954
 20
614.5679999999999
 30
0.0
 11
171.9884954869059
 21
615.2337743467681
 31
0.0
  0
LINE
  5
261
330
1E
100
AcDbEntity
  8
0
100
AcDbLine
 10
171.1745
 20
614.245
 30
0.0
 11
172.2847999999999
 21
615.1759999999999
 31
0.0
  0
LINE
  5
262
330
1E
100
AcDbEntity
  8
0
100
AcDbLine
 10
170.7875999999999
 20
614.226
 30
0.0
 11
171.1954
 21
614.5679999999999
 31
0.0
  0
LINE
  5
263
330
1E
100
AcDbEntity
  8
0
100
AcDbLine
 10
170.7764
 20
613.9109999999999
 30
0.0
 11
171.1745
 21
614.245
 31
0.0
  0
LINE
  5
264
330
1E
100
AcDbEntity
  8
0
100
AcDbLine
 10
170.7764
 20
613.9109999999999
 30
0.0
 11
170.7875999999999
 21
614.226
 31
0.0
  0
LINE
  5
265
330
1E
100
AcDbEntity
  8
0
100
AcDbLine
 10
170.7764
 20
613.9109999999999
 30
0.0
 11
176.4264999999999
 21
607.177
 31
0.0
  0
LINE
  5
266
330
1E
100
AcDbEntity
  8
0
100
AcDbLine
 10
184.8806999999999
 20
626.0509999999999
 30
0.0
 11
185.338763153134
 21
626.435394760915
 31
0.0
  0
LINE
  5
267
330
1E
100
AcDbEntity
  8
0
100
AcDbLine
 10
182.1164000000059
 20
623.7320000000051
 30
0.0
 11
185.0166
 21
626.1649999999999
 31
0.0
  0
LINE
  5
268
330
1E
100
AcDbEntity
  8
0
100
AcDbLine
 10
182.1163999999999
 20
623.7319999999999
 30
0.0
 11
185.0166
 21
626.1649999999999
 31
0.0
  0
LINE
  5
269
330
1E
100
AcDbEntity
  8
0
100
AcDbLine
 10
182.1163999999999
 20
623.7319999999999
 30
0.0
 11
182.2670999999999
 21
623.552
 31
0.0
  0
LINE
  5
26A
330
1E
100
AcDbEntity
  8
0
100
AcDbLine
 10
182.1163999999999
 20
623.7319999999999
 30
0.0
 11
184.8806999999999
 21
626.0509999999999
 31
0.0
  0
LINE
  5
26B
330
1E
100
AcDbEntity
  8
0
100
AcDbLine
 10
185.0166
 20
626.1649999999999
 30
0.0
 11
187.7355
 21
628.4469999999999
 31
0.0
  0
LINE
  5
26C
330
1E
100
AcDbEntity
  8
0
100
AcDbLine
 10
185.0166
 20
626.1649999999999
 30
0.0
 11
185.338763153134
 21
626.435394760915
 31
0.0
  0
LINE
  5
26D
330
1E
100
AcDbEntity
  8
0
100
AcDbLine
 10
185.0166
 20
626.1649999999999
 30
0.0
 11
185.338763153134
 21
626.435394760915
 31
0.0
  0
LINE
  5
26E
330
1E
100
AcDbEntity
  8
0
100
AcDbLine
 10
182.2670999999999
 20
623.552
 30
0.0
 11
185.2288
 21
626.0369999999999
 31
0.0
  0
LINE
  5
270
330
1E
100
AcDbEntity
  8
0
100
AcDbLine
 10
186.8804
 20
606.6769999999999
 30
0.0
 11
196.0303999999999
 21
606.6769999999999
 31
0.0
  0
LINE
  5
271
330
1E
100
AcDbEntity
  8
0
100
AcDbLine
 10
189.0385
 20
560.177
 30
0.0
 11
190.9555
 21
560.177
 31
0.0
  0
LINE
  5
272
330
1E
100
AcDbEntity
  8
0
100
AcDbLine
 10
187.6400999999999
 20
565.1769999999999
 30
0.0
 11
189.0851999999999
 21
565.1769999999999
 31
0.0
  0
LINE
  5
273
330
1E
100
AcDbEntity
  8
0
100
AcDbLine
 10
189.0851999999999
 20
565.1769999999999
 30
0.0
 11
190.9555
 21
565.1769999999999
 31
0.0
  0
LINE
  5
274
330
1E
100
AcDbEntity
  8
0
100
AcDbLine
 10
187.4490999999999
 20
560.177
 30
0.0
 11
187.6400999999999
 21
565.1769999999999
 31
0.0
  0
LINE
  5
275
330
1E
100
AcDbEntity
  8
0
100
AcDbLine
 10
187.4490999999999
 20
560.177
 30
0.0
 11
189.0385
 21
560.177
 31
0.0
  0
LINE
  5
276
330
1E
100
AcDbEntity
  8
0
100
AcDbLine
 10
189.6304
 20
580.177
 30
0.0
 11
193.0303999999999
 21
580.177
 31
0.0
  0
LINE
  5
277
330
1E
100
AcDbEntity
  8
0
100
AcDbLine
 10
188.6064
 20
600.177
 30
0.0
 11
196.0303999999999
 21
600.177
 31
0.0
  0
LINE
  5
278
330
1E
100
AcDbEntity
  8
0
100
AcDbLine
 10
188.6064
 20
580.177
 30
0.0
 11
193.0303999999999
 21
580.177
 31
0.0
  0
LINE
  5
279
330
1E
100
AcDbEntity
  8
0
100
AcDbLine
 10
186.8804
 20
600.177
 30
0.0
 11
196.0303999999999
 21
600.177
 31
0.0
  0
LINE
  5
27A
330
1E
100
AcDbEntity
  8
0
100
AcDbLine
 10
187.0704
 20
607.177
 30
0.0
 11
196.0303999999999
 21
607.177
 31
0.0
  0
LINE
  5
27C
330
1E
100
AcDbEntity
  8
0
100
AcDbLine
 10
185.2288
 20
626.0369999999999
 30
0.0
 11
188.0415999999999
 21
628.398
 31
0.0
  0
LINE
  5
27D
330
1E
100
AcDbEntity
  8
0
100
AcDbLine
 10
157.7828
 20
631.706
 30
0.0
 11
158.8189999999999
 21
632.576
 31
0.0
  0
LINE
  5
27E
330
1E
100
AcDbEntity
  8
0
100
AcDbLine
 10
157.4014999999999
 20
631.713
 30
0.0
 11
157.4112
 21
631.394
 31
0.0
  0
LINE
  5
27F
330
1E
100
AcDbEntity
  8
0
100
AcDbLine
 10
157.4014999999999
 20
631.713
 30
0.0
 11
157.7821999999999
 21
632.0319999999999
 31
0.0
  0
LINE
  5
280
330
1E
100
AcDbEntity
  8
0
100
AcDbLine
 10
157.4112
 20
631.394
 30
0.0
 11
157.7828
 21
631.706
 31
0.0
  0
LINE
  5
281
330
1E
100
AcDbEntity
  8
0
100
AcDbLine
 10
157.4112
 20
631.394
 30
0.0
 11
171.3917999999999
 21
614.7330000000001
 31
0.0
  0
LINE
  5
282
330
1E
100
AcDbEntity
  8
0
100
AcDbLine
 10
187.7355
 20
628.4469999999999
 30
0.0
 11
190.1372
 21
630.4619999999999
 31
0.0
  0
LINE
  5
283
330
1E
100
AcDbEntity
  8
0
100
AcDbLine
 10
190.137682486543
 20
630.462404844725
 30
0.0
 11
191.9499
 21
631.983
 31
0.0
  0
LINE
  5
284
330
1E
100
AcDbEntity
  8
0
100
AcDbLine
 10
190.137682486543
 20
630.462404844725
 30
0.0
 11
191.4333
 21
631.55
 31
0.0
  0
LINE
  5
285
330
1E
100
AcDbEntity
  8
0
100
AcDbLine
 10
190.137682486544
 20
630.462404844725
 30
0.0
 11
191.9499
 21
631.983
 31
0.0
  0
LINE
  5
286
330
1E
100
AcDbEntity
  8
0
100
AcDbLine
 10
190.1372
 20
630.4619999999999
 30
0.0
 11
191.9499
 21
631.983
 31
0.0
  0
LINE
  5
287
330
1E
100
AcDbEntity
  8
0
100
AcDbLine
 10
190.1372
 20
630.4619999999999
 30
0.0
 11
190.4077
 21
630.383
 31
0.0
  0
LINE
  5
288
330
1E
100
AcDbEntity
  8
0
100
AcDbLine
 10
188.0415999999999
 20
628.398
 30
0.0
 11
190.4077
 21
630.383
 31
0.0
  0
LINE
  5
289
330
1E
100
AcDbEntity
  8
0
100
AcDbLine
 10
192.0303999999999
 20
560.177
 30
0.0
 11
192.1743999999999
 21
560.177
 31
0.0
  0
LINE
  5
28A
330
1E
100
AcDbEntity
  8
0
100
AcDbLine
 10
192.0303999999999
 20
560.177
 30
0.0
 11
192.0303999999999
 21
555.177
 31
0.0
  0
LINE
  5
28B
330
1E
100
AcDbEntity
  8
0
100
AcDbLine
 10
192.1743999999999
 20
560.177
 30
0.0
 11
192.5584
 21
560.177
 31
0.0
  0
LINE
  5
28C
330
1E
100
AcDbEntity
  8
0
100
AcDbLine
 10
192.0303999999999
 20
555.177
 30
0.0
 11
192.1743999999999
 21
555.177
 31
0.0
  0
LINE
  5
28D
330
1E
100
AcDbEntity
  8
0
100
AcDbLine
 10
192.0303999999999
 20
555.177
 30
0.0
 11
192.0303999999999
 21
560.177
 31
0.0
  0
LINE
  5
28E
330
1E
100
AcDbEntity
  8
0
100
AcDbLine
 10
192.1743999999999
 20
555.177
 30
0.0
 11
192.5584
 21
555.177
 31
0.0
  0
LINE
  5
28F
330
1E
100
AcDbEntity
  8
0
100
AcDbLine
 10
190.9555
 20
565.1769999999999
 30
0.0
 11
192.4751
 21
565.1769999999999
 31
0.0
  0
LINE
  5
290
330
1E
100
AcDbEntity
  8
0
100
AcDbLine
 10
192.4751
 20
565.1769999999999
 30
0.0
 11
194.1954
 21
565.1769999999999
 31
0.0
  0
LINE
  5
291
330
1E
100
AcDbEntity
  8
0
100
AcDbLine
 10
190.9555
 20
560.177
 30
0.0
 11
192.4751
 21
560.177
 31
0.0
  0
LINE
  5
292
330
1E
100
AcDbEntity
  8
0
100
AcDbLine
 10
192.5584
 20
560.177
 30
0.0
 11
193.1983999999999
 21
560.177
 31
0.0
  0
LINE
  5
293
330
1E
100
AcDbEntity
  8
0
100
AcDbLine
 10
192.5584
 20
555.177
 30
0.0
 11
193.1983999999999
 21
555.177
 31
0.0
  0
LINE
  5
294
330
1E
100
AcDbEntity
  8
0
100
AcDbLine
 10
193.0303999999999
 20
580.177
 30
0.0
 11
193.1383999999999
 21
580.177
 31
0.0
  0
LINE
  5
295
330
1E
100
AcDbEntity
  8
0
100
AcDbLine
 10
193.0303999999999
 20
580.177
 30
0.0
 11
193.0303999999999
 21
565.1769999999999
 31
0.0
  0
LINE
  5
296
330
1E
100
AcDbEntity
  8
0
100
AcDbLine
 10
193.1983999999999
 20
560.177
 30
0.0
 11
194.0464
 21
560.177
 31
0.0
  0
LINE
  5
297
330
1E
100
AcDbEntity
  8
0
100
AcDbLine
 10
193.1983999999999
 20
555.177
 30
0.0
 11
194.0464
 21
555.177
 31
0.0
  0
LINE
  5
298
330
1E
100
AcDbEntity
  8
0
100
AcDbLine
 10
193.0303999999999
 20
565.1769999999999
 30
0.0
 11
193.0303999999999
 21
580.177
 31
0.0
  0
LINE
  5
299
330
1E
100
AcDbEntity
  8
0
100
AcDbLine
 10
193.1383999999999
 20
580.177
 30
0.0
 11
193.4263999999999
 21
580.177
 31
0.0
  0
LINE
  5
29A
330
1E
100
AcDbEntity
  8
0
100
AcDbLine
 10
192.4751
 20
560.177
 30
0.0
 11
194.1954
 21
560.177
 31
0.0
  0
LINE
  5
29B
330
1E
100
AcDbEntity
  8
0
100
AcDbLine
 10
191.4333
 20
631.55
 30
0.0
 11
192.2191182410529
 21
632.2090195439829
 31
0.0
  0
LINE
  5
29C
330
1E
100
AcDbEntity
  8
0
100
AcDbLine
 10
190.4077
 20
630.383
 30
0.0
 11
192.2494
 21
631.9289999999999
 31
0.0
  0
LINE
  5
29D
330
1E
100
AcDbEntity
  8
0
100
AcDbLine
 10
162.7462999999999
 20
635.871
 30
0.0
 11
165.3716
 21
638.0740000000001
 31
0.0
  0
LINE
  5
29E
330
1E
100
AcDbEntity
  8
0
100
AcDbLine
 10
162.7306
 20
636.1839999999999
 30
0.0
 11
165.2683
 21
638.314
 31
0.0
  0
LINE
  5
29F
330
1E
100
AcDbEntity
  8
0
100
AcDbLine
 10
160.5379
 20
634.018
 30
0.0
 11
162.7462999999999
 21
635.871
 31
0.0
  0
LINE
  5
2A0
330
1E
100
AcDbEntity
  8
0
100
AcDbLine
 10
160.489
 20
634.3029999999999
 30
0.0
 11
162.7306
 21
636.1839999999999
 31
0.0
  0
LINE
  5
2A1
330
1E
100
AcDbEntity
  8
0
100
AcDbLine
 10
158.8189999999999
 20
632.576
 30
0.0
 11
160.5379
 21
634.018
 31
0.0
  0
LINE
  5
2A2
330
1E
100
AcDbEntity
  8
0
100
AcDbLine
 10
158.7972
 20
632.884
 30
0.0
 11
160.489
 21
634.3029999999999
 31
0.0
  0
LINE
  5
2A3
330
1E
100
AcDbEntity
  8
0
100
AcDbLine
 10
157.7821999999999
 20
632.0319999999999
 30
0.0
 11
158.7972
 21
632.884
 31
0.0
  0
LINE
  5
2A4
330
1E
100
AcDbEntity
  8
0
100
AcDbLine
 10
192.8410023988029
 20
632.7311163127419
 30
0.0
 11
193.0374
 21
632.8959999999999
 31
0.0
  0
LINE
  5
2A5
330
1E
100
AcDbEntity
  8
0
100
AcDbLine
 10
191.9499
 20
631.983
 30
0.0
 11
193.0374
 21
632.8959999999999
 31
0.0
  0
LINE
  5
2A6
330
1E
100
AcDbEntity
  8
0
100
AcDbLine
 10
191.9499
 20
631.983
 30
0.0
 11
192.2191182410529
 21
632.2090195439829
 31
0.0
  0
LINE
  5
2A7
330
1E
100
AcDbEntity
  8
0
100
AcDbLine
 10
191.9499
 20
631.983
 30
0.0
 11
192.2191182410529
 21
632.2090195439829
 31
0.0
  0
LINE
  5
2A8
330
1E
100
AcDbEntity
  8
0
100
AcDbLine
 10
193.0374
 20
632.8959999999999
 30
0.0
 11
193.4452999999999
 21
633.238
 31
0.0
  0
LINE
  5
2A9
330
1E
100
AcDbEntity
  8
0
100
AcDbLine
 10
192.2494
 20
631.9289999999999
 30
0.0
 11
193.3596
 21
632.86
 31
0.0
  0
LINE
  5
2AA
330
1E
100
AcDbEntity
  8
0
100
AcDbLine
 10
194.0464
 20
560.177
 30
0.0
 11
195.0064
 21
560.177
 31
0.0
  0
LINE
  5
2AB
330
1E
100
AcDbEntity
  8
0
100
AcDbLine
 10
194.0464
 20
555.177
 30
0.0
 11
195.0064
 21
555.177
 31
0.0
  0
LINE
  5
2AC
330
1E
100
AcDbEntity
  8
0
100
AcDbLine
 10
193.4263999999999
 20
580.177
 30
0.0
 11
193.9063999999999
 21
580.177
 31
0.0
  0
LINE
  5
2AD
330
1E
100
AcDbEntity
  8
0
100
AcDbLine
 10
193.9063999999999
 20
580.177
 30
0.0
 11
194.5423999999999
 21
580.177
 31
0.0
  0
LINE
  5
2AE
330
1E
100
AcDbEntity
  8
0
100
AcDbLine
 10
194.1954
 20
565.1769999999999
 30
0.0
 11
196.0303999999999
 21
565.1769999999999
 31
0.0
  0
LINE
  5
2AF
330
1E
100
AcDbEntity
  8
0
100
AcDbLine
 10
196.0303999999999
 20
555.177
 30
0.0
 11
197.0543999999999
 21
555.177
 31
0.0
  0
LINE
  5
2B0
330
1E
100
AcDbEntity
  8
0
100
AcDbLine
 10
195.0064
 20
560.177
 30
0.0
 11
196.0303999999999
 21
560.177
 31
0.0
  0
LINE
  5
2B1
330
1E
100
AcDbEntity
  8
0
100
AcDbLine
 10
195.0064
 20
555.177
 30
0.0
 11
196.0303999999999
 21
555.177
 31
0.0
  0
LINE
  5
2B2
330
1E
100
AcDbEntity
  8
0
100
AcDbLine
 10
199.5023999999999
 20
555.177
 30
0.0
 11
199.8864
 21
555.177
 31
0.0
  0
LINE
  5
2B3
330
1E
100
AcDbEntity
  8
0
100
AcDbLine
 10
198.8624
 20
555.177
 30
0.0
 11
199.5023999999999
 21
555.177
 31
0.0
  0
LINE
  5
2B4
330
1E
100
AcDbEntity
  8
0
100
AcDbLine
 10
198.0143999999999
 20
555.177
 30
0.0
 11
198.8624
 21
555.177
 31
0.0
  0
LINE
  5
2B5
330
1E
100
AcDbEntity
  8
0
100
AcDbLine
 10
199.5023999999999
 20
560.177
 30
0.0
 11
199.8864
 21
560.177
 31
0.0
  0
LINE
  5
2B6
330
1E
100
AcDbEntity
  8
0
100
AcDbLine
 10
198.8624
 20
560.177
 30
0.0
 11
199.5023999999999
 21
560.177
 31
0.0
  0
LINE
  5
2B7
330
1E
100
AcDbEntity
  8
0
100
AcDbLine
 10
198.0143999999999
 20
560.177
 30
0.0
 11
198.8624
 21
560.177
 31
0.0
  0
LINE
  5
2B8
330
1E
100
AcDbEntity
  8
0
100
AcDbLine
 10
197.0543999999999
 20
560.177
 30
0.0
 11
198.0143999999999
 21
560.177
 31
0.0
  0
LINE
  5
2B9
330
1E
100
AcDbEntity
  8
0
100
AcDbLine
 10
197.0543999999999
 20
555.177
 30
0.0
 11
198.0143999999999
 21
555.177
 31
0.0
  0
LINE
  5
2BA
330
1E
100
AcDbEntity
  8
0
100
AcDbLine
 10
200.0303999999999
 20
555.177
 30
0.0
 11
200.0303999999999
 21
560.177
 31
0.0
  0
LINE
  5
2BB
330
1E
100
AcDbEntity
  8
0
100
AcDbLine
 10
199.8864
 20
560.177
 30
0.0
 11
200.0303999999999
 21
560.177
 31
0.0
  0
LINE
  5
2BC
330
1E
100
AcDbEntity
  8
0
100
AcDbLine
 10
200.0303999999999
 20
560.177
 30
0.0
 11
200.0303999999999
 21
555.177
 31
0.0
  0
LINE
  5
2BD
330
1E
100
AcDbEntity
  8
0
100
AcDbLine
 10
199.8864
 20
555.177
 30
0.0
 11
200.0303999999999
 21
555.177
 31
0.0
  0
LINE
  5
2BE
330
1E
100
AcDbEntity
  8
0
100
AcDbLine
 10
203.0224
 20
560.177
 30
0.0
 11
204.6114
 21
560.177
 31
0.0
  0
LINE
  5
2BF
330
1E
100
AcDbEntity
  8
0
100
AcDbLine
 10
201.1054
 20
560.177
 30
0.0
 11
203.0224
 21
560.177
 31
0.0
  0
LINE
  5
2C0
330
1E
100
AcDbEntity
  8
0
100
AcDbLine
 10
199.5853999999999
 20
560.177
 30
0.0
 11
201.1054
 21
560.177
 31
0.0
  0
LINE
  5
2C1
330
1E
100
AcDbEntity
  8
0
100
AcDbLine
 10
199.0303999999999
 20
565.1769999999999
 30
0.0
 11
199.0303999999999
 21
580.177
 31
0.0
  0
LINE
  5
2C2
330
1E
100
AcDbEntity
  8
0
100
AcDbLine
 10
202.9754
 20
565.1769999999999
 30
0.0
 11
204.4204
 21
565.1769999999999
 31
0.0
  0
LINE
  5
2C3
330
1E
100
AcDbEntity
  8
0
100
AcDbLine
 10
201.1054
 20
565.1769999999999
 30
0.0
 11
202.9754
 21
565.1769999999999
 31
0.0
  0
LINE
  5
2C4
330
1E
100
AcDbEntity
  8
0
100
AcDbLine
 10
199.5853999999999
 20
565.1769999999999
 30
0.0
 11
201.1054
 21
565.1769999999999
 31
0.0
  0
LINE
  5
2C5
330
1E
100
AcDbEntity
  8
0
100
AcDbLine
 10
197.8653999999999
 20
565.1769999999999
 30
0.0
 11
199.5853999999999
 21
565.1769999999999
 31
0.0
  0
LINE
  5
2C6
330
1E
100
AcDbEntity
  8
0
100
AcDbLine
 10
197.8653999999999
 20
560.177
 30
0.0
 11
199.5853999999999
 21
560.177
 31
0.0
  0
LINE
  5
2C7
330
1E
100
AcDbEntity
  8
0
100
AcDbLine
 10
196.0303999999999
 20
560.177
 30
0.0
 11
197.8653999999999
 21
560.177
 31
0.0
  0
LINE
  5
2C8
330
1E
100
AcDbEntity
  8
0
100
AcDbLine
 10
196.0303999999999
 20
560.177
 30
0.0
 11
197.0543999999999
 21
560.177
 31
0.0
  0
LINE
  5
2C9
330
1E
100
AcDbEntity
  8
0
100
AcDbLine
 10
194.5423999999999
 20
580.177
 30
0.0
 11
195.2624
 21
580.177
 31
0.0
  0
LINE
  5
2CA
330
1E
100
AcDbEntity
  8
0
100
AcDbLine
 10
198.9224
 20
580.177
 30
0.0
 11
199.0303999999999
 21
580.177
 31
0.0
  0
LINE
  5
2CB
330
1E
100
AcDbEntity
  8
0
100
AcDbLine
 10
198.6344
 20
580.177
 30
0.0
 11
198.9224
 21
580.177
 31
0.0
  0
LINE
  5
2CC
330
1E
100
AcDbEntity
  8
0
100
AcDbLine
 10
198.1544
 20
580.177
 30
0.0
 11
198.6344
 21
580.177
 31
0.0
  0
LINE
  5
2CD
330
1E
100
AcDbEntity
  8
0
100
AcDbLine
 10
197.5184
 20
580.177
 30
0.0
 11
198.1544
 21
580.177
 31
0.0
  0
LINE
  5
2CE
330
1E
100
AcDbEntity
  8
0
100
AcDbLine
 10
196.7983999999999
 20
580.177
 30
0.0
 11
197.5184
 21
580.177
 31
0.0
  0
LINE
  5
2CF
330
1E
100
AcDbEntity
  8
0
100
AcDbLine
 10
196.0303999999999
 20
580.177
 30
0.0
 11
196.7983999999999
 21
580.177
 31
0.0
  0
LINE
  5
2D0
330
1E
100
AcDbEntity
  8
0
100
AcDbLine
 10
195.2624
 20
580.177
 30
0.0
 11
196.0303999999999
 21
580.177
 31
0.0
  0
LINE
  5
2D1
330
1E
100
AcDbEntity
  8
0
100
AcDbLine
 10
196.0303999999999
 20
565.1769999999999
 30
0.0
 11
196.0303999999999
 21
560.177
 31
0.0
  0
LINE
  5
2D2
330
1E
100
AcDbEntity
  8
0
100
AcDbLine
 10
196.0303999999999
 20
565.1769999999999
 30
0.0
 11
197.8653999999999
 21
565.1769999999999
 31
0.0
  0
LINE
  5
2D3
330
1E
100
AcDbEntity
  8
0
100
AcDbLine
 10
194.1954
 20
560.177
 30
0.0
 11
196.0303999999999
 21
560.177
 31
0.0
  0
LINE
  5
2D4
330
1E
100
AcDbEntity
  8
0
100
AcDbLine
 10
202.4303999999999
 20
580.177
 30
0.0
 11
208.4303999999999
 21
580.177
 31
0.0
  0
LINE
  5
2D5
330
1E
100
AcDbEntity
  8
0
100
AcDbLine
 10
204.6114
 20
560.177
 30
0.0
 11
209.9184
 21
560.177
 31
0.0
  0
LINE
  5
2D6
330
1E
100
AcDbEntity
  8
0
100
AcDbLine
 10
204.4204
 20
565.1769999999999
 30
0.0
 11
204.6114
 21
560.177
 31
0.0
  0
LINE
  5
2D7
330
1E
100
AcDbEntity
  8
0
100
AcDbLine
 10
204.4204
 20
565.1769999999999
 30
0.0
 11
209.9184
 21
565.1769999999999
 31
0.0
  0
LINE
  5
2D8
330
1E
100
AcDbEntity
  8
0
100
AcDbLine
 10
204.4303999999999
 20
560.177
 30
0.0
 11
204.6114
 21
560.177
 31
0.0
  0
LINE
  5
2D9
330
1E
100
AcDbEntity
  8
0
100
AcDbLine
 10
203.4543999999999
 20
580.177
 30
0.0
 11
210.4144
 21
580.177
 31
0.0
  0
LINE
  5
2DA
330
1E
100
AcDbEntity
  8
0
100
AcDbLine
 10
203.4543999999999
 20
600.177
 30
0.0
 11
210.4144
 21
600.177
 31
0.0
  0
LINE
  5
2DB
330
1E
100
AcDbEntity
  8
0
100
AcDbLine
 10
199.0303999999999
 20
580.177
 30
0.0
 11
203.4543999999999
 21
580.177
 31
0.0
  0
LINE
  5
2DC
330
1E
100
AcDbEntity
  8
0
100
AcDbLine
 10
199.0303999999999
 20
580.177
 30
0.0
 11
202.4303999999999
 21
580.177
 31
0.0
  0
LINE
  5
2DD
330
1E
100
AcDbEntity
  8
0
100
AcDbLine
 10
199.0303999999999
 20
580.177
 30
0.0
 11
199.0303999999999
 21
565.1769999999999
 31
0.0
  0
LINE
  5
2DE
330
1E
100
AcDbEntity
  8
0
100
AcDbLine
 10
209.9184
 20
565.1769999999999
 30
0.0
 11
215.8544
 21
565.1769999999999
 31
0.0
  0
LINE
  5
2DF
330
1E
100
AcDbEntity
  8
0
100
AcDbLine
 10
209.9184
 20
560.177
 30
0.0
 11
215.8544
 21
560.177
 31
0.0
  0
LINE
  5
2E0
330
1E
100
AcDbEntity
  8
0
100
AcDbLine
 10
215.8544
 20
565.1769999999999
 30
0.0
 11
220.3343999999999
 21
565.1769999999999
 31
0.0
  0
LINE
  5
2E1
330
1E
100
AcDbEntity
  8
0
100
AcDbLine
 10
215.8544
 20
560.177
 30
0.0
 11
220.3343999999999
 21
560.177
 31
0.0
  0
LINE
  5
2E2
330
1E
100
AcDbEntity
  8
0
100
AcDbLine
 10
213.7303999999999
 20
580.177
 30
0.0
 11
217.7303999999999
 21
580.177
 31
0.0
  0
LINE
  5
2E3
330
1E
100
AcDbEntity
  8
0
100
AcDbLine
 10
208.4303999999999
 20
580.177
 30
0.0
 11
213.7303999999999
 21
580.177
 31
0.0
  0
LINE
  5
2E4
330
1E
100
AcDbEntity
  8
0
100
AcDbLine
 10
220.3343999999999
 20
565.1769999999999
 30
0.0
 11
223.0224
 21
565.1769999999999
 31
0.0
  0
LINE
  5
2E5
330
1E
100
AcDbEntity
  8
0
100
AcDbLine
 10
220.3343999999999
 20
560.177
 30
0.0
 11
223.0224
 21
560.177
 31
0.0
  0
LINE
  5
2E6
330
1E
100
AcDbEntity
  8
0
100
AcDbLine
 10
221.0303999999999
 20
560.177
 30
0.0
 11
221.0303999999999
 21
550.177
 31
0.0
  0
LINE
  5
2E7
330
1E
100
AcDbEntity
  8
0
100
AcDbLine
 10
221.0303999999999
 20
560.177
 30
0.0
 11
223.0224
 21
560.177
 31
0.0
  0
LINE
  5
2E8
330
1E
100
AcDbEntity
  8
0
100
AcDbLine
 10
220.1303999999999
 20
580.177
 30
0.0
 11
221.0303999999999
 21
580.177
 31
0.0
  0
LINE
  5
2E9
330
1E
100
AcDbEntity
  8
0
100
AcDbLine
 10
221.0303999999999
 20
565.1769999999999
 30
0.0
 11
221.0303999999999
 21
580.177
 31
0.0
  0
LINE
  5
2EA
330
1E
100
AcDbEntity
  8
0
100
AcDbLine
 10
221.0303999999999
 20
550.177
 30
0.0
 11
221.0303999999999
 21
560.177
 31
0.0
  0
LINE
  5
2EB
330
1E
100
AcDbEntity
  8
0
100
AcDbLine
 10
217.7303999999999
 20
580.177
 30
0.0
 11
220.1303999999999
 21
580.177
 31
0.0
  0
LINE
  5
2EC
330
1E
100
AcDbEntity
  8
0
100
AcDbLine
 10
221.0303999999999
 20
580.177
 30
0.0
 11
221.2023999999999
 21
580.177
 31
0.0
  0
LINE
  5
2ED
330
1E
100
AcDbEntity
  8
0
100
AcDbLine
 10
221.0303999999999
 20
580.177
 30
0.0
 11
221.0303999999999
 21
565.1769999999999
 31
0.0
  0
LINE
  5
2EE
330
1E
100
AcDbEntity
  8
0
100
AcDbLine
 10
216.5624
 20
580.177
 30
0.0
 11
221.2023999999999
 21
580.177
 31
0.0
  0
LINE
  5
2EF
330
1E
100
AcDbEntity
  8
0
100
AcDbLine
 10
216.5624
 20
600.177
 30
0.0
 11
221.2023999999999
 21
600.177
 31
0.0
  0
LINE
  5
2F0
330
1E
100
AcDbEntity
  8
0
100
AcDbLine
 10
210.4144
 20
600.177
 30
0.0
 11
216.5624
 21
600.177
 31
0.0
  0
LINE
  5
2F1
330
1E
100
AcDbEntity
  8
0
100
AcDbLine
 10
210.4144
 20
580.177
 30
0.0
 11
216.5624
 21
580.177
 31
0.0
  0
LINE
  5
2F2
330
1E
100
AcDbEntity
  8
0
100
AcDbLine
 10
223.0224
 20
565.1769999999999
 30
0.0
 11
224.0304
 21
565.1769999999999
 31
0.0
  0
LINE
  5
2F3
330
1E
100
AcDbEntity
  8
0
100
AcDbLine
 10
223.0224
 20
560.177
 30
0.0
 11
224.0304
 21
560.177
 31
0.0
  0
LINE
  5
2F4
330
1E
100
AcDbEntity
  8
0
100
AcDbLine
 10
224.0304
 20
565.1769999999999
 30
0.0
 11
224.0304
 21
560.177
 31
0.0
  0
LINE
  5
2F5
330
1E
100
AcDbEntity
  8
0
100
AcDbLine
 10
225.0303999999999
 20
580.177
 30
0.0
 11
225.0303999999999
 21
600.177
 31
0.0
  0
LINE
  5
2F6
330
1E
100
AcDbEntity
  8
0
100
AcDbLine
 10
223.9864
 20
580.177
 30
0.0
 11
225.0303999999999
 21
580.177
 31
0.0
  0
LINE
  5
2F7
330
1E
100
AcDbEntity
  8
0
100
AcDbLine
 10
223.9864
 20
600.177
 30
0.0
 11
225.0303999999999
 21
600.177
 31
0.0
  0
LINE
  5
2F8
330
1E
100
AcDbEntity
  8
0
100
AcDbLine
 10
221.2023999999999
 20
600.177
 30
0.0
 11
223.9864
 21
600.177
 31
0.0
  0
LINE
  5
2F9
330
1E
100
AcDbEntity
  8
0
100
AcDbLine
 10
221.2023999999999
 20
580.177
 30
0.0
 11
223.9864
 21
580.177
 31
0.0
  0
LINE
  5
2FA
330
1E
100
AcDbEntity
  8
0
100
AcDbLine
 10
221.1803999999999
 20
600.177
 30
0.0
 11
226.8704
 21
600.177
 31
0.0
  0
LINE
  5
2FB
330
1E
100
AcDbEntity
  8
0
100
AcDbLine
 10
213.8704
 20
600.177
 30
0.0
 11
221.1803999999999
 21
600.177
 31
0.0
  0
LINE
  5
2FC
330
1E
100
AcDbEntity
  8
0
100
AcDbLine
 10
205.1803999999999
 20
600.177
 30
0.0
 11
213.8704
 21
600.177
 31
0.0
  0
LINE
  5
2FE
330
1E
100
AcDbEntity
  8
0
100
AcDbLine
 10
196.0303999999999
 20
607.177
 30
0.0
 11
204.9904
 21
607.177
 31
0.0
  0
LINE
  5
2FF
330
1E
100
AcDbEntity
  8
0
100
AcDbLine
 10
221.1803999999999
 20
606.6769999999999
 30
0.0
 11
226.8704
 21
606.6769999999999
 31
0.0
  0
LINE
  5
300
330
1E
100
AcDbEntity
  8
0
100
AcDbLine
 10
213.8704
 20
606.6769999999999
 30
0.0
 11
221.1803999999999
 21
606.6769999999999
 31
0.0
  0
LINE
  5
301
330
1E
100
AcDbEntity
  8
0
100
AcDbLine
 10
220.8104
 20
607.177
 30
0.0
 11
226.4104
 21
607.177
 31
0.0
  0
LINE
  5
302
330
1E
100
AcDbEntity
  8
0
100
AcDbLine
 10
213.3904
 20
607.177
 30
0.0
 11
220.8104
 21
607.177
 31
0.0
  0
LINE
  5
303
330
1E
100
AcDbEntity
  8
0
100
AcDbLine
 10
204.9904
 20
607.177
 30
0.0
 11
213.3904
 21
607.177
 31
0.0
  0
LINE
  5
304
330
1E
100
AcDbEntity
  8
0
100
AcDbLine
 10
205.1803999999999
 20
606.6769999999999
 30
0.0
 11
213.8704
 21
606.6769999999999
 31
0.0
  0
LINE
  5
305
330
1E
100
AcDbEntity
  8
0
100
AcDbLine
 10
196.0303999999999
 20
606.6769999999999
 30
0.0
 11
205.1803999999999
 21
606.6769999999999
 31
0.0
  0
LINE
  5
306
330
1E
100
AcDbEntity
  8
0
100
AcDbLine
 10
196.0303999999999
 20
600.177
 30
0.0
 11
205.1803999999999
 21
600.177
 31
0.0
  0
LINE
  5
308
330
1E
100
AcDbEntity
  8
0
100
AcDbLine
 10
196.0303999999999
 20
600.177
 30
0.0
 11
203.4543999999999
 21
600.177
 31
0.0
  0
LINE
  5
309
330
1E
100
AcDbEntity
  8
0
100
AcDbLine
 10
231.0303999999999
 20
250.177
 30
0.0
 11
281.0304
 21
50.177
 31
0.0
  0
LINE
  5
30A
330
1E
100
AcDbEntity
  8
0
100
AcDbLine
 10
231.0303999999999
 20
250.177
 30
0.0
 11
231.0303999999999
 21
550.177
 31
0.0
  0
LINE
  5
30B
330
1E
100
AcDbEntity
  8
0
100
AcDbLine
 10
231.0303999999999
 20
550.177
 30
0.0
 11
231.0303999999999
 21
250.177
 31
0.0
  0
LINE
  5
30C
330
1E
100
AcDbEntity
  8
0
100
AcDbLine
 10
281.0304
 20
50.177
 30
0.0
 11
281.0304
 21
0.177000000000038
 31
0.0
  0
LINE
  5
30D
330
1E
100
AcDbEntity
  8
0
100
AcDbLine
 10
281.0304
 20
0.177000000000038
 30
0.0
 11
281.0304
 21
50.177
 31
0.0
  0
LINE
  5
30E
330
1E
100
AcDbEntity
  8
0
100
AcDbLine
 10
230.3004
 20
600.177
 30
0.0
 11
231.5303999999999
 21
600.177
 31
0.0
  0
LINE
  5
30F
330
1E
100
AcDbEntity
  8
0
100
AcDbLine
 10
226.4104
 20
607.177
 30
0.0
 11
229.7703999999999
 21
607.177
 31
0.0
  0
LINE
  5
310
330
1E
100
AcDbEntity
  8
0
100
AcDbLine
 10
229.7703999999999
 20
607.177
 30
0.0
 11
231.0303999999999
 21
607.177
 31
0.0
  0
LINE
  5
311
330
1E
100
AcDbEntity
  8
0
100
AcDbLine
 10
230.3004
 20
606.6769999999999
 30
0.0
 11
231.5303999999999
 21
606.6769999999999
 31
0.0
  0
LINE
  5
312
330
1E
100
AcDbEntity
  8
0
100
AcDbLine
 10
226.8704
 20
606.6769999999999
 30
0.0
 11
230.3004
 21
606.6769999999999
 31
0.0
  0
LINE
  5
313
330
1E
100
AcDbEntity
  8
0
100
AcDbLine
 10
231.0303999999999
 20
607.177
 30
0.0
 11
231.5303999999999
 21
606.6769999999999
 31
0.0
  0
LINE
  5
314
330
1E
100
AcDbEntity
  8
0
100
AcDbLine
 10
231.5303999999999
 20
606.6769999999999
 30
0.0
 11
231.5303999999999
 21
600.177
 31
0.0
  0
LINE
  5
315
330
1E
100
AcDbEntity
  8
0
100
AcDbLine
 10
226.8704
 20
600.177
 30
0.0
 11
230.3004
 21
600.177
 31
0.0
  0
LINE
  5
316
330
1E
100
AcDbEntity
  8
0
100
AcDbLine
 10
225.0303999999999
 20
600.177
 30
0.0
 11
226.8704
 21
600.177
 31
0.0
  0
LINE
  5
317
330
1E
100
AcDbEntity
  8
0
100
AcDbLine
 10
225.0303999999999
 20
600.177
 30
0.0
 11
225.0303999999999
 21
580.177
 31
0.0
  0
LINE
  5
318
330
1E
100
AcDbEntity
  8
0
100
AcDbLine
 10
193.4452999999999
 20
633.238
 30
0.0
 11
193.7578
 21
633.1939999999999
 31
0.0
  0
LINE
  5
319
330
1E
100
AcDbEntity
  8
0
100
AcDbLine
 10
193.7578
 20
633.1939999999999
 30
0.0
 11
215.5883999999999
 21
607.177
 31
0.0
  0
LINE
  5
31A
330
1E
100
AcDbEntity
  8
0
100
AcDbLine
 10
193.3596
 20
632.86
 30
0.0
 11
193.7578
 21
633.1939999999999
 31
0.0
  0
LINE
  5
31B
330
1E
100
AcDbEntity
  8
0
100
AcDbLine
 10
165.3716
 20
638.0740000000001
 30
0.0
 11
168.1357999999999
 21
640.393
 31
0.0
  0
LINE
  5
31C
330
1E
100
AcDbEntity
  8
0
100
AcDbLine
 10
165.2683
 20
638.314
 30
0.0
 11
167.9750999999999
 21
640.585
 31
0.0
  0
LINE
  5
31D
330
1E
100
AcDbEntity
  8
0
100
AcDbLine
 10
167.9750999999999
 20
640.585
 30
0.0
 11
170.6819
 21
642.856
 31
0.0
  0
LINE
  5
31E
330
1E
100
AcDbEntity
  8
0
100
AcDbLine
 10
167.9750999999999
 20
640.585
 30
0.0
 11
168.1357999999999
 21
640.393
 31
0.0
  0
LINE
  5
31F
330
1E
100
AcDbEntity
  8
0
100
AcDbLine
 10
168.1357999999999
 20
640.393
 30
0.0
 11
170.9
 21
642.713
 31
0.0
  0
LINE
  5
321
330
1E
100
AcDbEntity
  8
0
100
AcDbLine
 10
170.6819
 20
642.856
 30
0.0
 11
173.2196
 21
644.986
 31
0.0
  0
LINE
  5
322
330
1E
100
AcDbEntity
  8
0
100
AcDbLine
 10
173.2196
 20
644.986
 30
0.0
 11
175.4611999999999
 21
646.8659999999999
 31
0.0
  0
LINE
  5
324
330
1E
100
AcDbEntity
  8
0
100
AcDbLine
 10
170.9
 20
642.713
 30
0.0
 11
173.5252999999999
 21
644.9159999999999
 31
0.0
  0
LINE
  5
325
330
1E
100
AcDbEntity
  8
0
100
AcDbLine
 10
173.5252999999999
 20
644.9159999999999
 30
0.0
 11
175.7336999999999
 21
646.769
 31
0.0
  0
LINE
  5
326
330
1E
100
AcDbEntity
  8
0
100
AcDbLine
 10
175.4611999999999
 20
646.8659999999999
 30
0.0
 11
177.153
 21
648.2859999999999
 31
0.0
  0
LINE
  5
327
330
1E
100
AcDbEntity
  8
0
100
AcDbLine
 10
175.4611999999999
 20
646.8659999999999
 30
0.0
 11
175.7336999999999
 21
646.769
 31
0.0
  0
LINE
  5
328
330
1E
100
AcDbEntity
  8
0
100
AcDbLine
 10
177.1937670279919
 20
648.3202202047769
 30
0.0
 11
178.168
 21
649.138
 31
0.0
  0
LINE
  5
329
330
1E
100
AcDbEntity
  8
0
100
AcDbLine
 10
177.153
 20
648.2859999999999
 30
0.0
 11
178.168
 21
649.138
 31
0.0
  0
LINE
  5
32A
330
1E
100
AcDbEntity
  8
0
100
AcDbLine
 10
175.7336999999999
 20
646.769
 30
0.0
 11
177.4525999999999
 21
648.211
 31
0.0
  0
LINE
  5
32B
330
1E
100
AcDbEntity
  8
0
100
AcDbLine
 10
177.4525999999999
 20
648.211
 30
0.0
 11
178.4888
 21
649.081
 31
0.0
  0
LINE
  5
32C
330
1E
100
AcDbEntity
  8
0
100
AcDbLine
 10
178.5487
 20
649.457
 30
0.0
 11
178.8604
 21
649.3919999999999
 31
0.0
  0
LINE
  5
32D
330
1E
100
AcDbEntity
  8
0
100
AcDbLine
 10
178.168
 20
649.138
 30
0.0
 11
178.5487
 21
649.457
 31
0.0
  0
LINE
  5
32E
330
1E
100
AcDbEntity
  8
0
100
AcDbLine
 10
178.8604
 20
649.3919999999999
 30
0.0
 11
192.8410023988029
 21
632.7311163127419
 31
0.0
  0
LINE
  5
32F
330
1E
100
AcDbEntity
  8
0
100
AcDbLine
 10
178.4888
 20
649.081
 30
0.0
 11
178.8604
 21
649.3919999999999
 31
0.0
  0
LINE
  5
330
330
1E
100
AcDbEntity
  8
0
100
AcDbLine
 10
112.033040913803
 20
720.741919003098
 30
0.0
 11
112.8487999999999
 21
722.5639999999999
 31
0.0
  0
LINE
  5
331
330
1E
100
AcDbEntity
  8
0
100
AcDbLine
 10
112.8487999999999
 20
722.5639999999999
 30
0.0
 11
113.3598
 21
723.7119999999999
 31
0.0
  0
LINE
  5
332
330
1E
100
AcDbEntity
  8
0
100
AcDbLine
 10
113.5577999999999
 20
724.153
 30
0.0
 11
177.1937670279919
 21
648.3202202047769
 31
0.0
  0
LINE
  5
333
330
1E
100
AcDbEntity
  8
0
100
AcDbLine
 10
113.5577999999999
 20
724.153
 30
0.0
 11
177.1937670279919
 21
648.3202202047769
 31
0.0
  0
LINE
  5
334
330
1E
100
AcDbEntity
  8
0
100
AcDbLine
 10
113.3598
 20
723.7119999999999
 30
0.0
 11
113.5577999999999
 21
724.153
 31
0.0
  0
LINE
  5
335
330
1E
100
AcDbEntity
  8
0
100
AcDbLine
 10
112.033040913803
 20
720.741919003098
 30
0.0
 11
112.0588
 21
720.7999999999999
 31
0.0
  0
LINE
  5
336
330
1E
100
AcDbEntity
  8
0
100
AcDbLine
 10
99.2368
 20
739.179
 30
0.0
 11
99.47580000000002
 21
737.9639999999999
 31
0.0
  0
LINE
  5
337
330
1E
100
AcDbEntity
  8
0
100
AcDbLine
 10
93.38880000000001
 20
740.802
 30
0.0
 11
95.9698
 21
739.598
 31
0.0
  0
LINE
  5
338
330
1E
100
AcDbEntity
  8
0
100
AcDbLine
 10
95.9698
 20
739.598
 30
0.0
 11
97.8218
 21
738.7360000000001
 31
0.0
  0
LINE
  5
339
330
1E
100
AcDbEntity
  8
0
100
AcDbLine
 10
90.08180000000001
 20
742.345
 30
0.0
 11
93.38880000000001
 21
740.802
 31
0.0
  0
LINE
  5
33A
330
1E
100
AcDbEntity
  8
0
100
AcDbLine
 10
86.17879999999999
 20
744.1639999999999
 30
0.0
 11
90.08180000000001
 21
742.345
 31
0.0
  0
LINE
  5
33B
330
1E
100
AcDbEntity
  8
0
100
AcDbLine
 10
86.1378
 20
745.2860000000001
 30
0.0
 11
89.97480000000001
 21
743.498
 31
0.0
  0
LINE
  5
33C
330
1E
100
AcDbEntity
  8
0
100
AcDbLine
 10
89.97480000000001
 20
743.498
 30
0.0
 11
93.28279999999999
 21
741.955
 31
0.0
  0
LINE
  5
33D
330
1E
100
AcDbEntity
  8
0
100
AcDbLine
 10
93.28279999999999
 20
741.955
 30
0.0
 11
95.7308
 21
740.8129999999999
 31
0.0
  0
LINE
  5
33E
330
1E
100
AcDbEntity
  8
0
100
AcDbLine
 10
95.7308
 20
740.8129999999999
 30
0.0
 11
97.64879999999999
 21
739.9189999999999
 31
0.0
  0
LINE
  5
33F
330
1E
100
AcDbEntity
  8
0
100
AcDbLine
 10
97.64879999999999
 20
739.9189999999999
 30
0.0
 11
98.7738
 21
739.395
 31
0.0
  0
LINE
  5
340
330
1E
100
AcDbEntity
  8
0
100
AcDbLine
 10
98.7738
 20
739.395
 30
0.0
 11
99.2368
 21
739.179
 31
0.0
  0
LINE
  5
341
330
1E
100
AcDbEntity
  8
0
100
AcDbLine
 10
81.70579999999999
 20
747.3539999999999
 30
0.0
 11
86.1378
 21
745.2860000000001
 31
0.0
  0
LINE
  5
342
330
1E
100
AcDbEntity
  8
0
100
AcDbLine
 10
76.81029999999999
 20
749.6360000000001
 30
0.0
 11
81.70579999999999
 21
747.3539999999999
 31
0.0
  0
LINE
  5
343
330
1E
100
AcDbEntity
  8
0
100
AcDbLine
 10
71.65040000000001
 20
752.0419999999999
 30
0.0
 11
76.81029999999999
 21
749.6360000000001
 31
0.0
  0
LINE
  5
344
330
1E
100
AcDbEntity
  8
0
100
AcDbLine
 10
65.8288
 20
754.7569999999999
 30
0.0
 11
71.65040000000001
 21
752.0419999999999
 31
0.0
  0
LINE
  5
345
330
1E
100
AcDbEntity
  8
0
100
AcDbLine
 10
60.33809999999999
 20
757.317
 30
0.0
 11
65.8288
 21
754.7569999999999
 31
0.0
  0
LINE
  5
346
330
1E
100
AcDbEntity
  8
0
100
AcDbLine
 10
55.4279
 20
761.8139999999999
 30
0.0
 11
99.2368
 21
739.179
 31
0.0
  0
LINE
  5
347
330
1E
100
AcDbEntity
  8
0
100
AcDbLine
 10
54.5827
 20
760.0010000000001
 30
0.0
 11
60.33809999999999
 21
757.317
 31
0.0
  0
LINE
  5
348
330
1E
100
AcDbEntity
  8
0
100
AcDbLine
 10
48.3385
 20
761.8099999999999
 30
0.0
 11
54.16009999999999
 21
759.095
 31
0.0
  0
LINE
  5
349
330
1E
100
AcDbEntity
  8
0
100
AcDbLine
 10
36.8277
 20
767.177
 30
0.0
 11
42.4508
 21
764.555
 31
0.0
  0
LINE
  5
34A
330
1E
100
AcDbEntity
  8
0
100
AcDbLine
 10
42.4508
 20
764.555
 30
0.0
 11
48.3385
 21
761.8099999999999
 31
0.0
  0
LINE
  5
34B
330
1E
100
AcDbEntity
  8
0
100
AcDbLine
 10
26.64
 20
771.928
 30
0.0
 11
31.6017
 21
769.6139999999999
 31
0.0
  0
LINE
  5
34C
330
1E
100
AcDbEntity
  8
0
100
AcDbLine
 10
31.6017
 20
769.6139999999999
 30
0.0
 11
36.8277
 21
767.177
 31
0.0
  0
LINE
  5
34D
330
1E
100
AcDbEntity
  8
0
100
AcDbLine
 10
22.14160000000009
 20
774.0249999999999
 30
0.0
 11
26.64
 21
771.928
 31
0.0
  0
LINE
  5
34E
330
1E
100
AcDbEntity
  8
0
100
AcDbLine
 10
23.0274
 20
774.716
 30
0.0
 11
27.4596
 21
772.6489999999999
 31
0.0
  0
LINE
  5
34F
330
1E
100
AcDbEntity
  8
0
100
AcDbLine
 10
27.4596
 20
772.6489999999999
 30
0.0
 11
32.355
 21
770.3660000000001
 31
0.0
  0
LINE
  5
350
330
1E
100
AcDbEntity
  8
0
100
AcDbLine
 10
32.355
 20
770.3660000000001
 30
0.0
 11
37.515
 21
767.96
 31
0.0
  0
LINE
  5
351
330
1E
100
AcDbEntity
  8
0
100
AcDbLine
 10
37.515
 20
767.96
 30
0.0
 11
43.3365
 21
765.2460000000001
 31
0.0
  0
LINE
  5
352
330
1E
100
AcDbEntity
  8
0
100
AcDbLine
 10
43.3365
 20
765.2460000000001
 30
0.0
 11
48.8273
 21
762.6849999999999
 31
0.0
  0
LINE
  5
353
330
1E
100
AcDbEntity
  8
0
100
AcDbLine
 10
48.8273
 20
762.6849999999999
 30
0.0
 11
54.5827
 21
760.0010000000001
 31
0.0
  0
LINE
  5
354
330
1E
100
AcDbEntity
  8
0
100
AcDbLine
 10
18.2386
 20
775.846
 30
0.0
 11
22.14160000000009
 21
774.0249999999999
 31
0.0
  0
LINE
  5
355
330
1E
100
AcDbEntity
  8
0
100
AcDbLine
 10
19.1903
 20
776.505
 30
0.0
 11
23.0274
 21
774.716
 31
0.0
  0
LINE
  5
356
330
1E
100
AcDbEntity
  8
0
100
AcDbLine
 10
15.8827
 20
778.0479999999999
 30
0.0
 11
19.1903
 21
776.505
 31
0.0
  0
LINE
  5
357
330
1E
100
AcDbEntity
  8
0
100
AcDbLine
 10
13.4349
 20
779.1889999999999
 30
0.0
 11
15.8827
 21
778.0479999999999
 31
0.0
  0
LINE
  5
358
330
1E
100
AcDbEntity
  8
0
100
AcDbLine
 10
11.5165
 20
780.0830000000001
 30
0.0
 11
13.4349
 21
779.1889999999999
 31
0.0
  0
LINE
  5
359
330
1E
100
AcDbEntity
  8
0
100
AcDbLine
 10
10.3919
 20
780.608
 30
0.0
 11
11.5165
 21
780.0830000000001
 31
0.0
  0
LINE
  5
35A
330
1E
100
AcDbEntity
  8
0
100
AcDbLine
 10
9.928800000000029
 20
780.823
 30
0.0
 11
55.4279
 21
761.8139999999999
 31
0.0
  0
LINE
  5
35B
330
1E
100
AcDbEntity
  8
0
100
AcDbLine
 10
9.928800000000029
 20
780.823
 30
0.0
 11
10.3919
 21
780.608
 31
0.0
  0
ENDSEC
  0
SECTION
  2
OBJECTS
  0
DICTIONARY
  5
C
330
0
100
AcDbDictionary
281
     1
  3
ACAD_GROUP
350
D
  3
ACAD_LAYOUT
350
19
  3
ACAD_MLINESTYLE
350
16
  3
ACAD_PLOTSETTINGS
350
18
  3
ACAD_PLOTSTYLENAME
350
E
  3
AcDbVariableDictionary
350
361
  0
DICTIONARY
  5
D
102
{ACAD_REACTORS
330
C
102
}
330
C
100
AcDbDictionary
281
     1
  0
DICTIONARY
  5
19
102
{ACAD_REACTORS
330
C
102
}
330
C
100
AcDbDictionary
281
     1
  3
Layout1
350
1D
  3
Model
350
21
  0
DICTIONARY
  5
16
102
{ACAD_REACTORS
330
C
102
}
330
C
100
AcDbDictionary
281
     1
  3
Standard
350
17
  0
DICTIONARY
  5
18
102
{ACAD_REACTORS
330
C
102
}
330
C
100
AcDbDictionary
281
     1
  0
ACDBDICTIONARYWDFLT
  5
E
102
{ACAD_REACTORS
330
C
102
}
330
C
100
AcDbDictionary
281
     1
  3
Normal
350
F
100
AcDbDictionaryWithDefault
340
F
  0
DICTIONARY
  5
361
102
{ACAD_REACTORS
330
C
102
}
330
C
100
AcDbDictionary
281
     1
  3
DIMASSOC
350
362
  0
LAYOUT
  5
1D
102
{ACAD_REACTORS
330
19
102
}
330
19
100
AcDbPlotSettings
  1

  2
C:\Programme\AutoCAD LT 2002 Deu\plotters\DWF ePlot (optimized for plotting).pc3
  4

  6

 40
0.0
 41
0.0
 42
0.0
 43
0.0
 44
0.0
 45
0.0
 46
0.0
 47
0.0
 48
0.0
 49
0.0
140
0.0
141
0.0
142
1.0
143
1.0
 70
   688
 72
     0
 73
     0
 74
     5
  7

 75
    16
147
1.0
148
0.0
149
0.0
100
AcDbLayout
  1
Layout1
 70
     1
 71
     1
 10
0.0
 20
0.0
 11
12.0
 21
9.0
 12
0.0
 22
0.0
 32
0.0
 14
1.000000000000000E+20
 24
1.000000000000000E+20
 34
1.000000000000000E+20
 15
-1.000000000000000E+20
 25
-1.000000000000000E+20
 35
-1.000000000000000E+20
146
0.0
 13
0.0
 23
0.0
 33
0.0
 16
1.0
 26
0.0
 36
0.0
 17
0.0
 27
1.0
 37
0.0
 76
     0
330
1A
  0
LAYOUT
  5
21
102
{ACAD_REACTORS
330
19
102
}
330
19
100
AcDbPlotSettings
  1

  2
C:\Programme\AutoCAD LT 2002 Deu\plotters\DWF ePlot (optimized for plotting).pc3
  4

  6

 40
0.0
 41
0.0
 42
0.0
 43
0.0
 44
0.0
 45
0.0
 46
0.0
 47
0.0
 48
0.0
 49
0.0
140
0.0
141
0.0
142
1.0
143
1.0
 70
  1712
 72
     0
 73
     0
 74
     0
  7

 75
     0
147
1.0
148
0.0
149
0.0
100
AcDbLayout
  1
Model
 70
     1
 71
     0
 10
0.0
 20
0.0
 11
12.0
 21
9.0
 12
0.0
 22
0.0
 32
0.0
 14
0.0
 24
0.0
 34
0.0
 15
0.0
 25
0.0
 35
0.0
146
0.0
 13
0.0
 23
0.0
 33
0.0
 16
1.0
 26
0.0
 36
0.0
 17
0.0
 27
1.0
 37
0.0
 76
     0
330
1E
  0
MLINESTYLE
  5
17
102
{ACAD_REACTORS
330
16
102
}
330
16
100
AcDbMlineStyle
  2
STANDARD
 70
     0
  3

 62
   256
 51
90.0
 52
90.0
 71
     2
 49
0.5
 62
   256
  6
BYLAYER
 49
-0.5
 62
   256
  6
BYLAYER
  0
ACDBPLACEHOLDER
  5
F
102
{ACAD_REACTORS
330
E
102
}
330
E
  0
DICTIONARYVAR
  5
362
102
{ACAD_REACTORS
330
361
102
}
330
361
100
DictionaryVariables
280
     0
  1
1
  0
ENDSEC
  0
EOF
