  0
SECTION
  2
HEADER
  9
$ACADVER
  1
AC1015
  9
$ACADMAINTVER
 70
    13
  9
$DWGCODEPAGE
  3
ANSI_1252
  9
$INSBASE
 10
0.0
 20
0.0
 30
0.0
  9
$EXTMIN
 10
0.0
 20
0.177000000000038
 30
0.0
  9
$EXTMAX
 10
700.0
 20
780.823
 30
0.0
  9
$LIMMIN
 10
0.0
 20
0.0
  9
$LIMMAX
 10
12.0
 20
9.0
  9
$ORTHOMODE
 70
     0
  9
$REGENMODE
 70
     1
  9
$FILLMODE
 70
     1
  9
$QTEXTMODE
 70
     0
  9
$MIRRTEXT
 70
     1
  9
$LTSCALE
 40
1.0
  9
$ATTMODE
 70
     1
  9
$TEXTSIZE
 40
0.2
  9
$TRACEWID
 40
0.05
  9
$TEXTSTYLE
  7
Standard
  9
$CLAYER
  8
0
  9
$CELTYPE
  6
Continuous
  9
$CECOLOR
 62
   256
  9
$CELTSCALE
 40
1.0
  9
$DISPSILH
 70
     0
  9
$DIMSCALE
 40
1.0
  9
$DIMASZ
 40
0.18
  9
$DIMEXO
 40
0.0625
  9
$DIMDLI
 40
0.38
  9
$DIMRND
 40
0.0
  9
$DIMDLE
 40
0.0
  9
$DIMEXE
 40
0.18
  9
$DIMTP
 40
0.0
  9
$DIMTM
 40
0.0
  9
$DIMTXT
 40
0.18
  9
$DIMCEN
 40
0.09
  9
$DIMTSZ
 40
0.0
  9
$DIMTOL
 70
     0
  9
$DIMLIM
 70
     0
  9
$DIMTIH
 70
     1
  9
$DIMTOH
 70
     1
  9
$DIMSE1
 70
     0
  9
$DIMSE2
 70
     0
  9
$DIMTAD
 70
     0
  9
$DIMZIN
 70
     0
  9
$DIMBLK
  1

  9
$DIMASO
 70
     1
  9
$DIMSHO
 70
     1
  9
$DIMPOST
  1

  9
$DIMAPOST
  1

  9
$DIMALT
 70
     0
  9
$DIMALTD
 70
     2
  9
$DIMALTF
 40
25.4
  9
$DIMLFAC
 40
1.0
  9
$DIMTOFL
 70
     0
  9
$DIMTVP
 40
0.0
  9
$DIMTIX
 70
     0
  9
$DIMSOXD
 70
     0
  9
$DIMSAH
 70
     0
  9
$DIMBLK1
  1

  9
$DIMBLK2
  1

  9
$DIMSTYLE
  2
Standard
  9
$DIMCLRD
 70
     0
  9
$DIMCLRE
 70
     0
  9
$DIMCLRT
 70
     0
  9
$DIMTFAC
 40
1.0
  9
$DIMGAP
 40
0.09
  9
$DIMJUST
 70
     0
  9
$DIMSD1
 70
     0
  9
$DIMSD2
 70
     0
  9
$DIMTOLJ
 70
     1
  9
$DIMTZIN
 70
     0
  9
$DIMALTZ
 70
     0
  9
$DIMALTTZ
 70
     0
  9
$DIMUPT
 70
     0
  9
$DIMDEC
 70
     4
  9
$DIMTDEC
 70
     4
  9
$DIMALTU
 70
     2
  9
$DIMALTTD
 70
     2
  9
$DIMTXSTY
  7
Standard
  9
$DIMAUNIT
 70
     0
  9
$DIMADEC
 70
     0
  9
$DIMALTRND
 40
0.0
  9
$DIMAZIN
 70
     0
  9
$DIMDSEP
 70
    46
  9
$DIMATFIT
 70
     3
  9
$DIMFRAC
 70
     0
  9
$DIMLDRBLK
  1

  9
$DIMLUNIT
 70
     2
  9
$DIMLWD
 70
    -2
  9
$DIMLWE
 70
    -2
  9
$DIMTMOVE
 70
     0
  9
$LUNITS
 70
     2
  9
$LUPREC
 70
     4
  9
$SKETCHINC
 40
0.1
  9
$FILLETRAD
 40
0.0
  9
$AUNITS
 70
     0
  9
$AUPREC
 70
     0
  9
$MENU
  1
.
  9
$ELEVATION
 40
0.0
  9
$PELEVATION
 40
0.0
  9
$THICKNESS
 40
0.0
  9
$LIMCHECK
 70
     0
  9
$CHAMFERA
 40
0.0
  9
$CHAMFERB
 40
0.0
  9
$CHAMFERC
 40
0.0
  9
$CHAMFERD
 40
0.0
  9
$SKPOLY
 70
     0
  9
$TDCREATE
 40
2455508.947171944
  9
$TDUCREATE
 40
2455508.905505277
  9
$TDUPDATE
 40
2455508.947907801
  9
$TDUUPDATE
 40
2455508.906241134
  9
$TDINDWG
 40
0.0007358565
  9
$TDUSRTIMER
 40
0.0007358565
  9
$USRTIMER
 70
     1
  9
$ANGBASE
 50
0.0
  9
$ANGDIR
 70
     0
  9
$PDMODE
 70
     0
  9
$PDSIZE
 40
0.0
  9
$PLINEWID
 40
0.0
  9
$SPLFRAME
 70
     0
  9
$SPLINETYPE
 70
     6
  9
$SPLINESEGS
 70
     8
  9
$HANDSEED
  5
63E
  9
$SURFTAB1
 70
     6
  9
$SURFTAB2
 70
     6
  9
$SURFTYPE
 70
     6
  9
$SURFU
 70
     6
  9
$SURFV
 70
     6
  9
$UCSBASE
  2

  9
$UCSNAME
  2

  9
$UCSORG
 10
0.0
 20
0.0
 30
0.0
  9
$UCSXDIR
 10
1.0
 20
0.0
 30
0.0
  9
$UCSYDIR
 10
0.0
 20
1.0
 30
0.0
  9
$UCSORTHOREF
  2

  9
$UCSORTHOVIEW
 70
     1
  9
$UCSORGTOP
 10
0.0
 20
0.0
 30
0.0
  9
$UCSORGBOTTOM
 10
0.0
 20
0.0
 30
0.0
  9
$UCSORGLEFT
 10
0.0
 20
0.0
 30
0.0
  9
$UCSORGRIGHT
 10
0.0
 20
0.0
 30
0.0
  9
$UCSORGFRONT
 10
0.0
 20
0.0
 30
0.0
  9
$UCSORGBACK
 10
0.0
 20
0.0
 30
0.0
  9
$PUCSBASE
  2

  9
$PUCSNAME
  2

  9
$PUCSORG
 10
0.0
 20
0.0
 30
0.0
  9
$PUCSXDIR
 10
1.0
 20
0.0
 30
0.0
  9
$PUCSYDIR
 10
0.0
 20
1.0
 30
0.0
  9
$PUCSORTHOREF
  2

  9
$PUCSORTHOVIEW
 70
     0
  9
$PUCSORGTOP
 10
0.0
 20
0.0
 30
0.0
  9
$PUCSORGBOTTOM
 10
0.0
 20
0.0
 30
0.0
  9
$PUCSORGLEFT
 10
0.0
 20
0.0
 30
0.0
  9
$PUCSORGRIGHT
 10
0.0
 20
0.0
 30
0.0
  9
$PUCSORGFRONT
 10
0.0
 20
0.0
 30
0.0
  9
$PUCSORGBACK
 10
0.0
 20
0.0
 30
0.0
  9
$USERI1
 70
     0
  9
$USERI2
 70
     0
  9
$USERI3
 70
     0
  9
$USERI4
 70
     0
  9
$USERI5
 70
     0
  9
$USERR1
 40
0.0
  9
$USERR2
 40
0.0
  9
$USERR3
 40
0.0
  9
$USERR4
 40
0.0
  9
$USERR5
 40
0.0
  9
$WORLDVIEW
 70
     1
  9
$SHADEDGE
 70
     3
  9
$SHADEDIF
 70
    70
  9
$TILEMODE
 70
     1
  9
$MAXACTVP
 70
    64
  9
$PINSBASE
 10
0.0
 20
0.0
 30
0.0
  9
$PLIMCHECK
 70
     0
  9
$PEXTMIN
 10
1.000000000000000E+20
 20
1.000000000000000E+20
 30
1.000000000000000E+20
  9
$PEXTMAX
 10
-1.000000000000000E+20
 20
-1.000000000000000E+20
 30
-1.000000000000000E+20
  9
$PLIMMIN
 10
0.0
 20
0.0
  9
$PLIMMAX
 10
12.0
 20
9.0
  9
$UNITMODE
 70
     0
  9
$VISRETAIN
 70
     1
  9
$PLINEGEN
 70
     0
  9
$PSLTSCALE
 70
     1
  9
$TREEDEPTH
 70
  3020
  9
$CMLSTYLE
  2
Standard
  9
$CMLJUST
 70
     0
  9
$CMLSCALE
 40
1.0
  9
$PROXYGRAPHICS
 70
     1
  9
$MEASUREMENT
 70
     0
  9
$CELWEIGHT
370
    -1
  9
$ENDCAPS
280
     0
  9
$JOINSTYLE
280
     0
  9
$LWDISPLAY
290
     0
  9
$INSUNITS
 70
     0
  9
$HYPERLINKBASE
  1

  9
$STYLESHEET
  1

  9
$XEDIT
290
     1
  9
$CEPSNTYPE
380
     0
  9
$PSTYLEMODE
290
     1
  9
$FINGERPRINTGUID
  2
{F00930B7-AF0D-4468-9E19-5CD369BCA89F}
  9
$VERSIONGUID
  2
{EFAE4768-0BB4-4525-9520-D4FB7A9F31D7}
  9
$EXTNAMES
290
     1
  9
$PSVPSCALE
 40
0.0
  9
$OLESTARTUP
290
     0
  0
ENDSEC
  0
SECTION
  2
CLASSES
  0
CLASS
  1
ACDBDICTIONARYWDFLT
  2
AcDbDictionaryWithDefault
  3
AutoCAD 2000
 90
        0
280
     0
281
     0
  0
CLASS
  1
ACDBPLACEHOLDER
  2
AcDbPlaceHolder
  3
AutoCAD 2000
 90
        0
280
     0
281
     0
  0
CLASS
  1
LAYOUT
  2
AcDbLayout
  3
AutoCAD 2000
 90
        0
280
     0
281
     0
  0
CLASS
  1
DICTIONARYVAR
  2
AcDbDictionaryVar
  3
AutoCAD 2000
 90
        0
280
     0
281
     0
  0
ENDSEC
  0
SECTION
  2
TABLES
  0
TABLE
  2
VPORT
  5
8
330
0
100
AcDbSymbolTable
 70
     3
  0
VPORT
  5
63D
330
8
100
AcDbSymbolTableRecord
100
AcDbViewportTableRecord
  2
*Active
 70
     0
 10
0.0
 20
0.0
 11
1.0
 21
1.0
 12
350.0
 22
390.5
 13
0.0
 23
0.0
 14
1.0
 24
1.0
 15
0.0
 25
0.0
 16
0.0
 26
0.0
 36
1.0
 17
0.0
 27
0.0
 37
0.0
 40
785.9265817361894
 41
2.073363431151241
 42
50.0
 43
0.0
 44
0.0
 50
0.0
 51
0.0
 71
     0
 72
   100
 73
     1
 74
     3
 75
     0
 76
     0
 77
     0
 78
     0
281
     0
 65
     1
110
0.0
120
0.0
130
0.0
111
1.0
121
0.0
131
0.0
112
0.0
122
1.0
132
0.0
 79
     1
146
0.0
  0
ENDTAB
  0
TABLE
  2
LTYPE
  5
5
330
0
100
AcDbSymbolTable
 70
     1
  0
LTYPE
  5
13
330
5
100
AcDbSymbolTableRecord
100
AcDbLinetypeTableRecord
  2
ByBlock
 70
     0
  3

 72
    65
 73
     0
 40
0.0
  0
LTYPE
  5
14
330
5
100
AcDbSymbolTableRecord
100
AcDbLinetypeTableRecord
  2
ByLayer
 70
     0
  3

 72
    65
 73
     0
 40
0.0
  0
LTYPE
  5
15
330
5
100
AcDbSymbolTableRecord
100
AcDbLinetypeTableRecord
  2
Continuous
 70
     0
  3
Solid line
 72
    65
 73
     0
 40
0.0
  0
ENDTAB
  0
TABLE
  2
LAYER
  5
2
330
0
100
AcDbSymbolTable
 70
     1
  0
LAYER
  5
10
330
2
100
AcDbSymbolTableRecord
100
AcDbLayerTableRecord
  2
0
 70
     0
 62
     7
  6
Continuous
370
    -3
390
F
  0
ENDTAB
  0
TABLE
  2
STYLE
  5
3
330
0
100
AcDbSymbolTable
 70
     1
  0
STYLE
  5
11
330
3
100
AcDbSymbolTableRecord
100
AcDbTextStyleTableRecord
  2
Standard
 70
     0
 40
0.0
 41
1.0
 50
0.0
 71
     0
 42
0.2
  3
txt
  4

  0
ENDTAB
  0
TABLE
  2
VIEW
  5
6
330
0
100
AcDbSymbolTable
 70
     0
  0
ENDTAB
  0
TABLE
  2
UCS
  5
7
330
0
100
AcDbSymbolTable
 70
     0
  0
ENDTAB
  0
TABLE
  2
APPID
  5
9
330
0
100
AcDbSymbolTable
 70
     1
  0
APPID
  5
12
330
9
100
AcDbSymbolTableRecord
100
AcDbRegAppTableRecord
  2
ACAD
 70
     0
  0
ENDTAB
  0
TABLE
  2
DIMSTYLE
  5
A
330
0
100
AcDbSymbolTable
 70
     1
100
AcDbDimStyleTable
 71
     0
  0
DIMSTYLE
105
636
330
A
100
AcDbSymbolTableRecord
100
AcDbDimStyleTableRecord
  2
Standard
 70
     0
340
11
  0
ENDTAB
  0
TABLE
  2
BLOCK_RECORD
  5
1
330
0
100
AcDbSymbolTable
 70
     0
  0
BLOCK_RECORD
  5
1E
330
1
100
AcDbSymbolTableRecord
100
AcDbBlockTableRecord
  2
*Model_Space
340
21
  0
BLOCK_RECORD
  5
1A
330
1
100
AcDbSymbolTableRecord
100
AcDbBlockTableRecord
  2
*Paper_Space
340
1D
  0
ENDTAB
  0
ENDSEC
  0
SECTION
  2
BLOCKS
  0
BLOCK
  5
1F
330
1E
100
AcDbEntity
  8
0
100
AcDbBlockBegin
  2
*Model_Space
 70
     0
 10
0.0
 20
0.0
 30
0.0
  3
*Model_Space
  1

  0
ENDBLK
  5
20
330
1E
100
AcDbEntity
  8
0
100
AcDbBlockEnd
  0
BLOCK
  5
1B
330
1A
100
AcDbEntity
 67
     1
  8
0
100
AcDbBlockBegin
  2
*Paper_Space
 70
     0
 10
0.0
 20
0.0
 30
0.0
  3
*Paper_Space
  1

  0
ENDBLK
  5
1C
330
1A
100
AcDbEntity
 67
     1
  8
0
100
AcDbBlockEnd
  0
ENDSEC
  0
SECTION
  2
ENTITIES
  0
LINE
  5
22
330
1E
100
AcDbEntity
  8
0
100
AcDbLine
 10
0.0
 20
50.177
 30
0.0
 11
0.0
 21
0.177000000000038
 31
0.0
  0
LINE
  5
23
330
1E
100
AcDbEntity
  8
0
100
AcDbLine
 10
0.0
 20
50.177
 30
0.0
 11
149.0
 21
250.177
 31
0.0
  0
LINE
  5
24
330
1E
100
AcDbEntity
  8
0
100
AcDbLine
 10
0.0
 20
50.177
 30
0.0
 11
0.0
 21
0.177000000000049
 31
0.0
  0
LINE
  5
25
330
1E
100
AcDbEntity
  8
0
100
AcDbLine
 10
0.0
 20
50.177
 30
0.0
 11
149.0
 21
250.177
 31
0.0
  0
LINE
  5
26
330
1E
100
AcDbEntity
  8
0
100
AcDbLine
 10
0.0
 20
0.177000000000038
 30
0.0
 11
700.0
 21
0.177000000000038
 31
0.0
  0
LINE
  5
27
330
1E
100
AcDbEntity
  8
0
100
AcDbLine
 10
0.0
 20
0.177000000000038
 30
0.0
 11
0.0
 21
50.177
 31
0.0
  0
LINE
  5
28
330
1E
100
AcDbEntity
  8
0
100
AcDbLine
 10
149.0
 20
250.177
 30
0.0
 11
149.0
 21
550.177
 31
0.0
  0
LINE
  5
29
330
1E
100
AcDbEntity
  8
0
100
AcDbLine
 10
149.0
 20
550.177
 30
0.0
 11
325.0
 21
550.177
 31
0.0
  0
LINE
  5
2A
330
1E
100
AcDbEntity
  8
0
100
AcDbLine
 10
149.0
 20
550.177
 30
0.0
 11
149.0
 21
250.177
 31
0.0
  0
LINE
  5
2B
330
1E
100
AcDbEntity
  8
0
100
AcDbLine
 10
149.0
 20
450.1769999999999
 30
0.0
 11
149.0
 21
250.177
 31
0.0
  0
LINE
  5
2C
330
1E
100
AcDbEntity
  8
0
100
AcDbLine
 10
149.0
 20
450.1769999999999
 30
0.0
 11
551.0
 21
450.1769999999999
 31
0.0
  0
LINE
  5
2D
330
1E
100
AcDbEntity
  8
0
100
AcDbLine
 10
0.0
 20
0.17700000000005
 30
0.0
 11
700.0
 21
0.17700000000005
 31
0.0
  0
LINE
  5
2E
330
1E
100
AcDbEntity
  8
0
100
AcDbLine
 10
0.0
 20
0.17700000000005
 30
0.0
 11
0.0
 21
50.177
 31
0.0
  0
LINE
  5
2F
330
1E
100
AcDbEntity
  8
0
100
AcDbLine
 10
314.5
 20
606.6769999999999
 30
0.0
 11
315.0
 21
607.177
 31
0.0
  0
LINE
  5
30
330
1E
100
AcDbEntity
  8
0
100
AcDbLine
 10
314.5
 20
606.6769999999999
 30
0.0
 11
315.73
 21
606.6769999999999
 31
0.0
  0
LINE
  5
31
330
1E
100
AcDbEntity
  8
0
100
AcDbLine
 10
314.5
 20
606.6769999999999
 30
0.0
 11
314.5
 21
600.177
 31
0.0
  0
LINE
  5
32
330
1E
100
AcDbEntity
  8
0
100
AcDbLine
 10
317.144
 20
555.177
 30
0.0
 11
317.528
 21
555.177
 31
0.0
  0
LINE
  5
33
330
1E
100
AcDbEntity
  8
0
100
AcDbLine
 10
317.144
 20
560.177
 30
0.0
 11
317.528
 21
560.177
 31
0.0
  0
LINE
  5
34
330
1E
100
AcDbEntity
  8
0
100
AcDbLine
 10
317.0
 20
555.177
 30
0.0
 11
317.144
 21
555.177
 31
0.0
  0
LINE
  5
35
330
1E
100
AcDbEntity
  8
0
100
AcDbLine
 10
317.0
 20
555.177
 30
0.0
 11
317.0
 21
560.177
 31
0.0
  0
LINE
  5
36
330
1E
100
AcDbEntity
  8
0
100
AcDbLine
 10
319.0159999999999
 20
555.177
 30
0.0
 11
319.9759999999999
 21
555.177
 31
0.0
  0
LINE
  5
37
330
1E
100
AcDbEntity
  8
0
100
AcDbLine
 10
318.168
 20
555.177
 30
0.0
 11
319.0159999999999
 21
555.177
 31
0.0
  0
LINE
  5
38
330
1E
100
AcDbEntity
  8
0
100
AcDbLine
 10
318.168
 20
560.177
 30
0.0
 11
319.0159999999999
 21
560.177
 31
0.0
  0
LINE
  5
39
330
1E
100
AcDbEntity
  8
0
100
AcDbLine
 10
317.528
 20
560.177
 30
0.0
 11
318.168
 21
560.177
 31
0.0
  0
LINE
  5
3A
330
1E
100
AcDbEntity
  8
0
100
AcDbLine
 10
317.528
 20
555.177
 30
0.0
 11
318.168
 21
555.177
 31
0.0
  0
LINE
  5
3B
330
1E
100
AcDbEntity
  8
0
100
AcDbLine
 10
319.0159999999999
 20
560.177
 30
0.0
 11
319.9759999999999
 21
560.177
 31
0.0
  0
LINE
  5
3C
330
1E
100
AcDbEntity
  8
0
100
AcDbLine
 10
318.109
 20
560.177
 30
0.0
 11
319.4529999999999
 21
560.177
 31
0.0
  0
LINE
  5
3D
330
1E
100
AcDbEntity
  8
0
100
AcDbLine
 10
317.302
 20
560.177
 30
0.0
 11
318.109
 21
560.177
 31
0.0
  0
LINE
  5
3E
330
1E
100
AcDbEntity
  8
0
100
AcDbLine
 10
318.0
 20
565.1769999999999
 30
0.0
 11
318.0
 21
580.177
 31
0.0
  0
LINE
  5
3F
330
1E
100
AcDbEntity
  8
0
100
AcDbLine
 10
318.109
 20
565.1769999999999
 30
0.0
 11
319.4529999999999
 21
565.1769999999999
 31
0.0
  0
LINE
  5
40
330
1E
100
AcDbEntity
  8
0
100
AcDbLine
 10
318.8759999999999
 20
580.177
 30
0.0
 11
319.512
 21
580.177
 31
0.0
  0
LINE
  5
41
330
1E
100
AcDbEntity
  8
0
100
AcDbLine
 10
318.3959999999999
 20
580.177
 30
0.0
 11
318.8759999999999
 21
580.177
 31
0.0
  0
LINE
  5
42
330
1E
100
AcDbEntity
  8
0
100
AcDbLine
 10
318.108
 20
580.177
 30
0.0
 11
318.3959999999999
 21
580.177
 31
0.0
  0
LINE
  5
43
330
1E
100
AcDbEntity
  8
0
100
AcDbLine
 10
318.0
 20
580.177
 30
0.0
 11
318.0
 21
565.1769999999999
 31
0.0
  0
LINE
  5
44
330
1E
100
AcDbEntity
  8
0
100
AcDbLine
 10
318.0
 20
580.177
 30
0.0
 11
318.108
 21
580.177
 31
0.0
  0
LINE
  5
45
330
1E
100
AcDbEntity
  8
0
100
AcDbLine
 10
317.302
 20
565.1769999999999
 30
0.0
 11
318.109
 21
565.1769999999999
 31
0.0
  0
LINE
  5
46
330
1E
100
AcDbEntity
  8
0
100
AcDbLine
 10
317.0
 20
565.1769999999999
 30
0.0
 11
317.0
 21
560.177
 31
0.0
  0
LINE
  5
47
330
1E
100
AcDbEntity
  8
0
100
AcDbLine
 10
317.0
 20
565.1769999999999
 30
0.0
 11
317.302
 21
565.1769999999999
 31
0.0
  0
LINE
  5
48
330
1E
100
AcDbEntity
  8
0
100
AcDbLine
 10
317.0
 20
560.177
 30
0.0
 11
317.302
 21
560.177
 31
0.0
  0
LINE
  5
49
330
1E
100
AcDbEntity
  8
0
100
AcDbLine
 10
317.0
 20
560.177
 30
0.0
 11
317.0
 21
565.1769999999999
 31
0.0
  0
LINE
  5
4A
330
1E
100
AcDbEntity
  8
0
100
AcDbLine
 10
317.0
 20
560.177
 30
0.0
 11
317.0
 21
555.177
 31
0.0
  0
LINE
  5
4B
330
1E
100
AcDbEntity
  8
0
100
AcDbLine
 10
317.0
 20
560.177
 30
0.0
 11
317.144
 21
560.177
 31
0.0
  0
LINE
  5
4C
330
1E
100
AcDbEntity
  8
0
100
AcDbLine
 10
319.4529999999999
 20
565.1769999999999
 30
0.0
 11
321.5299999999999
 21
565.1769999999999
 31
0.0
  0
LINE
  5
4D
330
1E
100
AcDbEntity
  8
0
100
AcDbLine
 10
319.9759999999999
 20
560.177
 30
0.0
 11
321.0
 21
560.177
 31
0.0
  0
LINE
  5
4E
330
1E
100
AcDbEntity
  8
0
100
AcDbLine
 10
321.0
 20
555.177
 30
0.0
 11
322.0239999999999
 21
555.177
 31
0.0
  0
LINE
  5
4F
330
1E
100
AcDbEntity
  8
0
100
AcDbLine
 10
321.0
 20
560.177
 30
0.0
 11
322.0239999999999
 21
560.177
 31
0.0
  0
LINE
  5
50
330
1E
100
AcDbEntity
  8
0
100
AcDbLine
 10
322.0239999999999
 20
560.177
 30
0.0
 11
322.984
 21
560.177
 31
0.0
  0
LINE
  5
51
330
1E
100
AcDbEntity
  8
0
100
AcDbLine
 10
322.0239999999999
 20
555.177
 30
0.0
 11
322.984
 21
555.177
 31
0.0
  0
LINE
  5
52
330
1E
100
AcDbEntity
  8
0
100
AcDbLine
 10
319.9759999999999
 20
555.177
 30
0.0
 11
321.0
 21
555.177
 31
0.0
  0
LINE
  5
53
330
1E
100
AcDbEntity
  8
0
100
AcDbLine
 10
320.232
 20
580.177
 30
0.0
 11
321.0
 21
580.177
 31
0.0
  0
LINE
  5
54
330
1E
100
AcDbEntity
  8
0
100
AcDbLine
 10
319.512
 20
580.177
 30
0.0
 11
320.232
 21
580.177
 31
0.0
  0
LINE
  5
55
330
1E
100
AcDbEntity
  8
0
100
AcDbLine
 10
321.5299999999999
 20
565.1769999999999
 30
0.0
 11
322.9659999999999
 21
565.1769999999999
 31
0.0
  0
LINE
  5
56
330
1E
100
AcDbEntity
  8
0
100
AcDbLine
 10
321.647
 20
560.177
 30
0.0
 11
323.157
 21
560.177
 31
0.0
  0
LINE
  5
57
330
1E
100
AcDbEntity
  8
0
100
AcDbLine
 10
319.4529999999999
 20
560.177
 30
0.0
 11
321.647
 21
560.177
 31
0.0
  0
LINE
  5
58
330
1E
100
AcDbEntity
  8
0
100
AcDbLine
 10
321.0
 20
580.177
 30
0.0
 11
321.0
 21
600.177
 31
0.0
  0
LINE
  5
59
330
1E
100
AcDbEntity
  8
0
100
AcDbLine
 10
321.0
 20
580.177
 30
0.0
 11
321.7679999999999
 21
580.177
 31
0.0
  0
LINE
  5
5A
330
1E
100
AcDbEntity
  8
0
100
AcDbLine
 10
322.984
 20
560.177
 30
0.0
 11
323.8319999999999
 21
560.177
 31
0.0
  0
LINE
  5
5B
330
1E
100
AcDbEntity
  8
0
100
AcDbLine
 10
322.984
 20
555.177
 30
0.0
 11
323.8319999999999
 21
555.177
 31
0.0
  0
LINE
  5
5C
330
1E
100
AcDbEntity
  8
0
100
AcDbLine
 10
322.9659999999999
 20
565.1769999999999
 30
0.0
 11
323.157
 21
560.177
 31
0.0
  0
LINE
  5
5D
330
1E
100
AcDbEntity
  8
0
100
AcDbLine
 10
322.9659999999999
 20
565.1769999999999
 30
0.0
 11
325.6959999999999
 21
565.1769999999999
 31
0.0
  0
LINE
  5
5E
330
1E
100
AcDbEntity
  8
0
100
AcDbLine
 10
323.8319999999999
 20
555.177
 30
0.0
 11
324.472
 21
555.177
 31
0.0
  0
LINE
  5
5F
330
1E
100
AcDbEntity
  8
0
100
AcDbLine
 10
323.8319999999999
 20
560.177
 30
0.0
 11
324.472
 21
560.177
 31
0.0
  0
LINE
  5
60
330
1E
100
AcDbEntity
  8
0
100
AcDbLine
 10
324.472
 20
560.177
 30
0.0
 11
324.8559999999999
 21
560.177
 31
0.0
  0
LINE
  5
61
330
1E
100
AcDbEntity
  8
0
100
AcDbLine
 10
324.8559999999999
 20
560.177
 30
0.0
 11
325.0
 21
560.177
 31
0.0
  0
LINE
  5
62
330
1E
100
AcDbEntity
  8
0
100
AcDbLine
 10
324.472
 20
555.177
 30
0.0
 11
324.8559999999999
 21
555.177
 31
0.0
  0
LINE
  5
63
330
1E
100
AcDbEntity
  8
0
100
AcDbLine
 10
325.0
 20
555.177
 30
0.0
 11
325.0
 21
560.177
 31
0.0
  0
LINE
  5
64
330
1E
100
AcDbEntity
  8
0
100
AcDbLine
 10
324.8559999999999
 20
555.177
 30
0.0
 11
325.0
 21
555.177
 31
0.0
  0
LINE
  5
65
330
1E
100
AcDbEntity
  8
0
100
AcDbLine
 10
324.0
 20
565.1769999999999
 30
0.0
 11
324.0
 21
580.177
 31
0.0
  0
LINE
  5
66
330
1E
100
AcDbEntity
  8
0
100
AcDbLine
 10
323.157
 20
560.177
 30
0.0
 11
325.8999999999999
 21
560.177
 31
0.0
  0
LINE
  5
67
330
1E
100
AcDbEntity
  8
0
100
AcDbLine
 10
323.157
 20
560.177
 30
0.0
 11
325.6959999999999
 21
560.177
 31
0.0
  0
LINE
  5
68
330
1E
100
AcDbEntity
  8
0
100
AcDbLine
 10
322.488
 20
580.177
 30
0.0
 11
323.124
 21
580.177
 31
0.0
  0
LINE
  5
69
330
1E
100
AcDbEntity
  8
0
100
AcDbLine
 10
323.124
 20
580.177
 30
0.0
 11
323.604
 21
580.177
 31
0.0
  0
LINE
  5
6A
330
1E
100
AcDbEntity
  8
0
100
AcDbLine
 10
323.604
 20
580.177
 30
0.0
 11
323.892
 21
580.177
 31
0.0
  0
LINE
  5
6B
330
1E
100
AcDbEntity
  8
0
100
AcDbLine
 10
323.892
 20
580.177
 30
0.0
 11
324.0
 21
580.177
 31
0.0
  0
LINE
  5
6C
330
1E
100
AcDbEntity
  8
0
100
AcDbLine
 10
325.0
 20
565.1769999999999
 30
0.0
 11
325.0
 21
580.177
 31
0.0
  0
LINE
  5
6D
330
1E
100
AcDbEntity
  8
0
100
AcDbLine
 10
325.0
 20
560.177
 30
0.0
 11
325.0
 21
520.177
 31
0.0
  0
LINE
  5
6E
330
1E
100
AcDbEntity
  8
0
100
AcDbLine
 10
325.0
 20
560.177
 30
0.0
 11
325.0
 21
555.177
 31
0.0
  0
LINE
  5
6F
330
1E
100
AcDbEntity
  8
0
100
AcDbLine
 10
325.0
 20
580.177
 30
0.0
 11
325.0
 21
565.1769999999999
 31
0.0
  0
LINE
  5
70
330
1E
100
AcDbEntity
  8
0
100
AcDbLine
 10
325.0
 20
580.177
 30
0.0
 11
325.8999999999999
 21
580.177
 31
0.0
  0
LINE
  5
71
330
1E
100
AcDbEntity
  8
0
100
AcDbLine
 10
328.3
 20
520.177
 30
0.0
 11
332.3
 21
520.177
 31
0.0
  0
LINE
  5
72
330
1E
100
AcDbEntity
  8
0
100
AcDbLine
 10
328.3
 20
520.177
 30
0.0
 11
330.0
 21
520.177
 31
0.0
  0
LINE
  5
73
330
1E
100
AcDbEntity
  8
0
100
AcDbLine
 10
325.6959999999999
 20
565.1769999999999
 30
0.0
 11
330.1759999999999
 21
565.1769999999999
 31
0.0
  0
LINE
  5
74
330
1E
100
AcDbEntity
  8
0
100
AcDbLine
 10
325.6959999999999
 20
560.177
 30
0.0
 11
330.1759999999999
 21
560.177
 31
0.0
  0
LINE
  5
75
330
1E
100
AcDbEntity
  8
0
100
AcDbLine
 10
328.3
 20
580.177
 30
0.0
 11
332.3
 21
580.177
 31
0.0
  0
LINE
  5
76
330
1E
100
AcDbEntity
  8
0
100
AcDbLine
 10
325.8999999999999
 20
580.177
 30
0.0
 11
328.3
 21
580.177
 31
0.0
  0
LINE
  5
77
330
1E
100
AcDbEntity
  8
0
100
AcDbLine
 10
325.8999999999999
 20
520.177
 30
0.0
 11
328.3
 21
520.177
 31
0.0
  0
LINE
  5
78
330
1E
100
AcDbEntity
  8
0
100
AcDbLine
 10
325.0
 20
520.177
 30
0.0
 11
325.8999999999999
 21
520.177
 31
0.0
  0
LINE
  5
79
330
1E
100
AcDbEntity
  8
0
100
AcDbLine
 10
325.0
 20
520.177
 30
0.0
 11
325.0
 21
560.177
 31
0.0
  0
LINE
  5
7A
330
1E
100
AcDbEntity
  8
0
100
AcDbLine
 10
324.0
 20
580.177
 30
0.0
 11
324.8279999999999
 21
580.177
 31
0.0
  0
LINE
  5
7B
330
1E
100
AcDbEntity
  8
0
100
AcDbLine
 10
324.0
 20
580.177
 30
0.0
 11
324.0
 21
565.1769999999999
 31
0.0
  0
LINE
  5
7C
330
1E
100
AcDbEntity
  8
0
100
AcDbLine
 10
330.0
 20
520.177
 30
0.0
 11
330.0
 21
470.1769999999999
 31
0.0
  0
LINE
  5
7D
330
1E
100
AcDbEntity
  8
0
100
AcDbLine
 10
330.0
 20
520.177
 30
0.0
 11
330.72
 21
520.177
 31
0.0
  0
LINE
  5
7E
330
1E
100
AcDbEntity
  8
0
100
AcDbLine
 10
332.0
 20
450.1769999999999
 30
0.0
 11
332.0
 21
470.1769999999999
 31
0.0
  0
LINE
  5
7F
330
1E
100
AcDbEntity
  8
0
100
AcDbLine
 10
332.0
 20
470.1769999999999
 30
0.0
 11
332.0
 21
450.1769999999999
 31
0.0
  0
LINE
  5
80
330
1E
100
AcDbEntity
  8
0
100
AcDbLine
 10
332.0
 20
470.1769999999999
 30
0.0
 11
332.648
 21
470.1769999999999
 31
0.0
  0
LINE
  5
81
330
1E
100
AcDbEntity
  8
0
100
AcDbLine
 10
330.72
 20
520.177
 30
0.0
 11
332.64
 21
520.177
 31
0.0
  0
LINE
  5
82
330
1E
100
AcDbEntity
  8
0
100
AcDbLine
 10
330.72
 20
470.1769999999999
 30
0.0
 11
332.64
 21
470.1769999999999
 31
0.0
  0
LINE
  5
83
330
1E
100
AcDbEntity
  8
0
100
AcDbLine
 10
330.72
 20
470.1769999999999
 30
0.0
 11
332.0
 21
470.1769999999999
 31
0.0
  0
LINE
  5
84
330
1E
100
AcDbEntity
  8
0
100
AcDbLine
 10
330.0
 20
470.1769999999999
 30
0.0
 11
330.72
 21
470.1769999999999
 31
0.0
  0
LINE
  5
85
330
1E
100
AcDbEntity
  8
0
100
AcDbLine
 10
330.0
 20
470.1769999999999
 30
0.0
 11
330.0
 21
520.177
 31
0.0
  0
LINE
  5
86
330
1E
100
AcDbEntity
  8
0
100
AcDbLine
 10
330.1759999999999
 20
565.1769999999999
 30
0.0
 11
336.1119999999999
 21
565.1769999999999
 31
0.0
  0
LINE
  5
87
330
1E
100
AcDbEntity
  8
0
100
AcDbLine
 10
330.1759999999999
 20
560.177
 30
0.0
 11
336.1119999999999
 21
560.177
 31
0.0
  0
LINE
  5
88
330
1E
100
AcDbEntity
  8
0
100
AcDbLine
 10
329.468
 20
580.177
 30
0.0
 11
335.616
 21
580.177
 31
0.0
  0
LINE
  5
89
330
1E
100
AcDbEntity
  8
0
100
AcDbLine
 10
324.8279999999999
 20
580.177
 30
0.0
 11
329.468
 21
580.177
 31
0.0
  0
LINE
  5
8A
330
1E
100
AcDbEntity
  8
0
100
AcDbLine
 10
324.8279999999999
 20
580.177
 30
0.0
 11
325.0
 21
580.177
 31
0.0
  0
LINE
  5
8B
330
1E
100
AcDbEntity
  8
0
100
AcDbLine
 10
322.044
 20
580.177
 30
0.0
 11
324.8279999999999
 21
580.177
 31
0.0
  0
LINE
  5
8C
330
1E
100
AcDbEntity
  8
0
100
AcDbLine
 10
329.468
 20
600.177
 30
0.0
 11
335.616
 21
600.177
 31
0.0
  0
LINE
  5
8D
330
1E
100
AcDbEntity
  8
0
100
AcDbLine
 10
324.8279999999999
 20
600.177
 30
0.0
 11
329.468
 21
600.177
 31
0.0
  0
LINE
  5
8E
330
1E
100
AcDbEntity
  8
0
100
AcDbLine
 10
322.044
 20
600.177
 30
0.0
 11
324.8279999999999
 21
600.177
 31
0.0
  0
LINE
  5
8F
330
1E
100
AcDbEntity
  8
0
100
AcDbLine
 10
321.0
 20
600.177
 30
0.0
 11
321.0
 21
580.177
 31
0.0
  0
LINE
  5
90
330
1E
100
AcDbEntity
  8
0
100
AcDbLine
 10
321.0
 20
600.177
 30
0.0
 11
322.044
 21
600.177
 31
0.0
  0
LINE
  5
91
330
1E
100
AcDbEntity
  8
0
100
AcDbLine
 10
321.7679999999999
 20
580.177
 30
0.0
 11
322.044
 21
580.177
 31
0.0
  0
LINE
  5
92
330
1E
100
AcDbEntity
  8
0
100
AcDbLine
 10
321.7679999999999
 20
580.177
 30
0.0
 11
322.488
 21
580.177
 31
0.0
  0
LINE
  5
93
330
1E
100
AcDbEntity
  8
0
100
AcDbLine
 10
332.3
 20
580.177
 30
0.0
 11
337.6
 21
580.177
 31
0.0
  0
LINE
  5
94
330
1E
100
AcDbEntity
  8
0
100
AcDbLine
 10
332.64
 20
520.177
 30
0.0
 11
335.8399999999999
 21
520.177
 31
0.0
  0
LINE
  5
95
330
1E
100
AcDbEntity
  8
0
100
AcDbLine
 10
334.3759999999999
 20
470.1769999999999
 30
0.0
 11
337.256
 21
470.1769999999999
 31
0.0
  0
LINE
  5
96
330
1E
100
AcDbEntity
  8
0
100
AcDbLine
 10
332.648
 20
470.1769999999999
 30
0.0
 11
334.3759999999999
 21
470.1769999999999
 31
0.0
  0
LINE
  5
97
330
1E
100
AcDbEntity
  8
0
100
AcDbLine
 10
335.8399999999999
 20
520.177
 30
0.0
 11
340.0799999999999
 21
520.177
 31
0.0
  0
LINE
  5
98
330
1E
100
AcDbEntity
  8
0
100
AcDbLine
 10
335.8399999999999
 20
470.1769999999999
 30
0.0
 11
340.0799999999999
 21
470.1769999999999
 31
0.0
  0
LINE
  5
99
330
1E
100
AcDbEntity
  8
0
100
AcDbLine
 10
332.64
 20
470.1769999999999
 30
0.0
 11
335.8399999999999
 21
470.1769999999999
 31
0.0
  0
LINE
  5
9A
330
1E
100
AcDbEntity
  8
0
100
AcDbLine
 10
336.1119999999999
 20
565.1769999999999
 30
0.0
 11
342.8319999999999
 21
565.1769999999999
 31
0.0
  0
LINE
  5
9B
330
1E
100
AcDbEntity
  8
0
100
AcDbLine
 10
336.1119999999999
 20
560.177
 30
0.0
 11
342.8319999999999
 21
560.177
 31
0.0
  0
LINE
  5
9C
330
1E
100
AcDbEntity
  8
0
100
AcDbLine
 10
332.3
 20
520.177
 30
0.0
 11
337.6
 21
520.177
 31
0.0
  0
LINE
  5
9D
330
1E
100
AcDbEntity
  8
0
100
AcDbLine
 10
335.616
 20
600.177
 30
0.0
 11
342.5759999999999
 21
600.177
 31
0.0
  0
LINE
  5
9E
330
1E
100
AcDbEntity
  8
0
100
AcDbLine
 10
335.616
 20
580.177
 30
0.0
 11
342.5759999999999
 21
580.177
 31
0.0
  0
LINE
  5
9F
330
1E
100
AcDbEntity
  8
0
100
AcDbLine
 10
332.16
 20
600.177
 30
0.0
 11
340.85
 21
600.177
 31
0.0
  0
LINE
  5
A0
330
1E
100
AcDbEntity
  8
0
100
AcDbLine
 10
324.85
 20
600.177
 30
0.0
 11
332.16
 21
600.177
 31
0.0
  0
LINE
  5
A1
330
1E
100
AcDbEntity
  8
0
100
AcDbLine
 10
324.85
 20
600.177
 30
0.0
 11
324.85
 21
606.6769999999999
 31
0.0
  0
LINE
  5
A2
330
1E
100
AcDbEntity
  8
0
100
AcDbLine
 10
319.16
 20
600.177
 30
0.0
 11
321.0
 21
600.177
 31
0.0
  0
LINE
  5
A3
330
1E
100
AcDbEntity
  8
0
100
AcDbLine
 10
319.16
 20
600.177
 30
0.0
 11
324.85
 21
600.177
 31
0.0
  0
LINE
  5
A4
330
1E
100
AcDbEntity
  8
0
100
AcDbLine
 10
332.16
 20
606.6769999999999
 30
0.0
 11
340.85
 21
606.6769999999999
 31
0.0
  0
LINE
  5
A5
330
1E
100
AcDbEntity
  8
0
100
AcDbLine
 10
324.85
 20
606.6769999999999
 30
0.0
 11
332.16
 21
606.6769999999999
 31
0.0
  0
LINE
  5
A6
330
1E
100
AcDbEntity
  8
0
100
AcDbLine
 10
319.16
 20
606.6769999999999
 30
0.0
 11
324.85
 21
606.6769999999999
 31
0.0
  0
LINE
  5
A7
330
1E
100
AcDbEntity
  8
0
100
AcDbLine
 10
332.64
 20
607.177
 30
0.0
 11
341.04
 21
607.177
 31
0.0
  0
LINE
  5
A8
330
1E
100
AcDbEntity
  8
0
100
AcDbLine
 10
325.22
 20
607.177
 30
0.0
 11
332.64
 21
607.177
 31
0.0
  0
LINE
  5
A9
330
1E
100
AcDbEntity
  8
0
100
AcDbLine
 10
319.62
 20
607.177
 30
0.0
 11
325.22
 21
607.177
 31
0.0
  0
LINE
  5
AA
330
1E
100
AcDbEntity
  8
0
100
AcDbLine
 10
316.2599999999999
 20
607.177
 30
0.0
 11
319.62
 21
607.177
 31
0.0
  0
LINE
  5
AB
330
1E
100
AcDbEntity
  8
0
100
AcDbLine
 10
315.73
 20
606.6769999999999
 30
0.0
 11
319.16
 21
606.6769999999999
 31
0.0
  0
LINE
  5
AC
330
1E
100
AcDbEntity
  8
0
100
AcDbLine
 10
315.0
 20
607.177
 30
0.0
 11
316.2599999999999
 21
607.177
 31
0.0
  0
LINE
  5
AD
330
1E
100
AcDbEntity
  8
0
100
AcDbLine
 10
315.73
 20
600.177
 30
0.0
 11
319.16
 21
600.177
 31
0.0
  0
LINE
  5
AE
330
1E
100
AcDbEntity
  8
0
100
AcDbLine
 10
314.5
 20
600.177
 30
0.0
 11
314.5
 21
606.6769999999999
 31
0.0
  0
LINE
  5
AF
330
1E
100
AcDbEntity
  8
0
100
AcDbLine
 10
314.5
 20
600.177
 30
0.0
 11
315.73
 21
600.177
 31
0.0
  0
LINE
  5
B0
330
1E
100
AcDbEntity
  8
0
100
AcDbLine
 10
335.0
 20
607.177
 30
0.0
 11
335.0
 21
623.552
 31
0.0
  0
LINE
  5
B1
330
1E
100
AcDbEntity
  8
0
100
AcDbLine
 10
337.256
 20
470.1769999999999
 30
0.0
 11
341.0719999999999
 21
470.1769999999999
 31
0.0
  0
LINE
  5
B2
330
1E
100
AcDbEntity
  8
0
100
AcDbLine
 10
337.6
 20
580.177
 30
0.0
 11
343.6
 21
580.177
 31
0.0
  0
LINE
  5
B3
330
1E
100
AcDbEntity
  8
0
100
AcDbLine
 10
337.6
 20
520.177
 30
0.0
 11
343.6
 21
520.177
 31
0.0
  0
LINE
  5
B4
330
1E
100
AcDbEntity
  8
0
100
AcDbLine
 10
336.9689999999999
 20
618.707
 30
0.0
 11
339.373
 21
616.722
 31
0.0
  0
LINE
  5
B5
330
1E
100
AcDbEntity
  8
0
100
AcDbLine
 10
335.0
 20
623.552
 30
0.0
 11
335.5199999999999
 21
621.067
 31
0.0
  0
LINE
  5
B6
330
1E
100
AcDbEntity
  8
0
100
AcDbLine
 10
335.0
 20
623.552
 30
0.0
 11
335.211
 21
623.7319999999999
 31
0.0
  0
LINE
  5
B7
330
1E
100
AcDbEntity
  8
0
100
AcDbLine
 10
335.0
 20
623.552
 30
0.0
 11
335.5199999999999
 21
626.0369999999999
 31
0.0
  0
LINE
  5
B8
330
1E
100
AcDbEntity
  8
0
100
AcDbLine
 10
335.5199999999999
 20
621.067
 30
0.0
 11
336.9689999999999
 21
618.707
 31
0.0
  0
LINE
  5
B9
330
1E
100
AcDbEntity
  8
0
100
AcDbLine
 10
335.5199999999999
 20
626.0369999999999
 30
0.0
 11
336.0
 21
626.819111801242
 31
0.0
  0
LINE
  5
BA
330
1E
100
AcDbEntity
  8
0
100
AcDbLine
 10
335.744
 20
626.1649999999999
 30
0.0
 11
336.0
 21
626.5766927413671
 31
0.0
  0
LINE
  5
BB
330
1E
100
AcDbEntity
  8
0
100
AcDbLine
 10
335.211
 20
623.7319999999999
 30
0.0
 11
335.744
 21
621.2979999999999
 31
0.0
  0
LINE
  5
BC
330
1E
100
AcDbEntity
  8
0
100
AcDbLine
 10
335.211
 20
623.7319999999999
 30
0.0
 11
335.744
 21
626.1649999999999
 31
0.0
  0
LINE
  5
BD
330
1E
100
AcDbEntity
  8
0
100
AcDbLine
 10
336.0
 20
623.7319999999999
 30
0.0
 11
336.485
 21
621.4119999999999
 31
0.0
  0
LINE
  5
BE
330
1E
100
AcDbEntity
  8
0
100
AcDbLine
 10
336.0
 20
623.7319999999999
 30
0.0
 11
336.0
 21
640.393
 31
0.0
  0
LINE
  5
BF
330
1E
100
AcDbEntity
  8
0
100
AcDbLine
 10
336.485
 20
621.4119999999999
 30
0.0
 11
337.838
 21
619.21
 31
0.0
  0
LINE
  5
C0
330
1E
100
AcDbEntity
  8
0
100
AcDbLine
 10
336.485
 20
638.0740000000001
 30
0.0
 11
337.838
 21
635.871
 31
0.0
  0
LINE
  5
C1
330
1E
100
AcDbEntity
  8
0
100
AcDbLine
 10
337.838
 20
635.871
 30
0.0
 11
340.0819999999999
 21
634.018
 31
0.0
  0
LINE
  5
C2
330
1E
100
AcDbEntity
  8
0
100
AcDbLine
 10
337.838
 20
619.21
 30
0.0
 11
340.0819999999999
 21
617.3569999999999
 31
0.0
  0
LINE
  5
C3
330
1E
100
AcDbEntity
  8
0
100
AcDbLine
 10
336.0
 20
640.393
 30
0.0
 11
336.485
 21
638.0740000000001
 31
0.0
  0
LINE
  5
C4
330
1E
100
AcDbEntity
  8
0
100
AcDbLine
 10
336.0
 20
640.393
 30
0.0
 11
336.1969999999999
 21
640.585
 31
0.0
  0
LINE
  5
C5
330
1E
100
AcDbEntity
  8
0
100
AcDbLine
 10
336.0
 20
640.393
 30
0.0
 11
336.485
 21
642.713
 31
0.0
  0
LINE
  5
C6
330
1E
100
AcDbEntity
  8
0
100
AcDbLine
 10
336.485
 20
642.713
 30
0.0
 11
337.838
 21
644.9159999999999
 31
0.0
  0
LINE
  5
C7
330
1E
100
AcDbEntity
  8
0
100
AcDbLine
 10
336.694
 20
642.856
 30
0.0
 11
338.0
 21
644.955456603774
 31
0.0
  0
LINE
  5
C8
330
1E
100
AcDbEntity
  8
0
100
AcDbLine
 10
337.838
 20
644.9159999999999
 30
0.0
 11
338.0
 21
645.0497727272731
 31
0.0
  0
LINE
  5
C9
330
1E
100
AcDbEntity
  8
0
100
AcDbLine
 10
336.1969999999999
 20
640.585
 30
0.0
 11
336.694
 21
638.314
 31
0.0
  0
LINE
  5
CA
330
1E
100
AcDbEntity
  8
0
100
AcDbLine
 10
336.1969999999999
 20
640.585
 30
0.0
 11
336.694
 21
642.856
 31
0.0
  0
LINE
  5
CB
330
1E
100
AcDbEntity
  8
0
100
AcDbLine
 10
336.694
 20
638.314
 30
0.0
 11
338.019
 21
636.1839999999999
 31
0.0
  0
LINE
  5
CC
330
1E
100
AcDbEntity
  8
0
100
AcDbLine
 10
335.744
 20
621.2979999999999
 30
0.0
 11
337.163
 21
619.0169999999999
 31
0.0
  0
LINE
  5
CD
330
1E
100
AcDbEntity
  8
0
100
AcDbLine
 10
337.163
 20
619.0169999999999
 30
0.0
 11
339.5299999999999
 21
617.002
 31
0.0
  0
LINE
  5
CE
330
1E
100
AcDbEntity
  8
0
100
AcDbLine
 10
340.0799999999999
 20
520.177
 30
0.0
 11
344.8799999999999
 21
520.177
 31
0.0
  0
LINE
  5
CF
330
1E
100
AcDbEntity
  8
0
100
AcDbLine
 10
340.0799999999999
 20
470.1769999999999
 30
0.0
 11
344.8799999999999
 21
470.1769999999999
 31
0.0
  0
LINE
  5
D4
330
1E
100
AcDbEntity
  8
0
100
AcDbLine
 10
345.392
 20
470.1769999999999
 30
0.0
 11
350.0
 21
470.1769999999999
 31
0.0
  0
LINE
  5
D5
330
1E
100
AcDbEntity
  8
0
100
AcDbLine
 10
341.0719999999999
 20
470.1769999999999
 30
0.0
 11
345.392
 21
470.1769999999999
 31
0.0
  0
LINE
  5
D6
330
1E
100
AcDbEntity
  8
0
100
AcDbLine
 10
341.0719999999999
 20
470.1769999999999
 30
0.0
 11
341.0719999999999
 21
450.1769999999999
 31
0.0
  0
LINE
  5
D7
330
1E
100
AcDbEntity
  8
0
100
AcDbLine
 10
341.0719999999999
 20
450.1769999999999
 30
0.0
 11
341.0719999999999
 21
470.1769999999999
 31
0.0
  0
LINE
  5
D8
330
1E
100
AcDbEntity
  8
0
100
AcDbLine
 10
350.0
 20
470.1769999999999
 30
0.0
 11
355.12
 21
470.1769999999999
 31
0.0
  0
LINE
  5
DB
330
1E
100
AcDbEntity
  8
0
100
AcDbLine
 10
350.0
 20
470.1769999999999
 30
0.0
 11
354.6079999999999
 21
470.1769999999999
 31
0.0
  0
LINE
  5
DC
330
1E
100
AcDbEntity
  8
0
100
AcDbLine
 10
344.8799999999999
 20
520.177
 30
0.0
 11
350.0
 21
520.177
 31
0.0
  0
LINE
  5
DD
330
1E
100
AcDbEntity
  8
0
100
AcDbLine
 10
344.8799999999999
 20
470.1769999999999
 30
0.0
 11
350.0
 21
470.1769999999999
 31
0.0
  0
LINE
  5
DE
330
1E
100
AcDbEntity
  8
0
100
AcDbLine
 10
350.0
 20
520.177
 30
0.0
 11
356.4
 21
520.177
 31
0.0
  0
LINE
  5
DF
330
1E
100
AcDbEntity
  8
0
100
AcDbLine
 10
350.0
 20
520.177
 30
0.0
 11
355.12
 21
520.177
 31
0.0
  0
LINE
  5
E0
330
1E
100
AcDbEntity
  8
0
100
AcDbLine
 10
342.8319999999999
 20
565.1769999999999
 30
0.0
 11
350.0
 21
565.1769999999999
 31
0.0
  0
LINE
  5
E1
330
1E
100
AcDbEntity
  8
0
100
AcDbLine
 10
342.8319999999999
 20
560.177
 30
0.0
 11
350.0
 21
560.177
 31
0.0
  0
LINE
  5
E2
330
1E
100
AcDbEntity
  8
0
100
AcDbLine
 10
350.0
 20
565.1769999999999
 30
0.0
 11
357.168
 21
565.1769999999999
 31
0.0
  0
LINE
  5
E3
330
1E
100
AcDbEntity
  8
0
100
AcDbLine
 10
350.0
 20
560.177
 30
0.0
 11
357.168
 21
560.177
 31
0.0
  0
LINE
  5
E4
330
1E
100
AcDbEntity
  8
0
100
AcDbLine
 10
343.6
 20
580.177
 30
0.0
 11
350.0
 21
580.177
 31
0.0
  0
LINE
  5
E5
330
1E
100
AcDbEntity
  8
0
100
AcDbLine
 10
343.6
 20
520.177
 30
0.0
 11
350.0
 21
520.177
 31
0.0
  0
LINE
  5
E6
330
1E
100
AcDbEntity
  8
0
100
AcDbLine
 10
350.0
 20
580.177
 30
0.0
 11
357.424
 21
580.177
 31
0.0
  0
LINE
  5
E7
330
1E
100
AcDbEntity
  8
0
100
AcDbLine
 10
350.0
 20
580.177
 30
0.0
 11
356.4
 21
580.177
 31
0.0
  0
LINE
  5
E8
330
1E
100
AcDbEntity
  8
0
100
AcDbLine
 10
342.5759999999999
 20
600.177
 30
0.0
 11
350.0
 21
600.177
 31
0.0
  0
LINE
  5
E9
330
1E
100
AcDbEntity
  8
0
100
AcDbLine
 10
342.5759999999999
 20
580.177
 30
0.0
 11
350.0
 21
580.177
 31
0.0
  0
LINE
  5
EA
330
1E
100
AcDbEntity
  8
0
100
AcDbLine
 10
340.85
 20
600.177
 30
0.0
 11
350.0
 21
600.177
 31
0.0
  0
LINE
  5
EB
330
1E
100
AcDbEntity
  8
0
100
AcDbLine
 10
341.04
 20
607.177
 30
0.0
 11
350.0
 21
607.177
 31
0.0
  0
LINE
  5
EC
330
1E
100
AcDbEntity
  8
0
100
AcDbLine
 10
340.85
 20
606.6769999999999
 30
0.0
 11
350.0
 21
606.6769999999999
 31
0.0
  0
LINE
  5
EE
330
1E
100
AcDbEntity
  8
0
100
AcDbLine
 10
350.0
 20
606.6769999999999
 30
0.0
 11
359.1499999999999
 21
606.6769999999999
 31
0.0
  0
LINE
  5
F0
330
1E
100
AcDbEntity
  8
0
100
AcDbLine
 10
350.0
 20
600.177
 30
0.0
 11
359.1499999999999
 21
600.177
 31
0.0
  0
LINE
  5
F1
330
1E
100
AcDbEntity
  8
0
100
AcDbLine
 10
350.0
 20
600.177
 30
0.0
 11
357.424
 21
600.177
 31
0.0
  0
LINE
  5
F2
330
1E
100
AcDbEntity
  8
0
100
AcDbLine
 10
350.0
 20
607.177
 30
0.0
 11
358.9599999999999
 21
607.177
 31
0.0
  0
LINE
  5
F3
330
1E
100
AcDbEntity
  8
0
100
AcDbLine
 10
346.134
 20
614.245
 30
0.0
 11
350.0
 21
613.9109999999999
 31
0.0
  0
LINE
  5
F4
330
1E
100
AcDbEntity
  8
0
100
AcDbLine
 10
339.373
 20
616.722
 30
0.0
 11
342.4619999999999
 21
615.1759999999999
 31
0.0
  0
LINE
  5
F5
330
1E
100
AcDbEntity
  8
0
100
AcDbLine
 10
342.4619999999999
 20
615.1759999999999
 30
0.0
 11
346.134
 21
614.245
 31
0.0
  0
LINE
  5
F6
330
1E
100
AcDbEntity
  8
0
100
AcDbLine
 10
340.0819999999999
 20
634.018
 30
0.0
 11
342.9649999999999
 21
632.576
 31
0.0
  0
LINE
  5
F7
330
1E
100
AcDbEntity
  8
0
100
AcDbLine
 10
340.0819999999999
 20
617.3569999999999
 30
0.0
 11
342.9649999999999
 21
615.9139999999999
 31
0.0
  0
LINE
  5
F8
330
1E
100
AcDbEntity
  8
0
100
AcDbLine
 10
338.019
 20
636.1839999999999
 30
0.0
 11
340.228
 21
634.3029999999999
 31
0.0
  0
LINE
  5
F9
330
1E
100
AcDbEntity
  8
0
100
AcDbLine
 10
340.228
 20
634.3029999999999
 30
0.0
 11
343.154
 21
632.884
 31
0.0
  0
LINE
  5
FA
330
1E
100
AcDbEntity
  8
0
100
AcDbLine
 10
339.5299999999999
 20
617.002
 30
0.0
 11
342.665
 21
615.481
 31
0.0
  0
LINE
  5
FB
330
1E
100
AcDbEntity
  8
0
100
AcDbLine
 10
342.9649999999999
 20
615.9139999999999
 30
0.0
 11
346.3919999999999
 21
615.0449999999999
 31
0.0
  0
LINE
  5
FC
330
1E
100
AcDbEntity
  8
0
100
AcDbLine
 10
346.3919999999999
 20
615.0449999999999
 30
0.0
 11
350.0
 21
614.7330000000001
 31
0.0
  0
LINE
  5
FD
330
1E
100
AcDbEntity
  8
0
100
AcDbLine
 10
350.0
 20
614.7330000000001
 30
0.0
 11
353.608
 21
615.0449999999999
 31
0.0
  0
LINE
  5
FE
330
1E
100
AcDbEntity
  8
0
100
AcDbLine
 10
346.3919999999999
 20
631.706
 30
0.0
 11
350.0
 21
631.394
 31
0.0
  0
LINE
  5
FF
330
1E
100
AcDbEntity
  8
0
100
AcDbLine
 10
342.9649999999999
 20
632.576
 30
0.0
 11
346.3919999999999
 21
631.706
 31
0.0
  0
LINE
  5
100
330
1E
100
AcDbEntity
  8
0
100
AcDbLine
 10
343.154
 20
632.884
 30
0.0
 11
346.466
 21
632.0319999999999
 31
0.0
  0
LINE
  5
101
330
1E
100
AcDbEntity
  8
0
100
AcDbLine
 10
346.466
 20
632.0319999999999
 30
0.0
 11
350.0
 21
631.713
 31
0.0
  0
LINE
  5
102
330
1E
100
AcDbEntity
  8
0
100
AcDbLine
 10
350.0
 20
631.713
 30
0.0
 11
350.0
 21
631.394
 31
0.0
  0
LINE
  5
103
330
1E
100
AcDbEntity
  8
0
100
AcDbLine
 10
350.0
 20
631.713
 30
0.0
 11
353.534
 21
632.0319999999999
 31
0.0
  0
LINE
  5
104
330
1E
100
AcDbEntity
  8
0
100
AcDbLine
 10
350.0
 20
631.394
 30
0.0
 11
353.608
 21
631.706
 31
0.0
  0
LINE
  5
106
330
1E
100
AcDbEntity
  8
0
100
AcDbLine
 10
342.665
 20
615.481
 30
0.0
 11
346.214
 21
614.5679999999999
 31
0.0
  0
LINE
  5
107
330
1E
100
AcDbEntity
  8
0
100
AcDbLine
 10
346.214
 20
614.5679999999999
 30
0.0
 11
350.0
 21
614.226
 31
0.0
  0
LINE
  5
109
330
1E
100
AcDbEntity
  8
0
100
AcDbLine
 10
350.0
 20
614.226
 30
0.0
 11
353.786
 21
614.5679999999999
 31
0.0
  0
LINE
  5
10A
330
1E
100
AcDbEntity
  8
0
100
AcDbLine
 10
350.0
 20
613.9109999999999
 30
0.0
 11
353.866
 21
614.245
 31
0.0
  0
LINE
  5
10C
330
1E
100
AcDbEntity
  8
0
100
AcDbLine
 10
338.0
 20
640.585
 30
0.0
 11
338.0
 21
711.9739999999999
 31
0.0
  0
LINE
  5
10D
330
1E
100
AcDbEntity
  8
0
100
AcDbLine
 10
338.384
 20
708.8849999999999
 30
0.0
 11
339.6319999999999
 21
705.9719999999999
 31
0.0
  0
LINE
  5
10E
330
1E
100
AcDbEntity
  8
0
100
AcDbLine
 10
338.0
 20
711.9739999999999
 30
0.0
 11
338.384
 21
715.151
 31
0.0
  0
LINE
  5
10F
330
1E
100
AcDbEntity
  8
0
100
AcDbLine
 10
338.0
 20
711.9739999999999
 30
0.0
 11
338.0
 21
640.585
 31
0.0
  0
LINE
  5
110
330
1E
100
AcDbEntity
  8
0
100
AcDbLine
 10
338.0
 20
711.9739999999999
 30
0.0
 11
338.384
 21
708.8849999999999
 31
0.0
  0
LINE
  5
111
330
1E
100
AcDbEntity
  8
0
100
AcDbLine
 10
339.6319999999999
 20
705.9719999999999
 30
0.0
 11
341.5519999999999
 21
703.413
 31
0.0
  0
LINE
  5
112
330
1E
100
AcDbEntity
  8
0
100
AcDbLine
 10
338.384
 20
715.151
 30
0.0
 11
339.6319999999999
 21
718.0629999999999
 31
0.0
  0
LINE
  5
113
330
1E
100
AcDbEntity
  8
0
100
AcDbLine
 10
339.6319999999999
 20
718.0629999999999
 30
0.0
 11
340.219743916615
 21
718.846658555487
 31
0.0
  0
LINE
  5
114
330
1E
100
AcDbEntity
  8
0
100
AcDbLine
 10
341.5519999999999
 20
703.413
 30
0.0
 11
344.0479999999999
 21
701.471
 31
0.0
  0
LINE
  5
115
330
1E
100
AcDbEntity
  8
0
100
AcDbLine
 10
344.0479999999999
 20
701.471
 30
0.0
 11
346.928
 21
700.2349999999999
 31
0.0
  0
LINE
  5
116
330
1E
100
AcDbEntity
  8
0
100
AcDbLine
 10
346.928
 20
700.2349999999999
 30
0.0
 11
350.0
 21
699.7939999999999
 31
0.0
  0
LINE
  5
117
330
1E
100
AcDbEntity
  8
0
100
AcDbLine
 10
347.7919999999999
 20
703.5889999999999
 30
0.0
 11
350.0
 21
703.2360000000001
 31
0.0
  0
LINE
  5
118
330
1E
100
AcDbEntity
  8
0
100
AcDbLine
 10
345.68
 20
704.383
 30
0.0
 11
347.7919999999999
 21
703.5889999999999
 31
0.0
  0
LINE
  5
119
330
1E
100
AcDbEntity
  8
0
100
AcDbLine
 10
343.8559999999999
 20
705.7949999999999
 30
0.0
 11
345.68
 21
704.383
 31
0.0
  0
LINE
  5
11A
330
1E
100
AcDbEntity
  8
0
100
AcDbLine
 10
342.5119999999999
 20
707.6489999999998
 30
0.0
 11
343.8559999999999
 21
705.7949999999999
 31
0.0
  0
LINE
  5
11B
330
1E
100
AcDbEntity
  8
0
100
AcDbLine
 10
341.648
 20
709.7669999999999
 30
0.0
 11
342.5119999999999
 21
707.6489999999998
 31
0.0
  0
LINE
  5
11C
330
1E
100
AcDbEntity
  8
0
100
AcDbLine
 10
341.36
 20
711.9739999999999
 30
0.0
 11
341.648
 21
709.7669999999999
 31
0.0
  0
LINE
  5
11D
330
1E
100
AcDbEntity
  8
0
100
AcDbLine
 10
341.36
 20
711.9739999999999
 30
0.0
 11
341.36
 21
718.7480458821589
 31
0.0
  0
LINE
  5
11E
330
1E
100
AcDbEntity
  8
0
100
AcDbLine
 10
350.0
 20
699.7939999999999
 30
0.0
 11
353.0719999999999
 21
700.2349999999999
 31
0.0
  0
LINE
  5
11F
330
1E
100
AcDbEntity
  8
0
100
AcDbLine
 10
350.0
 20
703.2360000000001
 30
0.0
 11
352.208
 21
703.5889999999999
 31
0.0
  0
LINE
  5
120
330
1E
100
AcDbEntity
  8
0
100
AcDbLine
 10
302.482
 20
733.9119999999999
 30
0.0
 11
304.5989999999999
 21
731.198
 31
0.0
  0
LINE
  5
121
330
1E
100
AcDbEntity
  8
0
100
AcDbLine
 10
313.87
 20
726.276
 30
0.0
 11
313.87
 21
727.1721502019039
 31
0.0
  0
LINE
  5
122
330
1E
100
AcDbEntity
  8
0
100
AcDbLine
 10
313.87
 20
726.276
 30
0.0
 11
313.87
 21
726.893
 31
0.0
  0
LINE
  5
123
330
1E
100
AcDbEntity
  8
0
100
AcDbLine
 10
313.87
 20
726.276
 30
0.0
 11
315.3299999999999
 21
726.276
 31
0.0
  0
LINE
  5
124
330
1E
100
AcDbEntity
  8
0
100
AcDbLine
 10
315.3299999999999
 20
726.276
 30
0.0
 11
315.3299999999999
 21
726.893
 31
0.0
  0
LINE
  5
125
330
1E
100
AcDbEntity
  8
0
100
AcDbLine
 10
314.357664609053
 20
726.276
 30
0.0
 11
316.788
 21
725.1199999999999
 31
0.0
  0
LINE
  5
126
330
1E
100
AcDbEntity
  8
0
100
AcDbLine
 10
309.084
 20
729.7069999999999
 30
0.0
 11
309.084
 21
730.3239999999999
 31
0.0
  0
LINE
  5
127
330
1E
100
AcDbEntity
  8
0
100
AcDbLine
 10
309.084
 20
729.7069999999999
 30
0.0
 11
310.544
 21
729.7069999999999
 31
0.0
  0
LINE
  5
128
330
1E
100
AcDbEntity
  8
0
100
AcDbLine
 10
309.084
 20
730.3239999999999
 30
0.0
 11
309.084
 21
729.7069999999999
 31
0.0
  0
LINE
  5
129
330
1E
100
AcDbEntity
  8
0
100
AcDbLine
 10
309.084
 20
730.3239999999999
 30
0.0
 11
309.084
 21
731.5129758042529
 31
0.0
  0
LINE
  5
12A
330
1E
100
AcDbEntity
  8
0
100
AcDbLine
 10
309.084
 20
730.3239999999999
 30
0.0
 11
310.544
 21
730.3239999999999
 31
0.0
  0
LINE
  5
12B
330
1E
100
AcDbEntity
  8
0
100
AcDbLine
 10
315.3299999999999
 20
726.893
 30
0.0
 11
315.3299999999999
 21
727.693939121756
 31
0.0
  0
LINE
  5
12C
330
1E
100
AcDbEntity
  8
0
100
AcDbLine
 10
315.3299999999999
 20
726.893
 30
0.0
 11
315.3299999999999
 21
726.276
 31
0.0
  0
LINE
  5
12D
330
1E
100
AcDbEntity
  8
0
100
AcDbLine
 10
313.87
 20
726.893
 30
0.0
 11
313.87
 21
726.276
 31
0.0
  0
LINE
  5
12E
330
1E
100
AcDbEntity
  8
0
100
AcDbLine
 10
313.87
 20
726.893
 30
0.0
 11
313.87
 21
727.3441060606058
 31
0.0
  0
LINE
  5
12F
330
1E
100
AcDbEntity
  8
0
100
AcDbLine
 10
313.87
 20
726.893
 30
0.0
 11
315.3299999999999
 21
726.893
 31
0.0
  0
LINE
  5
130
330
1E
100
AcDbEntity
  8
0
100
AcDbLine
 10
310.544
 20
730.3239999999999
 30
0.0
 11
310.544
 21
731.4810333287899
 31
0.0
  0
LINE
  5
131
330
1E
100
AcDbEntity
  8
0
100
AcDbLine
 10
310.544
 20
730.3239999999999
 30
0.0
 11
310.544
 21
729.7069999999999
 31
0.0
  0
LINE
  5
132
330
1E
100
AcDbEntity
  8
0
100
AcDbLine
 10
313.87
 20
727.1721502019039
 30
0.0
 11
313.87
 21
726.276
 31
0.0
  0
LINE
  5
133
330
1E
100
AcDbEntity
  8
0
100
AcDbLine
 10
315.3299999999999
 20
727.693939121756
 30
0.0
 11
315.3299999999999
 21
726.893
 31
0.0
  0
LINE
  5
134
330
1E
100
AcDbEntity
  8
0
100
AcDbLine
 10
313.87
 20
727.3441060606058
 30
0.0
 11
313.87
 21
726.893
 31
0.0
  0
LINE
  5
135
330
1E
100
AcDbEntity
  8
0
100
AcDbLine
 10
310.544
 20
729.7069999999999
 30
0.0
 11
310.544
 21
730.3239999999999
 31
0.0
  0
LINE
  5
136
330
1E
100
AcDbEntity
  8
0
100
AcDbLine
 10
312.7009999999999
 20
727.064
 30
0.0
 11
313.87
 21
726.5079598727671
 31
0.0
  0
LINE
  5
137
330
1E
100
AcDbEntity
  8
0
100
AcDbLine
 10
309.1969999999999
 20
729.2539999999998
 30
0.0
 11
312.7009999999999
 21
727.064
 31
0.0
  0
LINE
  5
138
330
1E
100
AcDbEntity
  8
0
100
AcDbLine
 10
310.949
 20
726.508
 30
0.0
 11
315.1829999999999
 21
724.4419999999999
 31
0.0
  0
LINE
  5
139
330
1E
100
AcDbEntity
  8
0
100
AcDbLine
 10
307.299
 20
728.791
 30
0.0
 11
310.949
 21
726.508
 31
0.0
  0
LINE
  5
13A
330
1E
100
AcDbEntity
  8
0
100
AcDbLine
 10
310.544
 20
731.4810333287899
 30
0.0
 11
310.544
 21
730.3239999999999
 31
0.0
  0
LINE
  5
13B
330
1E
100
AcDbEntity
  8
0
100
AcDbLine
 10
309.084
 20
731.5129758042529
 30
0.0
 11
309.084
 21
730.3239999999999
 31
0.0
  0
LINE
  5
13C
330
1E
100
AcDbEntity
  8
0
100
AcDbLine
 10
305.7579999999999
 20
734.3697709815081
 30
0.0
 11
305.7579999999999
 21
733.7899999999999
 31
0.0
  0
LINE
  5
13D
330
1E
100
AcDbEntity
  8
0
100
AcDbLine
 10
305.7579999999999
 20
734.4069999999999
 30
0.0
 11
305.7579999999999
 21
733.7899999999999
 31
0.0
  0
LINE
  5
13E
330
1E
100
AcDbEntity
  8
0
100
AcDbLine
 10
305.7579999999999
 20
734.4069999999999
 30
0.0
 11
307.218
 21
734.4069999999999
 31
0.0
  0
LINE
  5
13F
330
1E
100
AcDbEntity
  8
0
100
AcDbLine
 10
316.1399999999999
 20
733.4049999999999
 30
0.0
 11
316.1399999999999
 21
734.0219999999999
 31
0.0
  0
LINE
  5
140
330
1E
100
AcDbEntity
  8
0
100
AcDbLine
 10
314.68
 20
733.4049999999999
 30
0.0
 11
314.68
 21
734.568156397395
 31
0.0
  0
LINE
  5
141
330
1E
100
AcDbEntity
  8
0
100
AcDbLine
 10
314.68
 20
733.4049999999999
 30
0.0
 11
314.68
 21
734.0219999999999
 31
0.0
  0
LINE
  5
142
330
1E
100
AcDbEntity
  8
0
100
AcDbLine
 10
314.68
 20
733.4049999999999
 30
0.0
 11
316.1399999999999
 21
733.4049999999999
 31
0.0
  0
LINE
  5
143
330
1E
100
AcDbEntity
  8
0
100
AcDbLine
 10
316.1399999999999
 20
734.0219999999999
 30
0.0
 11
316.1399999999999
 21
734.600620274014
 31
0.0
  0
LINE
  5
144
330
1E
100
AcDbEntity
  8
0
100
AcDbLine
 10
316.1399999999999
 20
734.0219999999999
 30
0.0
 11
316.1399999999999
 21
733.4049999999999
 31
0.0
  0
LINE
  5
145
330
1E
100
AcDbEntity
  8
0
100
AcDbLine
 10
316.1399999999999
 20
734.600620274014
 30
0.0
 11
316.1399999999999
 21
734.0219999999999
 31
0.0
  0
LINE
  5
146
330
1E
100
AcDbEntity
  8
0
100
AcDbLine
 10
314.68
 20
734.568156397395
 30
0.0
 11
314.68
 21
734.0219999999999
 31
0.0
  0
LINE
  5
147
330
1E
100
AcDbEntity
  8
0
100
AcDbLine
 10
314.68
 20
734.568156397395
 30
0.0
 11
314.68
 21
733.4049999999999
 31
0.0
  0
LINE
  5
148
330
1E
100
AcDbEntity
  8
0
100
AcDbLine
 10
314.68
 20
734.0219999999999
 30
0.0
 11
314.68
 21
733.4049999999999
 31
0.0
  0
LINE
  5
149
330
1E
100
AcDbEntity
  8
0
100
AcDbLine
 10
314.68
 20
734.0219999999999
 30
0.0
 11
314.68
 21
734.568156397395
 31
0.0
  0
LINE
  5
14A
330
1E
100
AcDbEntity
  8
0
100
AcDbLine
 10
314.68
 20
734.0219999999999
 30
0.0
 11
316.1399999999999
 21
734.0219999999999
 31
0.0
  0
LINE
  5
14B
330
1E
100
AcDbEntity
  8
0
100
AcDbLine
 10
307.218
 20
734.4069999999999
 30
0.0
 11
307.218
 21
733.7899999999999
 31
0.0
  0
LINE
  5
14C
330
1E
100
AcDbEntity
  8
0
100
AcDbLine
 10
307.218
 20
733.7899999999999
 30
0.0
 11
307.218
 21
734.4069999999999
 31
0.0
  0
LINE
  5
14D
330
1E
100
AcDbEntity
  8
0
100
AcDbLine
 10
305.7579999999999
 20
733.7899999999999
 30
0.0
 11
305.7579999999999
 21
734.3697709815081
 31
0.0
  0
LINE
  5
14E
330
1E
100
AcDbEntity
  8
0
100
AcDbLine
 10
305.7579999999999
 20
733.7899999999999
 30
0.0
 11
305.7579999999999
 21
734.4069999999999
 31
0.0
  0
LINE
  5
14F
330
1E
100
AcDbEntity
  8
0
100
AcDbLine
 10
305.7579999999999
 20
733.7899999999999
 30
0.0
 11
307.218
 21
733.7899999999999
 31
0.0
  0
LINE
  5
150
330
1E
100
AcDbEntity
  8
0
100
AcDbLine
 10
306.569
 20
731.568
 30
0.0
 11
309.1969999999999
 21
729.2539999999998
 31
0.0
  0
LINE
  5
151
330
1E
100
AcDbEntity
  8
0
100
AcDbLine
 10
304.5989999999999
 20
734.3439999999999
 30
0.0
 11
306.569
 21
731.568
 31
0.0
  0
LINE
  5
152
330
1E
100
AcDbEntity
  8
0
100
AcDbLine
 10
304.5989999999999
 20
731.198
 30
0.0
 11
307.299
 21
728.791
 31
0.0
  0
LINE
  5
153
330
1E
100
AcDbEntity
  8
0
100
AcDbLine
 10
303.869
 20
731.9810000000001
 30
0.0
 11
304.2283694134299
 21
731.673149462423
 31
0.0
  0
LINE
  5
154
330
1E
100
AcDbEntity
  8
0
100
AcDbLine
 10
303.869
 20
731.9810000000001
 30
0.0
 11
304.5989999999999
 21
731.198
 31
0.0
  0
LINE
  5
155
330
1E
100
AcDbEntity
  8
0
100
AcDbLine
 10
304.38
 20
738.87626839036
 30
0.0
 11
304.38
 21
737.942
 31
0.0
  0
LINE
  5
156
330
1E
100
AcDbEntity
  8
0
100
AcDbLine
 10
304.38
 20
739.249756762453
 30
0.0
 11
304.38
 21
738.5589999999999
 31
0.0
  0
LINE
  5
157
330
1E
100
AcDbEntity
  8
0
100
AcDbLine
 10
304.38
 20
738.5589999999999
 30
0.0
 11
304.38
 21
737.942
 31
0.0
  0
LINE
  5
158
330
1E
100
AcDbEntity
  8
0
100
AcDbLine
 10
304.38
 20
738.5589999999999
 30
0.0
 11
304.38
 21
739.249756762453
 31
0.0
  0
LINE
  5
159
330
1E
100
AcDbEntity
  8
0
100
AcDbLine
 10
304.38
 20
738.5589999999999
 30
0.0
 11
305.839
 21
738.5589999999999
 31
0.0
  0
LINE
  5
15A
330
1E
100
AcDbEntity
  8
0
100
AcDbLine
 10
305.839
 20
738.5589999999999
 30
0.0
 11
305.839
 21
739.3434493079459
 31
0.0
  0
LINE
  5
15B
330
1E
100
AcDbEntity
  8
0
100
AcDbLine
 10
305.839
 20
738.5589999999999
 30
0.0
 11
305.839
 21
737.942
 31
0.0
  0
LINE
  5
15C
330
1E
100
AcDbEntity
  8
0
100
AcDbLine
 10
314.5989999999999
 20
737.4889999999999
 30
0.0
 11
314.5989999999999
 21
738.1060000000001
 31
0.0
  0
LINE
  5
15D
330
1E
100
AcDbEntity
  8
0
100
AcDbLine
 10
313.139
 20
738.488390106721
 30
0.0
 11
313.139
 21
738.1060000000001
 31
0.0
  0
LINE
  5
15E
330
1E
100
AcDbEntity
  8
0
100
AcDbLine
 10
313.139
 20
738.488390106721
 30
0.0
 11
313.139
 21
737.4889999999999
 31
0.0
  0
LINE
  5
15F
330
1E
100
AcDbEntity
  8
0
100
AcDbLine
 10
314.5989999999999
 20
738.1060000000001
 30
0.0
 11
314.5989999999999
 21
738.3930079319299
 31
0.0
  0
LINE
  5
160
330
1E
100
AcDbEntity
  8
0
100
AcDbLine
 10
314.5989999999999
 20
738.1060000000001
 30
0.0
 11
314.5989999999999
 21
737.4889999999999
 31
0.0
  0
LINE
  5
161
330
1E
100
AcDbEntity
  8
0
100
AcDbLine
 10
314.5989999999999
 20
738.3930079319299
 30
0.0
 11
314.5989999999999
 21
738.1060000000001
 31
0.0
  0
LINE
  5
162
330
1E
100
AcDbEntity
  8
0
100
AcDbLine
 10
313.139
 20
738.1060000000001
 30
0.0
 11
313.139
 21
737.4889999999999
 31
0.0
  0
LINE
  5
163
330
1E
100
AcDbEntity
  8
0
100
AcDbLine
 10
313.139
 20
738.1060000000001
 30
0.0
 11
313.139
 21
738.488390106721
 31
0.0
  0
LINE
  5
164
330
1E
100
AcDbEntity
  8
0
100
AcDbLine
 10
313.139
 20
738.1060000000001
 30
0.0
 11
314.5989999999999
 21
738.1060000000001
 31
0.0
  0
LINE
  5
165
330
1E
100
AcDbEntity
  8
0
100
AcDbLine
 10
313.139
 20
737.4889999999999
 30
0.0
 11
313.139
 21
738.488390106721
 31
0.0
  0
LINE
  5
166
330
1E
100
AcDbEntity
  8
0
100
AcDbLine
 10
313.139
 20
737.4889999999999
 30
0.0
 11
313.139
 21
738.1060000000001
 31
0.0
  0
LINE
  5
167
330
1E
100
AcDbEntity
  8
0
100
AcDbLine
 10
313.139
 20
737.4889999999999
 30
0.0
 11
314.5989999999999
 21
737.4889999999999
 31
0.0
  0
LINE
  5
168
330
1E
100
AcDbEntity
  8
0
100
AcDbLine
 10
305.839
 20
737.942
 30
0.0
 11
305.839
 21
738.5589999999999
 31
0.0
  0
LINE
  5
169
330
1E
100
AcDbEntity
  8
0
100
AcDbLine
 10
305.839
 20
739.3434493079459
 30
0.0
 11
305.839
 21
738.5589999999999
 31
0.0
  0
LINE
  5
16A
330
1E
100
AcDbEntity
  8
0
100
AcDbLine
 10
304.38
 20
737.942
 30
0.0
 11
304.38
 21
738.87626839036
 31
0.0
  0
LINE
  5
16B
330
1E
100
AcDbEntity
  8
0
100
AcDbLine
 10
304.38
 20
737.942
 30
0.0
 11
304.38
 21
738.5589999999999
 31
0.0
  0
LINE
  5
16C
330
1E
100
AcDbEntity
  8
0
100
AcDbLine
 10
304.38
 20
737.942
 30
0.0
 11
305.839
 21
737.942
 31
0.0
  0
LINE
  5
16D
330
1E
100
AcDbEntity
  8
0
100
AcDbLine
 10
303.358
 20
736.5339999999999
 30
0.0
 11
304.5989999999999
 21
734.3439999999999
 31
0.0
  0
LINE
  5
16E
330
1E
100
AcDbEntity
  8
0
100
AcDbLine
 10
302.92
 20
739.1560000000001
 30
0.0
 11
303.358
 21
736.5339999999999
 31
0.0
  0
LINE
  5
16F
330
1E
100
AcDbEntity
  8
0
100
AcDbLine
 10
302.92
 20
739.1560000000001
 30
0.0
 11
303.358
 21
741.778
 31
0.0
  0
LINE
  5
170
330
1E
100
AcDbEntity
  8
0
100
AcDbLine
 10
301.241
 20
736.472
 30
0.0
 11
302.482
 21
733.9119999999999
 31
0.0
  0
LINE
  5
171
330
1E
100
AcDbEntity
  8
0
100
AcDbLine
 10
300.73
 20
739.1560000000001
 30
0.0
 11
301.241
 21
736.472
 31
0.0
  0
LINE
  5
172
330
1E
100
AcDbEntity
  8
0
100
AcDbLine
 10
300.73
 20
739.1560000000001
 30
0.0
 11
301.241
 21
741.84
 31
0.0
  0
LINE
  5
173
330
1E
100
AcDbEntity
  8
0
100
AcDbLine
 10
301.825
 20
734.603
 30
0.0
 11
303.869
 21
731.9810000000001
 31
0.0
  0
LINE
  5
174
330
1E
100
AcDbEntity
  8
0
100
AcDbLine
 10
300.5109999999999
 20
737.348
 30
0.0
 11
301.825
 21
734.603
 31
0.0
  0
LINE
  5
175
330
1E
100
AcDbEntity
  8
0
100
AcDbLine
 10
300.0
 20
740.0629999999999
 30
0.0
 11
300.5109999999999
 21
737.348
 31
0.0
  0
LINE
  5
176
330
1E
100
AcDbEntity
  8
0
100
AcDbLine
 10
300.0
 20
740.0629999999999
 30
0.0
 11
300.0
 21
759.095
 31
0.0
  0
LINE
  5
177
330
1E
100
AcDbEntity
  8
0
100
AcDbLine
 10
300.0
 20
740.0629999999999
 30
0.0
 11
300.5109999999999
 21
742.7769999999999
 31
0.0
  0
LINE
  5
178
330
1E
100
AcDbEntity
  8
0
100
AcDbLine
 10
319.1409999999999
 20
729.5627390885311
 30
0.0
 11
319.1409999999999
 21
729.323
 31
0.0
  0
LINE
  5
179
330
1E
100
AcDbEntity
  8
0
100
AcDbLine
 10
319.1409999999999
 20
730.899499169711
 30
0.0
 11
319.1409999999999
 21
729.94
 31
0.0
  0
LINE
  5
17A
330
1E
100
AcDbEntity
  8
0
100
AcDbLine
 10
319.1409999999999
 20
729.94
 30
0.0
 11
319.1409999999999
 21
729.323
 31
0.0
  0
LINE
  5
17B
330
1E
100
AcDbEntity
  8
0
100
AcDbLine
 10
319.1409999999999
 20
729.94
 30
0.0
 11
319.1409999999999
 21
730.899499169711
 31
0.0
  0
LINE
  5
17C
330
1E
100
AcDbEntity
  8
0
100
AcDbLine
 10
319.1409999999999
 20
729.94
 30
0.0
 11
320.601
 21
729.94
 31
0.0
  0
LINE
  5
17D
330
1E
100
AcDbEntity
  8
0
100
AcDbLine
 10
319.1409999999999
 20
729.323
 30
0.0
 11
319.1409999999999
 21
729.5627390885311
 31
0.0
  0
LINE
  5
17E
330
1E
100
AcDbEntity
  8
0
100
AcDbLine
 10
319.1409999999999
 20
729.323
 30
0.0
 11
319.1409999999999
 21
729.94
 31
0.0
  0
LINE
  5
17F
330
1E
100
AcDbEntity
  8
0
100
AcDbLine
 10
319.1409999999999
 20
729.323
 30
0.0
 11
320.601
 21
729.323
 31
0.0
  0
LINE
  5
180
330
1E
100
AcDbEntity
  8
0
100
AcDbLine
 10
316.788
 20
725.1199999999999
 30
0.0
 11
320.278
 21
723.8094477060229
 31
0.0
  0
LINE
  5
181
330
1E
100
AcDbEntity
  8
0
100
AcDbLine
 10
315.1829999999999
 20
724.4419999999999
 30
0.0
 11
320.073
 21
722.6519999999999
 31
0.0
  0
LINE
  5
182
330
1E
100
AcDbEntity
  8
0
100
AcDbLine
 10
326.5579999999999
 20
721.915143766885
 30
0.0
 11
326.5579999999999
 21
721.7069999999999
 31
0.0
  0
LINE
  5
183
330
1E
100
AcDbEntity
  8
0
100
AcDbLine
 10
326.5579999999999
 20
721.7069999999999
 30
0.0
 11
327.8219999999999
 21
721.3989999999999
 31
0.0
  0
LINE
  5
184
330
1E
100
AcDbEntity
  8
0
100
AcDbLine
 10
326.5579999999999
 20
721.7069999999999
 30
0.0
 11
326.5579999999999
 21
721.915143766885
 31
0.0
  0
LINE
  5
185
330
1E
100
AcDbEntity
  8
0
100
AcDbLine
 10
326.5579999999999
 20
721.7069999999999
 30
0.0
 11
327.288
 21
722.241
 31
0.0
  0
LINE
  5
186
330
1E
100
AcDbEntity
  8
0
100
AcDbLine
 10
320.278
 20
723.8094477060229
 30
0.0
 11
320.278
 21
723.428
 31
0.0
  0
LINE
  5
187
330
1E
100
AcDbEntity
  8
0
100
AcDbLine
 10
320.278
 20
725.663927499423
 30
0.0
 11
320.278
 21
724.045
 31
0.0
  0
LINE
  5
188
330
1E
100
AcDbEntity
  8
0
100
AcDbLine
 10
320.278
 20
724.045
 30
0.0
 11
320.278
 21
723.428
 31
0.0
  0
LINE
  5
189
330
1E
100
AcDbEntity
  8
0
100
AcDbLine
 10
320.278
 20
724.045
 30
0.0
 11
320.278
 21
725.663927499423
 31
0.0
  0
LINE
  5
18A
330
1E
100
AcDbEntity
  8
0
100
AcDbLine
 10
320.278
 20
724.045
 30
0.0
 11
321.7379999999999
 21
724.045
 31
0.0
  0
LINE
  5
18B
330
1E
100
AcDbEntity
  8
0
100
AcDbLine
 10
320.278
 20
723.428
 30
0.0
 11
320.278
 21
723.8094477060229
 31
0.0
  0
LINE
  5
18C
330
1E
100
AcDbEntity
  8
0
100
AcDbLine
 10
320.278
 20
723.428
 30
0.0
 11
320.278
 21
724.045
 31
0.0
  0
LINE
  5
18D
330
1E
100
AcDbEntity
  8
0
100
AcDbLine
 10
320.278
 20
723.428
 30
0.0
 11
321.7379999999999
 21
723.428
 31
0.0
  0
LINE
  5
18E
330
1E
100
AcDbEntity
  8
0
100
AcDbLine
 10
320.601
 20
729.94
 30
0.0
 11
320.601
 21
731.1410949850548
 31
0.0
  0
LINE
  5
18F
330
1E
100
AcDbEntity
  8
0
100
AcDbLine
 10
320.601
 20
729.94
 30
0.0
 11
320.601
 21
729.323
 31
0.0
  0
LINE
  5
190
330
1E
100
AcDbEntity
  8
0
100
AcDbLine
 10
320.601
 20
729.323
 30
0.0
 11
320.601
 21
729.94
 31
0.0
  0
LINE
  5
191
330
1E
100
AcDbEntity
  8
0
100
AcDbLine
 10
320.601
 20
731.1410949850548
 30
0.0
 11
320.601
 21
729.94
 31
0.0
  0
LINE
  5
192
330
1E
100
AcDbEntity
  8
0
100
AcDbLine
 10
321.7379999999999
 20
724.045
 30
0.0
 11
321.7379999999999
 21
723.428
 31
0.0
  0
LINE
  5
193
330
1E
100
AcDbEntity
  8
0
100
AcDbLine
 10
321.7379999999999
 20
723.428
 30
0.0
 11
321.7379999999999
 21
724.045
 31
0.0
  0
LINE
  5
194
330
1E
100
AcDbEntity
  8
0
100
AcDbLine
 10
324.495
 20
727.662734791944
 30
0.0
 11
324.495
 21
727.126
 31
0.0
  0
LINE
  5
195
330
1E
100
AcDbEntity
  8
0
100
AcDbLine
 10
324.495
 20
727.662734791944
 30
0.0
 11
324.495
 21
726.5089999999998
 31
0.0
  0
LINE
  5
196
330
1E
100
AcDbEntity
  8
0
100
AcDbLine
 10
324.495
 20
727.126
 30
0.0
 11
324.495
 21
726.5089999999998
 31
0.0
  0
LINE
  5
197
330
1E
100
AcDbEntity
  8
0
100
AcDbLine
 10
324.495
 20
727.126
 30
0.0
 11
324.495
 21
727.662734791944
 31
0.0
  0
LINE
  5
198
330
1E
100
AcDbEntity
  8
0
100
AcDbLine
 10
324.495
 20
727.126
 30
0.0
 11
325.9549999999999
 21
727.126
 31
0.0
  0
LINE
  5
199
330
1E
100
AcDbEntity
  8
0
100
AcDbLine
 10
324.495
 20
726.5089999999998
 30
0.0
 11
324.495
 21
727.662734791944
 31
0.0
  0
LINE
  5
19A
330
1E
100
AcDbEntity
  8
0
100
AcDbLine
 10
324.495
 20
726.5089999999998
 30
0.0
 11
324.495
 21
727.126
 31
0.0
  0
LINE
  5
19B
330
1E
100
AcDbEntity
  8
0
100
AcDbLine
 10
324.495
 20
726.5089999999998
 30
0.0
 11
325.9549999999999
 21
726.5089999999998
 31
0.0
  0
LINE
  5
19C
330
1E
100
AcDbEntity
  8
0
100
AcDbLine
 10
325.9549999999999
 20
727.126
 30
0.0
 11
325.9549999999999
 21
728.14442582558
 31
0.0
  0
LINE
  5
19D
330
1E
100
AcDbEntity
  8
0
100
AcDbLine
 10
325.9549999999999
 20
727.126
 30
0.0
 11
325.9549999999999
 21
726.5089999999998
 31
0.0
  0
LINE
  5
19E
330
1E
100
AcDbEntity
  8
0
100
AcDbLine
 10
325.9549999999999
 20
726.5089999999998
 30
0.0
 11
325.9549999999999
 21
727.126
 31
0.0
  0
LINE
  5
19F
330
1E
100
AcDbEntity
  8
0
100
AcDbLine
 10
325.9549999999999
 20
728.14442582558
 30
0.0
 11
325.9549999999999
 21
727.126
 31
0.0
  0
LINE
  5
1A0
330
1E
100
AcDbEntity
  8
0
100
AcDbLine
 10
325.5479999999999
 20
733.261
 30
0.0
 11
325.5479999999999
 21
733.8769999999999
 31
0.0
  0
LINE
  5
1A1
330
1E
100
AcDbEntity
  8
0
100
AcDbLine
 10
324.0879999999999
 20
733.4828743718589
 30
0.0
 11
324.0879999999999
 21
733.261
 31
0.0
  0
LINE
  5
1A2
330
1E
100
AcDbEntity
  8
0
100
AcDbLine
 10
324.0879999999999
 20
734.832889414548
 30
0.0
 11
324.0879999999999
 21
733.8769999999999
 31
0.0
  0
LINE
  5
1A3
330
1E
100
AcDbEntity
  8
0
100
AcDbLine
 10
325.5479999999999
 20
733.8769999999999
 30
0.0
 11
325.5479999999999
 21
734.8785773703919
 31
0.0
  0
LINE
  5
1A4
330
1E
100
AcDbEntity
  8
0
100
AcDbLine
 10
325.5479999999999
 20
733.8769999999999
 30
0.0
 11
325.5479999999999
 21
733.261
 31
0.0
  0
LINE
  5
1A5
330
1E
100
AcDbEntity
  8
0
100
AcDbLine
 10
325.5479999999999
 20
734.8785773703919
 30
0.0
 11
325.5479999999999
 21
733.8769999999999
 31
0.0
  0
LINE
  5
1A6
330
1E
100
AcDbEntity
  8
0
100
AcDbLine
 10
324.0879999999999
 20
733.8769999999999
 30
0.0
 11
324.0879999999999
 21
733.261
 31
0.0
  0
LINE
  5
1A7
330
1E
100
AcDbEntity
  8
0
100
AcDbLine
 10
324.0879999999999
 20
733.8769999999999
 30
0.0
 11
324.0879999999999
 21
734.832889414548
 31
0.0
  0
LINE
  5
1A8
330
1E
100
AcDbEntity
  8
0
100
AcDbLine
 10
324.0879999999999
 20
733.8769999999999
 30
0.0
 11
325.5479999999999
 21
733.8769999999999
 31
0.0
  0
LINE
  5
1A9
330
1E
100
AcDbEntity
  8
0
100
AcDbLine
 10
324.0879999999999
 20
733.261
 30
0.0
 11
324.0879999999999
 21
733.4828743718589
 31
0.0
  0
LINE
  5
1AA
330
1E
100
AcDbEntity
  8
0
100
AcDbLine
 10
324.0879999999999
 20
733.261
 30
0.0
 11
324.0879999999999
 21
733.8769999999999
 31
0.0
  0
LINE
  5
1AB
330
1E
100
AcDbEntity
  8
0
100
AcDbLine
 10
324.0879999999999
 20
733.261
 30
0.0
 11
325.5479999999999
 21
733.261
 31
0.0
  0
LINE
  5
1AC
330
1E
100
AcDbEntity
  8
0
100
AcDbLine
 10
323.3579999999999
 20
737.035
 30
0.0
 11
323.3579999999999
 21
737.6519999999999
 31
0.0
  0
LINE
  5
1AD
330
1E
100
AcDbEntity
  8
0
100
AcDbLine
 10
321.8979999999999
 20
737.8488262728329
 30
0.0
 11
321.8979999999999
 21
737.035
 31
0.0
  0
LINE
  5
1AE
330
1E
100
AcDbEntity
  8
0
100
AcDbLine
 10
321.8979999999999
 20
738.2010945394479
 30
0.0
 11
321.8979999999999
 21
737.6519999999999
 31
0.0
  0
LINE
  5
1AF
330
1E
100
AcDbEntity
  8
0
100
AcDbLine
 10
323.3579999999999
 20
737.6519999999999
 30
0.0
 11
323.3579999999999
 21
738.187121550719
 31
0.0
  0
LINE
  5
1B0
330
1E
100
AcDbEntity
  8
0
100
AcDbLine
 10
323.3579999999999
 20
737.6519999999999
 30
0.0
 11
323.3579999999999
 21
737.035
 31
0.0
  0
LINE
  5
1B1
330
1E
100
AcDbEntity
  8
0
100
AcDbLine
 10
323.3579999999999
 20
738.187121550719
 30
0.0
 11
323.3579999999999
 21
737.6519999999999
 31
0.0
  0
LINE
  5
1B2
330
1E
100
AcDbEntity
  8
0
100
AcDbLine
 10
321.8979999999999
 20
737.6519999999999
 30
0.0
 11
321.8979999999999
 21
737.035
 31
0.0
  0
LINE
  5
1B3
330
1E
100
AcDbEntity
  8
0
100
AcDbLine
 10
321.8979999999999
 20
737.6519999999999
 30
0.0
 11
321.8979999999999
 21
738.2010945394479
 31
0.0
  0
LINE
  5
1B4
330
1E
100
AcDbEntity
  8
0
100
AcDbLine
 10
321.8979999999999
 20
737.6519999999999
 30
0.0
 11
323.3579999999999
 21
737.6519999999999
 31
0.0
  0
LINE
  5
1B5
330
1E
100
AcDbEntity
  8
0
100
AcDbLine
 10
321.8979999999999
 20
737.035
 30
0.0
 11
321.8979999999999
 21
737.8488262728329
 31
0.0
  0
LINE
  5
1B6
330
1E
100
AcDbEntity
  8
0
100
AcDbLine
 10
321.8979999999999
 20
737.035
 30
0.0
 11
321.8979999999999
 21
737.6519999999999
 31
0.0
  0
LINE
  5
1B7
330
1E
100
AcDbEntity
  8
0
100
AcDbLine
 10
321.8979999999999
 20
737.035
 30
0.0
 11
323.3579999999999
 21
737.035
 31
0.0
  0
LINE
  5
1B8
330
1E
100
AcDbEntity
  8
0
100
AcDbLine
 10
321.293795020267
 20
723.428
 30
0.0
 11
321.387
 21
723.393
 31
0.0
  0
LINE
  5
1B9
330
1E
100
AcDbEntity
  8
0
100
AcDbLine
 10
321.387
 20
723.393
 30
0.0
 11
326.5579999999999
 21
721.915143766885
 31
0.0
  0
LINE
  5
1BA
330
1E
100
AcDbEntity
  8
0
100
AcDbLine
 10
320.073
 20
722.6519999999999
 30
0.0
 11
325.475
 21
721.11
 31
0.0
  0
LINE
  5
1BB
330
1E
100
AcDbEntity
  8
0
100
AcDbLine
 10
325.475
 20
721.11
 30
0.0
 11
331.1679999999999
 21
719.9689999999999
 31
0.0
  0
LINE
  5
1BC
330
1E
100
AcDbEntity
  8
0
100
AcDbLine
 10
334.489
 20
719.9609999999999
 30
0.0
 11
335.753
 21
720.2689999999998
 31
0.0
  0
LINE
  5
1BD
330
1E
100
AcDbEntity
  8
0
100
AcDbLine
 10
333.759
 20
720.495
 30
0.0
 11
335.023
 21
720.8039999999999
 31
0.0
  0
LINE
  5
1BE
330
1E
100
AcDbEntity
  8
0
100
AcDbLine
 10
333.759
 20
720.495
 30
0.0
 11
334.489
 21
719.9609999999999
 31
0.0
  0
LINE
  5
1BF
330
1E
100
AcDbEntity
  8
0
100
AcDbLine
 10
333.759
 20
720.495
 30
0.0
 11
333.759
 21
721.5134262956669
 31
0.0
  0
LINE
  5
1C0
330
1E
100
AcDbEntity
  8
0
100
AcDbLine
 10
335.753
 20
720.2689999999998
 30
0.0
 11
335.753
 21
720.331670117217
 31
0.0
  0
LINE
  5
1C1
330
1E
100
AcDbEntity
  8
0
100
AcDbLine
 10
327.8219999999999
 20
721.3989999999999
 30
0.0
 11
328.5519999999999
 21
721.933
 31
0.0
  0
LINE
  5
1C2
330
1E
100
AcDbEntity
  8
0
100
AcDbLine
 10
327.288
 20
722.241
 30
0.0
 11
328.5519999999999
 21
721.933
 31
0.0
  0
LINE
  5
1C3
330
1E
100
AcDbEntity
  8
0
100
AcDbLine
 10
327.288
 20
722.241
 30
0.0
 11
327.288
 21
722.350399300496
 31
0.0
  0
LINE
  5
1C4
330
1E
100
AcDbEntity
  8
0
100
AcDbLine
 10
327.288
 20
722.350399300496
 30
0.0
 11
327.288
 21
722.241
 31
0.0
  0
LINE
  5
1C5
330
1E
100
AcDbEntity
  8
0
100
AcDbLine
 10
328.5519999999999
 20
721.933
 30
0.0
 11
328.5519999999999
 21
722.536839049394
 31
0.0
  0
LINE
  5
1C6
330
1E
100
AcDbEntity
  8
0
100
AcDbLine
 10
328.5519999999999
 20
722.536839049394
 30
0.0
 11
328.5519999999999
 21
721.933
 31
0.0
  0
LINE
  5
1C7
330
1E
100
AcDbEntity
  8
0
100
AcDbLine
 10
332.202
 20
724.151
 30
0.0
 11
332.9309999999999
 21
724.686
 31
0.0
  0
LINE
  5
1C8
330
1E
100
AcDbEntity
  8
0
100
AcDbLine
 10
329.36
 20
729.4529999999999
 30
0.0
 11
329.36
 21
730.07
 31
0.0
  0
LINE
  5
1C9
330
1E
100
AcDbEntity
  8
0
100
AcDbLine
 10
329.36
 20
729.4529999999999
 30
0.0
 11
330.8199999999999
 21
729.4529999999999
 31
0.0
  0
LINE
  5
1CA
330
1E
100
AcDbEntity
  8
0
100
AcDbLine
 10
330.8199999999999
 20
730.07
 30
0.0
 11
330.8199999999999
 21
731.2759312086379
 31
0.0
  0
LINE
  5
1CB
330
1E
100
AcDbEntity
  8
0
100
AcDbLine
 10
330.8199999999999
 20
730.07
 30
0.0
 11
330.8199999999999
 21
729.4529999999999
 31
0.0
  0
LINE
  5
1CC
330
1E
100
AcDbEntity
  8
0
100
AcDbLine
 10
330.8199999999999
 20
729.4529999999999
 30
0.0
 11
330.8199999999999
 21
730.07
 31
0.0
  0
LINE
  5
1CD
330
1E
100
AcDbEntity
  8
0
100
AcDbLine
 10
330.8199999999999
 20
731.2759312086379
 30
0.0
 11
330.8199999999999
 21
730.07
 31
0.0
  0
LINE
  5
1CE
330
1E
100
AcDbEntity
  8
0
100
AcDbLine
 10
329.36
 20
730.9527580982241
 30
0.0
 11
329.36
 21
730.07
 31
0.0
  0
LINE
  5
1CF
330
1E
100
AcDbEntity
  8
0
100
AcDbLine
 10
329.36
 20
730.07
 30
0.0
 11
329.36
 21
729.4529999999999
 31
0.0
  0
LINE
  5
1D0
330
1E
100
AcDbEntity
  8
0
100
AcDbLine
 10
329.36
 20
730.07
 30
0.0
 11
329.36
 21
730.9527580982241
 31
0.0
  0
LINE
  5
1D1
330
1E
100
AcDbEntity
  8
0
100
AcDbLine
 10
329.36
 20
730.07
 30
0.0
 11
330.8199999999999
 21
730.07
 31
0.0
  0
LINE
  5
1D2
330
1E
100
AcDbEntity
  8
0
100
AcDbLine
 10
332.9309999999999
 20
724.686
 30
0.0
 11
332.9309999999999
 21
725.7911326143981
 31
0.0
  0
LINE
  5
1D3
330
1E
100
AcDbEntity
  8
0
100
AcDbLine
 10
331.6669999999999
 20
724.9939999999999
 30
0.0
 11
332.9309999999999
 21
724.686
 31
0.0
  0
LINE
  5
1D4
330
1E
100
AcDbEntity
  8
0
100
AcDbLine
 10
331.6669999999999
 20
724.9939999999999
 30
0.0
 11
331.6669999999999
 21
725.700110594487
 31
0.0
  0
LINE
  5
1D5
330
1E
100
AcDbEntity
  8
0
100
AcDbLine
 10
332.9309999999999
 20
725.7911326143981
 30
0.0
 11
332.9309999999999
 21
724.686
 31
0.0
  0
LINE
  5
1D6
330
1E
100
AcDbEntity
  8
0
100
AcDbLine
 10
331.6669999999999
 20
725.700110594487
 30
0.0
 11
331.6669999999999
 21
724.9939999999999
 31
0.0
  0
LINE
  5
1D7
330
1E
100
AcDbEntity
  8
0
100
AcDbLine
 10
330.9369999999999
 20
725.536278811026
 30
0.0
 11
330.9369999999999
 21
724.46
 31
0.0
  0
LINE
  5
1D8
330
1E
100
AcDbEntity
  8
0
100
AcDbLine
 10
330.9369999999999
 20
724.46
 30
0.0
 11
332.202
 21
724.151
 31
0.0
  0
LINE
  5
1D9
330
1E
100
AcDbEntity
  8
0
100
AcDbLine
 10
330.9369999999999
 20
724.46
 30
0.0
 11
330.9369999999999
 21
725.536278811026
 31
0.0
  0
LINE
  5
1DA
330
1E
100
AcDbEntity
  8
0
100
AcDbLine
 10
330.9369999999999
 20
724.46
 30
0.0
 11
331.6669999999999
 21
724.9939999999999
 31
0.0
  0
LINE
  5
1DB
330
1E
100
AcDbEntity
  8
0
100
AcDbLine
 10
333.82
 20
733.157537420083
 30
0.0
 11
333.82
 21
732.567
 31
0.0
  0
LINE
  5
1DC
330
1E
100
AcDbEntity
  8
0
100
AcDbLine
 10
332.1169999999999
 20
736.582
 30
0.0
 11
332.1169999999999
 21
737.1979999999999
 31
0.0
  0
LINE
  5
1DD
330
1E
100
AcDbEntity
  8
0
100
AcDbLine
 10
330.6569999999999
 20
737.161178390983
 30
0.0
 11
330.6569999999999
 21
736.582
 31
0.0
  0
LINE
  5
1DE
330
1E
100
AcDbEntity
  8
0
100
AcDbLine
 10
330.6569999999999
 20
738.1172661776139
 30
0.0
 11
330.6569999999999
 21
737.1979999999999
 31
0.0
  0
LINE
  5
1DF
330
1E
100
AcDbEntity
  8
0
100
AcDbLine
 10
332.1169999999999
 20
737.1979999999999
 30
0.0
 11
332.1169999999999
 21
738.1032931888849
 31
0.0
  0
LINE
  5
1E0
330
1E
100
AcDbEntity
  8
0
100
AcDbLine
 10
332.1169999999999
 20
737.1979999999999
 30
0.0
 11
332.1169999999999
 21
736.582
 31
0.0
  0
LINE
  5
1E1
330
1E
100
AcDbEntity
  8
0
100
AcDbLine
 10
332.1169999999999
 20
738.1032931888849
 30
0.0
 11
332.1169999999999
 21
737.1979999999999
 31
0.0
  0
LINE
  5
1E2
330
1E
100
AcDbEntity
  8
0
100
AcDbLine
 10
330.6569999999999
 20
737.1979999999999
 30
0.0
 11
330.6569999999999
 21
736.582
 31
0.0
  0
LINE
  5
1E3
330
1E
100
AcDbEntity
  8
0
100
AcDbLine
 10
330.6569999999999
 20
737.1979999999999
 30
0.0
 11
330.6569999999999
 21
738.1172661776139
 31
0.0
  0
LINE
  5
1E4
330
1E
100
AcDbEntity
  8
0
100
AcDbLine
 10
330.6569999999999
 20
737.1979999999999
 30
0.0
 11
332.1169999999999
 21
737.1979999999999
 31
0.0
  0
LINE
  5
1E5
330
1E
100
AcDbEntity
  8
0
100
AcDbLine
 10
330.6569999999999
 20
736.582
 30
0.0
 11
330.6569999999999
 21
737.161178390983
 31
0.0
  0
LINE
  5
1E6
330
1E
100
AcDbEntity
  8
0
100
AcDbLine
 10
330.6569999999999
 20
736.582
 30
0.0
 11
330.6569999999999
 21
737.1979999999999
 31
0.0
  0
LINE
  5
1E7
330
1E
100
AcDbEntity
  8
0
100
AcDbLine
 10
330.6569999999999
 20
736.582
 30
0.0
 11
332.1169999999999
 21
736.582
 31
0.0
  0
LINE
  5
1E8
330
1E
100
AcDbEntity
  8
0
100
AcDbLine
 10
333.82
 20
734.197081740108
 30
0.0
 11
333.82
 21
733.1839999999999
 31
0.0
  0
LINE
  5
1E9
330
1E
100
AcDbEntity
  8
0
100
AcDbLine
 10
333.82
 20
733.1839999999999
 30
0.0
 11
333.82
 21
732.567
 31
0.0
  0
LINE
  5
1EA
330
1E
100
AcDbEntity
  8
0
100
AcDbLine
 10
333.82
 20
733.1839999999999
 30
0.0
 11
333.82
 21
734.197081740108
 31
0.0
  0
LINE
  5
1EB
330
1E
100
AcDbEntity
  8
0
100
AcDbLine
 10
333.82
 20
733.1839999999999
 30
0.0
 11
335.2799999999999
 21
733.1839999999999
 31
0.0
  0
LINE
  5
1EC
330
1E
100
AcDbEntity
  8
0
100
AcDbLine
 10
333.82
 20
732.567
 30
0.0
 11
333.82
 21
733.157537420083
 31
0.0
  0
LINE
  5
1ED
330
1E
100
AcDbEntity
  8
0
100
AcDbLine
 10
333.82
 20
732.567
 30
0.0
 11
333.82
 21
733.1839999999999
 31
0.0
  0
LINE
  5
1EE
330
1E
100
AcDbEntity
  8
0
100
AcDbLine
 10
333.82
 20
732.567
 30
0.0
 11
335.2799999999999
 21
732.567
 31
0.0
  0
LINE
  5
1EF
330
1E
100
AcDbEntity
  8
0
100
AcDbLine
 10
333.759
 20
721.5134262956669
 30
0.0
 11
333.759
 21
720.495
 31
0.0
  0
LINE
  5
1F0
330
1E
100
AcDbEntity
  8
0
100
AcDbLine
 10
335.2799999999999
 20
733.1839999999999
 30
0.0
 11
335.2799999999999
 21
733.95879053442
 31
0.0
  0
LINE
  5
1F1
330
1E
100
AcDbEntity
  8
0
100
AcDbLine
 10
335.2799999999999
 20
733.1839999999999
 30
0.0
 11
335.2799999999999
 21
732.567
 31
0.0
  0
LINE
  5
1F2
330
1E
100
AcDbEntity
  8
0
100
AcDbLine
 10
335.3169999999999
 20
727.306332517859
 30
0.0
 11
335.3169999999999
 21
727.212
 31
0.0
  0
LINE
  5
1F3
330
1E
100
AcDbEntity
  8
0
100
AcDbLine
 10
335.3169999999999
 20
727.212
 30
0.0
 11
336.5809999999999
 21
726.903
 31
0.0
  0
LINE
  5
1F4
330
1E
100
AcDbEntity
  8
0
100
AcDbLine
 10
335.3169999999999
 20
727.212
 30
0.0
 11
335.3169999999999
 21
727.306332517859
 31
0.0
  0
LINE
  5
1F5
330
1E
100
AcDbEntity
  8
0
100
AcDbLine
 10
335.3169999999999
 20
727.212
 30
0.0
 11
336.0469999999999
 21
727.747
 31
0.0
  0
LINE
  5
1F6
330
1E
100
AcDbEntity
  8
0
100
AcDbLine
 10
335.2799999999999
 20
732.567
 30
0.0
 11
335.2799999999999
 21
733.1839999999999
 31
0.0
  0
LINE
  5
1F7
330
1E
100
AcDbEntity
  8
0
100
AcDbLine
 10
335.2799999999999
 20
733.95879053442
 30
0.0
 11
335.2799999999999
 21
733.1839999999999
 31
0.0
  0
LINE
  5
1F8
330
1E
100
AcDbEntity
  8
0
100
AcDbLine
 10
335.023
 20
722.037766142736
 30
0.0
 11
335.023
 21
720.8039999999999
 31
0.0
  0
LINE
  5
1F9
330
1E
100
AcDbEntity
  8
0
100
AcDbLine
 10
335.023
 20
720.8039999999999
 30
0.0
 11
335.753
 21
720.2689999999998
 31
0.0
  0
LINE
  5
1FA
330
1E
100
AcDbEntity
  8
0
100
AcDbLine
 10
335.023
 20
720.8039999999999
 30
0.0
 11
335.023
 21
722.037766142736
 31
0.0
  0
LINE
  5
1FB
330
1E
100
AcDbEntity
  8
0
100
AcDbLine
 10
328.099193548387
 20
721.601768979231
 30
0.0
 11
332.044
 21
720.802
 31
0.0
  0
LINE
  5
1FC
330
1E
100
AcDbEntity
  8
0
100
AcDbLine
 10
332.044
 20
720.802
 30
0.0
 11
333.759
 21
720.5845247374029
 31
0.0
  0
LINE
  5
1FD
330
1E
100
AcDbEntity
  8
0
100
AcDbLine
 10
337.311
 20
727.4389999999999
 30
0.0
 11
337.311
 21
728.182853913341
 31
0.0
  0
LINE
  5
1FE
330
1E
100
AcDbEntity
  8
0
100
AcDbLine
 10
336.5809999999999
 20
726.903
 30
0.0
 11
337.311
 21
727.4389999999999
 31
0.0
  0
LINE
  5
1FF
330
1E
100
AcDbEntity
  8
0
100
AcDbLine
 10
336.0469999999999
 20
727.747
 30
0.0
 11
337.311
 21
727.4389999999999
 31
0.0
  0
LINE
  5
200
330
1E
100
AcDbEntity
  8
0
100
AcDbLine
 10
337.311
 20
728.182853913341
 30
0.0
 11
337.311
 21
727.4389999999999
 31
0.0
  0
LINE
  5
201
330
1E
100
AcDbEntity
  8
0
100
AcDbLine
 10
335.753
 20
720.331670117217
 30
0.0
 11
338.613
 21
719.9689999999999
 31
0.0
  0
LINE
  5
202
330
1E
100
AcDbEntity
  8
0
100
AcDbLine
 10
335.753
 20
720.331670117217
 30
0.0
 11
335.753
 21
720.2689999999998
 31
0.0
  0
LINE
  5
203
330
1E
100
AcDbEntity
  8
0
100
AcDbLine
 10
331.1679999999999
 20
719.9689999999999
 30
0.0
 11
337.591
 21
719.0739999999999
 31
0.0
  0
LINE
  5
204
330
1E
100
AcDbEntity
  8
0
100
AcDbLine
 10
344.7929999999999
 20
719.348
 30
0.0
 11
344.7929999999999
 21
720.210552224371
 31
0.0
  0
LINE
  5
205
330
1E
100
AcDbEntity
  8
0
100
AcDbLine
 10
343.529
 20
719.0389999999999
 30
0.0
 11
344.7929999999999
 21
719.348
 31
0.0
  0
LINE
  5
206
330
1E
100
AcDbEntity
  8
0
100
AcDbLine
 10
341.36
 20
718.7480458821589
 30
0.0
 11
341.36
 21
711.9739999999999
 31
0.0
  0
LINE
  5
207
330
1E
100
AcDbEntity
  8
0
100
AcDbLine
 10
342.799
 20
719.5739999999999
 30
0.0
 11
344.063
 21
719.8819999999999
 31
0.0
  0
LINE
  5
208
330
1E
100
AcDbEntity
  8
0
100
AcDbLine
 10
342.799
 20
719.5739999999999
 30
0.0
 11
343.529
 21
719.0389999999999
 31
0.0
  0
LINE
  5
209
330
1E
100
AcDbEntity
  8
0
100
AcDbLine
 10
338.892
 20
723.642727272727
 30
0.0
 11
338.892
 21
723.3519999999999
 31
0.0
  0
LINE
  5
20A
330
1E
100
AcDbEntity
  8
0
100
AcDbLine
 10
338.892
 20
723.3519999999999
 30
0.0
 11
340.1569999999999
 21
723.661
 31
0.0
  0
LINE
  5
20B
330
1E
100
AcDbEntity
  8
0
100
AcDbLine
 10
338.892
 20
723.3519999999999
 30
0.0
 11
339.6219999999999
 21
722.818
 31
0.0
  0
LINE
  5
20C
330
1E
100
AcDbEntity
  8
0
100
AcDbLine
 10
338.892
 20
723.3519999999999
 30
0.0
 11
338.892
 21
723.642727272727
 31
0.0
  0
LINE
  5
20D
330
1E
100
AcDbEntity
  8
0
100
AcDbLine
 10
339.6959999999999
 20
731.0834047155529
 30
0.0
 11
339.6959999999999
 21
729.965
 31
0.0
  0
LINE
  5
20E
330
1E
100
AcDbEntity
  8
0
100
AcDbLine
 10
339.6959999999999
 20
729.965
 30
0.0
 11
340.961
 21
729.656
 31
0.0
  0
LINE
  5
20F
330
1E
100
AcDbEntity
  8
0
100
AcDbLine
 10
339.6959999999999
 20
729.965
 30
0.0
 11
339.6959999999999
 21
731.0834047155529
 31
0.0
  0
LINE
  5
210
330
1E
100
AcDbEntity
  8
0
100
AcDbLine
 10
339.6959999999999
 20
729.965
 30
0.0
 11
340.4259999999999
 21
730.4989999999999
 31
0.0
  0
LINE
  5
211
330
1E
100
AcDbEntity
  8
0
100
AcDbLine
 10
340.1569999999999
 20
724.167481945625
 30
0.0
 11
340.1569999999999
 21
723.661
 31
0.0
  0
LINE
  5
212
330
1E
100
AcDbEntity
  8
0
100
AcDbLine
 10
340.4259999999999
 20
730.4989999999999
 30
0.0
 11
341.6909999999999
 21
730.19
 31
0.0
  0
LINE
  5
213
330
1E
100
AcDbEntity
  8
0
100
AcDbLine
 10
340.4259999999999
 20
730.4989999999999
 30
0.0
 11
340.4259999999999
 21
731.3733729901221
 31
0.0
  0
LINE
  5
214
330
1E
100
AcDbEntity
  8
0
100
AcDbLine
 10
340.4259999999999
 20
731.3733729901221
 30
0.0
 11
340.4259999999999
 21
730.4989999999999
 31
0.0
  0
LINE
  5
215
330
1E
100
AcDbEntity
  8
0
100
AcDbLine
 10
340.1569999999999
 20
723.661
 30
0.0
 11
340.8869999999999
 21
723.126
 31
0.0
  0
LINE
  5
216
330
1E
100
AcDbEntity
  8
0
100
AcDbLine
 10
340.1569999999999
 20
723.661
 30
0.0
 11
340.1569999999999
 21
724.167481945625
 31
0.0
  0
LINE
  5
217
330
1E
100
AcDbEntity
  8
0
100
AcDbLine
 10
340.8869999999999
 20
723.126
 30
0.0
 11
340.8869999999999
 21
723.754207586934
 31
0.0
  0
LINE
  5
218
330
1E
100
AcDbEntity
  8
0
100
AcDbLine
 10
341.6909999999999
 20
730.19
 30
0.0
 11
341.6909999999999
 21
730.5386323000509
 31
0.0
  0
LINE
  5
219
330
1E
100
AcDbEntity
  8
0
100
AcDbLine
 10
340.961
 20
729.656
 30
0.0
 11
341.6909999999999
 21
730.19
 31
0.0
  0
LINE
  5
21A
330
1E
100
AcDbEntity
  8
0
100
AcDbLine
 10
341.6909999999999
 20
730.5386323000509
 30
0.0
 11
341.6909999999999
 21
730.19
 31
0.0
  0
LINE
  5
21B
330
1E
100
AcDbEntity
  8
0
100
AcDbLine
 10
343.42
 20
726.793124617403
 30
0.0
 11
343.42
 21
726.3789999999999
 31
0.0
  0
LINE
  5
21C
330
1E
100
AcDbEntity
  8
0
100
AcDbLine
 10
343.42
 20
726.3789999999999
 30
0.0
 11
344.684
 21
726.6869999999999
 31
0.0
  0
LINE
  5
21D
330
1E
100
AcDbEntity
  8
0
100
AcDbLine
 10
343.42
 20
726.3789999999999
 30
0.0
 11
344.15
 21
725.8439999999999
 31
0.0
  0
LINE
  5
21E
330
1E
100
AcDbEntity
  8
0
100
AcDbLine
 10
343.42
 20
726.3789999999999
 30
0.0
 11
343.42
 21
726.793124617403
 31
0.0
  0
LINE
  5
21F
330
1E
100
AcDbEntity
  8
0
100
AcDbLine
 10
340.8869999999999
 20
723.754207586934
 30
0.0
 11
340.8869999999999
 21
723.126
 31
0.0
  0
LINE
  5
220
330
1E
100
AcDbEntity
  8
0
100
AcDbLine
 10
339.6219999999999
 20
722.818
 30
0.0
 11
340.8869999999999
 21
723.126
 31
0.0
  0
LINE
  5
221
330
1E
100
AcDbEntity
  8
0
100
AcDbLine
 10
344.0759999999999
 20
734.060800827194
 30
0.0
 11
344.0759999999999
 21
732.7180000000001
 31
0.0
  0
LINE
  5
222
330
1E
100
AcDbEntity
  8
0
100
AcDbLine
 10
344.0759999999999
 20
732.7180000000001
 30
0.0
 11
345.3399999999999
 21
732.4089999999999
 31
0.0
  0
LINE
  5
223
330
1E
100
AcDbEntity
  8
0
100
AcDbLine
 10
344.0759999999999
 20
732.7180000000001
 30
0.0
 11
344.0759999999999
 21
734.060800827194
 31
0.0
  0
LINE
  5
224
330
1E
100
AcDbEntity
  8
0
100
AcDbLine
 10
344.0759999999999
 20
732.7180000000001
 30
0.0
 11
344.8059999999999
 21
733.2519999999999
 31
0.0
  0
LINE
  5
225
330
1E
100
AcDbEntity
  8
0
100
AcDbLine
 10
344.684
 20
726.6869999999999
 30
0.0
 11
345.4139999999999
 21
726.1519999999999
 31
0.0
  0
LINE
  5
226
330
1E
100
AcDbEntity
  8
0
100
AcDbLine
 10
344.15
 20
725.8439999999999
 30
0.0
 11
345.4139999999999
 21
726.1519999999999
 31
0.0
  0
LINE
  5
227
330
1E
100
AcDbEntity
  8
0
100
AcDbLine
 10
344.063
 20
720.137045861887
 30
0.0
 11
344.063
 21
719.8819999999999
 31
0.0
  0
LINE
  5
228
330
1E
100
AcDbEntity
  8
0
100
AcDbLine
 10
344.063
 20
719.8819999999999
 30
0.0
 11
344.7929999999999
 21
719.348
 31
0.0
  0
LINE
  5
229
330
1E
100
AcDbEntity
  8
0
100
AcDbLine
 10
344.063
 20
719.8819999999999
 30
0.0
 11
344.063
 21
720.137045861887
 31
0.0
  0
LINE
  5
22A
330
1E
100
AcDbEntity
  8
0
100
AcDbLine
 10
347.334
 20
722.7999999999999
 30
0.0
 11
348.599
 21
723.108
 31
0.0
  0
LINE
  5
22B
330
1E
100
AcDbEntity
  8
0
100
AcDbLine
 10
347.334
 20
722.7999999999999
 30
0.0
 11
348.064
 21
722.2649999999999
 31
0.0
  0
LINE
  5
22C
330
1E
100
AcDbEntity
  8
0
100
AcDbLine
 10
346.07
 20
732.943
 30
0.0
 11
346.07
 21
734.44137007874
 31
0.0
  0
LINE
  5
22D
330
1E
100
AcDbEntity
  8
0
100
AcDbLine
 10
345.3399999999999
 20
732.4089999999999
 30
0.0
 11
346.07
 21
732.943
 31
0.0
  0
LINE
  5
22E
330
1E
100
AcDbEntity
  8
0
100
AcDbLine
 10
346.07
 20
734.44137007874
 30
0.0
 11
346.07
 21
732.943
 31
0.0
  0
LINE
  5
22F
330
1E
100
AcDbEntity
  8
0
100
AcDbLine
 10
344.8059999999999
 20
733.2519999999999
 30
0.0
 11
346.07
 21
732.943
 31
0.0
  0
LINE
  5
230
330
1E
100
AcDbEntity
  8
0
100
AcDbLine
 10
344.8059999999999
 20
733.2519999999999
 30
0.0
 11
344.8059999999999
 21
734.465381413985
 31
0.0
  0
LINE
  5
231
330
1E
100
AcDbEntity
  8
0
100
AcDbLine
 10
344.8059999999999
 20
734.465381413985
 30
0.0
 11
344.8059999999999
 21
733.2519999999999
 31
0.0
  0
LINE
  5
232
330
1E
100
AcDbEntity
  8
0
100
AcDbLine
 10
348.5019999999999
 20
729.342
 30
0.0
 11
349.7659999999999
 21
729.6499999999999
 31
0.0
  0
LINE
  5
233
330
1E
100
AcDbEntity
  8
0
100
AcDbLine
 10
348.5019999999999
 20
729.342
 30
0.0
 11
349.2319999999999
 21
728.807
 31
0.0
  0
LINE
  5
234
330
1E
100
AcDbEntity
  8
0
100
AcDbLine
 10
348.599
 20
724.264093800789
 30
0.0
 11
348.599
 21
723.108
 31
0.0
  0
LINE
  5
235
330
1E
100
AcDbEntity
  8
0
100
AcDbLine
 10
349.2319999999999
 20
728.807
 30
0.0
 11
350.496
 21
729.115
 31
0.0
  0
LINE
  5
236
330
1E
100
AcDbEntity
  8
0
100
AcDbLine
 10
348.599
 20
723.108
 30
0.0
 11
349.329
 21
722.574
 31
0.0
  0
LINE
  5
237
330
1E
100
AcDbEntity
  8
0
100
AcDbLine
 10
348.599
 20
723.108
 30
0.0
 11
348.599
 21
724.264093800789
 31
0.0
  0
LINE
  5
238
330
1E
100
AcDbEntity
  8
0
100
AcDbLine
 10
349.329
 20
722.574
 30
0.0
 11
349.329
 21
723.6980957446809
 31
0.0
  0
LINE
  5
239
330
1E
100
AcDbEntity
  8
0
100
AcDbLine
 10
349.7659999999999
 20
729.6499999999999
 30
0.0
 11
350.496
 21
729.115
 31
0.0
  0
LINE
  5
23A
330
1E
100
AcDbEntity
  8
0
100
AcDbLine
 10
349.329
 20
723.6980957446809
 30
0.0
 11
349.329
 21
722.574
 31
0.0
  0
LINE
  5
23B
330
1E
100
AcDbEntity
  8
0
100
AcDbLine
 10
348.064
 20
722.2649999999999
 30
0.0
 11
349.329
 21
722.574
 31
0.0
  0
LINE
  5
23C
330
1E
100
AcDbEntity
  8
0
100
AcDbLine
 10
344.7929999999999
 20
720.210552224371
 30
0.0
 11
344.7929999999999
 21
719.348
 31
0.0
  0
LINE
  5
23D
330
1E
100
AcDbEntity
  8
0
100
AcDbLine
 10
347.4159999999999
 20
735.346
 30
0.0
 11
348.1899999999999
 21
735.0989999999999
 31
0.0
  0
LINE
  5
23E
330
1E
100
AcDbEntity
  8
0
100
AcDbLine
 10
348.1899999999999
 20
735.0989999999999
 30
0.0
 11
349.0659999999999
 21
734.95
 31
0.0
  0
LINE
  5
23F
330
1E
100
AcDbEntity
  8
0
100
AcDbLine
 10
349.0659999999999
 20
734.95
 30
0.0
 11
350.0
 21
734.895
 31
0.0
  0
LINE
  5
240
330
1E
100
AcDbEntity
  8
0
100
AcDbLine
 10
350.0
 20
734.895
 30
0.0
 11
350.934
 21
734.95
 31
0.0
  0
LINE
  5
241
330
1E
100
AcDbEntity
  8
0
100
AcDbLine
 10
339.4159999999999
 20
737.3439999999999
 30
0.0
 11
339.4159999999999
 21
736.1289999999999
 31
0.0
  0
LINE
  5
242
330
1E
100
AcDbEntity
  8
0
100
AcDbLine
 10
339.4159999999999
 20
736.7449999999999
 30
0.0
 11
339.4159999999999
 21
736.1289999999999
 31
0.0
  0
LINE
  5
243
330
1E
100
AcDbEntity
  8
0
100
AcDbLine
 10
339.4159999999999
 20
736.7449999999999
 30
0.0
 11
339.4159999999999
 21
737.9382394678489
 31
0.0
  0
LINE
  5
244
330
1E
100
AcDbEntity
  8
0
100
AcDbLine
 10
339.4159999999999
 20
736.7449999999999
 30
0.0
 11
340.876
 21
736.7449999999999
 31
0.0
  0
LINE
  5
245
330
1E
100
AcDbEntity
  8
0
100
AcDbLine
 10
340.876
 20
736.7449999999999
 30
0.0
 11
340.876
 21
737.85626765917
 31
0.0
  0
LINE
  5
246
330
1E
100
AcDbEntity
  8
0
100
AcDbLine
 10
340.876
 20
736.7449999999999
 30
0.0
 11
340.876
 21
736.1289999999999
 31
0.0
  0
LINE
  5
247
330
1E
100
AcDbEntity
  8
0
100
AcDbLine
 10
340.876
 20
736.1289999999999
 30
0.0
 11
340.876
 21
736.7449999999999
 31
0.0
  0
LINE
  5
248
330
1E
100
AcDbEntity
  8
0
100
AcDbLine
 10
339.4159999999999
 20
736.1289999999999
 30
0.0
 11
339.4159999999999
 21
737.3439999999999
 31
0.0
  0
LINE
  5
249
330
1E
100
AcDbEntity
  8
0
100
AcDbLine
 10
339.4159999999999
 20
736.1289999999999
 30
0.0
 11
339.4159999999999
 21
736.7449999999999
 31
0.0
  0
LINE
  5
24A
330
1E
100
AcDbEntity
  8
0
100
AcDbLine
 10
339.4159999999999
 20
736.1289999999999
 30
0.0
 11
340.876
 21
736.1289999999999
 31
0.0
  0
LINE
  5
24B
330
1E
100
AcDbEntity
  8
0
100
AcDbLine
 10
340.876
 20
737.85626765917
 30
0.0
 11
340.876
 21
736.7449999999999
 31
0.0
  0
LINE
  5
24C
330
1E
100
AcDbEntity
  8
0
100
AcDbLine
 10
339.4159999999999
 20
737.9382394678489
 30
0.0
 11
339.4159999999999
 21
736.7449999999999
 31
0.0
  0
LINE
  5
24D
330
1E
100
AcDbEntity
  8
0
100
AcDbLine
 10
346.35
 20
737.3439999999999
 30
0.0
 11
346.35
 21
736.4379999999999
 31
0.0
  0
LINE
  5
24E
330
1E
100
AcDbEntity
  8
0
100
AcDbLine
 10
346.35
 20
737.3439999999999
 30
0.0
 11
346.4819999999999
 21
737.7389999999999
 31
0.0
  0
LINE
  5
24F
330
1E
100
AcDbEntity
  8
0
100
AcDbLine
 10
346.4819999999999
 20
736.8319999999999
 30
0.0
 11
346.8319999999999
 21
737.2029999999999
 31
0.0
  0
LINE
  5
250
330
1E
100
AcDbEntity
  8
0
100
AcDbLine
 10
346.4819999999999
 20
737.7389999999999
 30
0.0
 11
346.8319999999999
 21
738.1089999999999
 31
0.0
  0
LINE
  5
251
330
1E
100
AcDbEntity
  8
0
100
AcDbLine
 10
346.8319999999999
 20
738.1089999999999
 30
0.0
 11
347.4159999999999
 21
738.436
 31
0.0
  0
LINE
  5
252
330
1E
100
AcDbEntity
  8
0
100
AcDbLine
 10
346.8319999999999
 20
737.2029999999999
 30
0.0
 11
347.4159999999999
 21
737.5289999999999
 31
0.0
  0
LINE
  5
253
330
1E
100
AcDbEntity
  8
0
100
AcDbLine
 10
346.35
 20
736.4379999999999
 30
0.0
 11
346.4819999999999
 21
736.0419999999999
 31
0.0
  0
LINE
  5
254
330
1E
100
AcDbEntity
  8
0
100
AcDbLine
 10
346.35
 20
736.4379999999999
 30
0.0
 11
346.4819999999999
 21
736.8319999999999
 31
0.0
  0
LINE
  5
255
330
1E
100
AcDbEntity
  8
0
100
AcDbLine
 10
346.35
 20
736.4379999999999
 30
0.0
 11
346.35
 21
737.3439999999999
 31
0.0
  0
LINE
  5
256
330
1E
100
AcDbEntity
  8
0
100
AcDbLine
 10
346.4819999999999
 20
736.0419999999999
 30
0.0
 11
346.8319999999999
 21
735.672
 31
0.0
  0
LINE
  5
257
330
1E
100
AcDbEntity
  8
0
100
AcDbLine
 10
347.4159999999999
 20
737.5289999999999
 30
0.0
 11
348.1899999999999
 21
737.7760000000001
 31
0.0
  0
LINE
  5
258
330
1E
100
AcDbEntity
  8
0
100
AcDbLine
 10
348.1899999999999
 20
737.7760000000001
 30
0.0
 11
349.0659999999999
 21
737.924
 31
0.0
  0
LINE
  5
259
330
1E
100
AcDbEntity
  8
0
100
AcDbLine
 10
347.4159999999999
 20
738.436
 30
0.0
 11
348.1899999999999
 21
738.6829999999999
 31
0.0
  0
LINE
  5
25A
330
1E
100
AcDbEntity
  8
0
100
AcDbLine
 10
348.1899999999999
 20
738.6829999999999
 30
0.0
 11
349.0659999999999
 21
738.831
 31
0.0
  0
LINE
  5
25B
330
1E
100
AcDbEntity
  8
0
100
AcDbLine
 10
349.0659999999999
 20
738.831
 30
0.0
 11
350.0
 21
738.8860000000001
 31
0.0
  0
LINE
  5
25C
330
1E
100
AcDbEntity
  8
0
100
AcDbLine
 10
349.0659999999999
 20
737.924
 30
0.0
 11
350.0
 21
737.9789999999999
 31
0.0
  0
LINE
  5
25D
330
1E
100
AcDbEntity
  8
0
100
AcDbLine
 10
346.8319999999999
 20
735.672
 30
0.0
 11
347.4159999999999
 21
735.346
 31
0.0
  0
LINE
  5
25E
330
1E
100
AcDbEntity
  8
0
100
AcDbLine
 10
346.07
 20
739.931
 30
0.0
 11
346.07
 21
741.334263749745
 31
0.0
  0
LINE
  5
25F
330
1E
100
AcDbEntity
  8
0
100
AcDbLine
 10
344.8059999999999
 20
739.6219999999999
 30
0.0
 11
346.07
 21
739.931
 31
0.0
  0
LINE
  5
260
330
1E
100
AcDbEntity
  8
0
100
AcDbLine
 10
345.3399999999999
 20
740.465
 30
0.0
 11
345.3399999999999
 21
742.075457779595
 31
0.0
  0
LINE
  5
261
330
1E
100
AcDbEntity
  8
0
100
AcDbLine
 10
345.3399999999999
 20
740.465
 30
0.0
 11
346.07
 21
739.931
 31
0.0
  0
LINE
  5
262
330
1E
100
AcDbEntity
  8
0
100
AcDbLine
 10
344.0759999999999
 20
740.1569999999999
 30
0.0
 11
345.3399999999999
 21
740.465
 31
0.0
  0
LINE
  5
263
330
1E
100
AcDbEntity
  8
0
100
AcDbLine
 10
344.0759999999999
 20
740.1569999999999
 30
0.0
 11
344.8059999999999
 21
739.6219999999999
 31
0.0
  0
LINE
  5
264
330
1E
100
AcDbEntity
  8
0
100
AcDbLine
 10
344.0759999999999
 20
740.1569999999999
 30
0.0
 11
344.0759999999999
 21
740.6271991728059
 31
0.0
  0
LINE
  5
265
330
1E
100
AcDbEntity
  8
0
100
AcDbLine
 10
350.0
 20
738.8860000000001
 30
0.0
 11
350.934
 21
738.831
 31
0.0
  0
LINE
  5
266
330
1E
100
AcDbEntity
  8
0
100
AcDbLine
 10
350.0
 20
737.9789999999999
 30
0.0
 11
350.934
 21
737.924
 31
0.0
  0
LINE
  5
267
330
1E
100
AcDbEntity
  8
0
100
AcDbLine
 10
338.613
 20
719.9689999999999
 30
0.0
 11
342.8449340155789
 21
719.540336029678
 31
0.0
  0
LINE
  5
268
330
1E
100
AcDbEntity
  8
0
100
AcDbLine
 10
344.7929999999999
 20
719.4142699871049
 30
0.0
 11
350.0
 21
719.2589999999999
 31
0.0
  0
LINE
  5
269
330
1E
100
AcDbEntity
  8
0
100
AcDbLine
 10
337.591
 20
719.0739999999999
 30
0.0
 11
343.6499999999999
 21
718.5499999999999
 31
0.0
  0
LINE
  5
26A
330
1E
100
AcDbEntity
  8
0
100
AcDbLine
 10
343.6499999999999
 20
718.5499999999999
 30
0.0
 11
350.0
 21
718.3339999999999
 31
0.0
  0
LINE
  5
26B
330
1E
100
AcDbEntity
  8
0
100
AcDbLine
 10
305.7579999999999
 20
742.71
 30
0.0
 11
305.7579999999999
 21
743.785
 31
0.0
  0
LINE
  5
26C
330
1E
100
AcDbEntity
  8
0
100
AcDbLine
 10
305.7579999999999
 20
742.71
 30
0.0
 11
305.7579999999999
 21
742.0930000000001
 31
0.0
  0
LINE
  5
26D
330
1E
100
AcDbEntity
  8
0
100
AcDbLine
 10
305.7579999999999
 20
742.71
 30
0.0
 11
307.218
 21
742.71
 31
0.0
  0
LINE
  5
26E
330
1E
100
AcDbEntity
  8
0
100
AcDbLine
 10
305.7579999999999
 20
743.785
 30
0.0
 11
305.7579999999999
 21
742.0930000000001
 31
0.0
  0
LINE
  5
26F
330
1E
100
AcDbEntity
  8
0
100
AcDbLine
 10
305.7579999999999
 20
743.785
 30
0.0
 11
305.7579999999999
 21
742.71
 31
0.0
  0
LINE
  5
270
330
1E
100
AcDbEntity
  8
0
100
AcDbLine
 10
316.1399999999999
 20
741.571
 30
0.0
 11
316.1399999999999
 21
742.1879999999999
 31
0.0
  0
LINE
  5
271
330
1E
100
AcDbEntity
  8
0
100
AcDbLine
 10
314.68
 20
742.1879999999999
 30
0.0
 11
314.68
 21
742.376263157895
 31
0.0
  0
LINE
  5
272
330
1E
100
AcDbEntity
  8
0
100
AcDbLine
 10
314.68
 20
742.1879999999999
 30
0.0
 11
314.68
 21
741.571
 31
0.0
  0
LINE
  5
273
330
1E
100
AcDbEntity
  8
0
100
AcDbLine
 10
314.68
 20
742.1879999999999
 30
0.0
 11
316.1399999999999
 21
742.1879999999999
 31
0.0
  0
LINE
  5
274
330
1E
100
AcDbEntity
  8
0
100
AcDbLine
 10
316.1399999999999
 20
742.1879999999999
 30
0.0
 11
316.1399999999999
 21
741.571
 31
0.0
  0
LINE
  5
275
330
1E
100
AcDbEntity
  8
0
100
AcDbLine
 10
314.68
 20
742.376263157895
 30
0.0
 11
314.68
 21
741.571
 31
0.0
  0
LINE
  5
276
330
1E
100
AcDbEntity
  8
0
100
AcDbLine
 10
314.68
 20
742.376263157895
 30
0.0
 11
314.68
 21
742.1879999999999
 31
0.0
  0
LINE
  5
277
330
1E
100
AcDbEntity
  8
0
100
AcDbLine
 10
314.68
 20
741.571
 30
0.0
 11
314.68
 21
742.1879999999999
 31
0.0
  0
LINE
  5
278
330
1E
100
AcDbEntity
  8
0
100
AcDbLine
 10
314.68
 20
741.571
 30
0.0
 11
314.68
 21
742.376263157895
 31
0.0
  0
LINE
  5
279
330
1E
100
AcDbEntity
  8
0
100
AcDbLine
 10
314.68
 20
741.571
 30
0.0
 11
316.1399999999999
 21
741.571
 31
0.0
  0
LINE
  5
27A
330
1E
100
AcDbEntity
  8
0
100
AcDbLine
 10
307.218
 20
742.0930000000001
 30
0.0
 11
307.218
 21
742.71
 31
0.0
  0
LINE
  5
27B
330
1E
100
AcDbEntity
  8
0
100
AcDbLine
 10
307.218
 20
743.554473684211
 30
0.0
 11
307.218
 21
742.71
 31
0.0
  0
LINE
  5
27C
330
1E
100
AcDbEntity
  8
0
100
AcDbLine
 10
307.218
 20
742.71
 30
0.0
 11
307.218
 21
742.0930000000001
 31
0.0
  0
LINE
  5
27D
330
1E
100
AcDbEntity
  8
0
100
AcDbLine
 10
307.218
 20
742.71
 30
0.0
 11
307.218
 21
743.554473684211
 31
0.0
  0
LINE
  5
27E
330
1E
100
AcDbEntity
  8
0
100
AcDbLine
 10
305.7579999999999
 20
742.0930000000001
 30
0.0
 11
305.7579999999999
 21
742.71
 31
0.0
  0
LINE
  5
27F
330
1E
100
AcDbEntity
  8
0
100
AcDbLine
 10
305.7579999999999
 20
742.0930000000001
 30
0.0
 11
305.7579999999999
 21
743.785
 31
0.0
  0
LINE
  5
280
330
1E
100
AcDbEntity
  8
0
100
AcDbLine
 10
305.7579999999999
 20
742.0930000000001
 30
0.0
 11
307.218
 21
742.0930000000001
 31
0.0
  0
LINE
  5
281
330
1E
100
AcDbEntity
  8
0
100
AcDbLine
 10
304.5989999999999
 20
743.968
 30
0.0
 11
306.569
 21
746.745
 31
0.0
  0
LINE
  5
282
330
1E
100
AcDbEntity
  8
0
100
AcDbLine
 10
303.358
 20
741.778
 30
0.0
 11
304.5989999999999
 21
743.968
 31
0.0
  0
LINE
  5
283
330
1E
100
AcDbEntity
  8
0
100
AcDbLine
 10
302.482
 20
744.3999999999999
 30
0.0
 11
304.5989999999999
 21
747.115
 31
0.0
  0
LINE
  5
284
330
1E
100
AcDbEntity
  8
0
100
AcDbLine
 10
301.241
 20
741.84
 30
0.0
 11
302.482
 21
744.3999999999999
 31
0.0
  0
LINE
  5
285
330
1E
100
AcDbEntity
  8
0
100
AcDbLine
 10
309.084
 20
746.7929999999999
 30
0.0
 11
309.084
 21
746.176
 31
0.0
  0
LINE
  5
286
330
1E
100
AcDbEntity
  8
0
100
AcDbLine
 10
309.084
 20
746.7929999999999
 30
0.0
 11
310.544
 21
746.7929999999999
 31
0.0
  0
LINE
  5
287
330
1E
100
AcDbEntity
  8
0
100
AcDbLine
 10
309.084
 20
746.489077494547
 30
0.0
 11
309.084
 21
746.176
 31
0.0
  0
LINE
  5
288
330
1E
100
AcDbEntity
  8
0
100
AcDbLine
 10
319.1409999999999
 20
746.2699999999999
 30
0.0
 11
319.1409999999999
 21
747.508828032494
 31
0.0
  0
LINE
  5
289
330
1E
100
AcDbEntity
  8
0
100
AcDbLine
 10
319.1409999999999
 20
746.2699999999999
 30
0.0
 11
319.1409999999999
 21
745.653
 31
0.0
  0
LINE
  5
28A
330
1E
100
AcDbEntity
  8
0
100
AcDbLine
 10
319.1409999999999
 20
746.2699999999999
 30
0.0
 11
320.601
 21
746.2699999999999
 31
0.0
  0
LINE
  5
28B
330
1E
100
AcDbEntity
  8
0
100
AcDbLine
 10
319.1409999999999
 20
745.9156167386249
 30
0.0
 11
319.1409999999999
 21
745.653
 31
0.0
  0
LINE
  5
28C
330
1E
100
AcDbEntity
  8
0
100
AcDbLine
 10
319.1409999999999
 20
745.653
 30
0.0
 11
319.1409999999999
 21
746.2699999999999
 31
0.0
  0
LINE
  5
28D
330
1E
100
AcDbEntity
  8
0
100
AcDbLine
 10
319.1409999999999
 20
745.653
 30
0.0
 11
319.1409999999999
 21
745.9156167386249
 31
0.0
  0
LINE
  5
28E
330
1E
100
AcDbEntity
  8
0
100
AcDbLine
 10
319.1409999999999
 20
745.653
 30
0.0
 11
320.601
 21
745.653
 31
0.0
  0
LINE
  5
28F
330
1E
100
AcDbEntity
  8
0
100
AcDbLine
 10
310.544
 20
746.176
 30
0.0
 11
310.544
 21
746.7929999999999
 31
0.0
  0
LINE
  5
290
330
1E
100
AcDbEntity
  8
0
100
AcDbLine
 10
319.1409999999999
 20
747.508828032494
 30
0.0
 11
319.1409999999999
 21
746.2699999999999
 31
0.0
  0
LINE
  5
291
330
1E
100
AcDbEntity
  8
0
100
AcDbLine
 10
310.544
 20
746.7929999999999
 30
0.0
 11
310.544
 21
746.176
 31
0.0
  0
LINE
  5
292
330
1E
100
AcDbEntity
  8
0
100
AcDbLine
 10
309.084
 20
746.176
 30
0.0
 11
309.084
 21
746.7929999999999
 31
0.0
  0
LINE
  5
293
330
1E
100
AcDbEntity
  8
0
100
AcDbLine
 10
309.084
 20
746.176
 30
0.0
 11
309.084
 21
746.489077494547
 31
0.0
  0
LINE
  5
294
330
1E
100
AcDbEntity
  8
0
100
AcDbLine
 10
309.084
 20
746.176
 30
0.0
 11
310.544
 21
746.176
 31
0.0
  0
LINE
  5
295
330
1E
100
AcDbEntity
  8
0
100
AcDbLine
 10
309.1969999999999
 20
749.058
 30
0.0
 11
312.7009999999999
 21
751.248
 31
0.0
  0
LINE
  5
296
330
1E
100
AcDbEntity
  8
0
100
AcDbLine
 10
306.569
 20
746.745
 30
0.0
 11
309.1969999999999
 21
749.058
 31
0.0
  0
LINE
  5
297
330
1E
100
AcDbEntity
  8
0
100
AcDbLine
 10
313.87
 20
750.2239999999999
 30
0.0
 11
313.87
 21
750.9870233631379
 31
0.0
  0
LINE
  5
298
330
1E
100
AcDbEntity
  8
0
100
AcDbLine
 10
313.87
 20
750.2239999999999
 30
0.0
 11
313.87
 21
749.6069999999999
 31
0.0
  0
LINE
  5
299
330
1E
100
AcDbEntity
  8
0
100
AcDbLine
 10
313.87
 20
750.2239999999999
 30
0.0
 11
315.3299999999999
 21
750.2239999999999
 31
0.0
  0
LINE
  5
29A
330
1E
100
AcDbEntity
  8
0
100
AcDbLine
 10
315.3299999999999
 20
749.6069999999999
 30
0.0
 11
315.3299999999999
 21
750.2239999999999
 31
0.0
  0
LINE
  5
29B
330
1E
100
AcDbEntity
  8
0
100
AcDbLine
 10
315.3299999999999
 20
750.2239999999999
 30
0.0
 11
315.3299999999999
 21
749.6069999999999
 31
0.0
  0
LINE
  5
29C
330
1E
100
AcDbEntity
  8
0
100
AcDbLine
 10
315.3299999999999
 20
750.2239999999999
 30
0.0
 11
315.3299999999999
 21
750.6610816267669
 31
0.0
  0
LINE
  5
29D
330
1E
100
AcDbEntity
  8
0
100
AcDbLine
 10
313.87
 20
749.6069999999999
 30
0.0
 11
313.87
 21
750.2239999999999
 31
0.0
  0
LINE
  5
29E
330
1E
100
AcDbEntity
  8
0
100
AcDbLine
 10
313.87
 20
749.6069999999999
 30
0.0
 11
313.87
 21
750.775712121212
 31
0.0
  0
LINE
  5
29F
330
1E
100
AcDbEntity
  8
0
100
AcDbLine
 10
313.87
 20
749.6069999999999
 30
0.0
 11
315.3299999999999
 21
749.6069999999999
 31
0.0
  0
LINE
  5
2A0
330
1E
100
AcDbEntity
  8
0
100
AcDbLine
 10
307.299
 20
749.5210000000001
 30
0.0
 11
310.949
 21
751.804
 31
0.0
  0
LINE
  5
2A1
330
1E
100
AcDbEntity
  8
0
100
AcDbLine
 10
304.5989999999999
 20
747.115
 30
0.0
 11
307.299
 21
749.5210000000001
 31
0.0
  0
LINE
  5
2A2
330
1E
100
AcDbEntity
  8
0
100
AcDbLine
 10
315.3299999999999
 20
750.6610816267669
 30
0.0
 11
315.3299999999999
 21
750.2239999999999
 31
0.0
  0
LINE
  5
2A3
330
1E
100
AcDbEntity
  8
0
100
AcDbLine
 10
313.87
 20
750.9870233631379
 30
0.0
 11
313.87
 21
750.2239999999999
 31
0.0
  0
LINE
  5
2A4
330
1E
100
AcDbEntity
  8
0
100
AcDbLine
 10
313.87
 20
750.775712121212
 30
0.0
 11
313.87
 21
749.6069999999999
 31
0.0
  0
LINE
  5
2A5
330
1E
100
AcDbEntity
  8
0
100
AcDbLine
 10
312.7009999999999
 20
751.248
 30
0.0
 11
316.788
 21
753.192
 31
0.0
  0
LINE
  5
2A6
330
1E
100
AcDbEntity
  8
0
100
AcDbLine
 10
316.788
 20
753.192
 30
0.0
 11
321.387
 21
754.919
 31
0.0
  0
LINE
  5
2A7
330
1E
100
AcDbEntity
  8
0
100
AcDbLine
 10
315.1829999999999
 20
753.87
 30
0.0
 11
320.073
 21
755.6599999999999
 31
0.0
  0
LINE
  5
2A8
330
1E
100
AcDbEntity
  8
0
100
AcDbLine
 10
314.672
 20
754.993
 30
0.0
 11
319.6349999999999
 21
756.813
 31
0.0
  0
LINE
  5
2A9
330
1E
100
AcDbEntity
  8
0
100
AcDbLine
 10
320.073
 20
755.6599999999999
 30
0.0
 11
325.475
 21
757.202
 31
0.0
  0
LINE
  5
2AA
330
1E
100
AcDbEntity
  8
0
100
AcDbLine
 10
319.6349999999999
 20
756.813
 30
0.0
 11
325.109
 21
758.355
 31
0.0
  0
LINE
  5
2AB
330
1E
100
AcDbEntity
  8
0
100
AcDbLine
 10
310.949
 20
751.804
 30
0.0
 11
315.1829999999999
 21
753.87
 31
0.0
  0
LINE
  5
2AC
330
1E
100
AcDbEntity
  8
0
100
AcDbLine
 10
310.365
 20
752.895
 30
0.0
 11
314.672
 21
754.993
 31
0.0
  0
LINE
  5
2AD
330
1E
100
AcDbEntity
  8
0
100
AcDbLine
 10
306.7149999999999
 20
750.5819999999999
 30
0.0
 11
310.365
 21
752.895
 31
0.0
  0
LINE
  5
2AE
330
1E
100
AcDbEntity
  8
0
100
AcDbLine
 10
303.869
 20
748.1449999999999
 30
0.0
 11
306.7149999999999
 21
750.5819999999999
 31
0.0
  0
LINE
  5
2AF
330
1E
100
AcDbEntity
  8
0
100
AcDbLine
 10
301.825
 20
745.5219999999999
 30
0.0
 11
303.869
 21
748.1449999999999
 31
0.0
  0
LINE
  5
2B0
330
1E
100
AcDbEntity
  8
0
100
AcDbLine
 10
300.5109999999999
 20
742.7769999999999
 30
0.0
 11
301.825
 21
745.5219999999999
 31
0.0
  0
LINE
  5
2B1
330
1E
100
AcDbEntity
  8
0
100
AcDbLine
 10
300.0
 20
759.095
 30
0.0
 11
300.5109999999999
 21
761.8099999999999
 31
0.0
  0
LINE
  5
2B2
330
1E
100
AcDbEntity
  8
0
100
AcDbLine
 10
300.0
 20
759.095
 30
0.0
 11
300.0
 21
740.0629999999999
 31
0.0
  0
LINE
  5
2B3
330
1E
100
AcDbEntity
  8
0
100
AcDbLine
 10
320.278
 20
753.071
 30
0.0
 11
320.278
 21
754.502552293977
 31
0.0
  0
LINE
  5
2B4
330
1E
100
AcDbEntity
  8
0
100
AcDbLine
 10
320.278
 20
753.071
 30
0.0
 11
320.278
 21
752.454
 31
0.0
  0
LINE
  5
2B5
330
1E
100
AcDbEntity
  8
0
100
AcDbLine
 10
320.278
 20
753.071
 30
0.0
 11
321.7379999999999
 21
753.071
 31
0.0
  0
LINE
  5
2B6
330
1E
100
AcDbEntity
  8
0
100
AcDbLine
 10
320.278
 20
752.454
 30
0.0
 11
320.278
 21
753.071
 31
0.0
  0
LINE
  5
2B7
330
1E
100
AcDbEntity
  8
0
100
AcDbLine
 10
320.278
 20
752.454
 30
0.0
 11
321.7379999999999
 21
752.454
 31
0.0
  0
LINE
  5
2B8
330
1E
100
AcDbEntity
  8
0
100
AcDbLine
 10
324.0879999999999
 20
742.561077492727
 30
0.0
 11
324.0879999999999
 21
741.426
 31
0.0
  0
LINE
  5
2B9
330
1E
100
AcDbEntity
  8
0
100
AcDbLine
 10
324.0879999999999
 20
741.426
 30
0.0
 11
324.0879999999999
 21
742.561077492727
 31
0.0
  0
LINE
  5
2BA
330
1E
100
AcDbEntity
  8
0
100
AcDbLine
 10
324.0879999999999
 20
741.426
 30
0.0
 11
324.0879999999999
 21
740.8089999999999
 31
0.0
  0
LINE
  5
2BB
330
1E
100
AcDbEntity
  8
0
100
AcDbLine
 10
324.0879999999999
 20
741.426
 30
0.0
 11
325.5479999999999
 21
741.426
 31
0.0
  0
LINE
  5
2BC
330
1E
100
AcDbEntity
  8
0
100
AcDbLine
 10
324.0879999999999
 20
741.11894145476
 30
0.0
 11
324.0879999999999
 21
740.8089999999999
 31
0.0
  0
LINE
  5
2BD
330
1E
100
AcDbEntity
  8
0
100
AcDbLine
 10
324.0879999999999
 20
740.8089999999999
 30
0.0
 11
324.0879999999999
 21
741.426
 31
0.0
  0
LINE
  5
2BE
330
1E
100
AcDbEntity
  8
0
100
AcDbLine
 10
324.0879999999999
 20
740.8089999999999
 30
0.0
 11
324.0879999999999
 21
741.11894145476
 31
0.0
  0
LINE
  5
2BF
330
1E
100
AcDbEntity
  8
0
100
AcDbLine
 10
324.0879999999999
 20
740.8089999999999
 30
0.0
 11
325.5479999999999
 21
740.8089999999999
 31
0.0
  0
LINE
  5
2C0
330
1E
100
AcDbEntity
  8
0
100
AcDbLine
 10
320.601
 20
745.653
 30
0.0
 11
320.601
 21
746.2699999999999
 31
0.0
  0
LINE
  5
2C1
330
1E
100
AcDbEntity
  8
0
100
AcDbLine
 10
320.601
 20
747.2813751893158
 30
0.0
 11
320.601
 21
746.2699999999999
 31
0.0
  0
LINE
  5
2C2
330
1E
100
AcDbEntity
  8
0
100
AcDbLine
 10
320.601
 20
746.2699999999999
 30
0.0
 11
320.601
 21
745.653
 31
0.0
  0
LINE
  5
2C3
330
1E
100
AcDbEntity
  8
0
100
AcDbLine
 10
320.601
 20
746.2699999999999
 30
0.0
 11
320.601
 21
747.2813751893158
 31
0.0
  0
LINE
  5
2C4
330
1E
100
AcDbEntity
  8
0
100
AcDbLine
 10
321.7379999999999
 20
752.454
 30
0.0
 11
321.7379999999999
 21
753.071
 31
0.0
  0
LINE
  5
2C5
330
1E
100
AcDbEntity
  8
0
100
AcDbLine
 10
321.7379999999999
 20
754.6863380986419
 30
0.0
 11
321.7379999999999
 21
753.071
 31
0.0
  0
LINE
  5
2C6
330
1E
100
AcDbEntity
  8
0
100
AcDbLine
 10
324.495
 20
749.0839999999999
 30
0.0
 11
324.495
 21
749.220700541867
 31
0.0
  0
LINE
  5
2C7
330
1E
100
AcDbEntity
  8
0
100
AcDbLine
 10
324.495
 20
749.0839999999999
 30
0.0
 11
324.495
 21
748.467
 31
0.0
  0
LINE
  5
2C8
330
1E
100
AcDbEntity
  8
0
100
AcDbLine
 10
324.495
 20
749.0839999999999
 30
0.0
 11
325.9549999999999
 21
749.0839999999999
 31
0.0
  0
LINE
  5
2C9
330
1E
100
AcDbEntity
  8
0
100
AcDbLine
 10
324.495
 20
749.220700541867
 30
0.0
 11
324.495
 21
748.467
 31
0.0
  0
LINE
  5
2CA
330
1E
100
AcDbEntity
  8
0
100
AcDbLine
 10
324.495
 20
749.220700541867
 30
0.0
 11
324.495
 21
749.0839999999999
 31
0.0
  0
LINE
  5
2CB
330
1E
100
AcDbEntity
  8
0
100
AcDbLine
 10
324.495
 20
748.467
 30
0.0
 11
324.495
 21
749.0839999999999
 31
0.0
  0
LINE
  5
2CC
330
1E
100
AcDbEntity
  8
0
100
AcDbLine
 10
324.495
 20
748.467
 30
0.0
 11
324.495
 21
749.220700541867
 31
0.0
  0
LINE
  5
2CD
330
1E
100
AcDbEntity
  8
0
100
AcDbLine
 10
324.495
 20
748.467
 30
0.0
 11
325.9549999999999
 21
748.467
 31
0.0
  0
LINE
  5
2CE
330
1E
100
AcDbEntity
  8
0
100
AcDbLine
 10
321.7379999999999
 20
753.071
 30
0.0
 11
321.7379999999999
 21
752.454
 31
0.0
  0
LINE
  5
2CF
330
1E
100
AcDbEntity
  8
0
100
AcDbLine
 10
321.7379999999999
 20
753.071
 30
0.0
 11
321.7379999999999
 21
754.6863380986419
 31
0.0
  0
LINE
  5
2D0
330
1E
100
AcDbEntity
  8
0
100
AcDbLine
 10
320.278
 20
754.502552293977
 30
0.0
 11
320.278
 21
753.071
 31
0.0
  0
LINE
  5
2D1
330
1E
100
AcDbEntity
  8
0
100
AcDbLine
 10
321.387
 20
754.919
 30
0.0
 11
326.569
 21
756.4
 31
0.0
  0
LINE
  5
2D2
330
1E
100
AcDbEntity
  8
0
100
AcDbLine
 10
325.5479999999999
 20
740.8089999999999
 30
0.0
 11
325.5479999999999
 21
741.426
 31
0.0
  0
LINE
  5
2D3
330
1E
100
AcDbEntity
  8
0
100
AcDbLine
 10
325.5479999999999
 20
742.2361782597199
 30
0.0
 11
325.5479999999999
 21
741.426
 31
0.0
  0
LINE
  5
2D4
330
1E
100
AcDbEntity
  8
0
100
AcDbLine
 10
325.5479999999999
 20
741.426
 30
0.0
 11
325.5479999999999
 21
740.8089999999999
 31
0.0
  0
LINE
  5
2D5
330
1E
100
AcDbEntity
  8
0
100
AcDbLine
 10
325.5479999999999
 20
741.426
 30
0.0
 11
325.5479999999999
 21
742.2361782597199
 31
0.0
  0
LINE
  5
2D6
330
1E
100
AcDbEntity
  8
0
100
AcDbLine
 10
325.9549999999999
 20
748.467
 30
0.0
 11
325.9549999999999
 21
749.0839999999999
 31
0.0
  0
LINE
  5
2D7
330
1E
100
AcDbEntity
  8
0
100
AcDbLine
 10
325.9549999999999
 20
750.4848670053109
 30
0.0
 11
325.9549999999999
 21
749.0839999999999
 31
0.0
  0
LINE
  5
2D8
330
1E
100
AcDbEntity
  8
0
100
AcDbLine
 10
325.9549999999999
 20
749.0839999999999
 30
0.0
 11
325.9549999999999
 21
748.467
 31
0.0
  0
LINE
  5
2D9
330
1E
100
AcDbEntity
  8
0
100
AcDbLine
 10
325.9549999999999
 20
749.0839999999999
 30
0.0
 11
325.9549999999999
 21
750.4848670053109
 31
0.0
  0
LINE
  5
2DA
330
1E
100
AcDbEntity
  8
0
100
AcDbLine
 10
326.5579999999999
 20
756.3968562331149
 30
0.0
 11
326.5579999999999
 21
754.7919999999999
 31
0.0
  0
LINE
  5
2DB
330
1E
100
AcDbEntity
  8
0
100
AcDbLine
 10
326.5579999999999
 20
754.7919999999999
 30
0.0
 11
327.8219999999999
 21
755.1010000000001
 31
0.0
  0
LINE
  5
2DC
330
1E
100
AcDbEntity
  8
0
100
AcDbLine
 10
326.5579999999999
 20
754.7919999999999
 30
0.0
 11
327.288
 21
754.258
 31
0.0
  0
LINE
  5
2DD
330
1E
100
AcDbEntity
  8
0
100
AcDbLine
 10
326.5579999999999
 20
754.7919999999999
 30
0.0
 11
326.5579999999999
 21
756.3968562331149
 31
0.0
  0
LINE
  5
2DE
330
1E
100
AcDbEntity
  8
0
100
AcDbLine
 10
329.36
 20
745.2339999999999
 30
0.0
 11
329.36
 21
744.6169999999999
 31
0.0
  0
LINE
  5
2DF
330
1E
100
AcDbEntity
  8
0
100
AcDbLine
 10
329.36
 20
745.2339999999999
 30
0.0
 11
330.8199999999999
 21
745.2339999999999
 31
0.0
  0
LINE
  5
2E0
330
1E
100
AcDbEntity
  8
0
100
AcDbLine
 10
329.36
 20
744.9539595959599
 30
0.0
 11
329.36
 21
744.6169999999999
 31
0.0
  0
LINE
  5
2E1
330
1E
100
AcDbEntity
  8
0
100
AcDbLine
 10
330.8199999999999
 20
744.6169999999999
 30
0.0
 11
330.8199999999999
 21
745.2339999999999
 31
0.0
  0
LINE
  5
2E2
330
1E
100
AcDbEntity
  8
0
100
AcDbLine
 10
330.8199999999999
 20
746.0876931154379
 30
0.0
 11
330.8199999999999
 21
745.2339999999999
 31
0.0
  0
LINE
  5
2E3
330
1E
100
AcDbEntity
  8
0
100
AcDbLine
 10
330.8199999999999
 20
745.2339999999999
 30
0.0
 11
330.8199999999999
 21
744.6169999999999
 31
0.0
  0
LINE
  5
2E4
330
1E
100
AcDbEntity
  8
0
100
AcDbLine
 10
330.8199999999999
 20
745.2339999999999
 30
0.0
 11
330.8199999999999
 21
746.0876931154379
 31
0.0
  0
LINE
  5
2E5
330
1E
100
AcDbEntity
  8
0
100
AcDbLine
 10
329.36
 20
744.6169999999999
 30
0.0
 11
329.36
 21
745.2339999999999
 31
0.0
  0
LINE
  5
2E6
330
1E
100
AcDbEntity
  8
0
100
AcDbLine
 10
329.36
 20
744.6169999999999
 30
0.0
 11
329.36
 21
744.9539595959599
 31
0.0
  0
LINE
  5
2E7
330
1E
100
AcDbEntity
  8
0
100
AcDbLine
 10
329.36
 20
744.6169999999999
 30
0.0
 11
330.8199999999999
 21
744.6169999999999
 31
0.0
  0
LINE
  5
2E8
330
1E
100
AcDbEntity
  8
0
100
AcDbLine
 10
330.9369999999999
 20
751.3389393889069
 30
0.0
 11
330.9369999999999
 21
751.1339999999998
 31
0.0
  0
LINE
  5
2E9
330
1E
100
AcDbEntity
  8
0
100
AcDbLine
 10
330.9369999999999
 20
751.1339999999998
 30
0.0
 11
332.202
 21
751.442
 31
0.0
  0
LINE
  5
2EA
330
1E
100
AcDbEntity
  8
0
100
AcDbLine
 10
330.9369999999999
 20
751.1339999999998
 30
0.0
 11
331.6669999999999
 21
750.5989999999999
 31
0.0
  0
LINE
  5
2EB
330
1E
100
AcDbEntity
  8
0
100
AcDbLine
 10
330.9369999999999
 20
751.1339999999998
 30
0.0
 11
330.9369999999999
 21
751.3389393889069
 31
0.0
  0
LINE
  5
2EC
330
1E
100
AcDbEntity
  8
0
100
AcDbLine
 10
328.5519999999999
 20
754.567
 30
0.0
 11
328.5519999999999
 21
755.4401023299159
 31
0.0
  0
LINE
  5
2ED
330
1E
100
AcDbEntity
  8
0
100
AcDbLine
 10
327.288
 20
754.258
 30
0.0
 11
328.5519999999999
 21
754.567
 31
0.0
  0
LINE
  5
2EE
330
1E
100
AcDbEntity
  8
0
100
AcDbLine
 10
327.8219999999999
 20
755.793468592731
 30
0.0
 11
327.8219999999999
 21
755.1010000000001
 31
0.0
  0
LINE
  5
2EF
330
1E
100
AcDbEntity
  8
0
100
AcDbLine
 10
328.5519999999999
 20
755.4401023299159
 30
0.0
 11
328.5519999999999
 21
754.567
 31
0.0
  0
LINE
  5
2F0
330
1E
100
AcDbEntity
  8
0
100
AcDbLine
 10
327.8219999999999
 20
755.1010000000001
 30
0.0
 11
327.8219999999999
 21
755.793468592731
 31
0.0
  0
LINE
  5
2F1
330
1E
100
AcDbEntity
  8
0
100
AcDbLine
 10
327.8219999999999
 20
755.1010000000001
 30
0.0
 11
328.5519999999999
 21
754.567
 31
0.0
  0
LINE
  5
2F2
330
1E
100
AcDbEntity
  8
0
100
AcDbLine
 10
326.569
 20
756.4
 30
0.0
 11
332.044
 21
757.5110000000001
 31
0.0
  0
LINE
  5
2F3
330
1E
100
AcDbEntity
  8
0
100
AcDbLine
 10
325.475
 20
757.202
 30
0.0
 11
331.1679999999999
 21
758.343
 31
0.0
  0
LINE
  5
2F4
330
1E
100
AcDbEntity
  8
0
100
AcDbLine
 10
333.82
 20
741.2130000000001
 30
0.0
 11
333.82
 21
742.1168804061681
 31
0.0
  0
LINE
  5
2F5
330
1E
100
AcDbEntity
  8
0
100
AcDbLine
 10
333.82
 20
741.2130000000001
 30
0.0
 11
333.82
 21
740.596
 31
0.0
  0
LINE
  5
2F6
330
1E
100
AcDbEntity
  8
0
100
AcDbLine
 10
333.82
 20
741.2130000000001
 30
0.0
 11
335.2799999999999
 21
741.2130000000001
 31
0.0
  0
LINE
  5
2F7
330
1E
100
AcDbEntity
  8
0
100
AcDbLine
 10
331.6669999999999
 20
750.5989999999999
 30
0.0
 11
332.9309999999999
 21
750.9069999999999
 31
0.0
  0
LINE
  5
2F8
330
1E
100
AcDbEntity
  8
0
100
AcDbLine
 10
333.759
 20
756.4693597068821
 30
0.0
 11
333.759
 21
756.0039999999998
 31
0.0
  0
LINE
  5
2F9
330
1E
100
AcDbEntity
  8
0
100
AcDbLine
 10
333.759
 20
756.0039999999998
 30
0.0
 11
335.023
 21
755.696
 31
0.0
  0
LINE
  5
2FA
330
1E
100
AcDbEntity
  8
0
100
AcDbLine
 10
333.759
 20
756.0039999999998
 30
0.0
 11
334.489
 21
756.5389999999999
 31
0.0
  0
LINE
  5
2FB
330
1E
100
AcDbEntity
  8
0
100
AcDbLine
 10
333.759
 20
756.0039999999998
 30
0.0
 11
333.759
 21
756.4693597068821
 31
0.0
  0
LINE
  5
2FC
330
1E
100
AcDbEntity
  8
0
100
AcDbLine
 10
332.202
 20
751.442
 30
0.0
 11
332.9309999999999
 21
750.9069999999999
 31
0.0
  0
LINE
  5
2FD
330
1E
100
AcDbEntity
  8
0
100
AcDbLine
 10
333.82
 20
742.1168804061681
 30
0.0
 11
333.82
 21
741.2130000000001
 31
0.0
  0
LINE
  5
2FE
330
1E
100
AcDbEntity
  8
0
100
AcDbLine
 10
333.82
 20
741.531851902174
 30
0.0
 11
333.82
 21
740.596
 31
0.0
  0
LINE
  5
2FF
330
1E
100
AcDbEntity
  8
0
100
AcDbLine
 10
335.2799999999999
 20
740.596
 30
0.0
 11
335.2799999999999
 21
741.2130000000001
 31
0.0
  0
LINE
  5
300
330
1E
100
AcDbEntity
  8
0
100
AcDbLine
 10
335.023
 20
755.696
 30
0.0
 11
335.753
 21
756.23
 31
0.0
  0
LINE
  5
301
330
1E
100
AcDbEntity
  8
0
100
AcDbLine
 10
334.489
 20
756.5389999999999
 30
0.0
 11
335.753
 21
756.23
 31
0.0
  0
LINE
  5
302
330
1E
100
AcDbEntity
  8
0
100
AcDbLine
 10
334.489
 20
756.5389999999999
 30
0.0
 11
334.489
 21
757.82067270513
 31
0.0
  0
LINE
  5
303
330
1E
100
AcDbEntity
  8
0
100
AcDbLine
 10
337.311
 20
747.2489999999999
 30
0.0
 11
337.311
 21
747.7147792430209
 31
0.0
  0
LINE
  5
304
330
1E
100
AcDbEntity
  8
0
100
AcDbLine
 10
336.0469999999999
 20
746.941
 30
0.0
 11
337.311
 21
747.2489999999999
 31
0.0
  0
LINE
  5
305
330
1E
100
AcDbEntity
  8
0
100
AcDbLine
 10
337.311
 20
747.7147792430209
 30
0.0
 11
337.311
 21
747.2489999999999
 31
0.0
  0
LINE
  5
306
330
1E
100
AcDbEntity
  8
0
100
AcDbLine
 10
336.5809999999999
 20
748.2207408802879
 30
0.0
 11
336.5809999999999
 21
747.7829999999999
 31
0.0
  0
LINE
  5
307
330
1E
100
AcDbEntity
  8
0
100
AcDbLine
 10
336.5809999999999
 20
747.7829999999999
 30
0.0
 11
336.5809999999999
 21
748.2207408802879
 31
0.0
  0
LINE
  5
308
330
1E
100
AcDbEntity
  8
0
100
AcDbLine
 10
336.5809999999999
 20
747.7829999999999
 30
0.0
 11
337.311
 21
747.2489999999999
 31
0.0
  0
LINE
  5
309
330
1E
100
AcDbEntity
  8
0
100
AcDbLine
 10
335.3169999999999
 20
748.8588789509739
 30
0.0
 11
335.3169999999999
 21
747.475
 31
0.0
  0
LINE
  5
30A
330
1E
100
AcDbEntity
  8
0
100
AcDbLine
 10
335.3169999999999
 20
747.475
 30
0.0
 11
336.5809999999999
 21
747.7829999999999
 31
0.0
  0
LINE
  5
30B
330
1E
100
AcDbEntity
  8
0
100
AcDbLine
 10
335.3169999999999
 20
747.475
 30
0.0
 11
336.0469999999999
 21
746.941
 31
0.0
  0
LINE
  5
30C
330
1E
100
AcDbEntity
  8
0
100
AcDbLine
 10
335.3169999999999
 20
747.475
 30
0.0
 11
335.3169999999999
 21
748.8588789509739
 31
0.0
  0
LINE
  5
30D
330
1E
100
AcDbEntity
  8
0
100
AcDbLine
 10
335.2799999999999
 20
741.7529981733199
 30
0.0
 11
335.2799999999999
 21
741.2130000000001
 31
0.0
  0
LINE
  5
30E
330
1E
100
AcDbEntity
  8
0
100
AcDbLine
 10
335.2799999999999
 20
741.2130000000001
 30
0.0
 11
335.2799999999999
 21
740.596
 31
0.0
  0
LINE
  5
30F
330
1E
100
AcDbEntity
  8
0
100
AcDbLine
 10
335.2799999999999
 20
741.2130000000001
 30
0.0
 11
335.2799999999999
 21
741.7529981733199
 31
0.0
  0
LINE
  5
310
330
1E
100
AcDbEntity
  8
0
100
AcDbLine
 10
333.82
 20
740.596
 30
0.0
 11
333.82
 21
741.2130000000001
 31
0.0
  0
LINE
  5
311
330
1E
100
AcDbEntity
  8
0
100
AcDbLine
 10
333.82
 20
740.596
 30
0.0
 11
333.82
 21
741.531851902174
 31
0.0
  0
LINE
  5
312
330
1E
100
AcDbEntity
  8
0
100
AcDbLine
 10
333.82
 20
740.596
 30
0.0
 11
335.2799999999999
 21
740.596
 31
0.0
  0
LINE
  5
313
330
1E
100
AcDbEntity
  8
0
100
AcDbLine
 10
334.489
 20
757.82067270513
 30
0.0
 11
334.489
 21
756.5389999999999
 31
0.0
  0
LINE
  5
314
330
1E
100
AcDbEntity
  8
0
100
AcDbLine
 10
332.044
 20
757.5110000000001
 30
0.0
 11
338.613
 21
758.343
 31
0.0
  0
LINE
  5
315
330
1E
100
AcDbEntity
  8
0
100
AcDbLine
 10
338.892
 20
752.241
 30
0.0
 11
340.1569999999999
 21
751.933
 31
0.0
  0
LINE
  5
316
330
1E
100
AcDbEntity
  8
0
100
AcDbLine
 10
338.892
 20
752.241
 30
0.0
 11
339.6219999999999
 21
752.775
 31
0.0
  0
LINE
  5
317
330
1E
100
AcDbEntity
  8
0
100
AcDbLine
 10
338.892
 20
752.241
 30
0.0
 11
338.892
 21
753.351727272727
 31
0.0
  0
LINE
  5
318
330
1E
100
AcDbEntity
  8
0
100
AcDbLine
 10
339.6219999999999
 20
752.9083468564149
 30
0.0
 11
339.6219999999999
 21
752.775
 31
0.0
  0
LINE
  5
319
330
1E
100
AcDbEntity
  8
0
100
AcDbLine
 10
338.892
 20
753.351727272727
 30
0.0
 11
338.892
 21
752.241
 31
0.0
  0
LINE
  5
31A
330
1E
100
AcDbEntity
  8
0
100
AcDbLine
 10
339.6219999999999
 20
752.775
 30
0.0
 11
340.8869999999999
 21
752.467
 31
0.0
  0
LINE
  5
31B
330
1E
100
AcDbEntity
  8
0
100
AcDbLine
 10
339.6219999999999
 20
752.775
 30
0.0
 11
339.6219999999999
 21
752.9083468564149
 31
0.0
  0
LINE
  5
31C
330
1E
100
AcDbEntity
  8
0
100
AcDbLine
 10
339.6959999999999
 20
744.119759896171
 30
0.0
 11
339.6959999999999
 21
743.816
 31
0.0
  0
LINE
  5
31D
330
1E
100
AcDbEntity
  8
0
100
AcDbLine
 10
341.6909999999999
 20
743.59
 30
0.0
 11
341.6909999999999
 21
744.6790094194209
 31
0.0
  0
LINE
  5
31E
330
1E
100
AcDbEntity
  8
0
100
AcDbLine
 10
340.4259999999999
 20
743.2819999999999
 30
0.0
 11
341.6909999999999
 21
743.59
 31
0.0
  0
LINE
  5
31F
330
1E
100
AcDbEntity
  8
0
100
AcDbLine
 10
340.1569999999999
 20
751.933
 30
0.0
 11
340.8869999999999
 21
752.467
 31
0.0
  0
LINE
  5
320
330
1E
100
AcDbEntity
  8
0
100
AcDbLine
 10
340.8869999999999
 20
752.467
 30
0.0
 11
340.8869999999999
 21
753.110483667018
 31
0.0
  0
LINE
  5
321
330
1E
100
AcDbEntity
  8
0
100
AcDbLine
 10
340.8869999999999
 20
753.110483667018
 30
0.0
 11
340.8869999999999
 21
752.467
 31
0.0
  0
LINE
  5
322
330
1E
100
AcDbEntity
  8
0
100
AcDbLine
 10
340.961
 20
745.1849710566879
 30
0.0
 11
340.961
 21
744.1239999999999
 31
0.0
  0
LINE
  5
323
330
1E
100
AcDbEntity
  8
0
100
AcDbLine
 10
343.42
 20
749.1889508817958
 30
0.0
 11
343.42
 21
748.3089999999999
 31
0.0
  0
LINE
  5
324
330
1E
100
AcDbEntity
  8
0
100
AcDbLine
 10
343.42
 20
748.3089999999999
 30
0.0
 11
344.684
 21
748.001
 31
0.0
  0
LINE
  5
325
330
1E
100
AcDbEntity
  8
0
100
AcDbLine
 10
343.42
 20
748.3089999999999
 30
0.0
 11
344.15
 21
748.8430000000001
 31
0.0
  0
LINE
  5
326
330
1E
100
AcDbEntity
  8
0
100
AcDbLine
 10
343.42
 20
748.3089999999999
 30
0.0
 11
343.42
 21
749.1889508817958
 31
0.0
  0
LINE
  5
327
330
1E
100
AcDbEntity
  8
0
100
AcDbLine
 10
342.799
 20
756.926
 30
0.0
 11
344.063
 21
756.6169999999999
 31
0.0
  0
LINE
  5
328
330
1E
100
AcDbEntity
  8
0
100
AcDbLine
 10
342.799
 20
756.926
 30
0.0
 11
343.529
 21
757.46
 31
0.0
  0
LINE
  5
329
330
1E
100
AcDbEntity
  8
0
100
AcDbLine
 10
344.684
 20
748.001
 30
0.0
 11
345.4139999999999
 21
748.5349999999999
 31
0.0
  0
LINE
  5
32A
330
1E
100
AcDbEntity
  8
0
100
AcDbLine
 10
344.15
 20
748.8430000000001
 30
0.0
 11
345.4139999999999
 21
748.5349999999999
 31
0.0
  0
LINE
  5
32B
330
1E
100
AcDbEntity
  8
0
100
AcDbLine
 10
344.7929999999999
 20
757.151
 30
0.0
 11
344.7929999999999
 21
757.810093649259
 31
0.0
  0
LINE
  5
32C
330
1E
100
AcDbEntity
  8
0
100
AcDbLine
 10
344.063
 20
756.6169999999999
 30
0.0
 11
344.7929999999999
 21
757.151
 31
0.0
  0
LINE
  5
32D
330
1E
100
AcDbEntity
  8
0
100
AcDbLine
 10
343.529
 20
758.8409548524021
 30
0.0
 11
343.529
 21
757.46
 31
0.0
  0
LINE
  5
32E
330
1E
100
AcDbEntity
  8
0
100
AcDbLine
 10
344.7929999999999
 20
757.810093649259
 30
0.0
 11
344.7929999999999
 21
757.151
 31
0.0
  0
LINE
  5
32F
330
1E
100
AcDbEntity
  8
0
100
AcDbLine
 10
343.529
 20
757.46
 30
0.0
 11
344.7929999999999
 21
757.151
 31
0.0
  0
LINE
  5
330
330
1E
100
AcDbEntity
  8
0
100
AcDbLine
 10
343.529
 20
757.46
 30
0.0
 11
343.529
 21
758.8409548524021
 31
0.0
  0
LINE
  5
331
330
1E
100
AcDbEntity
  8
0
100
AcDbLine
 10
341.6909999999999
 20
744.6790094194209
 30
0.0
 11
341.6909999999999
 21
743.59
 31
0.0
  0
LINE
  5
332
330
1E
100
AcDbEntity
  8
0
100
AcDbLine
 10
340.961
 20
744.1239999999999
 30
0.0
 11
340.961
 21
745.1849710566879
 31
0.0
  0
LINE
  5
333
330
1E
100
AcDbEntity
  8
0
100
AcDbLine
 10
340.961
 20
744.1239999999999
 30
0.0
 11
341.6909999999999
 21
743.59
 31
0.0
  0
LINE
  5
334
330
1E
100
AcDbEntity
  8
0
100
AcDbLine
 10
339.6959999999999
 20
743.816
 30
0.0
 11
340.961
 21
744.1239999999999
 31
0.0
  0
LINE
  5
335
330
1E
100
AcDbEntity
  8
0
100
AcDbLine
 10
339.6959999999999
 20
743.816
 30
0.0
 11
340.4259999999999
 21
743.2819999999999
 31
0.0
  0
LINE
  5
336
330
1E
100
AcDbEntity
  8
0
100
AcDbLine
 10
339.6959999999999
 20
743.816
 30
0.0
 11
339.6959999999999
 21
744.119759896171
 31
0.0
  0
LINE
  5
337
330
1E
100
AcDbEntity
  8
0
100
AcDbLine
 10
345.3399999999999
 20
742.075457779595
 30
0.0
 11
345.3399999999999
 21
740.465
 31
0.0
  0
LINE
  5
338
330
1E
100
AcDbEntity
  8
0
100
AcDbLine
 10
348.5019999999999
 20
744.4389999999999
 30
0.0
 11
349.7659999999999
 21
744.13
 31
0.0
  0
LINE
  5
339
330
1E
100
AcDbEntity
  8
0
100
AcDbLine
 10
348.5019999999999
 20
744.4389999999999
 30
0.0
 11
349.2319999999999
 21
744.9739999999999
 31
0.0
  0
LINE
  5
33A
330
1E
100
AcDbEntity
  8
0
100
AcDbLine
 10
347.334
 20
752.794
 30
0.0
 11
348.599
 21
752.4860000000001
 31
0.0
  0
LINE
  5
33B
330
1E
100
AcDbEntity
  8
0
100
AcDbLine
 10
347.334
 20
752.794
 30
0.0
 11
348.064
 21
753.3279999999999
 31
0.0
  0
LINE
  5
33C
330
1E
100
AcDbEntity
  8
0
100
AcDbLine
 10
349.7659999999999
 20
744.13
 30
0.0
 11
350.496
 21
744.6649999999999
 31
0.0
  0
LINE
  5
33D
330
1E
100
AcDbEntity
  8
0
100
AcDbLine
 10
349.2319999999999
 20
744.9739999999999
 30
0.0
 11
350.496
 21
744.6649999999999
 31
0.0
  0
LINE
  5
33E
330
1E
100
AcDbEntity
  8
0
100
AcDbLine
 10
348.599
 20
752.4860000000001
 30
0.0
 11
349.329
 21
753.0199999999999
 31
0.0
  0
LINE
  5
33F
330
1E
100
AcDbEntity
  8
0
100
AcDbLine
 10
348.064
 20
754.339269503546
 30
0.0
 11
348.064
 21
753.3279999999999
 31
0.0
  0
LINE
  5
340
330
1E
100
AcDbEntity
  8
0
100
AcDbLine
 10
348.064
 20
753.3279999999999
 30
0.0
 11
349.329
 21
753.0199999999999
 31
0.0
  0
LINE
  5
341
330
1E
100
AcDbEntity
  8
0
100
AcDbLine
 10
348.064
 20
753.3279999999999
 30
0.0
 11
348.064
 21
754.339269503546
 31
0.0
  0
LINE
  5
342
330
1E
100
AcDbEntity
  8
0
100
AcDbLine
 10
346.07
 20
741.334263749745
 30
0.0
 11
346.07
 21
739.931
 31
0.0
  0
LINE
  5
343
330
1E
100
AcDbEntity
  8
0
100
AcDbLine
 10
344.0759999999999
 20
740.6271991728059
 30
0.0
 11
344.0759999999999
 21
740.1569999999999
 31
0.0
  0
LINE
  5
344
330
1E
100
AcDbEntity
  8
0
100
AcDbLine
 10
338.613
 20
758.343
 30
0.0
 11
343.7959999999999
 21
758.868
 31
0.0
  0
LINE
  5
345
330
1E
100
AcDbEntity
  8
0
100
AcDbLine
 10
343.7959999999999
 20
758.868
 30
0.0
 11
350.0
 21
759.053
 31
0.0
  0
LINE
  5
346
330
1E
100
AcDbEntity
  8
0
100
AcDbLine
 10
331.1679999999999
 20
758.343
 30
0.0
 11
337.591
 21
759.238
 31
0.0
  0
LINE
  5
347
330
1E
100
AcDbEntity
  8
0
100
AcDbLine
 10
337.591
 20
759.238
 30
0.0
 11
343.6499999999999
 21
759.7619999999999
 31
0.0
  0
LINE
  5
348
330
1E
100
AcDbEntity
  8
0
100
AcDbLine
 10
325.109
 20
758.355
 30
0.0
 11
330.8759999999999
 21
759.5579999999999
 31
0.0
  0
LINE
  5
349
330
1E
100
AcDbEntity
  8
0
100
AcDbLine
 10
343.6499999999999
 20
759.7619999999999
 30
0.0
 11
350.0
 21
759.9789999999999
 31
0.0
  0
LINE
  5
34A
330
1E
100
AcDbEntity
  8
0
100
AcDbLine
 10
330.8759999999999
 20
759.5579999999999
 30
0.0
 11
337.08
 21
760.422
 31
0.0
  0
LINE
  5
34B
330
1E
100
AcDbEntity
  8
0
100
AcDbLine
 10
350.0
 20
719.2589999999999
 30
0.0
 11
352.500933000211
 21
719.3335764998449
 31
0.0
  0
LINE
  5
34C
330
1E
100
AcDbEntity
  8
0
100
AcDbLine
 10
350.0
 20
718.3339999999999
 30
0.0
 11
356.35
 21
718.5499999999999
 31
0.0
  0
LINE
  5
34D
330
1E
100
AcDbEntity
  8
0
100
AcDbLine
 10
350.0
 20
759.053
 30
0.0
 11
356.204
 21
758.868
 31
0.0
  0
LINE
  5
34E
330
1E
100
AcDbEntity
  8
0
100
AcDbLine
 10
303.869
 20
767.177
 30
0.0
 11
304.5989999999999
 21
767.96
 31
0.0
  0
LINE
  5
34F
330
1E
100
AcDbEntity
  8
0
100
AcDbLine
 10
303.869
 20
767.177
 30
0.0
 11
306.7149999999999
 21
769.6139999999999
 31
0.0
  0
LINE
  5
350
330
1E
100
AcDbEntity
  8
0
100
AcDbLine
 10
301.825
 20
764.555
 30
0.0
 11
303.869
 21
767.177
 31
0.0
  0
LINE
  5
351
330
1E
100
AcDbEntity
  8
0
100
AcDbLine
 10
300.5109999999999
 20
761.8099999999999
 30
0.0
 11
301.825
 21
764.555
 31
0.0
  0
LINE
  5
352
330
1E
100
AcDbEntity
  8
0
100
AcDbLine
 10
337.08
 20
760.422
 30
0.0
 11
343.577
 21
760.977
 31
0.0
  0
LINE
  5
353
330
1E
100
AcDbEntity
  8
0
100
AcDbLine
 10
343.577
 20
760.977
 30
0.0
 11
350.0
 21
761.1939999999999
 31
0.0
  0
LINE
  5
354
330
1E
100
AcDbEntity
  8
0
100
AcDbLine
 10
306.7149999999999
 20
769.6139999999999
 30
0.0
 11
310.365
 21
771.928
 31
0.0
  0
LINE
  5
355
330
1E
100
AcDbEntity
  8
0
100
AcDbLine
 10
310.365
 20
771.928
 30
0.0
 11
314.672
 21
774.0249999999999
 31
0.0
  0
LINE
  5
356
330
1E
100
AcDbEntity
  8
0
100
AcDbLine
 10
314.672
 20
774.0249999999999
 30
0.0
 11
319.6349999999999
 21
775.846
 31
0.0
  0
LINE
  5
357
330
1E
100
AcDbEntity
  8
0
100
AcDbLine
 10
319.6349999999999
 20
775.846
 30
0.0
 11
325.109
 21
777.388
 31
0.0
  0
LINE
  5
358
330
1E
100
AcDbEntity
  8
0
100
AcDbLine
 10
315.1829999999999
 20
774.716
 30
0.0
 11
320.073
 21
776.505
 31
0.0
  0
LINE
  5
359
330
1E
100
AcDbEntity
  8
0
100
AcDbLine
 10
325.109
 20
777.388
 30
0.0
 11
330.8759999999999
 21
778.591
 31
0.0
  0
LINE
  5
35A
330
1E
100
AcDbEntity
  8
0
100
AcDbLine
 10
320.073
 20
776.505
 30
0.0
 11
325.475
 21
778.0479999999999
 31
0.0
  0
LINE
  5
35B
330
1E
100
AcDbEntity
  8
0
100
AcDbLine
 10
330.8759999999999
 20
778.591
 30
0.0
 11
337.08
 21
779.455
 31
0.0
  0
LINE
  5
35C
330
1E
100
AcDbEntity
  8
0
100
AcDbLine
 10
325.475
 20
778.0479999999999
 30
0.0
 11
331.1679999999999
 21
779.1889999999999
 31
0.0
  0
LINE
  5
35D
330
1E
100
AcDbEntity
  8
0
100
AcDbLine
 10
337.08
 20
779.455
 30
0.0
 11
343.577
 21
780.01
 31
0.0
  0
LINE
  5
35E
330
1E
100
AcDbEntity
  8
0
100
AcDbLine
 10
331.1679999999999
 20
779.1889999999999
 30
0.0
 11
337.591
 21
780.0830000000001
 31
0.0
  0
LINE
  5
35F
330
1E
100
AcDbEntity
  8
0
100
AcDbLine
 10
343.577
 20
780.01
 30
0.0
 11
350.0
 21
780.2260000000001
 31
0.0
  0
LINE
  5
360
330
1E
100
AcDbEntity
  8
0
100
AcDbLine
 10
337.591
 20
780.0830000000001
 30
0.0
 11
343.6499999999999
 21
780.608
 31
0.0
  0
LINE
  5
361
330
1E
100
AcDbEntity
  8
0
100
AcDbLine
 10
310.949
 20
772.6489999999999
 30
0.0
 11
315.1829999999999
 21
774.716
 31
0.0
  0
LINE
  5
362
330
1E
100
AcDbEntity
  8
0
100
AcDbLine
 10
307.299
 20
770.3660000000001
 30
0.0
 11
310.949
 21
772.6489999999999
 31
0.0
  0
LINE
  5
363
330
1E
100
AcDbEntity
  8
0
100
AcDbLine
 10
304.5989999999999
 20
767.96
 30
0.0
 11
307.299
 21
770.3660000000001
 31
0.0
  0
LINE
  5
364
330
1E
100
AcDbEntity
  8
0
100
AcDbLine
 10
304.3029402761709
 20
767.580450594959
 30
0.0
 11
304.5989999999999
 21
767.96
 31
0.0
  0
LINE
  5
365
330
1E
100
AcDbEntity
  8
0
100
AcDbLine
 10
350.0
 20
759.9789999999999
 30
0.0
 11
356.35
 21
759.7619999999999
 31
0.0
  0
LINE
  5
366
330
1E
100
AcDbEntity
  8
0
100
AcDbLine
 10
350.0
 20
761.1939999999999
 30
0.0
 11
356.423
 21
760.977
 31
0.0
  0
LINE
  5
367
330
1E
100
AcDbEntity
  8
0
100
AcDbLine
 10
343.6499999999999
 20
780.608
 30
0.0
 11
350.0
 21
780.823
 31
0.0
  0
LINE
  5
368
330
1E
100
AcDbEntity
  8
0
100
AcDbLine
 10
350.0
 20
780.2260000000001
 30
0.0
 11
356.423
 21
780.01
 31
0.0
  0
LINE
  5
369
330
1E
100
AcDbEntity
  8
0
100
AcDbLine
 10
354.6079999999999
 20
450.1769999999999
 30
0.0
 11
354.6079999999999
 21
470.1769999999999
 31
0.0
  0
LINE
  5
36A
330
1E
100
AcDbEntity
  8
0
100
AcDbLine
 10
354.6079999999999
 20
470.1769999999999
 30
0.0
 11
354.6079999999999
 21
450.1769999999999
 31
0.0
  0
LINE
  5
36B
330
1E
100
AcDbEntity
  8
0
100
AcDbLine
 10
354.6079999999999
 20
470.1769999999999
 30
0.0
 11
358.928
 21
470.1769999999999
 31
0.0
  0
LINE
  5
36C
330
1E
100
AcDbEntity
  8
0
100
AcDbLine
 10
355.12
 20
520.177
 30
0.0
 11
359.92
 21
520.177
 31
0.0
  0
LINE
  5
36D
330
1E
100
AcDbEntity
  8
0
100
AcDbLine
 10
355.12
 20
470.1769999999999
 30
0.0
 11
359.92
 21
470.1769999999999
 31
0.0
  0
LINE
  5
36E
330
1E
100
AcDbEntity
  8
0
100
AcDbLine
 10
353.866
 20
614.245
 30
0.0
 11
357.538
 21
615.1759999999999
 31
0.0
  0
LINE
  5
36F
330
1E
100
AcDbEntity
  8
0
100
AcDbLine
 10
353.608
 20
615.0449999999999
 30
0.0
 11
357.035
 21
615.9139999999999
 31
0.0
  0
LINE
  5
370
330
1E
100
AcDbEntity
  8
0
100
AcDbLine
 10
353.608
 20
631.706
 30
0.0
 11
357.035
 21
632.576
 31
0.0
  0
LINE
  5
371
330
1E
100
AcDbEntity
  8
0
100
AcDbLine
 10
353.534
 20
632.0319999999999
 30
0.0
 11
356.8459999999999
 21
632.884
 31
0.0
  0
LINE
  5
372
330
1E
100
AcDbEntity
  8
0
100
AcDbLine
 10
353.786
 20
614.5679999999999
 30
0.0
 11
357.335
 21
615.481
 31
0.0
  0
LINE
  5
373
330
1E
100
AcDbEntity
  8
0
100
AcDbLine
 10
353.0719999999999
 20
700.2349999999999
 30
0.0
 11
355.952
 21
701.471
 31
0.0
  0
LINE
  5
374
330
1E
100
AcDbEntity
  8
0
100
AcDbLine
 10
355.952
 20
701.471
 30
0.0
 11
358.448
 21
703.413
 31
0.0
  0
LINE
  5
375
330
1E
100
AcDbEntity
  8
0
100
AcDbLine
 10
352.208
 20
703.5889999999999
 30
0.0
 11
354.32
 21
704.383
 31
0.0
  0
LINE
  5
376
330
1E
100
AcDbEntity
  8
0
100
AcDbLine
 10
354.2159999999999
 20
719.312
 30
0.0
 11
354.2159999999999
 21
719.384718891038
 31
0.0
  0
LINE
  5
377
330
1E
100
AcDbEntity
  8
0
100
AcDbLine
 10
352.952
 20
719.003
 30
0.0
 11
354.2159999999999
 21
719.312
 31
0.0
  0
LINE
  5
378
330
1E
100
AcDbEntity
  8
0
100
AcDbLine
 10
354.32
 20
704.383
 30
0.0
 11
356.144
 21
705.7949999999999
 31
0.0
  0
LINE
  5
379
330
1E
100
AcDbEntity
  8
0
100
AcDbLine
 10
356.144
 20
705.7949999999999
 30
0.0
 11
357.488
 21
707.6489999999998
 31
0.0
  0
LINE
  5
37A
330
1E
100
AcDbEntity
  8
0
100
AcDbLine
 10
352.2219999999999
 20
719.538
 30
0.0
 11
353.486
 21
719.8459999999999
 31
0.0
  0
LINE
  5
37B
330
1E
100
AcDbEntity
  8
0
100
AcDbLine
 10
352.2219999999999
 20
719.538
 30
0.0
 11
352.952
 21
719.003
 31
0.0
  0
LINE
  5
37C
330
1E
100
AcDbEntity
  8
0
100
AcDbLine
 10
353.86
 20
726.3519999999999
 30
0.0
 11
355.124
 21
726.661
 31
0.0
  0
LINE
  5
37D
330
1E
100
AcDbEntity
  8
0
100
AcDbLine
 10
353.86
 20
726.3519999999999
 30
0.0
 11
354.5899999999999
 21
725.818
 31
0.0
  0
LINE
  5
37E
330
1E
100
AcDbEntity
  8
0
100
AcDbLine
 10
355.124
 20
726.661
 30
0.0
 11
355.854
 21
726.1269999999999
 31
0.0
  0
LINE
  5
37F
330
1E
100
AcDbEntity
  8
0
100
AcDbLine
 10
354.5899999999999
 20
725.818
 30
0.0
 11
355.854
 21
726.1269999999999
 31
0.0
  0
LINE
  5
380
330
1E
100
AcDbEntity
  8
0
100
AcDbLine
 10
353.486
 20
719.8459999999999
 30
0.0
 11
354.2159999999999
 21
719.312
 31
0.0
  0
LINE
  5
381
330
1E
100
AcDbEntity
  8
0
100
AcDbLine
 10
351.81
 20
735.0989999999999
 30
0.0
 11
352.584
 21
735.346
 31
0.0
  0
LINE
  5
382
330
1E
100
AcDbEntity
  8
0
100
AcDbLine
 10
350.934
 20
734.95
 30
0.0
 11
351.81
 21
735.0989999999999
 31
0.0
  0
LINE
  5
383
330
1E
100
AcDbEntity
  8
0
100
AcDbLine
 10
353.168
 20
735.672
 30
0.0
 11
353.518
 21
736.0419999999999
 31
0.0
  0
LINE
  5
384
330
1E
100
AcDbEntity
  8
0
100
AcDbLine
 10
352.584
 20
735.346
 30
0.0
 11
353.168
 21
735.672
 31
0.0
  0
LINE
  5
385
330
1E
100
AcDbEntity
  8
0
100
AcDbLine
 10
353.93
 20
734.44137007874
 30
0.0
 11
353.93
 21
732.943
 31
0.0
  0
LINE
  5
386
330
1E
100
AcDbEntity
  8
0
100
AcDbLine
 10
353.93
 20
732.943
 30
0.0
 11
355.194
 21
733.2519999999999
 31
0.0
  0
LINE
  5
387
330
1E
100
AcDbEntity
  8
0
100
AcDbLine
 10
353.93
 20
732.943
 30
0.0
 11
354.66
 21
732.4089999999999
 31
0.0
  0
LINE
  5
388
330
1E
100
AcDbEntity
  8
0
100
AcDbLine
 10
353.93
 20
732.943
 30
0.0
 11
353.93
 21
734.44137007874
 31
0.0
  0
LINE
  5
389
330
1E
100
AcDbEntity
  8
0
100
AcDbLine
 10
355.194
 20
734.465381413985
 30
0.0
 11
355.194
 21
733.2519999999999
 31
0.0
  0
LINE
  5
38A
330
1E
100
AcDbEntity
  8
0
100
AcDbLine
 10
355.194
 20
733.2519999999999
 30
0.0
 11
355.924
 21
732.7180000000001
 31
0.0
  0
LINE
  5
38B
330
1E
100
AcDbEntity
  8
0
100
AcDbLine
 10
355.194
 20
733.2519999999999
 30
0.0
 11
355.194
 21
734.465381413985
 31
0.0
  0
LINE
  5
38C
330
1E
100
AcDbEntity
  8
0
100
AcDbLine
 10
354.66
 20
732.4089999999999
 30
0.0
 11
355.924
 21
732.7180000000001
 31
0.0
  0
LINE
  5
38D
330
1E
100
AcDbEntity
  8
0
100
AcDbLine
 10
353.6499999999999
 20
736.4379999999999
 30
0.0
 11
353.6499999999999
 21
737.3439999999999
 31
0.0
  0
LINE
  5
38E
330
1E
100
AcDbEntity
  8
0
100
AcDbLine
 10
353.518
 20
736.0419999999999
 30
0.0
 11
353.6499999999999
 21
736.4379999999999
 31
0.0
  0
LINE
  5
38F
330
1E
100
AcDbEntity
  8
0
100
AcDbLine
 10
353.6499999999999
 20
737.3439999999999
 30
0.0
 11
353.6499999999999
 21
736.4379999999999
 31
0.0
  0
LINE
  5
390
330
1E
100
AcDbEntity
  8
0
100
AcDbLine
 10
353.518
 20
736.8319999999999
 30
0.0
 11
353.6499999999999
 21
736.4379999999999
 31
0.0
  0
LINE
  5
391
330
1E
100
AcDbEntity
  8
0
100
AcDbLine
 10
353.168
 20
737.2029999999999
 30
0.0
 11
353.518
 21
736.8319999999999
 31
0.0
  0
LINE
  5
392
330
1E
100
AcDbEntity
  8
0
100
AcDbLine
 10
353.518
 20
737.7389999999999
 30
0.0
 11
353.6499999999999
 21
737.3439999999999
 31
0.0
  0
LINE
  5
393
330
1E
100
AcDbEntity
  8
0
100
AcDbLine
 10
352.584
 20
737.5289999999999
 30
0.0
 11
353.168
 21
737.2029999999999
 31
0.0
  0
LINE
  5
394
330
1E
100
AcDbEntity
  8
0
100
AcDbLine
 10
351.81
 20
737.7760000000001
 30
0.0
 11
352.584
 21
737.5289999999999
 31
0.0
  0
LINE
  5
395
330
1E
100
AcDbEntity
  8
0
100
AcDbLine
 10
353.168
 20
738.1089999999999
 30
0.0
 11
353.518
 21
737.7389999999999
 31
0.0
  0
LINE
  5
396
330
1E
100
AcDbEntity
  8
0
100
AcDbLine
 10
352.584
 20
738.436
 30
0.0
 11
353.168
 21
738.1089999999999
 31
0.0
  0
LINE
  5
397
330
1E
100
AcDbEntity
  8
0
100
AcDbLine
 10
352.2219999999999
 20
756.962
 30
0.0
 11
353.486
 21
756.653
 31
0.0
  0
LINE
  5
398
330
1E
100
AcDbEntity
  8
0
100
AcDbLine
 10
352.2219999999999
 20
756.962
 30
0.0
 11
352.952
 21
757.496
 31
0.0
  0
LINE
  5
399
330
1E
100
AcDbEntity
  8
0
100
AcDbLine
 10
353.86
 20
748.335
 30
0.0
 11
355.124
 21
748.0260000000001
 31
0.0
  0
LINE
  5
39A
330
1E
100
AcDbEntity
  8
0
100
AcDbLine
 10
353.86
 20
748.335
 30
0.0
 11
354.5899999999999
 21
748.8689999999999
 31
0.0
  0
LINE
  5
39B
330
1E
100
AcDbEntity
  8
0
100
AcDbLine
 10
353.486
 20
756.653
 30
0.0
 11
354.2159999999999
 21
757.188
 31
0.0
  0
LINE
  5
39C
330
1E
100
AcDbEntity
  8
0
100
AcDbLine
 10
352.952
 20
758.9649729206959
 30
0.0
 11
352.952
 21
757.496
 31
0.0
  0
LINE
  5
39D
330
1E
100
AcDbEntity
  8
0
100
AcDbLine
 10
352.952
 20
757.496
 30
0.0
 11
354.2159999999999
 21
757.188
 31
0.0
  0
LINE
  5
39E
330
1E
100
AcDbEntity
  8
0
100
AcDbLine
 10
352.952
 20
757.496
 30
0.0
 11
352.952
 21
758.9649729206959
 31
0.0
  0
LINE
  5
39F
330
1E
100
AcDbEntity
  8
0
100
AcDbLine
 10
354.5899999999999
 20
748.8689999999999
 30
0.0
 11
355.854
 21
748.5599999999999
 31
0.0
  0
LINE
  5
3A0
330
1E
100
AcDbEntity
  8
0
100
AcDbLine
 10
354.66
 20
742.075457779595
 30
0.0
 11
354.66
 21
740.465
 31
0.0
  0
LINE
  5
3A1
330
1E
100
AcDbEntity
  8
0
100
AcDbLine
 10
353.93
 20
741.3342637497439
 30
0.0
 11
353.93
 21
739.931
 31
0.0
  0
LINE
  5
3A2
330
1E
100
AcDbEntity
  8
0
100
AcDbLine
 10
353.93
 20
739.931
 30
0.0
 11
355.194
 21
739.6219999999999
 31
0.0
  0
LINE
  5
3A3
330
1E
100
AcDbEntity
  8
0
100
AcDbLine
 10
353.93
 20
739.931
 30
0.0
 11
354.66
 21
740.465
 31
0.0
  0
LINE
  5
3A4
330
1E
100
AcDbEntity
  8
0
100
AcDbLine
 10
353.93
 20
739.931
 30
0.0
 11
353.93
 21
741.3342637497439
 31
0.0
  0
LINE
  5
3A5
330
1E
100
AcDbEntity
  8
0
100
AcDbLine
 10
355.124
 20
748.0260000000001
 30
0.0
 11
355.854
 21
748.5599999999999
 31
0.0
  0
LINE
  5
3A6
330
1E
100
AcDbEntity
  8
0
100
AcDbLine
 10
355.194
 20
739.6219999999999
 30
0.0
 11
355.924
 21
740.1569999999999
 31
0.0
  0
LINE
  5
3A7
330
1E
100
AcDbEntity
  8
0
100
AcDbLine
 10
354.66
 20
740.465
 30
0.0
 11
355.924
 21
740.1569999999999
 31
0.0
  0
LINE
  5
3A8
330
1E
100
AcDbEntity
  8
0
100
AcDbLine
 10
354.66
 20
740.465
 30
0.0
 11
354.66
 21
742.075457779595
 31
0.0
  0
LINE
  5
3A9
330
1E
100
AcDbEntity
  8
0
100
AcDbLine
 10
351.81
 20
738.6829999999999
 30
0.0
 11
352.584
 21
738.436
 31
0.0
  0
LINE
  5
3AA
330
1E
100
AcDbEntity
  8
0
100
AcDbLine
 10
350.934
 20
738.831
 30
0.0
 11
351.81
 21
738.6829999999999
 31
0.0
  0
LINE
  5
3AB
330
1E
100
AcDbEntity
  8
0
100
AcDbLine
 10
350.934
 20
737.924
 30
0.0
 11
351.81
 21
737.7760000000001
 31
0.0
  0
LINE
  5
3AC
330
1E
100
AcDbEntity
  8
0
100
AcDbLine
 10
355.924
 20
732.7180000000001
 30
0.0
 11
355.924
 21
734.060800827194
 31
0.0
  0
LINE
  5
3AD
330
1E
100
AcDbEntity
  8
0
100
AcDbLine
 10
355.924
 20
740.1569999999999
 30
0.0
 11
355.924
 21
740.6271991728059
 31
0.0
  0
LINE
  5
3AE
330
1E
100
AcDbEntity
  8
0
100
AcDbLine
 10
355.924
 20
740.6271991728059
 30
0.0
 11
355.924
 21
740.1569999999999
 31
0.0
  0
LINE
  5
3AF
330
1E
100
AcDbEntity
  8
0
100
AcDbLine
 10
355.924
 20
734.060800827194
 30
0.0
 11
355.924
 21
732.7180000000001
 31
0.0
  0
LINE
  5
3B0
330
1E
100
AcDbEntity
  8
0
100
AcDbLine
 10
356.204
 20
719.444
 30
0.0
 11
361.3869999999999
 21
719.9689999999999
 31
0.0
  0
LINE
  5
3B1
330
1E
100
AcDbEntity
  8
0
100
AcDbLine
 10
354.2159999999999
 20
719.384718891038
 30
0.0
 11
356.204
 21
719.444
 31
0.0
  0
LINE
  5
3B2
330
1E
100
AcDbEntity
  8
0
100
AcDbLine
 10
354.2159999999999
 20
719.384718891038
 30
0.0
 11
354.2159999999999
 21
719.312
 31
0.0
  0
LINE
  5
3B3
330
1E
100
AcDbEntity
  8
0
100
AcDbLine
 10
356.4
 20
580.177
 30
0.0
 11
362.3999999999999
 21
580.177
 31
0.0
  0
LINE
  5
3B4
330
1E
100
AcDbEntity
  8
0
100
AcDbLine
 10
356.4
 20
520.177
 30
0.0
 11
362.3999999999999
 21
520.177
 31
0.0
  0
LINE
  5
3B5
330
1E
100
AcDbEntity
  8
0
100
AcDbLine
 10
356.35
 20
718.5499999999999
 30
0.0
 11
362.4089999999999
 21
719.0739999999999
 31
0.0
  0
LINE
  5
3B6
330
1E
100
AcDbEntity
  8
0
100
AcDbLine
 10
356.204
 20
758.868
 30
0.0
 11
361.3869999999999
 21
758.343
 31
0.0
  0
LINE
  5
3B7
330
1E
100
AcDbEntity
  8
0
100
AcDbLine
 10
356.35
 20
759.7619999999999
 30
0.0
 11
362.4089999999999
 21
759.238
 31
0.0
  0
LINE
  5
3B8
330
1E
100
AcDbEntity
  8
0
100
AcDbLine
 10
357.168
 20
565.1769999999999
 30
0.0
 11
363.888
 21
565.1769999999999
 31
0.0
  0
LINE
  5
3B9
330
1E
100
AcDbEntity
  8
0
100
AcDbLine
 10
357.168
 20
560.177
 30
0.0
 11
363.888
 21
560.177
 31
0.0
  0
LINE
  5
3BA
330
1E
100
AcDbEntity
  8
0
100
AcDbLine
 10
357.424
 20
600.177
 30
0.0
 11
364.384
 21
600.177
 31
0.0
  0
LINE
  5
3BB
330
1E
100
AcDbEntity
  8
0
100
AcDbLine
 10
357.424
 20
580.177
 30
0.0
 11
364.384
 21
580.177
 31
0.0
  0
LINE
  5
3BC
330
1E
100
AcDbEntity
  8
0
100
AcDbLine
 10
357.035
 20
615.9139999999999
 30
0.0
 11
359.918
 21
617.3569999999999
 31
0.0
  0
LINE
  5
3BD
330
1E
100
AcDbEntity
  8
0
100
AcDbLine
 10
356.8459999999999
 20
632.884
 30
0.0
 11
359.7719999999999
 21
634.3029999999999
 31
0.0
  0
LINE
  5
3BE
330
1E
100
AcDbEntity
  8
0
100
AcDbLine
 10
357.035
 20
632.576
 30
0.0
 11
359.918
 21
634.018
 31
0.0
  0
LINE
  5
3BF
330
1E
100
AcDbEntity
  8
0
100
AcDbLine
 10
357.335
 20
615.481
 30
0.0
 11
360.47
 21
617.002
 31
0.0
  0
LINE
  5
3C0
330
1E
100
AcDbEntity
  8
0
100
AcDbLine
 10
357.538
 20
615.1759999999999
 30
0.0
 11
360.6269999999999
 21
616.722
 31
0.0
  0
LINE
  5
3C1
330
1E
100
AcDbEntity
  8
0
100
AcDbLine
 10
357.488
 20
707.6489999999998
 30
0.0
 11
358.352
 21
709.7669999999999
 31
0.0
  0
LINE
  5
3C2
330
1E
100
AcDbEntity
  8
0
100
AcDbLine
 10
358.928
 20
470.1769999999999
 30
0.0
 11
362.744
 21
470.1769999999999
 31
0.0
  0
LINE
  5
3C3
330
1E
100
AcDbEntity
  8
0
100
AcDbLine
 10
359.1499999999999
 20
606.6769999999999
 30
0.0
 11
367.8399999999999
 21
606.6769999999999
 31
0.0
  0
LINE
  5
3C4
330
1E
100
AcDbEntity
  8
0
100
AcDbLine
 10
359.1499999999999
 20
600.177
 30
0.0
 11
367.8399999999999
 21
600.177
 31
0.0
  0
LINE
  5
3C5
330
1E
100
AcDbEntity
  8
0
100
AcDbLine
 10
358.9599999999999
 20
607.177
 30
0.0
 11
367.36
 21
607.177
 31
0.0
  0
LINE
  5
3C6
330
1E
100
AcDbEntity
  8
0
100
AcDbLine
 10
359.918
 20
617.3569999999999
 30
0.0
 11
362.162
 21
619.21
 31
0.0
  0
LINE
  5
3C7
330
1E
100
AcDbEntity
  8
0
100
AcDbLine
 10
359.7719999999999
 20
634.3029999999999
 30
0.0
 11
361.981
 21
636.1839999999999
 31
0.0
  0
LINE
  5
3C8
330
1E
100
AcDbEntity
  8
0
100
AcDbLine
 10
359.92
 20
520.177
 30
0.0
 11
364.16
 21
520.177
 31
0.0
  0
LINE
  5
3C9
330
1E
100
AcDbEntity
  8
0
100
AcDbLine
 10
359.92
 20
470.1769999999999
 30
0.0
 11
364.16
 21
470.1769999999999
 31
0.0
  0
LINE
  5
3CA
330
1E
100
AcDbEntity
  8
0
100
AcDbLine
 10
359.918
 20
634.018
 30
0.0
 11
362.162
 21
635.871
 31
0.0
  0
LINE
  5
3CB
330
1E
100
AcDbEntity
  8
0
100
AcDbLine
 10
358.448
 20
703.413
 30
0.0
 11
360.368
 21
705.9719999999999
 31
0.0
  0
LINE
  5
3CC
330
1E
100
AcDbEntity
  8
0
100
AcDbLine
 10
360.47
 20
617.002
 30
0.0
 11
362.8369999999999
 21
619.0169999999999
 31
0.0
  0
LINE
  5
3CD
330
1E
100
AcDbEntity
  8
0
100
AcDbLine
 10
360.6269999999999
 20
616.722
 30
0.0
 11
363.031
 21
618.707
 31
0.0
  0
LINE
  5
3CE
330
1E
100
AcDbEntity
  8
0
100
AcDbLine
 10
360.368
 20
705.9719999999999
 30
0.0
 11
361.6159999999999
 21
708.8849999999999
 31
0.0
  0
LINE
  5
3CF
330
1E
100
AcDbEntity
  8
0
100
AcDbLine
 10
360.368
 20
718.0629999999999
 30
0.0
 11
361.6159999999999
 21
715.151
 31
0.0
  0
LINE
  5
3D0
330
1E
100
AcDbEntity
  8
0
100
AcDbLine
 10
358.6399999999999
 20
711.9739999999999
 30
0.0
 11
358.6399999999999
 21
718.7480458821589
 31
0.0
  0
LINE
  5
3D1
330
1E
100
AcDbEntity
  8
0
100
AcDbLine
 10
358.352
 20
709.7669999999999
 30
0.0
 11
358.6399999999999
 21
711.9739999999999
 31
0.0
  0
LINE
  5
3D2
330
1E
100
AcDbEntity
  8
0
100
AcDbLine
 10
357.9319999999999
 20
723.208
 30
0.0
 11
359.1959999999999
 21
723.5169999999999
 31
0.0
  0
LINE
  5
3D3
330
1E
100
AcDbEntity
  8
0
100
AcDbLine
 10
357.9319999999999
 20
723.208
 30
0.0
 11
358.661
 21
722.6739999999999
 31
0.0
  0
LINE
  5
3D4
330
1E
100
AcDbEntity
  8
0
100
AcDbLine
 10
359.1959999999999
 20
724.4358742565849
 30
0.0
 11
359.1959999999999
 21
723.5169999999999
 31
0.0
  0
LINE
  5
3D5
330
1E
100
AcDbEntity
  8
0
100
AcDbLine
 10
359.1959999999999
 20
723.5169999999999
 30
0.0
 11
359.926
 21
722.982
 31
0.0
  0
LINE
  5
3D6
330
1E
100
AcDbEntity
  8
0
100
AcDbLine
 10
359.1959999999999
 20
723.5169999999999
 30
0.0
 11
359.1959999999999
 21
724.4358742565849
 31
0.0
  0
LINE
  5
3D7
330
1E
100
AcDbEntity
  8
0
100
AcDbLine
 10
358.661
 20
722.6739999999999
 30
0.0
 11
359.926
 21
722.982
 31
0.0
  0
LINE
  5
3D8
330
1E
100
AcDbEntity
  8
0
100
AcDbLine
 10
358.309
 20
730.5386323000509
 30
0.0
 11
358.309
 21
730.19
 31
0.0
  0
LINE
  5
3D9
330
1E
100
AcDbEntity
  8
0
100
AcDbLine
 10
358.309
 20
730.19
 30
0.0
 11
359.574
 21
730.4989999999999
 31
0.0
  0
LINE
  5
3DA
330
1E
100
AcDbEntity
  8
0
100
AcDbLine
 10
358.309
 20
730.19
 30
0.0
 11
359.0389999999999
 21
729.656
 31
0.0
  0
LINE
  5
3DB
330
1E
100
AcDbEntity
  8
0
100
AcDbLine
 10
358.309
 20
730.19
 30
0.0
 11
358.309
 21
730.5386323000509
 31
0.0
  0
LINE
  5
3DC
330
1E
100
AcDbEntity
  8
0
100
AcDbLine
 10
359.124
 20
736.1289999999999
 30
0.0
 11
359.124
 21
736.7449999999999
 31
0.0
  0
LINE
  5
3DD
330
1E
100
AcDbEntity
  8
0
100
AcDbLine
 10
359.124
 20
736.1289999999999
 30
0.0
 11
360.584
 21
736.1289999999999
 31
0.0
  0
LINE
  5
3DE
330
1E
100
AcDbEntity
  8
0
100
AcDbLine
 10
359.124
 20
736.1289999999999
 30
0.0
 11
359.124
 21
737.3439999999999
 31
0.0
  0
LINE
  5
3DF
330
1E
100
AcDbEntity
  8
0
100
AcDbLine
 10
359.124
 20
737.3439999999999
 30
0.0
 11
359.124
 21
736.1289999999999
 31
0.0
  0
LINE
  5
3E0
330
1E
100
AcDbEntity
  8
0
100
AcDbLine
 10
359.124
 20
737.85626765917
 30
0.0
 11
359.124
 21
736.7449999999999
 31
0.0
  0
LINE
  5
3E1
330
1E
100
AcDbEntity
  8
0
100
AcDbLine
 10
359.124
 20
736.7449999999999
 30
0.0
 11
360.584
 21
736.7449999999999
 31
0.0
  0
LINE
  5
3E2
330
1E
100
AcDbEntity
  8
0
100
AcDbLine
 10
359.124
 20
736.7449999999999
 30
0.0
 11
359.124
 21
737.85626765917
 31
0.0
  0
LINE
  5
3E3
330
1E
100
AcDbEntity
  8
0
100
AcDbLine
 10
359.124
 20
736.7449999999999
 30
0.0
 11
359.124
 21
736.1289999999999
 31
0.0
  0
LINE
  5
3E4
330
1E
100
AcDbEntity
  8
0
100
AcDbLine
 10
359.574
 20
731.3733729901221
 30
0.0
 11
359.574
 21
730.4989999999999
 31
0.0
  0
LINE
  5
3E5
330
1E
100
AcDbEntity
  8
0
100
AcDbLine
 10
359.574
 20
730.4989999999999
 30
0.0
 11
360.304
 21
729.965
 31
0.0
  0
LINE
  5
3E6
330
1E
100
AcDbEntity
  8
0
100
AcDbLine
 10
359.574
 20
730.4989999999999
 30
0.0
 11
359.574
 21
731.3733729901221
 31
0.0
  0
LINE
  5
3E7
330
1E
100
AcDbEntity
  8
0
100
AcDbLine
 10
359.0389999999999
 20
729.656
 30
0.0
 11
360.304
 21
729.965
 31
0.0
  0
LINE
  5
3E8
330
1E
100
AcDbEntity
  8
0
100
AcDbLine
 10
359.926
 20
722.982
 30
0.0
 11
359.926
 21
724.133051401869
 31
0.0
  0
LINE
  5
3E9
330
1E
100
AcDbEntity
  8
0
100
AcDbLine
 10
359.926
 20
724.133051401869
 30
0.0
 11
359.926
 21
722.982
 31
0.0
  0
LINE
  5
3EA
330
1E
100
AcDbEntity
  8
0
100
AcDbLine
 10
360.304
 20
729.965
 30
0.0
 11
360.304
 21
731.0834047155529
 31
0.0
  0
LINE
  5
3EB
330
1E
100
AcDbEntity
  8
0
100
AcDbLine
 10
360.584
 20
736.1289999999999
 30
0.0
 11
360.584
 21
736.7449999999999
 31
0.0
  0
LINE
  5
3EC
330
1E
100
AcDbEntity
  8
0
100
AcDbLine
 10
360.584
 20
737.9382394678489
 30
0.0
 11
360.584
 21
736.7449999999999
 31
0.0
  0
LINE
  5
3ED
330
1E
100
AcDbEntity
  8
0
100
AcDbLine
 10
360.584
 20
736.7449999999999
 30
0.0
 11
360.584
 21
736.1289999999999
 31
0.0
  0
LINE
  5
3EE
330
1E
100
AcDbEntity
  8
0
100
AcDbLine
 10
360.584
 20
736.7449999999999
 30
0.0
 11
360.584
 21
737.9382394678489
 31
0.0
  0
LINE
  5
3EF
330
1E
100
AcDbEntity
  8
0
100
AcDbLine
 10
360.304
 20
731.0834047155529
 30
0.0
 11
360.304
 21
729.965
 31
0.0
  0
LINE
  5
3F0
330
1E
100
AcDbEntity
  8
0
100
AcDbLine
 10
359.7802560833849
 20
718.846658555487
 30
0.0
 11
360.368
 21
718.0629999999999
 31
0.0
  0
LINE
  5
3F1
330
1E
100
AcDbEntity
  8
0
100
AcDbLine
 10
358.6399999999999
 20
718.7480458821589
 30
0.0
 11
358.6399999999999
 21
711.9739999999999
 31
0.0
  0
LINE
  5
3F2
330
1E
100
AcDbEntity
  8
0
100
AcDbLine
 10
361.3869999999999
 20
719.9689999999999
 30
0.0
 11
362.581611835398
 21
720.1204860190119
 31
0.0
  0
LINE
  5
3F3
330
1E
100
AcDbEntity
  8
0
100
AcDbLine
 10
357.9319999999999
 20
752.385
 30
0.0
 11
359.1959999999999
 21
752.076
 31
0.0
  0
LINE
  5
3F4
330
1E
100
AcDbEntity
  8
0
100
AcDbLine
 10
357.9319999999999
 20
752.385
 30
0.0
 11
358.661
 21
752.9189999999999
 31
0.0
  0
LINE
  5
3F5
330
1E
100
AcDbEntity
  8
0
100
AcDbLine
 10
358.661
 20
752.9189999999999
 30
0.0
 11
359.926
 21
752.611
 31
0.0
  0
LINE
  5
3F6
330
1E
100
AcDbEntity
  8
0
100
AcDbLine
 10
359.0389999999999
 20
745.1849710566879
 30
0.0
 11
359.0389999999999
 21
744.1239999999999
 31
0.0
  0
LINE
  5
3F7
330
1E
100
AcDbEntity
  8
0
100
AcDbLine
 10
358.309
 20
744.6790094194209
 30
0.0
 11
358.309
 21
743.59
 31
0.0
  0
LINE
  5
3F8
330
1E
100
AcDbEntity
  8
0
100
AcDbLine
 10
358.309
 20
743.59
 30
0.0
 11
359.574
 21
743.2819999999999
 31
0.0
  0
LINE
  5
3F9
330
1E
100
AcDbEntity
  8
0
100
AcDbLine
 10
358.309
 20
743.59
 30
0.0
 11
359.0389999999999
 21
744.1239999999999
 31
0.0
  0
LINE
  5
3FA
330
1E
100
AcDbEntity
  8
0
100
AcDbLine
 10
358.309
 20
743.59
 30
0.0
 11
358.309
 21
744.6790094194209
 31
0.0
  0
LINE
  5
3FB
330
1E
100
AcDbEntity
  8
0
100
AcDbLine
 10
360.304
 20
743.816
 30
0.0
 11
360.304
 21
744.119759896171
 31
0.0
  0
LINE
  5
3FC
330
1E
100
AcDbEntity
  8
0
100
AcDbLine
 10
359.574
 20
743.2819999999999
 30
0.0
 11
360.304
 21
743.816
 31
0.0
  0
LINE
  5
3FD
330
1E
100
AcDbEntity
  8
0
100
AcDbLine
 10
359.1959999999999
 20
752.076
 30
0.0
 11
359.926
 21
752.611
 31
0.0
  0
LINE
  5
3FE
330
1E
100
AcDbEntity
  8
0
100
AcDbLine
 10
360.304
 20
744.119759896171
 30
0.0
 11
360.304
 21
743.816
 31
0.0
  0
LINE
  5
3FF
330
1E
100
AcDbEntity
  8
0
100
AcDbLine
 10
359.0389999999999
 20
744.1239999999999
 30
0.0
 11
360.304
 21
743.816
 31
0.0
  0
LINE
  5
400
330
1E
100
AcDbEntity
  8
0
100
AcDbLine
 10
359.0389999999999
 20
744.1239999999999
 30
0.0
 11
359.0389999999999
 21
745.1849710566879
 31
0.0
  0
LINE
  5
401
330
1E
100
AcDbEntity
  8
0
100
AcDbLine
 10
361.6159999999999
 20
708.8849999999999
 30
0.0
 11
362.0
 21
711.9739999999999
 31
0.0
  0
LINE
  5
402
330
1E
100
AcDbEntity
  8
0
100
AcDbLine
 10
361.981
 20
636.1839999999999
 30
0.0
 11
363.3059999999999
 21
638.314
 31
0.0
  0
LINE
  5
403
330
1E
100
AcDbEntity
  8
0
100
AcDbLine
 10
362.0
 20
644.9554566037729
 30
0.0
 11
363.3059999999999
 21
642.856
 31
0.0
  0
LINE
  5
404
330
1E
100
AcDbEntity
  8
0
100
AcDbLine
 10
362.0
 20
645.0497727272731
 30
0.0
 11
362.162
 21
644.9159999999999
 31
0.0
  0
LINE
  5
405
330
1E
100
AcDbEntity
  8
0
100
AcDbLine
 10
362.162
 20
619.21
 30
0.0
 11
363.5149999999999
 21
621.4119999999999
 31
0.0
  0
LINE
  5
406
330
1E
100
AcDbEntity
  8
0
100
AcDbLine
 10
362.3999999999999
 20
580.177
 30
0.0
 11
367.7
 21
580.177
 31
0.0
  0
LINE
  5
407
330
1E
100
AcDbEntity
  8
0
100
AcDbLine
 10
362.3999999999999
 20
520.177
 30
0.0
 11
367.7
 21
520.177
 31
0.0
  0
LINE
  5
408
330
1E
100
AcDbEntity
  8
0
100
AcDbLine
 10
362.162
 20
635.871
 30
0.0
 11
363.5149999999999
 21
638.0740000000001
 31
0.0
  0
LINE
  5
409
330
1E
100
AcDbEntity
  8
0
100
AcDbLine
 10
362.162
 20
644.9159999999999
 30
0.0
 11
363.5149999999999
 21
642.713
 31
0.0
  0
LINE
  5
40A
330
1E
100
AcDbEntity
  8
0
100
AcDbLine
 10
362.0
 20
640.585
 30
0.0
 11
362.0
 21
711.9739999999999
 31
0.0
  0
LINE
  5
40B
330
1E
100
AcDbEntity
  8
0
100
AcDbLine
 10
362.0
 20
711.9739999999999
 30
0.0
 11
362.0
 21
640.585
 31
0.0
  0
LINE
  5
40C
330
1E
100
AcDbEntity
  8
0
100
AcDbLine
 10
361.6159999999999
 20
715.151
 30
0.0
 11
362.0
 21
711.9739999999999
 31
0.0
  0
LINE
  5
40D
330
1E
100
AcDbEntity
  8
0
100
AcDbLine
 10
362.2509999999999
 20
756.138
 30
0.0
 11
363.5159999999999
 21
755.8289999999999
 31
0.0
  0
LINE
  5
40E
330
1E
100
AcDbEntity
  8
0
100
AcDbLine
 10
362.2509999999999
 20
756.138
 30
0.0
 11
362.9819999999999
 21
756.672
 31
0.0
  0
LINE
  5
40F
330
1E
100
AcDbEntity
  8
0
100
AcDbLine
 10
362.2509999999999
 20
720.3619999999999
 30
0.0
 11
363.5159999999999
 21
720.6699999999999
 31
0.0
  0
LINE
  5
410
330
1E
100
AcDbEntity
  8
0
100
AcDbLine
 10
362.2509999999999
 20
720.3619999999999
 30
0.0
 11
362.9819999999999
 21
719.8279999999999
 31
0.0
  0
LINE
  5
411
330
1E
100
AcDbEntity
  8
0
100
AcDbLine
 10
362.4089999999999
 20
719.0739999999999
 30
0.0
 11
368.832
 21
719.9689999999999
 31
0.0
  0
LINE
  5
412
330
1E
100
AcDbEntity
  8
0
100
AcDbLine
 10
361.3869999999999
 20
758.343
 30
0.0
 11
367.9559999999999
 21
757.5110000000001
 31
0.0
  0
LINE
  5
413
330
1E
100
AcDbEntity
  8
0
100
AcDbLine
 10
362.4089999999999
 20
759.238
 30
0.0
 11
368.832
 21
758.343
 31
0.0
  0
LINE
  5
414
330
1E
100
AcDbEntity
  8
0
100
AcDbLine
 10
356.423
 20
760.977
 30
0.0
 11
362.92
 21
760.422
 31
0.0
  0
LINE
  5
415
330
1E
100
AcDbEntity
  8
0
100
AcDbLine
 10
356.423
 20
780.01
 30
0.0
 11
362.92
 21
779.455
 31
0.0
  0
LINE
  5
416
330
1E
100
AcDbEntity
  8
0
100
AcDbLine
 10
362.744
 20
470.1769999999999
 30
0.0
 11
365.624
 21
470.1769999999999
 31
0.0
  0
LINE
  5
417
330
1E
100
AcDbEntity
  8
0
100
AcDbLine
 10
362.689
 20
747.7147792430209
 30
0.0
 11
362.689
 21
747.2489999999999
 31
0.0
  0
LINE
  5
418
330
1E
100
AcDbEntity
  8
0
100
AcDbLine
 10
362.689
 20
747.2489999999999
 30
0.0
 11
363.953
 21
746.941
 31
0.0
  0
LINE
  5
419
330
1E
100
AcDbEntity
  8
0
100
AcDbLine
 10
362.689
 20
747.2489999999999
 30
0.0
 11
363.419
 21
747.7829999999999
 31
0.0
  0
LINE
  5
41A
330
1E
100
AcDbEntity
  8
0
100
AcDbLine
 10
362.689
 20
747.2489999999999
 30
0.0
 11
362.689
 21
747.7147792430209
 31
0.0
  0
LINE
  5
41B
330
1E
100
AcDbEntity
  8
0
100
AcDbLine
 10
362.689
 20
728.182853913341
 30
0.0
 11
362.689
 21
727.4389999999999
 31
0.0
  0
LINE
  5
41C
330
1E
100
AcDbEntity
  8
0
100
AcDbLine
 10
362.689
 20
727.4389999999999
 30
0.0
 11
363.953
 21
727.747
 31
0.0
  0
LINE
  5
41D
330
1E
100
AcDbEntity
  8
0
100
AcDbLine
 10
362.689
 20
727.4389999999999
 30
0.0
 11
363.419
 21
726.903
 31
0.0
  0
LINE
  5
41E
330
1E
100
AcDbEntity
  8
0
100
AcDbLine
 10
362.689
 20
727.4389999999999
 30
0.0
 11
362.689
 21
728.182853913341
 31
0.0
  0
LINE
  5
41F
330
1E
100
AcDbEntity
  8
0
100
AcDbLine
 10
362.8369999999999
 20
619.0169999999999
 30
0.0
 11
364.2559999999999
 21
621.2979999999999
 31
0.0
  0
LINE
  5
420
330
1E
100
AcDbEntity
  8
0
100
AcDbLine
 10
363.888
 20
565.1769999999999
 30
0.0
 11
369.824
 21
565.1769999999999
 31
0.0
  0
LINE
  5
421
330
1E
100
AcDbEntity
  8
0
100
AcDbLine
 10
363.888
 20
560.177
 30
0.0
 11
369.824
 21
560.177
 31
0.0
  0
LINE
  5
422
330
1E
100
AcDbEntity
  8
0
100
AcDbLine
 10
363.5149999999999
 20
621.4119999999999
 30
0.0
 11
364.0
 21
623.7319999999999
 31
0.0
  0
LINE
  5
423
330
1E
100
AcDbEntity
  8
0
100
AcDbLine
 10
364.0
 20
623.7319999999999
 30
0.0
 11
364.0
 21
640.393
 31
0.0
  0
LINE
  5
424
330
1E
100
AcDbEntity
  8
0
100
AcDbLine
 10
363.031
 20
618.707
 30
0.0
 11
364.48
 21
621.067
 31
0.0
  0
LINE
  5
425
330
1E
100
AcDbEntity
  8
0
100
AcDbLine
 10
363.3059999999999
 20
638.314
 30
0.0
 11
363.803
 21
640.585
 31
0.0
  0
LINE
  5
426
330
1E
100
AcDbEntity
  8
0
100
AcDbLine
 10
363.5149999999999
 20
638.0740000000001
 30
0.0
 11
364.0
 21
640.393
 31
0.0
  0
LINE
  5
427
330
1E
100
AcDbEntity
  8
0
100
AcDbLine
 10
362.9819999999999
 20
719.8279999999999
 30
0.0
 11
364.2459999999999
 21
720.1360000000001
 31
0.0
  0
LINE
  5
428
330
1E
100
AcDbEntity
  8
0
100
AcDbLine
 10
363.3059999999999
 20
642.856
 30
0.0
 11
363.803
 21
640.585
 31
0.0
  0
LINE
  5
429
330
1E
100
AcDbEntity
  8
0
100
AcDbLine
 10
363.803
 20
640.585
 30
0.0
 11
364.0
 21
640.393
 31
0.0
  0
LINE
  5
42A
330
1E
100
AcDbEntity
  8
0
100
AcDbLine
 10
363.5149999999999
 20
642.713
 30
0.0
 11
364.0
 21
640.393
 31
0.0
  0
LINE
  5
42B
330
1E
100
AcDbEntity
  8
0
100
AcDbLine
 10
364.0
 20
626.5766927413671
 30
0.0
 11
364.2559999999999
 21
626.1649999999999
 31
0.0
  0
LINE
  5
42C
330
1E
100
AcDbEntity
  8
0
100
AcDbLine
 10
365.624
 20
470.1769999999999
 30
0.0
 11
367.3519999999999
 21
470.1769999999999
 31
0.0
  0
LINE
  5
42D
330
1E
100
AcDbEntity
  8
0
100
AcDbLine
 10
367.3519999999999
 20
470.1769999999999
 30
0.0
 11
368.0
 21
470.1769999999999
 31
0.0
  0
LINE
  5
42E
330
1E
100
AcDbEntity
  8
0
100
AcDbLine
 10
364.16
 20
520.177
 30
0.0
 11
367.36
 21
520.177
 31
0.0
  0
LINE
  5
42F
330
1E
100
AcDbEntity
  8
0
100
AcDbLine
 10
367.36
 20
520.177
 30
0.0
 11
369.2799999999999
 21
520.177
 31
0.0
  0
LINE
  5
430
330
1E
100
AcDbEntity
  8
0
100
AcDbLine
 10
364.16
 20
470.1769999999999
 30
0.0
 11
367.36
 21
470.1769999999999
 31
0.0
  0
LINE
  5
431
330
1E
100
AcDbEntity
  8
0
100
AcDbLine
 10
367.36
 20
470.1769999999999
 30
0.0
 11
369.2799999999999
 21
470.1769999999999
 31
0.0
  0
LINE
  5
432
330
1E
100
AcDbEntity
  8
0
100
AcDbLine
 10
364.384
 20
600.177
 30
0.0
 11
370.5319999999999
 21
600.177
 31
0.0
  0
LINE
  5
433
330
1E
100
AcDbEntity
  8
0
100
AcDbLine
 10
364.384
 20
580.177
 30
0.0
 11
370.5319999999999
 21
580.177
 31
0.0
  0
LINE
  5
434
330
1E
100
AcDbEntity
  8
0
100
AcDbLine
 10
367.7
 20
580.177
 30
0.0
 11
371.7
 21
580.177
 31
0.0
  0
LINE
  5
435
330
1E
100
AcDbEntity
  8
0
100
AcDbLine
 10
368.0
 20
450.1769999999999
 30
0.0
 11
368.0
 21
470.1769999999999
 31
0.0
  0
LINE
  5
436
330
1E
100
AcDbEntity
  8
0
100
AcDbLine
 10
368.0
 20
470.1769999999999
 30
0.0
 11
369.2799999999999
 21
470.1769999999999
 31
0.0
  0
LINE
  5
437
330
1E
100
AcDbEntity
  8
0
100
AcDbLine
 10
368.0
 20
470.1769999999999
 30
0.0
 11
368.0
 21
450.1769999999999
 31
0.0
  0
LINE
  5
438
330
1E
100
AcDbEntity
  8
0
100
AcDbLine
 10
367.7
 20
520.177
 30
0.0
 11
371.7
 21
520.177
 31
0.0
  0
LINE
  5
439
330
1E
100
AcDbEntity
  8
0
100
AcDbLine
 10
367.8399999999999
 20
606.6769999999999
 30
0.0
 11
375.15
 21
606.6769999999999
 31
0.0
  0
LINE
  5
43A
330
1E
100
AcDbEntity
  8
0
100
AcDbLine
 10
367.8399999999999
 20
600.177
 30
0.0
 11
375.15
 21
600.177
 31
0.0
  0
LINE
  5
43B
330
1E
100
AcDbEntity
  8
0
100
AcDbLine
 10
367.36
 20
607.177
 30
0.0
 11
374.7799999999999
 21
607.177
 31
0.0
  0
LINE
  5
43C
330
1E
100
AcDbEntity
  8
0
100
AcDbLine
 10
364.2559999999999
 20
621.2979999999999
 30
0.0
 11
364.7889999999999
 21
623.7319999999999
 31
0.0
  0
LINE
  5
43D
330
1E
100
AcDbEntity
  8
0
100
AcDbLine
 10
364.48
 20
621.067
 30
0.0
 11
365.0
 21
623.552
 31
0.0
  0
LINE
  5
43E
330
1E
100
AcDbEntity
  8
0
100
AcDbLine
 10
364.2459999999999
 20
720.1360000000001
 30
0.0
 11
364.2459999999999
 21
720.3315433094839
 31
0.0
  0
LINE
  5
43F
330
1E
100
AcDbEntity
  8
0
100
AcDbLine
 10
364.2559999999999
 20
626.1649999999999
 30
0.0
 11
364.7889999999999
 21
623.7319999999999
 31
0.0
  0
LINE
  5
440
330
1E
100
AcDbEntity
  8
0
100
AcDbLine
 10
364.7889999999999
 20
623.7319999999999
 30
0.0
 11
365.0
 21
623.552
 31
0.0
  0
LINE
  5
441
330
1E
100
AcDbEntity
  8
0
100
AcDbLine
 10
364.48
 20
626.0369999999999
 30
0.0
 11
365.0
 21
623.552
 31
0.0
  0
LINE
  5
442
330
1E
100
AcDbEntity
  8
0
100
AcDbLine
 10
365.0
 20
607.177
 30
0.0
 11
365.0
 21
623.552
 31
0.0
  0
LINE
  5
443
330
1E
100
AcDbEntity
  8
0
100
AcDbLine
 10
364.0
 20
626.819111801242
 30
0.0
 11
364.48
 21
626.0369999999999
 31
0.0
  0
LINE
  5
444
330
1E
100
AcDbEntity
  8
0
100
AcDbLine
 10
363.5159999999999
 20
720.6699999999999
 30
0.0
 11
364.2459999999999
 21
720.1360000000001
 31
0.0
  0
LINE
  5
445
330
1E
100
AcDbEntity
  8
0
100
AcDbLine
 10
362.9819999999999
 20
756.672
 30
0.0
 11
364.2459999999999
 21
756.3639999999999
 31
0.0
  0
LINE
  5
446
330
1E
100
AcDbEntity
  8
0
100
AcDbLine
 10
362.9819999999999
 20
756.672
 30
0.0
 11
362.9819999999999
 21
758.1409844725219
 31
0.0
  0
LINE
  5
447
330
1E
100
AcDbEntity
  8
0
100
AcDbLine
 10
363.419
 20
748.2207408802879
 30
0.0
 11
363.419
 21
747.7829999999999
 31
0.0
  0
LINE
  5
448
330
1E
100
AcDbEntity
  8
0
100
AcDbLine
 10
363.419
 20
747.7829999999999
 30
0.0
 11
364.683
 21
747.475
 31
0.0
  0
LINE
  5
449
330
1E
100
AcDbEntity
  8
0
100
AcDbLine
 10
363.419
 20
747.7829999999999
 30
0.0
 11
363.419
 21
748.2207408802879
 31
0.0
  0
LINE
  5
44A
330
1E
100
AcDbEntity
  8
0
100
AcDbLine
 10
364.683
 20
727.212
 30
0.0
 11
364.683
 21
727.306332517859
 31
0.0
  0
LINE
  5
44B
330
1E
100
AcDbEntity
  8
0
100
AcDbLine
 10
363.5159999999999
 20
755.8289999999999
 30
0.0
 11
364.2459999999999
 21
756.3639999999999
 31
0.0
  0
LINE
  5
44C
330
1E
100
AcDbEntity
  8
0
100
AcDbLine
 10
363.953
 20
746.941
 30
0.0
 11
364.683
 21
747.475
 31
0.0
  0
LINE
  5
44D
330
1E
100
AcDbEntity
  8
0
100
AcDbLine
 10
364.683
 20
747.475
 30
0.0
 11
364.683
 21
748.8588789509739
 31
0.0
  0
LINE
  5
44E
330
1E
100
AcDbEntity
  8
0
100
AcDbLine
 10
364.72
 20
732.567
 30
0.0
 11
364.72
 21
733.1839999999999
 31
0.0
  0
LINE
  5
44F
330
1E
100
AcDbEntity
  8
0
100
AcDbLine
 10
364.72
 20
732.567
 30
0.0
 11
366.1799999999999
 21
732.567
 31
0.0
  0
LINE
  5
450
330
1E
100
AcDbEntity
  8
0
100
AcDbLine
 10
364.72
 20
732.567
 30
0.0
 11
364.72
 21
733.3792867350779
 31
0.0
  0
LINE
  5
451
330
1E
100
AcDbEntity
  8
0
100
AcDbLine
 10
364.72
 20
733.3792867350779
 30
0.0
 11
364.72
 21
732.567
 31
0.0
  0
LINE
  5
452
330
1E
100
AcDbEntity
  8
0
100
AcDbLine
 10
364.72
 20
733.95879053442
 30
0.0
 11
364.72
 21
733.1839999999999
 31
0.0
  0
LINE
  5
453
330
1E
100
AcDbEntity
  8
0
100
AcDbLine
 10
364.72
 20
733.1839999999999
 30
0.0
 11
366.1799999999999
 21
733.1839999999999
 31
0.0
  0
LINE
  5
454
330
1E
100
AcDbEntity
  8
0
100
AcDbLine
 10
364.72
 20
733.1839999999999
 30
0.0
 11
364.72
 21
733.95879053442
 31
0.0
  0
LINE
  5
455
330
1E
100
AcDbEntity
  8
0
100
AcDbLine
 10
364.72
 20
733.1839999999999
 30
0.0
 11
364.72
 21
732.567
 31
0.0
  0
LINE
  5
456
330
1E
100
AcDbEntity
  8
0
100
AcDbLine
 10
366.1799999999999
 20
732.567
 30
0.0
 11
366.1799999999999
 21
733.1839999999999
 31
0.0
  0
LINE
  5
457
330
1E
100
AcDbEntity
  8
0
100
AcDbLine
 10
366.1799999999999
 20
734.197081740108
 30
0.0
 11
366.1799999999999
 21
733.1839999999999
 31
0.0
  0
LINE
  5
458
330
1E
100
AcDbEntity
  8
0
100
AcDbLine
 10
366.1799999999999
 20
733.1839999999999
 30
0.0
 11
366.1799999999999
 21
732.567
 31
0.0
  0
LINE
  5
459
330
1E
100
AcDbEntity
  8
0
100
AcDbLine
 10
366.1799999999999
 20
733.1839999999999
 30
0.0
 11
366.1799999999999
 21
734.197081740108
 31
0.0
  0
LINE
  5
45A
330
1E
100
AcDbEntity
  8
0
100
AcDbLine
 10
364.72
 20
740.596
 30
0.0
 11
366.1799999999999
 21
740.596
 31
0.0
  0
LINE
  5
45B
330
1E
100
AcDbEntity
  8
0
100
AcDbLine
 10
364.72
 20
740.596
 30
0.0
 11
364.72
 21
741.100067481884
 31
0.0
  0
LINE
  5
45C
330
1E
100
AcDbEntity
  8
0
100
AcDbLine
 10
364.72
 20
740.596
 30
0.0
 11
364.72
 21
741.2130000000001
 31
0.0
  0
LINE
  5
45D
330
1E
100
AcDbEntity
  8
0
100
AcDbLine
 10
364.72
 20
741.7529981733199
 30
0.0
 11
364.72
 21
741.2130000000001
 31
0.0
  0
LINE
  5
45E
330
1E
100
AcDbEntity
  8
0
100
AcDbLine
 10
366.1799999999999
 20
742.1168804061681
 30
0.0
 11
366.1799999999999
 21
741.2130000000001
 31
0.0
  0
LINE
  5
45F
330
1E
100
AcDbEntity
  8
0
100
AcDbLine
 10
364.72
 20
741.2130000000001
 30
0.0
 11
364.72
 21
740.596
 31
0.0
  0
LINE
  5
460
330
1E
100
AcDbEntity
  8
0
100
AcDbLine
 10
364.72
 20
741.2130000000001
 30
0.0
 11
366.1799999999999
 21
741.2130000000001
 31
0.0
  0
LINE
  5
461
330
1E
100
AcDbEntity
  8
0
100
AcDbLine
 10
364.72
 20
741.2130000000001
 30
0.0
 11
364.72
 21
741.7529981733199
 31
0.0
  0
LINE
  5
462
330
1E
100
AcDbEntity
  8
0
100
AcDbLine
 10
364.72
 20
741.100067481884
 30
0.0
 11
364.72
 21
740.596
 31
0.0
  0
LINE
  5
463
330
1E
100
AcDbEntity
  8
0
100
AcDbLine
 10
366.1799999999999
 20
741.2130000000001
 30
0.0
 11
366.1799999999999
 21
742.1168804061681
 31
0.0
  0
LINE
  5
464
330
1E
100
AcDbEntity
  8
0
100
AcDbLine
 10
366.1799999999999
 20
741.2130000000001
 30
0.0
 11
366.1799999999999
 21
740.596
 31
0.0
  0
LINE
  5
465
330
1E
100
AcDbEntity
  8
0
100
AcDbLine
 10
366.1799999999999
 20
740.596
 30
0.0
 11
366.1799999999999
 21
741.2130000000001
 31
0.0
  0
LINE
  5
466
330
1E
100
AcDbEntity
  8
0
100
AcDbLine
 10
364.683
 20
748.8588789509739
 30
0.0
 11
364.683
 21
747.475
 31
0.0
  0
LINE
  5
467
330
1E
100
AcDbEntity
  8
0
100
AcDbLine
 10
364.2459999999999
 20
756.3639999999999
 30
0.0
 11
364.2459999999999
 21
757.9808919165781
 31
0.0
  0
LINE
  5
468
330
1E
100
AcDbEntity
  8
0
100
AcDbLine
 10
367.069
 20
750.9069999999999
 30
0.0
 11
368.333
 21
750.5989999999999
 31
0.0
  0
LINE
  5
469
330
1E
100
AcDbEntity
  8
0
100
AcDbLine
 10
367.069
 20
750.9069999999999
 30
0.0
 11
367.798
 21
751.442
 31
0.0
  0
LINE
  5
46A
330
1E
100
AcDbEntity
  8
0
100
AcDbLine
 10
363.953
 20
727.747
 30
0.0
 11
364.683
 21
727.212
 31
0.0
  0
LINE
  5
46B
330
1E
100
AcDbEntity
  8
0
100
AcDbLine
 10
364.683
 20
727.306332517859
 30
0.0
 11
364.683
 21
727.212
 31
0.0
  0
LINE
  5
46C
330
1E
100
AcDbEntity
  8
0
100
AcDbLine
 10
363.419
 20
726.903
 30
0.0
 11
364.683
 21
727.212
 31
0.0
  0
LINE
  5
46D
330
1E
100
AcDbEntity
  8
0
100
AcDbLine
 10
367.069
 20
725.7911326143981
 30
0.0
 11
367.069
 21
724.686
 31
0.0
  0
LINE
  5
46E
330
1E
100
AcDbEntity
  8
0
100
AcDbLine
 10
367.883
 20
736.582
 30
0.0
 11
367.883
 21
737.1979999999999
 31
0.0
  0
LINE
  5
46F
330
1E
100
AcDbEntity
  8
0
100
AcDbLine
 10
367.883
 20
736.582
 30
0.0
 11
369.343
 21
736.582
 31
0.0
  0
LINE
  5
470
330
1E
100
AcDbEntity
  8
0
100
AcDbLine
 10
367.883
 20
736.582
 30
0.0
 11
367.883
 21
737.5704778354049
 31
0.0
  0
LINE
  5
471
330
1E
100
AcDbEntity
  8
0
100
AcDbLine
 10
367.798
 20
751.442
 30
0.0
 11
369.063
 21
751.1339999999998
 31
0.0
  0
LINE
  5
472
330
1E
100
AcDbEntity
  8
0
100
AcDbLine
 10
367.883
 20
737.5704778354049
 30
0.0
 11
367.883
 21
736.582
 31
0.0
  0
LINE
  5
473
330
1E
100
AcDbEntity
  8
0
100
AcDbLine
 10
367.883
 20
738.1032931888849
 30
0.0
 11
367.883
 21
737.1979999999999
 31
0.0
  0
LINE
  5
474
330
1E
100
AcDbEntity
  8
0
100
AcDbLine
 10
367.883
 20
737.1979999999999
 30
0.0
 11
369.343
 21
737.1979999999999
 31
0.0
  0
LINE
  5
475
330
1E
100
AcDbEntity
  8
0
100
AcDbLine
 10
367.883
 20
737.1979999999999
 30
0.0
 11
367.883
 21
738.1032931888849
 31
0.0
  0
LINE
  5
476
330
1E
100
AcDbEntity
  8
0
100
AcDbLine
 10
367.883
 20
737.1979999999999
 30
0.0
 11
367.883
 21
736.582
 31
0.0
  0
LINE
  5
477
330
1E
100
AcDbEntity
  8
0
100
AcDbLine
 10
367.069
 20
724.686
 30
0.0
 11
368.333
 21
724.9939999999999
 31
0.0
  0
LINE
  5
478
330
1E
100
AcDbEntity
  8
0
100
AcDbLine
 10
367.069
 20
724.686
 30
0.0
 11
367.798
 21
724.151
 31
0.0
  0
LINE
  5
479
330
1E
100
AcDbEntity
  8
0
100
AcDbLine
 10
367.069
 20
724.686
 30
0.0
 11
367.069
 21
725.7911326143981
 31
0.0
  0
LINE
  5
47A
330
1E
100
AcDbEntity
  8
0
100
AcDbLine
 10
367.798
 20
724.151
 30
0.0
 11
369.063
 21
724.46
 31
0.0
  0
LINE
  5
47B
330
1E
100
AcDbEntity
  8
0
100
AcDbLine
 10
368.333
 20
750.5989999999999
 30
0.0
 11
369.063
 21
751.1339999999998
 31
0.0
  0
LINE
  5
47C
330
1E
100
AcDbEntity
  8
0
100
AcDbLine
 10
368.333
 20
725.700110594487
 30
0.0
 11
368.333
 21
724.9939999999999
 31
0.0
  0
LINE
  5
47D
330
1E
100
AcDbEntity
  8
0
100
AcDbLine
 10
368.333
 20
724.9939999999999
 30
0.0
 11
369.063
 21
724.46
 31
0.0
  0
LINE
  5
47E
330
1E
100
AcDbEntity
  8
0
100
AcDbLine
 10
368.333
 20
724.9939999999999
 30
0.0
 11
368.333
 21
725.700110594487
 31
0.0
  0
LINE
  5
47F
330
1E
100
AcDbEntity
  8
0
100
AcDbLine
 10
367.9559999999999
 20
720.802
 30
0.0
 11
371.9008064516129
 21
721.601768979231
 31
0.0
  0
LINE
  5
480
330
1E
100
AcDbEntity
  8
0
100
AcDbLine
 10
364.2459999999999
 20
720.3315433094839
 30
0.0
 11
367.9559999999999
 21
720.802
 31
0.0
  0
LINE
  5
481
330
1E
100
AcDbEntity
  8
0
100
AcDbLine
 10
364.2459999999999
 20
720.3315433094839
 30
0.0
 11
364.2459999999999
 21
720.1360000000001
 31
0.0
  0
LINE
  5
482
330
1E
100
AcDbEntity
  8
0
100
AcDbLine
 10
368.832
 20
719.9689999999999
 30
0.0
 11
374.5249999999999
 21
721.11
 31
0.0
  0
LINE
  5
483
330
1E
100
AcDbEntity
  8
0
100
AcDbLine
 10
362.9819999999999
 20
758.1409844725219
 30
0.0
 11
362.9819999999999
 21
756.672
 31
0.0
  0
LINE
  5
484
330
1E
100
AcDbEntity
  8
0
100
AcDbLine
 10
364.2459999999999
 20
757.9808919165781
 30
0.0
 11
364.2459999999999
 21
756.3639999999999
 31
0.0
  0
LINE
  5
485
330
1E
100
AcDbEntity
  8
0
100
AcDbLine
 10
367.9559999999999
 20
757.5110000000001
 30
0.0
 11
373.4309999999999
 21
756.4
 31
0.0
  0
LINE
  5
486
330
1E
100
AcDbEntity
  8
0
100
AcDbLine
 10
369.2799999999999
 20
520.177
 30
0.0
 11
370.0
 21
520.177
 31
0.0
  0
LINE
  5
487
330
1E
100
AcDbEntity
  8
0
100
AcDbLine
 10
370.0
 20
470.1769999999999
 30
0.0
 11
370.0
 21
520.177
 31
0.0
  0
LINE
  5
488
330
1E
100
AcDbEntity
  8
0
100
AcDbLine
 10
369.2799999999999
 20
470.1769999999999
 30
0.0
 11
370.0
 21
470.1769999999999
 31
0.0
  0
LINE
  5
489
330
1E
100
AcDbEntity
  8
0
100
AcDbLine
 10
369.824
 20
565.1769999999999
 30
0.0
 11
374.304
 21
565.1769999999999
 31
0.0
  0
LINE
  5
48A
330
1E
100
AcDbEntity
  8
0
100
AcDbLine
 10
369.824
 20
560.177
 30
0.0
 11
374.304
 21
560.177
 31
0.0
  0
LINE
  5
48B
330
1E
100
AcDbEntity
  8
0
100
AcDbLine
 10
370.0
 20
520.177
 30
0.0
 11
371.7
 21
520.177
 31
0.0
  0
LINE
  5
48C
330
1E
100
AcDbEntity
  8
0
100
AcDbLine
 10
370.0
 20
520.177
 30
0.0
 11
370.0
 21
470.1769999999999
 31
0.0
  0
LINE
  5
48D
330
1E
100
AcDbEntity
  8
0
100
AcDbLine
 10
369.063
 20
724.46
 30
0.0
 11
369.063
 21
725.536278811026
 31
0.0
  0
LINE
  5
48E
330
1E
100
AcDbEntity
  8
0
100
AcDbLine
 10
369.18
 20
729.875645410292
 30
0.0
 11
369.18
 21
729.4529999999999
 31
0.0
  0
LINE
  5
48F
330
1E
100
AcDbEntity
  8
0
100
AcDbLine
 10
369.18
 20
729.4529999999999
 30
0.0
 11
369.18
 21
730.07
 31
0.0
  0
LINE
  5
490
330
1E
100
AcDbEntity
  8
0
100
AcDbLine
 10
369.18
 20
729.4529999999999
 30
0.0
 11
370.6399999999999
 21
729.4529999999999
 31
0.0
  0
LINE
  5
491
330
1E
100
AcDbEntity
  8
0
100
AcDbLine
 10
369.18
 20
729.4529999999999
 30
0.0
 11
369.18
 21
729.875645410292
 31
0.0
  0
LINE
  5
492
330
1E
100
AcDbEntity
  8
0
100
AcDbLine
 10
369.18
 20
731.2759312086379
 30
0.0
 11
369.18
 21
730.07
 31
0.0
  0
LINE
  5
493
330
1E
100
AcDbEntity
  8
0
100
AcDbLine
 10
369.18
 20
730.07
 30
0.0
 11
370.6399999999999
 21
730.07
 31
0.0
  0
LINE
  5
494
330
1E
100
AcDbEntity
  8
0
100
AcDbLine
 10
369.18
 20
730.07
 30
0.0
 11
369.18
 21
731.2759312086379
 31
0.0
  0
LINE
  5
495
330
1E
100
AcDbEntity
  8
0
100
AcDbLine
 10
369.18
 20
730.07
 30
0.0
 11
369.18
 21
729.4529999999999
 31
0.0
  0
LINE
  5
496
330
1E
100
AcDbEntity
  8
0
100
AcDbLine
 10
369.063
 20
725.536278811026
 30
0.0
 11
369.063
 21
724.46
 31
0.0
  0
LINE
  5
497
330
1E
100
AcDbEntity
  8
0
100
AcDbLine
 10
370.5319999999999
 20
600.177
 30
0.0
 11
375.1719999999999
 21
600.177
 31
0.0
  0
LINE
  5
498
330
1E
100
AcDbEntity
  8
0
100
AcDbLine
 10
370.6399999999999
 20
729.4529999999999
 30
0.0
 11
370.6399999999999
 21
730.07
 31
0.0
  0
LINE
  5
499
330
1E
100
AcDbEntity
  8
0
100
AcDbLine
 10
370.6399999999999
 20
730.9527580982241
 30
0.0
 11
370.6399999999999
 21
730.07
 31
0.0
  0
LINE
  5
49A
330
1E
100
AcDbEntity
  8
0
100
AcDbLine
 10
370.6399999999999
 20
730.07
 30
0.0
 11
370.6399999999999
 21
729.4529999999999
 31
0.0
  0
LINE
  5
49B
330
1E
100
AcDbEntity
  8
0
100
AcDbLine
 10
370.6399999999999
 20
730.07
 30
0.0
 11
370.6399999999999
 21
730.9527580982241
 31
0.0
  0
LINE
  5
49C
330
1E
100
AcDbEntity
  8
0
100
AcDbLine
 10
371.448
 20
722.536839049394
 30
0.0
 11
371.448
 21
721.933
 31
0.0
  0
LINE
  5
49D
330
1E
100
AcDbEntity
  8
0
100
AcDbLine
 10
371.448
 20
721.933
 30
0.0
 11
372.7119999999999
 21
722.241
 31
0.0
  0
LINE
  5
49E
330
1E
100
AcDbEntity
  8
0
100
AcDbLine
 10
371.448
 20
721.933
 30
0.0
 11
372.178
 21
721.3989999999999
 31
0.0
  0
LINE
  5
49F
330
1E
100
AcDbEntity
  8
0
100
AcDbLine
 10
371.448
 20
721.933
 30
0.0
 11
371.448
 21
722.536839049394
 31
0.0
  0
LINE
  5
4A0
330
1E
100
AcDbEntity
  8
0
100
AcDbLine
 10
372.7119999999999
 20
722.350399300496
 30
0.0
 11
372.7119999999999
 21
722.241
 31
0.0
  0
LINE
  5
4A1
330
1E
100
AcDbEntity
  8
0
100
AcDbLine
 10
372.7119999999999
 20
722.241
 30
0.0
 11
373.4419999999999
 21
721.7069999999999
 31
0.0
  0
LINE
  5
4A2
330
1E
100
AcDbEntity
  8
0
100
AcDbLine
 10
372.7119999999999
 20
722.241
 30
0.0
 11
372.7119999999999
 21
722.350399300496
 31
0.0
  0
LINE
  5
4A3
330
1E
100
AcDbEntity
  8
0
100
AcDbLine
 10
372.178
 20
721.3989999999999
 30
0.0
 11
373.4419999999999
 21
721.7069999999999
 31
0.0
  0
LINE
  5
4A4
330
1E
100
AcDbEntity
  8
0
100
AcDbLine
 10
373.3
 20
560.177
 30
0.0
 11
376.843
 21
560.177
 31
0.0
  0
LINE
  5
4A5
330
1E
100
AcDbEntity
  8
0
100
AcDbLine
 10
371.7
 20
580.177
 30
0.0
 11
374.1
 21
580.177
 31
0.0
  0
LINE
  5
4A6
330
1E
100
AcDbEntity
  8
0
100
AcDbLine
 10
371.7
 20
520.177
 30
0.0
 11
374.1
 21
520.177
 31
0.0
  0
LINE
  5
4A7
330
1E
100
AcDbEntity
  8
0
100
AcDbLine
 10
370.5319999999999
 20
580.177
 30
0.0
 11
375.1719999999999
 21
580.177
 31
0.0
  0
LINE
  5
4A8
330
1E
100
AcDbEntity
  8
0
100
AcDbLine
 10
369.343
 20
736.582
 30
0.0
 11
369.343
 21
737.1979999999999
 31
0.0
  0
LINE
  5
4A9
330
1E
100
AcDbEntity
  8
0
100
AcDbLine
 10
369.063
 20
751.1339999999998
 30
0.0
 11
369.063
 21
751.3389393889069
 31
0.0
  0
LINE
  5
4AA
330
1E
100
AcDbEntity
  8
0
100
AcDbLine
 10
369.18
 20
746.0876931154379
 30
0.0
 11
369.18
 21
745.2339999999999
 31
0.0
  0
LINE
  5
4AB
330
1E
100
AcDbEntity
  8
0
100
AcDbLine
 10
369.18
 20
745.2339999999999
 30
0.0
 11
369.18
 21
744.6169999999999
 31
0.0
  0
LINE
  5
4AC
330
1E
100
AcDbEntity
  8
0
100
AcDbLine
 10
369.18
 20
745.2339999999999
 30
0.0
 11
370.6399999999999
 21
745.2339999999999
 31
0.0
  0
LINE
  5
4AD
330
1E
100
AcDbEntity
  8
0
100
AcDbLine
 10
369.18
 20
745.2339999999999
 30
0.0
 11
369.18
 21
746.0876931154379
 31
0.0
  0
LINE
  5
4AE
330
1E
100
AcDbEntity
  8
0
100
AcDbLine
 10
369.18
 20
744.6169999999999
 30
0.0
 11
370.6399999999999
 21
744.6169999999999
 31
0.0
  0
LINE
  5
4AF
330
1E
100
AcDbEntity
  8
0
100
AcDbLine
 10
369.18
 20
744.6169999999999
 30
0.0
 11
369.18
 21
745.2339999999999
 31
0.0
  0
LINE
  5
4B0
330
1E
100
AcDbEntity
  8
0
100
AcDbLine
 10
369.063
 20
751.3389393889069
 30
0.0
 11
369.063
 21
751.1339999999998
 31
0.0
  0
LINE
  5
4B1
330
1E
100
AcDbEntity
  8
0
100
AcDbLine
 10
369.343
 20
738.1172661776139
 30
0.0
 11
369.343
 21
737.1979999999999
 31
0.0
  0
LINE
  5
4B2
330
1E
100
AcDbEntity
  8
0
100
AcDbLine
 10
370.6399999999999
 20
745.2339999999999
 30
0.0
 11
370.6399999999999
 21
744.6169999999999
 31
0.0
  0
LINE
  5
4B3
330
1E
100
AcDbEntity
  8
0
100
AcDbLine
 10
370.6399999999999
 20
744.6169999999999
 30
0.0
 11
370.6399999999999
 21
745.2339999999999
 31
0.0
  0
LINE
  5
4B4
330
1E
100
AcDbEntity
  8
0
100
AcDbLine
 10
371.448
 20
754.567
 30
0.0
 11
372.7119999999999
 21
754.258
 31
0.0
  0
LINE
  5
4B5
330
1E
100
AcDbEntity
  8
0
100
AcDbLine
 10
371.448
 20
754.567
 30
0.0
 11
372.178
 21
755.1010000000001
 31
0.0
  0
LINE
  5
4B6
330
1E
100
AcDbEntity
  8
0
100
AcDbLine
 10
371.448
 20
754.567
 30
0.0
 11
371.448
 21
755.4401023299159
 31
0.0
  0
LINE
  5
4B7
330
1E
100
AcDbEntity
  8
0
100
AcDbLine
 10
372.7119999999999
 20
754.258
 30
0.0
 11
373.4419999999999
 21
754.7919999999999
 31
0.0
  0
LINE
  5
4B8
330
1E
100
AcDbEntity
  8
0
100
AcDbLine
 10
372.178
 20
755.793468592731
 30
0.0
 11
372.178
 21
755.1010000000001
 31
0.0
  0
LINE
  5
4B9
330
1E
100
AcDbEntity
  8
0
100
AcDbLine
 10
371.448
 20
755.4401023299159
 30
0.0
 11
371.448
 21
754.567
 31
0.0
  0
LINE
  5
4BA
330
1E
100
AcDbEntity
  8
0
100
AcDbLine
 10
372.178
 20
755.1010000000001
 30
0.0
 11
373.4419999999999
 21
754.7919999999999
 31
0.0
  0
LINE
  5
4BB
330
1E
100
AcDbEntity
  8
0
100
AcDbLine
 10
372.178
 20
755.1010000000001
 30
0.0
 11
372.178
 21
755.793468592731
 31
0.0
  0
LINE
  5
4BC
330
1E
100
AcDbEntity
  8
0
100
AcDbLine
 10
369.343
 20
737.1979999999999
 30
0.0
 11
369.343
 21
736.582
 31
0.0
  0
LINE
  5
4BD
330
1E
100
AcDbEntity
  8
0
100
AcDbLine
 10
369.343
 20
737.1979999999999
 30
0.0
 11
369.343
 21
738.1172661776139
 31
0.0
  0
LINE
  5
4BE
330
1E
100
AcDbEntity
  8
0
100
AcDbLine
 10
374.1
 20
580.177
 30
0.0
 11
375.0
 21
580.177
 31
0.0
  0
LINE
  5
4BF
330
1E
100
AcDbEntity
  8
0
100
AcDbLine
 10
374.304
 20
565.1769999999999
 30
0.0
 11
377.034
 21
565.1769999999999
 31
0.0
  0
LINE
  5
4C0
330
1E
100
AcDbEntity
  8
0
100
AcDbLine
 10
374.304
 20
560.177
 30
0.0
 11
376.843
 21
560.177
 31
0.0
  0
LINE
  5
4C1
330
1E
100
AcDbEntity
  8
0
100
AcDbLine
 10
374.1
 20
520.177
 30
0.0
 11
375.0
 21
520.177
 31
0.0
  0
LINE
  5
4C2
330
1E
100
AcDbEntity
  8
0
100
AcDbLine
 10
373.4419999999999
 20
754.7919999999999
 30
0.0
 11
373.4419999999999
 21
756.3968562331149
 31
0.0
  0
LINE
  5
4C3
330
1E
100
AcDbEntity
  8
0
100
AcDbLine
 10
373.4419999999999
 20
756.3968562331149
 30
0.0
 11
373.4419999999999
 21
754.7919999999999
 31
0.0
  0
LINE
  5
4C4
330
1E
100
AcDbEntity
  8
0
100
AcDbLine
 10
373.4419999999999
 20
721.7069999999999
 30
0.0
 11
373.4419999999999
 21
721.915143766886
 31
0.0
  0
LINE
  5
4C5
330
1E
100
AcDbEntity
  8
0
100
AcDbLine
 10
374.045
 20
726.5089999999998
 30
0.0
 11
374.045
 21
727.126
 31
0.0
  0
LINE
  5
4C6
330
1E
100
AcDbEntity
  8
0
100
AcDbLine
 10
374.045
 20
726.5089999999998
 30
0.0
 11
375.505
 21
726.5089999999998
 31
0.0
  0
LINE
  5
4C7
330
1E
100
AcDbEntity
  8
0
100
AcDbLine
 10
374.045
 20
728.14442582558
 30
0.0
 11
374.045
 21
727.126
 31
0.0
  0
LINE
  5
4C8
330
1E
100
AcDbEntity
  8
0
100
AcDbLine
 10
374.452
 20
733.66775879397
 30
0.0
 11
374.452
 21
733.261
 31
0.0
  0
LINE
  5
4C9
330
1E
100
AcDbEntity
  8
0
100
AcDbLine
 10
374.452
 20
733.261
 30
0.0
 11
374.452
 21
733.8769999999999
 31
0.0
  0
LINE
  5
4CA
330
1E
100
AcDbEntity
  8
0
100
AcDbLine
 10
374.452
 20
733.261
 30
0.0
 11
375.9119999999999
 21
733.261
 31
0.0
  0
LINE
  5
4CB
330
1E
100
AcDbEntity
  8
0
100
AcDbLine
 10
374.452
 20
733.261
 30
0.0
 11
374.452
 21
733.66775879397
 31
0.0
  0
LINE
  5
4CC
330
1E
100
AcDbEntity
  8
0
100
AcDbLine
 10
374.452
 20
734.8785773703919
 30
0.0
 11
374.452
 21
733.8769999999999
 31
0.0
  0
LINE
  5
4CD
330
1E
100
AcDbEntity
  8
0
100
AcDbLine
 10
374.452
 20
733.8769999999999
 30
0.0
 11
375.9119999999999
 21
733.8769999999999
 31
0.0
  0
LINE
  5
4CE
330
1E
100
AcDbEntity
  8
0
100
AcDbLine
 10
374.452
 20
733.8769999999999
 30
0.0
 11
374.452
 21
734.8785773703919
 31
0.0
  0
LINE
  5
4CF
330
1E
100
AcDbEntity
  8
0
100
AcDbLine
 10
374.452
 20
733.8769999999999
 30
0.0
 11
374.452
 21
733.261
 31
0.0
  0
LINE
  5
4D0
330
1E
100
AcDbEntity
  8
0
100
AcDbLine
 10
374.045
 20
727.126
 30
0.0
 11
375.505
 21
727.126
 31
0.0
  0
LINE
  5
4D1
330
1E
100
AcDbEntity
  8
0
100
AcDbLine
 10
374.045
 20
727.126
 30
0.0
 11
374.045
 21
728.14442582558
 31
0.0
  0
LINE
  5
4D2
330
1E
100
AcDbEntity
  8
0
100
AcDbLine
 10
374.045
 20
727.126
 30
0.0
 11
374.045
 21
726.5089999999998
 31
0.0
  0
LINE
  5
4D3
330
1E
100
AcDbEntity
  8
0
100
AcDbLine
 10
374.045
 20
750.4848670053109
 30
0.0
 11
374.045
 21
749.0839999999999
 31
0.0
  0
LINE
  5
4D4
330
1E
100
AcDbEntity
  8
0
100
AcDbLine
 10
374.045
 20
749.0839999999999
 30
0.0
 11
374.045
 21
748.467
 31
0.0
  0
LINE
  5
4D5
330
1E
100
AcDbEntity
  8
0
100
AcDbLine
 10
374.045
 20
749.0839999999999
 30
0.0
 11
375.505
 21
749.0839999999999
 31
0.0
  0
LINE
  5
4D6
330
1E
100
AcDbEntity
  8
0
100
AcDbLine
 10
374.045
 20
749.0839999999999
 30
0.0
 11
374.045
 21
750.4848670053109
 31
0.0
  0
LINE
  5
4D7
330
1E
100
AcDbEntity
  8
0
100
AcDbLine
 10
374.045
 20
748.467
 30
0.0
 11
375.505
 21
748.467
 31
0.0
  0
LINE
  5
4D8
330
1E
100
AcDbEntity
  8
0
100
AcDbLine
 10
374.045
 20
748.467
 30
0.0
 11
374.045
 21
749.0839999999999
 31
0.0
  0
LINE
  5
4D9
330
1E
100
AcDbEntity
  8
0
100
AcDbLine
 10
374.452
 20
742.2361782597199
 30
0.0
 11
374.452
 21
741.426
 31
0.0
  0
LINE
  5
4DA
330
1E
100
AcDbEntity
  8
0
100
AcDbLine
 10
374.452
 20
741.426
 30
0.0
 11
374.452
 21
740.8089999999999
 31
0.0
  0
LINE
  5
4DB
330
1E
100
AcDbEntity
  8
0
100
AcDbLine
 10
374.452
 20
741.426
 30
0.0
 11
375.9119999999999
 21
741.426
 31
0.0
  0
LINE
  5
4DC
330
1E
100
AcDbEntity
  8
0
100
AcDbLine
 10
374.452
 20
741.426
 30
0.0
 11
374.452
 21
742.2361782597199
 31
0.0
  0
LINE
  5
4DD
330
1E
100
AcDbEntity
  8
0
100
AcDbLine
 10
374.452
 20
740.942737039227
 30
0.0
 11
374.452
 21
740.8089999999999
 31
0.0
  0
LINE
  5
4DE
330
1E
100
AcDbEntity
  8
0
100
AcDbLine
 10
374.452
 20
740.8089999999999
 30
0.0
 11
375.9119999999999
 21
740.8089999999999
 31
0.0
  0
LINE
  5
4DF
330
1E
100
AcDbEntity
  8
0
100
AcDbLine
 10
374.452
 20
740.8089999999999
 30
0.0
 11
374.452
 21
740.942737039227
 31
0.0
  0
LINE
  5
4E0
330
1E
100
AcDbEntity
  8
0
100
AcDbLine
 10
374.452
 20
740.8089999999999
 30
0.0
 11
374.452
 21
741.426
 31
0.0
  0
LINE
  5
4E1
330
1E
100
AcDbEntity
  8
0
100
AcDbLine
 10
373.4419999999999
 20
721.915143766886
 30
0.0
 11
378.613
 21
723.393
 31
0.0
  0
LINE
  5
4E2
330
1E
100
AcDbEntity
  8
0
100
AcDbLine
 10
373.4419999999999
 20
721.915143766886
 30
0.0
 11
373.4419999999999
 21
721.7069999999999
 31
0.0
  0
LINE
  5
4E3
330
1E
100
AcDbEntity
  8
0
100
AcDbLine
 10
374.5249999999999
 20
721.11
 30
0.0
 11
379.9269999999999
 21
722.6519999999999
 31
0.0
  0
LINE
  5
4E4
330
1E
100
AcDbEntity
  8
0
100
AcDbLine
 10
373.4309999999999
 20
756.4
 30
0.0
 11
378.613
 21
754.919
 31
0.0
  0
LINE
  5
4E5
330
1E
100
AcDbEntity
  8
0
100
AcDbLine
 10
374.5249999999999
 20
757.202
 30
0.0
 11
379.9269999999999
 21
755.6599999999999
 31
0.0
  0
LINE
  5
4E6
330
1E
100
AcDbEntity
  8
0
100
AcDbLine
 10
368.832
 20
758.343
 30
0.0
 11
374.5249999999999
 21
757.202
 31
0.0
  0
LINE
  5
4E7
330
1E
100
AcDbEntity
  8
0
100
AcDbLine
 10
369.124
 20
759.5579999999999
 30
0.0
 11
374.8909999999999
 21
758.355
 31
0.0
  0
LINE
  5
4E8
330
1E
100
AcDbEntity
  8
0
100
AcDbLine
 10
362.92
 20
760.422
 30
0.0
 11
369.124
 21
759.5579999999999
 31
0.0
  0
LINE
  5
4E9
330
1E
100
AcDbEntity
  8
0
100
AcDbLine
 10
369.124
 20
778.591
 30
0.0
 11
374.8909999999999
 21
777.388
 31
0.0
  0
LINE
  5
4EA
330
1E
100
AcDbEntity
  8
0
100
AcDbLine
 10
375.0
 20
550.177
 30
0.0
 11
551.0
 21
550.177
 31
0.0
  0
LINE
  5
4EB
330
1E
100
AcDbEntity
  8
0
100
AcDbLine
 10
375.0
 20
555.177
 30
0.0
 11
375.144
 21
555.177
 31
0.0
  0
LINE
  5
4EC
330
1E
100
AcDbEntity
  8
0
100
AcDbLine
 10
375.0
 20
555.177
 30
0.0
 11
375.0
 21
560.177
 31
0.0
  0
LINE
  5
4ED
330
1E
100
AcDbEntity
  8
0
100
AcDbLine
 10
375.0
 20
560.177
 30
0.0
 11
375.0
 21
520.177
 31
0.0
  0
LINE
  5
4EE
330
1E
100
AcDbEntity
  8
0
100
AcDbLine
 10
375.0
 20
560.177
 30
0.0
 11
375.144
 21
560.177
 31
0.0
  0
LINE
  5
4EF
330
1E
100
AcDbEntity
  8
0
100
AcDbLine
 10
375.0
 20
560.177
 30
0.0
 11
375.0
 21
555.177
 31
0.0
  0
LINE
  5
4F0
330
1E
100
AcDbEntity
  8
0
100
AcDbLine
 10
375.0
 20
565.1769999999999
 30
0.0
 11
375.0
 21
580.177
 31
0.0
  0
LINE
  5
4F1
330
1E
100
AcDbEntity
  8
0
100
AcDbLine
 10
375.0
 20
520.177
 30
0.0
 11
375.0
 21
560.177
 31
0.0
  0
LINE
  5
4F2
330
1E
100
AcDbEntity
  8
0
100
AcDbLine
 10
375.144
 20
560.177
 30
0.0
 11
375.528
 21
560.177
 31
0.0
  0
LINE
  5
4F3
330
1E
100
AcDbEntity
  8
0
100
AcDbLine
 10
377.0159999999999
 20
555.177
 30
0.0
 11
377.976
 21
555.177
 31
0.0
  0
LINE
  5
4F4
330
1E
100
AcDbEntity
  8
0
100
AcDbLine
 10
376.168
 20
555.177
 30
0.0
 11
377.0159999999999
 21
555.177
 31
0.0
  0
LINE
  5
4F5
330
1E
100
AcDbEntity
  8
0
100
AcDbLine
 10
377.0159999999999
 20
560.177
 30
0.0
 11
377.976
 21
560.177
 31
0.0
  0
LINE
  5
4F6
330
1E
100
AcDbEntity
  8
0
100
AcDbLine
 10
376.168
 20
560.177
 30
0.0
 11
377.0159999999999
 21
560.177
 31
0.0
  0
LINE
  5
4F7
330
1E
100
AcDbEntity
  8
0
100
AcDbLine
 10
375.528
 20
560.177
 30
0.0
 11
376.168
 21
560.177
 31
0.0
  0
LINE
  5
4F8
330
1E
100
AcDbEntity
  8
0
100
AcDbLine
 10
375.528
 20
555.177
 30
0.0
 11
376.168
 21
555.177
 31
0.0
  0
LINE
  5
4F9
330
1E
100
AcDbEntity
  8
0
100
AcDbLine
 10
375.144
 20
555.177
 30
0.0
 11
375.528
 21
555.177
 31
0.0
  0
LINE
  5
4FA
330
1E
100
AcDbEntity
  8
0
100
AcDbLine
 10
376.8759999999999
 20
580.177
 30
0.0
 11
377.5119999999999
 21
580.177
 31
0.0
  0
LINE
  5
4FB
330
1E
100
AcDbEntity
  8
0
100
AcDbLine
 10
376.3959999999999
 20
580.177
 30
0.0
 11
376.8759999999999
 21
580.177
 31
0.0
  0
LINE
  5
4FC
330
1E
100
AcDbEntity
  8
0
100
AcDbLine
 10
376.108
 20
580.177
 30
0.0
 11
376.3959999999999
 21
580.177
 31
0.0
  0
LINE
  5
4FD
330
1E
100
AcDbEntity
  8
0
100
AcDbLine
 10
376.0
 20
580.177
 30
0.0
 11
376.108
 21
580.177
 31
0.0
  0
LINE
  5
4FE
330
1E
100
AcDbEntity
  8
0
100
AcDbLine
 10
376.0
 20
580.177
 30
0.0
 11
376.0
 21
565.1769999999999
 31
0.0
  0
LINE
  5
4FF
330
1E
100
AcDbEntity
  8
0
100
AcDbLine
 10
376.0
 20
565.1769999999999
 30
0.0
 11
376.0
 21
580.177
 31
0.0
  0
LINE
  5
500
330
1E
100
AcDbEntity
  8
0
100
AcDbLine
 10
377.5119999999999
 20
580.177
 30
0.0
 11
378.2319999999999
 21
580.177
 31
0.0
  0
LINE
  5
501
330
1E
100
AcDbEntity
  8
0
100
AcDbLine
 10
377.034
 20
565.1769999999999
 30
0.0
 11
378.47
 21
565.1769999999999
 31
0.0
  0
LINE
  5
502
330
1E
100
AcDbEntity
  8
0
100
AcDbLine
 10
376.843
 20
560.177
 30
0.0
 11
377.034
 21
565.1769999999999
 31
0.0
  0
LINE
  5
503
330
1E
100
AcDbEntity
  8
0
100
AcDbLine
 10
376.843
 20
560.177
 30
0.0
 11
378.353
 21
560.177
 31
0.0
  0
LINE
  5
504
330
1E
100
AcDbEntity
  8
0
100
AcDbLine
 10
375.0
 20
580.177
 30
0.0
 11
375.1719999999999
 21
580.177
 31
0.0
  0
LINE
  5
505
330
1E
100
AcDbEntity
  8
0
100
AcDbLine
 10
375.0
 20
580.177
 30
0.0
 11
375.0
 21
565.1769999999999
 31
0.0
  0
LINE
  5
506
330
1E
100
AcDbEntity
  8
0
100
AcDbLine
 10
375.1719999999999
 20
600.177
 30
0.0
 11
377.9559999999999
 21
600.177
 31
0.0
  0
LINE
  5
507
330
1E
100
AcDbEntity
  8
0
100
AcDbLine
 10
377.9559999999999
 20
600.177
 30
0.0
 11
379.0
 21
600.177
 31
0.0
  0
LINE
  5
508
330
1E
100
AcDbEntity
  8
0
100
AcDbLine
 10
375.1719999999999
 20
580.177
 30
0.0
 11
377.9559999999999
 21
580.177
 31
0.0
  0
LINE
  5
509
330
1E
100
AcDbEntity
  8
0
100
AcDbLine
 10
375.1719999999999
 20
580.177
 30
0.0
 11
376.0
 21
580.177
 31
0.0
  0
LINE
  5
50A
330
1E
100
AcDbEntity
  8
0
100
AcDbLine
 10
377.976
 20
560.177
 30
0.0
 11
379.0
 21
560.177
 31
0.0
  0
LINE
  5
50B
330
1E
100
AcDbEntity
  8
0
100
AcDbLine
 10
377.976
 20
555.177
 30
0.0
 11
379.0
 21
555.177
 31
0.0
  0
LINE
  5
50C
330
1E
100
AcDbEntity
  8
0
100
AcDbLine
 10
378.2319999999999
 20
580.177
 30
0.0
 11
379.0
 21
580.177
 31
0.0
  0
LINE
  5
50D
330
1E
100
AcDbEntity
  8
0
100
AcDbLine
 10
378.47
 20
565.1769999999999
 30
0.0
 11
380.5469999999999
 21
565.1769999999999
 31
0.0
  0
LINE
  5
50E
330
1E
100
AcDbEntity
  8
0
100
AcDbLine
 10
378.353
 20
560.177
 30
0.0
 11
380.5469999999999
 21
560.177
 31
0.0
  0
LINE
  5
50F
330
1E
100
AcDbEntity
  8
0
100
AcDbLine
 10
377.9559999999999
 20
580.177
 30
0.0
 11
378.2319999999999
 21
580.177
 31
0.0
  0
LINE
  5
510
330
1E
100
AcDbEntity
  8
0
100
AcDbLine
 10
375.15
 20
606.6769999999999
 30
0.0
 11
380.8399999999999
 21
606.6769999999999
 31
0.0
  0
LINE
  5
511
330
1E
100
AcDbEntity
  8
0
100
AcDbLine
 10
375.15
 20
600.177
 30
0.0
 11
380.8399999999999
 21
600.177
 31
0.0
  0
LINE
  5
512
330
1E
100
AcDbEntity
  8
0
100
AcDbLine
 10
374.7799999999999
 20
607.177
 30
0.0
 11
380.3799999999999
 21
607.177
 31
0.0
  0
LINE
  5
513
330
1E
100
AcDbEntity
  8
0
100
AcDbLine
 10
375.505
 20
726.5089999999998
 30
0.0
 11
375.505
 21
727.126
 31
0.0
  0
LINE
  5
514
330
1E
100
AcDbEntity
  8
0
100
AcDbLine
 10
375.505
 20
727.662734791944
 30
0.0
 11
375.505
 21
727.126
 31
0.0
  0
LINE
  5
515
330
1E
100
AcDbEntity
  8
0
100
AcDbLine
 10
375.9119999999999
 20
733.261
 30
0.0
 11
375.9119999999999
 21
733.8769999999999
 31
0.0
  0
LINE
  5
516
330
1E
100
AcDbEntity
  8
0
100
AcDbLine
 10
375.9119999999999
 20
734.832889414548
 30
0.0
 11
375.9119999999999
 21
733.8769999999999
 31
0.0
  0
LINE
  5
517
330
1E
100
AcDbEntity
  8
0
100
AcDbLine
 10
375.9119999999999
 20
733.8769999999999
 30
0.0
 11
375.9119999999999
 21
733.261
 31
0.0
  0
LINE
  5
518
330
1E
100
AcDbEntity
  8
0
100
AcDbLine
 10
375.9119999999999
 20
733.8769999999999
 30
0.0
 11
375.9119999999999
 21
734.832889414548
 31
0.0
  0
LINE
  5
519
330
1E
100
AcDbEntity
  8
0
100
AcDbLine
 10
375.505
 20
727.126
 30
0.0
 11
375.505
 21
726.5089999999998
 31
0.0
  0
LINE
  5
51A
330
1E
100
AcDbEntity
  8
0
100
AcDbLine
 10
375.505
 20
727.126
 30
0.0
 11
375.505
 21
727.662734791944
 31
0.0
  0
LINE
  5
51B
330
1E
100
AcDbEntity
  8
0
100
AcDbLine
 10
376.642
 20
737.035
 30
0.0
 11
376.642
 21
737.6519999999999
 31
0.0
  0
LINE
  5
51C
330
1E
100
AcDbEntity
  8
0
100
AcDbLine
 10
376.642
 20
737.035
 30
0.0
 11
378.1019999999999
 21
737.035
 31
0.0
  0
LINE
  5
51D
330
1E
100
AcDbEntity
  8
0
100
AcDbLine
 10
376.642
 20
737.035
 30
0.0
 11
376.642
 21
737.7342052079288
 31
0.0
  0
LINE
  5
51E
330
1E
100
AcDbEntity
  8
0
100
AcDbLine
 10
378.2619999999999
 20
723.5498920657609
 30
0.0
 11
378.2619999999999
 21
723.428
 31
0.0
  0
LINE
  5
51F
330
1E
100
AcDbEntity
  8
0
100
AcDbLine
 10
378.2619999999999
 20
723.428
 30
0.0
 11
378.2619999999999
 21
724.045
 31
0.0
  0
LINE
  5
520
330
1E
100
AcDbEntity
  8
0
100
AcDbLine
 10
378.2619999999999
 20
723.428
 30
0.0
 11
379.7219999999999
 21
723.428
 31
0.0
  0
LINE
  5
521
330
1E
100
AcDbEntity
  8
0
100
AcDbLine
 10
378.2619999999999
 20
723.428
 30
0.0
 11
378.2619999999999
 21
723.5498920657609
 31
0.0
  0
LINE
  5
522
330
1E
100
AcDbEntity
  8
0
100
AcDbLine
 10
378.2619999999999
 20
724.045
 30
0.0
 11
379.7219999999999
 21
724.045
 31
0.0
  0
LINE
  5
523
330
1E
100
AcDbEntity
  8
0
100
AcDbLine
 10
378.2619999999999
 20
724.045
 30
0.0
 11
378.2619999999999
 21
723.428
 31
0.0
  0
LINE
  5
524
330
1E
100
AcDbEntity
  8
0
100
AcDbLine
 10
378.1019999999999
 20
737.035
 30
0.0
 11
378.1019999999999
 21
737.6519999999999
 31
0.0
  0
LINE
  5
525
330
1E
100
AcDbEntity
  8
0
100
AcDbLine
 10
376.642
 20
737.6519999999999
 30
0.0
 11
378.1019999999999
 21
737.6519999999999
 31
0.0
  0
LINE
  5
526
330
1E
100
AcDbEntity
  8
0
100
AcDbLine
 10
376.642
 20
737.6519999999999
 30
0.0
 11
376.642
 21
738.187121550719
 31
0.0
  0
LINE
  5
527
330
1E
100
AcDbEntity
  8
0
100
AcDbLine
 10
376.642
 20
737.6519999999999
 30
0.0
 11
376.642
 21
737.035
 31
0.0
  0
LINE
  5
528
330
1E
100
AcDbEntity
  8
0
100
AcDbLine
 10
376.642
 20
737.7342052079288
 30
0.0
 11
376.642
 21
737.035
 31
0.0
  0
LINE
  5
529
330
1E
100
AcDbEntity
  8
0
100
AcDbLine
 10
375.505
 20
749.220700541867
 30
0.0
 11
375.505
 21
749.0839999999999
 31
0.0
  0
LINE
  5
52A
330
1E
100
AcDbEntity
  8
0
100
AcDbLine
 10
375.505
 20
749.0839999999999
 30
0.0
 11
375.505
 21
749.220700541867
 31
0.0
  0
LINE
  5
52B
330
1E
100
AcDbEntity
  8
0
100
AcDbLine
 10
375.505
 20
749.0839999999999
 30
0.0
 11
375.505
 21
748.467
 31
0.0
  0
LINE
  5
52C
330
1E
100
AcDbEntity
  8
0
100
AcDbLine
 10
375.505
 20
748.467
 30
0.0
 11
375.505
 21
749.0839999999999
 31
0.0
  0
LINE
  5
52D
330
1E
100
AcDbEntity
  8
0
100
AcDbLine
 10
375.9119999999999
 20
742.561077492727
 30
0.0
 11
375.9119999999999
 21
741.426
 31
0.0
  0
LINE
  5
52E
330
1E
100
AcDbEntity
  8
0
100
AcDbLine
 10
375.9119999999999
 20
741.426
 30
0.0
 11
375.9119999999999
 21
742.561077492727
 31
0.0
  0
LINE
  5
52F
330
1E
100
AcDbEntity
  8
0
100
AcDbLine
 10
375.9119999999999
 20
741.426
 30
0.0
 11
375.9119999999999
 21
740.8089999999999
 31
0.0
  0
LINE
  5
530
330
1E
100
AcDbEntity
  8
0
100
AcDbLine
 10
375.9119999999999
 20
740.8089999999999
 30
0.0
 11
375.9119999999999
 21
741.426
 31
0.0
  0
LINE
  5
531
330
1E
100
AcDbEntity
  8
0
100
AcDbLine
 10
376.642
 20
738.187121550719
 30
0.0
 11
376.642
 21
737.6519999999999
 31
0.0
  0
LINE
  5
532
330
1E
100
AcDbEntity
  8
0
100
AcDbLine
 10
378.2619999999999
 20
754.6863380986419
 30
0.0
 11
378.2619999999999
 21
753.071
 31
0.0
  0
LINE
  5
533
330
1E
100
AcDbEntity
  8
0
100
AcDbLine
 10
378.2619999999999
 20
753.071
 30
0.0
 11
378.2619999999999
 21
752.454
 31
0.0
  0
LINE
  5
534
330
1E
100
AcDbEntity
  8
0
100
AcDbLine
 10
378.2619999999999
 20
753.071
 30
0.0
 11
379.7219999999999
 21
753.071
 31
0.0
  0
LINE
  5
535
330
1E
100
AcDbEntity
  8
0
100
AcDbLine
 10
378.2619999999999
 20
753.071
 30
0.0
 11
378.2619999999999
 21
754.6863380986419
 31
0.0
  0
LINE
  5
536
330
1E
100
AcDbEntity
  8
0
100
AcDbLine
 10
378.2619999999999
 20
752.454
 30
0.0
 11
379.7219999999999
 21
752.454
 31
0.0
  0
LINE
  5
537
330
1E
100
AcDbEntity
  8
0
100
AcDbLine
 10
378.2619999999999
 20
752.454
 30
0.0
 11
378.2619999999999
 21
753.071
 31
0.0
  0
LINE
  5
538
330
1E
100
AcDbEntity
  8
0
100
AcDbLine
 10
378.1019999999999
 20
738.2010945394479
 30
0.0
 11
378.1019999999999
 21
737.6519999999999
 31
0.0
  0
LINE
  5
539
330
1E
100
AcDbEntity
  8
0
100
AcDbLine
 10
378.1019999999999
 20
737.6519999999999
 30
0.0
 11
378.1019999999999
 21
737.035
 31
0.0
  0
LINE
  5
53A
330
1E
100
AcDbEntity
  8
0
100
AcDbLine
 10
378.1019999999999
 20
737.6519999999999
 30
0.0
 11
378.1019999999999
 21
738.2010945394479
 31
0.0
  0
LINE
  5
53B
330
1E
100
AcDbEntity
  8
0
100
AcDbLine
 10
378.613
 20
723.393
 30
0.0
 11
378.7062049797329
 21
723.428
 31
0.0
  0
LINE
  5
53C
330
1E
100
AcDbEntity
  8
0
100
AcDbLine
 10
379.0
 20
560.177
 30
0.0
 11
380.024
 21
560.177
 31
0.0
  0
LINE
  5
53D
330
1E
100
AcDbEntity
  8
0
100
AcDbLine
 10
379.0
 20
555.177
 30
0.0
 11
380.024
 21
555.177
 31
0.0
  0
LINE
  5
53E
330
1E
100
AcDbEntity
  8
0
100
AcDbLine
 10
379.0
 20
580.177
 30
0.0
 11
379.0
 21
600.177
 31
0.0
  0
LINE
  5
53F
330
1E
100
AcDbEntity
  8
0
100
AcDbLine
 10
379.0
 20
580.177
 30
0.0
 11
379.768
 21
580.177
 31
0.0
  0
LINE
  5
540
330
1E
100
AcDbEntity
  8
0
100
AcDbLine
 10
379.0
 20
600.177
 30
0.0
 11
380.8399999999999
 21
600.177
 31
0.0
  0
LINE
  5
541
330
1E
100
AcDbEntity
  8
0
100
AcDbLine
 10
379.0
 20
600.177
 30
0.0
 11
379.0
 21
580.177
 31
0.0
  0
LINE
  5
542
330
1E
100
AcDbEntity
  8
0
100
AcDbLine
 10
380.024
 20
560.177
 30
0.0
 11
380.984
 21
560.177
 31
0.0
  0
LINE
  5
543
330
1E
100
AcDbEntity
  8
0
100
AcDbLine
 10
380.024
 20
555.177
 30
0.0
 11
380.984
 21
555.177
 31
0.0
  0
LINE
  5
544
330
1E
100
AcDbEntity
  8
0
100
AcDbLine
 10
379.768
 20
580.177
 30
0.0
 11
380.488
 21
580.177
 31
0.0
  0
LINE
  5
545
330
1E
100
AcDbEntity
  8
0
100
AcDbLine
 10
379.7219999999999
 20
723.428
 30
0.0
 11
379.7219999999999
 21
724.045
 31
0.0
  0
LINE
  5
546
330
1E
100
AcDbEntity
  8
0
100
AcDbLine
 10
379.3989999999999
 20
729.6080688420759
 30
0.0
 11
379.3989999999999
 21
729.323
 31
0.0
  0
LINE
  5
547
330
1E
100
AcDbEntity
  8
0
100
AcDbLine
 10
379.3989999999999
 20
729.323
 30
0.0
 11
379.3989999999999
 21
729.94
 31
0.0
  0
LINE
  5
548
330
1E
100
AcDbEntity
  8
0
100
AcDbLine
 10
379.3989999999999
 20
729.323
 30
0.0
 11
380.859
 21
729.323
 31
0.0
  0
LINE
  5
549
330
1E
100
AcDbEntity
  8
0
100
AcDbLine
 10
379.3989999999999
 20
729.323
 30
0.0
 11
379.3989999999999
 21
729.6080688420759
 31
0.0
  0
LINE
  5
54A
330
1E
100
AcDbEntity
  8
0
100
AcDbLine
 10
379.3989999999999
 20
731.1410949850548
 30
0.0
 11
379.3989999999999
 21
729.94
 31
0.0
  0
LINE
  5
54B
330
1E
100
AcDbEntity
  8
0
100
AcDbLine
 10
379.3989999999999
 20
729.94
 30
0.0
 11
380.859
 21
729.94
 31
0.0
  0
LINE
  5
54C
330
1E
100
AcDbEntity
  8
0
100
AcDbLine
 10
379.3989999999999
 20
729.94
 30
0.0
 11
379.3989999999999
 21
731.1410949850548
 31
0.0
  0
LINE
  5
54D
330
1E
100
AcDbEntity
  8
0
100
AcDbLine
 10
379.3989999999999
 20
729.94
 30
0.0
 11
379.3989999999999
 21
729.323
 31
0.0
  0
LINE
  5
54E
330
1E
100
AcDbEntity
  8
0
100
AcDbLine
 10
379.7219999999999
 20
725.663927499423
 30
0.0
 11
379.7219999999999
 21
724.045
 31
0.0
  0
LINE
  5
54F
330
1E
100
AcDbEntity
  8
0
100
AcDbLine
 10
379.7219999999999
 20
724.045
 30
0.0
 11
379.7219999999999
 21
723.428
 31
0.0
  0
LINE
  5
550
330
1E
100
AcDbEntity
  8
0
100
AcDbLine
 10
379.7219999999999
 20
724.045
 30
0.0
 11
379.7219999999999
 21
725.663927499423
 31
0.0
  0
LINE
  5
551
330
1E
100
AcDbEntity
  8
0
100
AcDbLine
 10
379.7219999999999
 20
723.8094477060229
 30
0.0
 11
383.2119999999999
 21
725.1199999999999
 31
0.0
  0
LINE
  5
552
330
1E
100
AcDbEntity
  8
0
100
AcDbLine
 10
379.9269999999999
 20
722.6519999999999
 30
0.0
 11
384.818
 21
724.4419999999999
 31
0.0
  0
LINE
  5
553
330
1E
100
AcDbEntity
  8
0
100
AcDbLine
 10
379.3989999999999
 20
747.2813751893158
 30
0.0
 11
379.3989999999999
 21
746.2699999999999
 31
0.0
  0
LINE
  5
554
330
1E
100
AcDbEntity
  8
0
100
AcDbLine
 10
379.3989999999999
 20
746.2699999999999
 30
0.0
 11
379.3989999999999
 21
745.653
 31
0.0
  0
LINE
  5
555
330
1E
100
AcDbEntity
  8
0
100
AcDbLine
 10
379.3989999999999
 20
746.2699999999999
 30
0.0
 11
380.859
 21
746.2699999999999
 31
0.0
  0
LINE
  5
556
330
1E
100
AcDbEntity
  8
0
100
AcDbLine
 10
379.3989999999999
 20
746.2699999999999
 30
0.0
 11
379.3989999999999
 21
747.2813751893158
 31
0.0
  0
LINE
  5
557
330
1E
100
AcDbEntity
  8
0
100
AcDbLine
 10
379.7219999999999
 20
754.502552293977
 30
0.0
 11
379.7219999999999
 21
753.071
 31
0.0
  0
LINE
  5
558
330
1E
100
AcDbEntity
  8
0
100
AcDbLine
 10
379.7219999999999
 20
753.071
 30
0.0
 11
379.7219999999999
 21
754.502552293977
 31
0.0
  0
LINE
  5
559
330
1E
100
AcDbEntity
  8
0
100
AcDbLine
 10
379.7219999999999
 20
753.071
 30
0.0
 11
379.7219999999999
 21
752.454
 31
0.0
  0
LINE
  5
55A
330
1E
100
AcDbEntity
  8
0
100
AcDbLine
 10
379.7219999999999
 20
752.454
 30
0.0
 11
379.7219999999999
 21
753.071
 31
0.0
  0
LINE
  5
55B
330
1E
100
AcDbEntity
  8
0
100
AcDbLine
 10
379.3989999999999
 20
745.653
 30
0.0
 11
380.859
 21
745.653
 31
0.0
  0
LINE
  5
55C
330
1E
100
AcDbEntity
  8
0
100
AcDbLine
 10
379.3989999999999
 20
745.653
 30
0.0
 11
379.3989999999999
 21
746.2699999999999
 31
0.0
  0
LINE
  5
55D
330
1E
100
AcDbEntity
  8
0
100
AcDbLine
 10
378.613
 20
754.919
 30
0.0
 11
383.2119999999999
 21
753.192
 31
0.0
  0
LINE
  5
55E
330
1E
100
AcDbEntity
  8
0
100
AcDbLine
 10
379.9269999999999
 20
755.6599999999999
 30
0.0
 11
384.818
 21
753.87
 31
0.0
  0
LINE
  5
55F
330
1E
100
AcDbEntity
  8
0
100
AcDbLine
 10
380.365
 20
756.813
 30
0.0
 11
385.329
 21
754.993
 31
0.0
  0
LINE
  5
560
330
1E
100
AcDbEntity
  8
0
100
AcDbLine
 10
374.8909999999999
 20
758.355
 30
0.0
 11
380.365
 21
756.813
 31
0.0
  0
LINE
  5
561
330
1E
100
AcDbEntity
  8
0
100
AcDbLine
 10
380.984
 20
555.177
 30
0.0
 11
381.8319999999999
 21
555.177
 31
0.0
  0
LINE
  5
562
330
1E
100
AcDbEntity
  8
0
100
AcDbLine
 10
381.8319999999999
 20
555.177
 30
0.0
 11
382.4719999999999
 21
555.177
 31
0.0
  0
LINE
  5
563
330
1E
100
AcDbEntity
  8
0
100
AcDbLine
 10
380.984
 20
560.177
 30
0.0
 11
381.8319999999999
 21
560.177
 31
0.0
  0
LINE
  5
564
330
1E
100
AcDbEntity
  8
0
100
AcDbLine
 10
381.8319999999999
 20
560.177
 30
0.0
 11
382.4719999999999
 21
560.177
 31
0.0
  0
LINE
  5
565
330
1E
100
AcDbEntity
  8
0
100
AcDbLine
 10
382.4719999999999
 20
560.177
 30
0.0
 11
382.8559999999999
 21
560.177
 31
0.0
  0
LINE
  5
566
330
1E
100
AcDbEntity
  8
0
100
AcDbLine
 10
382.4719999999999
 20
555.177
 30
0.0
 11
382.8559999999999
 21
555.177
 31
0.0
  0
LINE
  5
567
330
1E
100
AcDbEntity
  8
0
100
AcDbLine
 10
380.5469999999999
 20
560.177
 30
0.0
 11
381.8909999999999
 21
560.177
 31
0.0
  0
LINE
  5
568
330
1E
100
AcDbEntity
  8
0
100
AcDbLine
 10
382.0
 20
565.1769999999999
 30
0.0
 11
382.0
 21
580.177
 31
0.0
  0
LINE
  5
569
330
1E
100
AcDbEntity
  8
0
100
AcDbLine
 10
380.5469999999999
 20
565.1769999999999
 30
0.0
 11
381.8909999999999
 21
565.1769999999999
 31
0.0
  0
LINE
  5
56A
330
1E
100
AcDbEntity
  8
0
100
AcDbLine
 10
380.488
 20
580.177
 30
0.0
 11
381.124
 21
580.177
 31
0.0
  0
LINE
  5
56B
330
1E
100
AcDbEntity
  8
0
100
AcDbLine
 10
381.124
 20
580.177
 30
0.0
 11
381.604
 21
580.177
 31
0.0
  0
LINE
  5
56C
330
1E
100
AcDbEntity
  8
0
100
AcDbLine
 10
381.604
 20
580.177
 30
0.0
 11
381.8919999999999
 21
580.177
 31
0.0
  0
LINE
  5
56D
330
1E
100
AcDbEntity
  8
0
100
AcDbLine
 10
381.8919999999999
 20
580.177
 30
0.0
 11
382.0
 21
580.177
 31
0.0
  0
LINE
  5
56E
330
1E
100
AcDbEntity
  8
0
100
AcDbLine
 10
382.0
 20
580.177
 30
0.0
 11
382.0
 21
565.1769999999999
 31
0.0
  0
LINE
  5
56F
330
1E
100
AcDbEntity
  8
0
100
AcDbLine
 10
381.8909999999999
 20
565.1769999999999
 30
0.0
 11
382.698
 21
565.1769999999999
 31
0.0
  0
LINE
  5
570
330
1E
100
AcDbEntity
  8
0
100
AcDbLine
 10
382.698
 20
565.1769999999999
 30
0.0
 11
383.0
 21
565.1769999999999
 31
0.0
  0
LINE
  5
571
330
1E
100
AcDbEntity
  8
0
100
AcDbLine
 10
381.8909999999999
 20
560.177
 30
0.0
 11
382.698
 21
560.177
 31
0.0
  0
LINE
  5
572
330
1E
100
AcDbEntity
  8
0
100
AcDbLine
 10
382.8559999999999
 20
560.177
 30
0.0
 11
383.0
 21
560.177
 31
0.0
  0
LINE
  5
573
330
1E
100
AcDbEntity
  8
0
100
AcDbLine
 10
383.0
 20
555.177
 30
0.0
 11
383.0
 21
560.177
 31
0.0
  0
LINE
  5
574
330
1E
100
AcDbEntity
  8
0
100
AcDbLine
 10
383.0
 20
560.177
 30
0.0
 11
383.0
 21
555.177
 31
0.0
  0
LINE
  5
575
330
1E
100
AcDbEntity
  8
0
100
AcDbLine
 10
382.8559999999999
 20
555.177
 30
0.0
 11
383.0
 21
555.177
 31
0.0
  0
LINE
  5
576
330
1E
100
AcDbEntity
  8
0
100
AcDbLine
 10
383.0
 20
565.1769999999999
 30
0.0
 11
383.0
 21
560.177
 31
0.0
  0
LINE
  5
577
330
1E
100
AcDbEntity
  8
0
100
AcDbLine
 10
382.698
 20
560.177
 30
0.0
 11
383.0
 21
560.177
 31
0.0
  0
LINE
  5
578
330
1E
100
AcDbEntity
  8
0
100
AcDbLine
 10
380.8399999999999
 20
606.6769999999999
 30
0.0
 11
384.2699999999999
 21
606.6769999999999
 31
0.0
  0
LINE
  5
579
330
1E
100
AcDbEntity
  8
0
100
AcDbLine
 10
380.3799999999999
 20
607.177
 30
0.0
 11
383.74
 21
607.177
 31
0.0
  0
LINE
  5
57A
330
1E
100
AcDbEntity
  8
0
100
AcDbLine
 10
384.2699999999999
 20
606.6769999999999
 30
0.0
 11
385.5
 21
606.6769999999999
 31
0.0
  0
LINE
  5
57B
330
1E
100
AcDbEntity
  8
0
100
AcDbLine
 10
383.74
 20
607.177
 30
0.0
 11
385.0
 21
607.177
 31
0.0
  0
LINE
  5
57C
330
1E
100
AcDbEntity
  8
0
100
AcDbLine
 10
380.8399999999999
 20
600.177
 30
0.0
 11
384.2699999999999
 21
600.177
 31
0.0
  0
LINE
  5
57D
330
1E
100
AcDbEntity
  8
0
100
AcDbLine
 10
385.5
 20
600.177
 30
0.0
 11
385.5
 21
606.6769999999999
 31
0.0
  0
LINE
  5
57E
330
1E
100
AcDbEntity
  8
0
100
AcDbLine
 10
385.0
 20
607.177
 30
0.0
 11
385.5
 21
606.6769999999999
 31
0.0
  0
LINE
  5
57F
330
1E
100
AcDbEntity
  8
0
100
AcDbLine
 10
384.2699999999999
 20
600.177
 30
0.0
 11
385.5
 21
600.177
 31
0.0
  0
LINE
  5
580
330
1E
100
AcDbEntity
  8
0
100
AcDbLine
 10
386.1299999999999
 20
726.276
 30
0.0
 11
386.1299999999999
 21
726.893
 31
0.0
  0
LINE
  5
581
330
1E
100
AcDbEntity
  8
0
100
AcDbLine
 10
384.67
 20
726.276
 30
0.0
 11
384.67
 21
726.893
 31
0.0
  0
LINE
  5
582
330
1E
100
AcDbEntity
  8
0
100
AcDbLine
 10
384.67
 20
726.276
 30
0.0
 11
386.1299999999999
 21
726.276
 31
0.0
  0
LINE
  5
583
330
1E
100
AcDbEntity
  8
0
100
AcDbLine
 10
384.67
 20
726.276
 30
0.0
 11
384.67
 21
727.307222310355
 31
0.0
  0
LINE
  5
584
330
1E
100
AcDbEntity
  8
0
100
AcDbLine
 10
383.2119999999999
 20
725.1199999999999
 30
0.0
 11
385.642335390947
 21
726.276
 31
0.0
  0
LINE
  5
585
330
1E
100
AcDbEntity
  8
0
100
AcDbLine
 10
384.67
 20
727.307222310355
 30
0.0
 11
384.67
 21
726.276
 31
0.0
  0
LINE
  5
586
330
1E
100
AcDbEntity
  8
0
100
AcDbLine
 10
384.67
 20
726.893
 30
0.0
 11
386.1299999999999
 21
726.893
 31
0.0
  0
LINE
  5
587
330
1E
100
AcDbEntity
  8
0
100
AcDbLine
 10
384.67
 20
726.893
 30
0.0
 11
384.67
 21
727.693939121756
 31
0.0
  0
LINE
  5
588
330
1E
100
AcDbEntity
  8
0
100
AcDbLine
 10
384.67
 20
726.893
 30
0.0
 11
384.67
 21
726.276
 31
0.0
  0
LINE
  5
589
330
1E
100
AcDbEntity
  8
0
100
AcDbLine
 10
384.67
 20
727.693939121756
 30
0.0
 11
384.67
 21
726.893
 31
0.0
  0
LINE
  5
58A
330
1E
100
AcDbEntity
  8
0
100
AcDbLine
 10
386.1299999999999
 20
727.3441060606058
 30
0.0
 11
386.1299999999999
 21
726.893
 31
0.0
  0
LINE
  5
58B
330
1E
100
AcDbEntity
  8
0
100
AcDbLine
 10
386.1299999999999
 20
726.893
 30
0.0
 11
386.1299999999999
 21
726.276
 31
0.0
  0
LINE
  5
58C
330
1E
100
AcDbEntity
  8
0
100
AcDbLine
 10
386.1299999999999
 20
726.893
 30
0.0
 11
386.1299999999999
 21
727.3441060606058
 31
0.0
  0
LINE
  5
58D
330
1E
100
AcDbEntity
  8
0
100
AcDbLine
 10
386.1299999999999
 20
726.5079598727671
 30
0.0
 11
387.299
 21
727.064
 31
0.0
  0
LINE
  5
58E
330
1E
100
AcDbEntity
  8
0
100
AcDbLine
 10
387.299
 20
727.064
 30
0.0
 11
390.803
 21
729.2539999999998
 31
0.0
  0
LINE
  5
58F
330
1E
100
AcDbEntity
  8
0
100
AcDbLine
 10
384.818
 20
724.4419999999999
 30
0.0
 11
389.0509999999999
 21
726.508
 31
0.0
  0
LINE
  5
590
330
1E
100
AcDbEntity
  8
0
100
AcDbLine
 10
389.0509999999999
 20
726.508
 30
0.0
 11
392.7009999999999
 21
728.791
 31
0.0
  0
LINE
  5
591
330
1E
100
AcDbEntity
  8
0
100
AcDbLine
 10
380.859
 20
729.323
 30
0.0
 11
380.859
 21
729.94
 31
0.0
  0
LINE
  5
592
330
1E
100
AcDbEntity
  8
0
100
AcDbLine
 10
380.859
 20
730.899499169711
 30
0.0
 11
380.859
 21
729.94
 31
0.0
  0
LINE
  5
593
330
1E
100
AcDbEntity
  8
0
100
AcDbLine
 10
380.859
 20
729.94
 30
0.0
 11
380.859
 21
729.323
 31
0.0
  0
LINE
  5
594
330
1E
100
AcDbEntity
  8
0
100
AcDbLine
 10
380.859
 20
729.94
 30
0.0
 11
380.859
 21
730.899499169711
 31
0.0
  0
LINE
  5
595
330
1E
100
AcDbEntity
  8
0
100
AcDbLine
 10
389.4559999999999
 20
729.7069999999999
 30
0.0
 11
389.4559999999999
 21
730.3239999999999
 31
0.0
  0
LINE
  5
596
330
1E
100
AcDbEntity
  8
0
100
AcDbLine
 10
389.4559999999999
 20
729.7069999999999
 30
0.0
 11
390.9159999999999
 21
729.7069999999999
 31
0.0
  0
LINE
  5
597
330
1E
100
AcDbEntity
  8
0
100
AcDbLine
 10
389.4559999999999
 20
731.4810333287899
 30
0.0
 11
389.4559999999999
 21
730.3239999999999
 31
0.0
  0
LINE
  5
598
330
1E
100
AcDbEntity
  8
0
100
AcDbLine
 10
390.9159999999999
 20
729.7069999999999
 30
0.0
 11
390.9159999999999
 21
730.3239999999999
 31
0.0
  0
LINE
  5
599
330
1E
100
AcDbEntity
  8
0
100
AcDbLine
 10
389.4559999999999
 20
730.3239999999999
 30
0.0
 11
390.9159999999999
 21
730.3239999999999
 31
0.0
  0
LINE
  5
59A
330
1E
100
AcDbEntity
  8
0
100
AcDbLine
 10
389.4559999999999
 20
730.3239999999999
 30
0.0
 11
389.4559999999999
 21
731.4810333287899
 31
0.0
  0
LINE
  5
59B
330
1E
100
AcDbEntity
  8
0
100
AcDbLine
 10
389.4559999999999
 20
730.3239999999999
 30
0.0
 11
389.4559999999999
 21
729.7069999999999
 31
0.0
  0
LINE
  5
59C
330
1E
100
AcDbEntity
  8
0
100
AcDbLine
 10
390.9159999999999
 20
731.5129758042529
 30
0.0
 11
390.9159999999999
 21
730.3239999999999
 31
0.0
  0
LINE
  5
59D
330
1E
100
AcDbEntity
  8
0
100
AcDbLine
 10
390.9159999999999
 20
730.3239999999999
 30
0.0
 11
390.9159999999999
 21
729.7069999999999
 31
0.0
  0
LINE
  5
59E
330
1E
100
AcDbEntity
  8
0
100
AcDbLine
 10
390.9159999999999
 20
730.3239999999999
 30
0.0
 11
390.9159999999999
 21
731.5129758042529
 31
0.0
  0
LINE
  5
59F
330
1E
100
AcDbEntity
  8
0
100
AcDbLine
 10
390.803
 20
729.2539999999998
 30
0.0
 11
393.4309999999999
 21
731.568
 31
0.0
  0
LINE
  5
5A0
330
1E
100
AcDbEntity
  8
0
100
AcDbLine
 10
393.4309999999999
 20
731.568
 30
0.0
 11
395.401
 21
734.3439999999999
 31
0.0
  0
LINE
  5
5A1
330
1E
100
AcDbEntity
  8
0
100
AcDbLine
 10
392.7009999999999
 20
728.791
 30
0.0
 11
395.401
 21
731.198
 31
0.0
  0
LINE
  5
5A2
330
1E
100
AcDbEntity
  8
0
100
AcDbLine
 10
395.401
 20
731.198
 30
0.0
 11
396.1309999999999
 21
731.9810000000001
 31
0.0
  0
LINE
  5
5A3
330
1E
100
AcDbEntity
  8
0
100
AcDbLine
 10
395.401
 20
731.198
 30
0.0
 11
397.518
 21
733.9119999999999
 31
0.0
  0
LINE
  5
5A4
330
1E
100
AcDbEntity
  8
0
100
AcDbLine
 10
383.8599999999999
 20
733.4049999999999
 30
0.0
 11
383.8599999999999
 21
734.0219999999999
 31
0.0
  0
LINE
  5
5A5
330
1E
100
AcDbEntity
  8
0
100
AcDbLine
 10
383.8599999999999
 20
733.4049999999999
 30
0.0
 11
385.32
 21
733.4049999999999
 31
0.0
  0
LINE
  5
5A6
330
1E
100
AcDbEntity
  8
0
100
AcDbLine
 10
383.8599999999999
 20
733.4049999999999
 30
0.0
 11
383.8599999999999
 21
734.600620274014
 31
0.0
  0
LINE
  5
5A7
330
1E
100
AcDbEntity
  8
0
100
AcDbLine
 10
385.32
 20
733.4049999999999
 30
0.0
 11
385.32
 21
734.0219999999999
 31
0.0
  0
LINE
  5
5A8
330
1E
100
AcDbEntity
  8
0
100
AcDbLine
 10
383.8599999999999
 20
734.0219999999999
 30
0.0
 11
385.32
 21
734.0219999999999
 31
0.0
  0
LINE
  5
5A9
330
1E
100
AcDbEntity
  8
0
100
AcDbLine
 10
383.8599999999999
 20
734.0219999999999
 30
0.0
 11
383.8599999999999
 21
734.600620274014
 31
0.0
  0
LINE
  5
5AA
330
1E
100
AcDbEntity
  8
0
100
AcDbLine
 10
383.8599999999999
 20
734.0219999999999
 30
0.0
 11
383.8599999999999
 21
733.4049999999999
 31
0.0
  0
LINE
  5
5AB
330
1E
100
AcDbEntity
  8
0
100
AcDbLine
 10
383.8599999999999
 20
734.600620274014
 30
0.0
 11
383.8599999999999
 21
734.0219999999999
 31
0.0
  0
LINE
  5
5AC
330
1E
100
AcDbEntity
  8
0
100
AcDbLine
 10
383.8599999999999
 20
734.600620274014
 30
0.0
 11
383.8599999999999
 21
733.4049999999999
 31
0.0
  0
LINE
  5
5AD
330
1E
100
AcDbEntity
  8
0
100
AcDbLine
 10
385.32
 20
734.568156397395
 30
0.0
 11
385.32
 21
734.0219999999999
 31
0.0
  0
LINE
  5
5AE
330
1E
100
AcDbEntity
  8
0
100
AcDbLine
 10
385.32
 20
734.0219999999999
 30
0.0
 11
385.32
 21
733.4049999999999
 31
0.0
  0
LINE
  5
5AF
330
1E
100
AcDbEntity
  8
0
100
AcDbLine
 10
385.32
 20
734.0219999999999
 30
0.0
 11
385.32
 21
734.568156397395
 31
0.0
  0
LINE
  5
5B0
330
1E
100
AcDbEntity
  8
0
100
AcDbLine
 10
385.4019999999999
 20
737.4889999999999
 30
0.0
 11
385.4019999999999
 21
738.1060000000001
 31
0.0
  0
LINE
  5
5B1
330
1E
100
AcDbEntity
  8
0
100
AcDbLine
 10
385.4019999999999
 20
737.4889999999999
 30
0.0
 11
386.8609999999999
 21
737.4889999999999
 31
0.0
  0
LINE
  5
5B2
330
1E
100
AcDbEntity
  8
0
100
AcDbLine
 10
385.4019999999999
 20
737.4889999999999
 30
0.0
 11
385.4019999999999
 21
738.393073262186
 31
0.0
  0
LINE
  5
5B3
330
1E
100
AcDbEntity
  8
0
100
AcDbLine
 10
392.782
 20
734.402234858127
 30
0.0
 11
392.782
 21
733.7899999999999
 31
0.0
  0
LINE
  5
5B4
330
1E
100
AcDbEntity
  8
0
100
AcDbLine
 10
392.782
 20
733.7899999999999
 30
0.0
 11
392.782
 21
734.4069999999999
 31
0.0
  0
LINE
  5
5B5
330
1E
100
AcDbEntity
  8
0
100
AcDbLine
 10
392.782
 20
733.7899999999999
 30
0.0
 11
394.2409999999999
 21
733.7899999999999
 31
0.0
  0
LINE
  5
5B6
330
1E
100
AcDbEntity
  8
0
100
AcDbLine
 10
392.782
 20
733.7899999999999
 30
0.0
 11
392.782
 21
734.402234858127
 31
0.0
  0
LINE
  5
5B7
330
1E
100
AcDbEntity
  8
0
100
AcDbLine
 10
392.782
 20
734.4069999999999
 30
0.0
 11
394.2409999999999
 21
734.4069999999999
 31
0.0
  0
LINE
  5
5B8
330
1E
100
AcDbEntity
  8
0
100
AcDbLine
 10
392.782
 20
734.4069999999999
 30
0.0
 11
392.782
 21
733.7899999999999
 31
0.0
  0
LINE
  5
5B9
330
1E
100
AcDbEntity
  8
0
100
AcDbLine
 10
386.8609999999999
 20
737.4889999999999
 30
0.0
 11
386.8609999999999
 21
738.1060000000001
 31
0.0
  0
LINE
  5
5BA
330
1E
100
AcDbEntity
  8
0
100
AcDbLine
 10
385.4019999999999
 20
738.1060000000001
 30
0.0
 11
386.8609999999999
 21
738.1060000000001
 31
0.0
  0
LINE
  5
5BB
330
1E
100
AcDbEntity
  8
0
100
AcDbLine
 10
385.4019999999999
 20
738.1060000000001
 30
0.0
 11
385.4019999999999
 21
738.393073262186
 31
0.0
  0
LINE
  5
5BC
330
1E
100
AcDbEntity
  8
0
100
AcDbLine
 10
385.4019999999999
 20
738.1060000000001
 30
0.0
 11
385.4019999999999
 21
737.4889999999999
 31
0.0
  0
LINE
  5
5BD
330
1E
100
AcDbEntity
  8
0
100
AcDbLine
 10
385.4019999999999
 20
738.393073262186
 30
0.0
 11
385.4019999999999
 21
738.1060000000001
 31
0.0
  0
LINE
  5
5BE
330
1E
100
AcDbEntity
  8
0
100
AcDbLine
 10
385.4019999999999
 20
738.393073262186
 30
0.0
 11
385.4019999999999
 21
737.4889999999999
 31
0.0
  0
LINE
  5
5BF
330
1E
100
AcDbEntity
  8
0
100
AcDbLine
 10
386.8609999999999
 20
738.488390106721
 30
0.0
 11
386.8609999999999
 21
738.1060000000001
 31
0.0
  0
LINE
  5
5C0
330
1E
100
AcDbEntity
  8
0
100
AcDbLine
 10
386.8609999999999
 20
738.1060000000001
 30
0.0
 11
386.8609999999999
 21
737.4889999999999
 31
0.0
  0
LINE
  5
5C1
330
1E
100
AcDbEntity
  8
0
100
AcDbLine
 10
386.8609999999999
 20
738.1060000000001
 30
0.0
 11
386.8609999999999
 21
738.488390106721
 31
0.0
  0
LINE
  5
5C2
330
1E
100
AcDbEntity
  8
0
100
AcDbLine
 10
394.2409999999999
 20
733.7899999999999
 30
0.0
 11
394.2409999999999
 21
734.4069999999999
 31
0.0
  0
LINE
  5
5C3
330
1E
100
AcDbEntity
  8
0
100
AcDbLine
 10
394.2409999999999
 20
734.4069999999999
 30
0.0
 11
394.2409999999999
 21
733.7899999999999
 31
0.0
  0
LINE
  5
5C4
330
1E
100
AcDbEntity
  8
0
100
AcDbLine
 10
394.161
 20
737.942
 30
0.0
 11
394.161
 21
738.5589999999999
 31
0.0
  0
LINE
  5
5C5
330
1E
100
AcDbEntity
  8
0
100
AcDbLine
 10
394.161
 20
737.942
 30
0.0
 11
395.6199999999999
 21
737.942
 31
0.0
  0
LINE
  5
5C6
330
1E
100
AcDbEntity
  8
0
100
AcDbLine
 10
394.161
 20
737.942
 30
0.0
 11
394.161
 21
738.5967283777139
 31
0.0
  0
LINE
  5
5C7
330
1E
100
AcDbEntity
  8
0
100
AcDbLine
 10
383.8599999999999
 20
741.571
 30
0.0
 11
385.32
 21
741.571
 31
0.0
  0
LINE
  5
5C8
330
1E
100
AcDbEntity
  8
0
100
AcDbLine
 10
383.8599999999999
 20
741.571
 30
0.0
 11
383.8599999999999
 21
742.1457368421049
 31
0.0
  0
LINE
  5
5C9
330
1E
100
AcDbEntity
  8
0
100
AcDbLine
 10
383.8599999999999
 20
741.571
 30
0.0
 11
383.8599999999999
 21
742.1879999999999
 31
0.0
  0
LINE
  5
5CA
330
1E
100
AcDbEntity
  8
0
100
AcDbLine
 10
385.32
 20
742.376263157895
 30
0.0
 11
385.32
 21
742.1879999999999
 31
0.0
  0
LINE
  5
5CB
330
1E
100
AcDbEntity
  8
0
100
AcDbLine
 10
383.8599999999999
 20
742.1879999999999
 30
0.0
 11
383.8599999999999
 21
741.571
 31
0.0
  0
LINE
  5
5CC
330
1E
100
AcDbEntity
  8
0
100
AcDbLine
 10
383.8599999999999
 20
742.1879999999999
 30
0.0
 11
385.32
 21
742.1879999999999
 31
0.0
  0
LINE
  5
5CD
330
1E
100
AcDbEntity
  8
0
100
AcDbLine
 10
383.8599999999999
 20
742.1457368421049
 30
0.0
 11
383.8599999999999
 21
741.571
 31
0.0
  0
LINE
  5
5CE
330
1E
100
AcDbEntity
  8
0
100
AcDbLine
 10
385.32
 20
742.1879999999999
 30
0.0
 11
385.32
 21
742.376263157895
 31
0.0
  0
LINE
  5
5CF
330
1E
100
AcDbEntity
  8
0
100
AcDbLine
 10
385.32
 20
742.1879999999999
 30
0.0
 11
385.32
 21
741.571
 31
0.0
  0
LINE
  5
5D0
330
1E
100
AcDbEntity
  8
0
100
AcDbLine
 10
385.32
 20
741.571
 30
0.0
 11
385.32
 21
742.1879999999999
 31
0.0
  0
LINE
  5
5D1
330
1E
100
AcDbEntity
  8
0
100
AcDbLine
 10
392.782
 20
742.71
 30
0.0
 11
392.782
 21
742.0930000000001
 31
0.0
  0
LINE
  5
5D2
330
1E
100
AcDbEntity
  8
0
100
AcDbLine
 10
392.782
 20
742.71
 30
0.0
 11
394.2409999999999
 21
742.71
 31
0.0
  0
LINE
  5
5D3
330
1E
100
AcDbEntity
  8
0
100
AcDbLine
 10
392.782
 20
742.71
 30
0.0
 11
392.782
 21
743.554473684211
 31
0.0
  0
LINE
  5
5D4
330
1E
100
AcDbEntity
  8
0
100
AcDbLine
 10
392.782
 20
743.554473684211
 30
0.0
 11
392.782
 21
742.0930000000001
 31
0.0
  0
LINE
  5
5D5
330
1E
100
AcDbEntity
  8
0
100
AcDbLine
 10
392.782
 20
743.554473684211
 30
0.0
 11
392.782
 21
742.71
 31
0.0
  0
LINE
  5
5D6
330
1E
100
AcDbEntity
  8
0
100
AcDbLine
 10
392.782
 20
742.0930000000001
 30
0.0
 11
394.2409999999999
 21
742.0930000000001
 31
0.0
  0
LINE
  5
5D7
330
1E
100
AcDbEntity
  8
0
100
AcDbLine
 10
392.782
 20
742.0930000000001
 30
0.0
 11
392.782
 21
743.554473684211
 31
0.0
  0
LINE
  5
5D8
330
1E
100
AcDbEntity
  8
0
100
AcDbLine
 10
392.782
 20
742.0930000000001
 30
0.0
 11
392.782
 21
742.71
 31
0.0
  0
LINE
  5
5D9
330
1E
100
AcDbEntity
  8
0
100
AcDbLine
 10
394.161
 20
738.5967283777139
 30
0.0
 11
394.161
 21
737.942
 31
0.0
  0
LINE
  5
5DA
330
1E
100
AcDbEntity
  8
0
100
AcDbLine
 10
394.2409999999999
 20
743.7848421052629
 30
0.0
 11
394.2409999999999
 21
742.71
 31
0.0
  0
LINE
  5
5DB
330
1E
100
AcDbEntity
  8
0
100
AcDbLine
 10
394.2409999999999
 20
742.71
 30
0.0
 11
394.2409999999999
 21
743.7848421052629
 31
0.0
  0
LINE
  5
5DC
330
1E
100
AcDbEntity
  8
0
100
AcDbLine
 10
394.2409999999999
 20
742.71
 30
0.0
 11
394.2409999999999
 21
742.0930000000001
 31
0.0
  0
LINE
  5
5DD
330
1E
100
AcDbEntity
  8
0
100
AcDbLine
 10
394.2409999999999
 20
742.0930000000001
 30
0.0
 11
394.2409999999999
 21
742.71
 31
0.0
  0
LINE
  5
5DE
330
1E
100
AcDbEntity
  8
0
100
AcDbLine
 10
394.161
 20
739.3434493079459
 30
0.0
 11
394.161
 21
738.5589999999999
 31
0.0
  0
LINE
  5
5DF
330
1E
100
AcDbEntity
  8
0
100
AcDbLine
 10
394.161
 20
738.5589999999999
 30
0.0
 11
395.6199999999999
 21
738.5589999999999
 31
0.0
  0
LINE
  5
5E0
330
1E
100
AcDbEntity
  8
0
100
AcDbLine
 10
394.161
 20
738.5589999999999
 30
0.0
 11
394.161
 21
739.3434493079459
 31
0.0
  0
LINE
  5
5E1
330
1E
100
AcDbEntity
  8
0
100
AcDbLine
 10
394.161
 20
738.5589999999999
 30
0.0
 11
394.161
 21
737.942
 31
0.0
  0
LINE
  5
5E2
330
1E
100
AcDbEntity
  8
0
100
AcDbLine
 10
395.6199999999999
 20
737.942
 30
0.0
 11
395.6199999999999
 21
738.5589999999999
 31
0.0
  0
LINE
  5
5E3
330
1E
100
AcDbEntity
  8
0
100
AcDbLine
 10
395.6199999999999
 20
739.249756762453
 30
0.0
 11
395.6199999999999
 21
738.5589999999999
 31
0.0
  0
LINE
  5
5E4
330
1E
100
AcDbEntity
  8
0
100
AcDbLine
 10
395.6199999999999
 20
738.5589999999999
 30
0.0
 11
395.6199999999999
 21
737.942
 31
0.0
  0
LINE
  5
5E5
330
1E
100
AcDbEntity
  8
0
100
AcDbLine
 10
395.6199999999999
 20
738.5589999999999
 30
0.0
 11
395.6199999999999
 21
739.249756762453
 31
0.0
  0
LINE
  5
5E6
330
1E
100
AcDbEntity
  8
0
100
AcDbLine
 10
395.401
 20
734.3439999999999
 30
0.0
 11
396.6419999999999
 21
736.5339999999999
 31
0.0
  0
LINE
  5
5E7
330
1E
100
AcDbEntity
  8
0
100
AcDbLine
 10
395.77163058657
 20
731.673149462423
 30
0.0
 11
396.1309999999999
 21
731.9810000000001
 31
0.0
  0
LINE
  5
5E8
330
1E
100
AcDbEntity
  8
0
100
AcDbLine
 10
396.6419999999999
 20
736.5339999999999
 30
0.0
 11
397.08
 21
739.1560000000001
 31
0.0
  0
LINE
  5
5E9
330
1E
100
AcDbEntity
  8
0
100
AcDbLine
 10
396.1309999999999
 20
731.9810000000001
 30
0.0
 11
398.175
 21
734.603
 31
0.0
  0
LINE
  5
5EA
330
1E
100
AcDbEntity
  8
0
100
AcDbLine
 10
395.401
 20
743.968
 30
0.0
 11
396.6419999999999
 21
741.778
 31
0.0
  0
LINE
  5
5EB
330
1E
100
AcDbEntity
  8
0
100
AcDbLine
 10
397.518
 20
733.9119999999999
 30
0.0
 11
398.759
 21
736.472
 31
0.0
  0
LINE
  5
5EC
330
1E
100
AcDbEntity
  8
0
100
AcDbLine
 10
398.759
 20
736.472
 30
0.0
 11
399.2699999999999
 21
739.1560000000001
 31
0.0
  0
LINE
  5
5ED
330
1E
100
AcDbEntity
  8
0
100
AcDbLine
 10
398.175
 20
734.603
 30
0.0
 11
399.489
 21
737.348
 31
0.0
  0
LINE
  5
5EE
330
1E
100
AcDbEntity
  8
0
100
AcDbLine
 10
396.6419999999999
 20
741.778
 30
0.0
 11
397.08
 21
739.1560000000001
 31
0.0
  0
LINE
  5
5EF
330
1E
100
AcDbEntity
  8
0
100
AcDbLine
 10
397.518
 20
744.3999999999999
 30
0.0
 11
398.759
 21
741.84
 31
0.0
  0
LINE
  5
5F0
330
1E
100
AcDbEntity
  8
0
100
AcDbLine
 10
399.489
 20
737.348
 30
0.0
 11
400.0
 21
740.0629999999999
 31
0.0
  0
LINE
  5
5F1
330
1E
100
AcDbEntity
  8
0
100
AcDbLine
 10
398.759
 20
741.84
 30
0.0
 11
399.2699999999999
 21
739.1560000000001
 31
0.0
  0
LINE
  5
5F2
330
1E
100
AcDbEntity
  8
0
100
AcDbLine
 10
380.859
 20
745.653
 30
0.0
 11
380.859
 21
746.2699999999999
 31
0.0
  0
LINE
  5
5F3
330
1E
100
AcDbEntity
  8
0
100
AcDbLine
 10
380.859
 20
746.2699999999999
 30
0.0
 11
380.859
 21
747.508828032494
 31
0.0
  0
LINE
  5
5F4
330
1E
100
AcDbEntity
  8
0
100
AcDbLine
 10
380.859
 20
746.2699999999999
 30
0.0
 11
380.859
 21
745.653
 31
0.0
  0
LINE
  5
5F5
330
1E
100
AcDbEntity
  8
0
100
AcDbLine
 10
380.859
 20
747.508828032494
 30
0.0
 11
380.859
 21
746.2699999999999
 31
0.0
  0
LINE
  5
5F6
330
1E
100
AcDbEntity
  8
0
100
AcDbLine
 10
389.4559999999999
 20
746.7929999999999
 30
0.0
 11
389.4559999999999
 21
746.176
 31
0.0
  0
LINE
  5
5F7
330
1E
100
AcDbEntity
  8
0
100
AcDbLine
 10
389.4559999999999
 20
746.7929999999999
 30
0.0
 11
390.9159999999999
 21
746.7929999999999
 31
0.0
  0
LINE
  5
5F8
330
1E
100
AcDbEntity
  8
0
100
AcDbLine
 10
390.9159999999999
 20
746.7929999999999
 30
0.0
 11
390.9159999999999
 21
746.176
 31
0.0
  0
LINE
  5
5F9
330
1E
100
AcDbEntity
  8
0
100
AcDbLine
 10
389.4559999999999
 20
746.340510155398
 30
0.0
 11
389.4559999999999
 21
746.176
 31
0.0
  0
LINE
  5
5FA
330
1E
100
AcDbEntity
  8
0
100
AcDbLine
 10
389.4559999999999
 20
746.176
 30
0.0
 11
390.9159999999999
 21
746.176
 31
0.0
  0
LINE
  5
5FB
330
1E
100
AcDbEntity
  8
0
100
AcDbLine
 10
389.4559999999999
 20
746.176
 30
0.0
 11
389.4559999999999
 21
746.340510155398
 31
0.0
  0
LINE
  5
5FC
330
1E
100
AcDbEntity
  8
0
100
AcDbLine
 10
389.4559999999999
 20
746.176
 30
0.0
 11
389.4559999999999
 21
746.7929999999999
 31
0.0
  0
LINE
  5
5FD
330
1E
100
AcDbEntity
  8
0
100
AcDbLine
 10
390.9159999999999
 20
746.176
 30
0.0
 11
390.9159999999999
 21
746.7929999999999
 31
0.0
  0
LINE
  5
5FE
330
1E
100
AcDbEntity
  8
0
100
AcDbLine
 10
390.803
 20
749.058
 30
0.0
 11
393.4309999999999
 21
746.745
 31
0.0
  0
LINE
  5
5FF
330
1E
100
AcDbEntity
  8
0
100
AcDbLine
 10
393.4309999999999
 20
746.745
 30
0.0
 11
395.401
 21
743.968
 31
0.0
  0
LINE
  5
600
330
1E
100
AcDbEntity
  8
0
100
AcDbLine
 10
384.67
 20
750.2239999999999
 30
0.0
 11
384.67
 21
749.6069999999999
 31
0.0
  0
LINE
  5
601
330
1E
100
AcDbEntity
  8
0
100
AcDbLine
 10
384.67
 20
750.2239999999999
 30
0.0
 11
386.1299999999999
 21
750.2239999999999
 31
0.0
  0
LINE
  5
602
330
1E
100
AcDbEntity
  8
0
100
AcDbLine
 10
384.67
 20
750.2239999999999
 30
0.0
 11
384.67
 21
750.6610816267669
 31
0.0
  0
LINE
  5
603
330
1E
100
AcDbEntity
  8
0
100
AcDbLine
 10
384.67
 20
750.1858572854289
 30
0.0
 11
384.67
 21
749.6069999999999
 31
0.0
  0
LINE
  5
604
330
1E
100
AcDbEntity
  8
0
100
AcDbLine
 10
384.67
 20
749.6069999999999
 30
0.0
 11
386.1299999999999
 21
749.6069999999999
 31
0.0
  0
LINE
  5
605
330
1E
100
AcDbEntity
  8
0
100
AcDbLine
 10
384.67
 20
749.6069999999999
 30
0.0
 11
384.67
 21
750.1858572854289
 31
0.0
  0
LINE
  5
606
330
1E
100
AcDbEntity
  8
0
100
AcDbLine
 10
384.67
 20
749.6069999999999
 30
0.0
 11
384.67
 21
750.2239999999999
 31
0.0
  0
LINE
  5
607
330
1E
100
AcDbEntity
  8
0
100
AcDbLine
 10
386.1299999999999
 20
750.2239999999999
 30
0.0
 11
386.1299999999999
 21
750.9870233631379
 31
0.0
  0
LINE
  5
608
330
1E
100
AcDbEntity
  8
0
100
AcDbLine
 10
386.1299999999999
 20
750.2239999999999
 30
0.0
 11
386.1299999999999
 21
749.6069999999999
 31
0.0
  0
LINE
  5
609
330
1E
100
AcDbEntity
  8
0
100
AcDbLine
 10
386.1299999999999
 20
749.6069999999999
 30
0.0
 11
386.1299999999999
 21
750.2239999999999
 31
0.0
  0
LINE
  5
60A
330
1E
100
AcDbEntity
  8
0
100
AcDbLine
 10
392.7009999999999
 20
749.5210000000001
 30
0.0
 11
395.401
 21
747.115
 31
0.0
  0
LINE
  5
60B
330
1E
100
AcDbEntity
  8
0
100
AcDbLine
 10
395.401
 20
747.115
 30
0.0
 11
397.518
 21
744.3999999999999
 31
0.0
  0
LINE
  5
60C
330
1E
100
AcDbEntity
  8
0
100
AcDbLine
 10
386.1299999999999
 20
750.9870233631379
 30
0.0
 11
386.1299999999999
 21
750.2239999999999
 31
0.0
  0
LINE
  5
60D
330
1E
100
AcDbEntity
  8
0
100
AcDbLine
 10
384.67
 20
750.6610816267669
 30
0.0
 11
384.67
 21
750.2239999999999
 31
0.0
  0
LINE
  5
60E
330
1E
100
AcDbEntity
  8
0
100
AcDbLine
 10
383.2119999999999
 20
753.192
 30
0.0
 11
387.299
 21
751.248
 31
0.0
  0
LINE
  5
60F
330
1E
100
AcDbEntity
  8
0
100
AcDbLine
 10
387.299
 20
751.248
 30
0.0
 11
390.803
 21
749.058
 31
0.0
  0
LINE
  5
610
330
1E
100
AcDbEntity
  8
0
100
AcDbLine
 10
384.818
 20
753.87
 30
0.0
 11
389.0509999999999
 21
751.804
 31
0.0
  0
LINE
  5
611
330
1E
100
AcDbEntity
  8
0
100
AcDbLine
 10
389.0509999999999
 20
751.804
 30
0.0
 11
392.7009999999999
 21
749.5210000000001
 31
0.0
  0
LINE
  5
612
330
1E
100
AcDbEntity
  8
0
100
AcDbLine
 10
385.329
 20
754.993
 30
0.0
 11
389.6349999999999
 21
752.895
 31
0.0
  0
LINE
  5
613
330
1E
100
AcDbEntity
  8
0
100
AcDbLine
 10
389.6349999999999
 20
752.895
 30
0.0
 11
393.285
 21
750.5819999999999
 31
0.0
  0
LINE
  5
614
330
1E
100
AcDbEntity
  8
0
100
AcDbLine
 10
393.285
 20
750.5819999999999
 30
0.0
 11
396.1309999999999
 21
748.1449999999999
 31
0.0
  0
LINE
  5
615
330
1E
100
AcDbEntity
  8
0
100
AcDbLine
 10
396.1309999999999
 20
748.1449999999999
 30
0.0
 11
398.175
 21
745.5219999999999
 31
0.0
  0
LINE
  5
616
330
1E
100
AcDbEntity
  8
0
100
AcDbLine
 10
398.175
 20
745.5219999999999
 30
0.0
 11
399.489
 21
742.7769999999999
 31
0.0
  0
LINE
  5
617
330
1E
100
AcDbEntity
  8
0
100
AcDbLine
 10
399.489
 20
742.7769999999999
 30
0.0
 11
400.0
 21
740.0629999999999
 31
0.0
  0
LINE
  5
618
330
1E
100
AcDbEntity
  8
0
100
AcDbLine
 10
396.1309999999999
 20
767.177
 30
0.0
 11
398.175
 21
764.555
 31
0.0
  0
LINE
  5
619
330
1E
100
AcDbEntity
  8
0
100
AcDbLine
 10
398.175
 20
764.555
 30
0.0
 11
399.489
 21
761.8099999999999
 31
0.0
  0
LINE
  5
61A
330
1E
100
AcDbEntity
  8
0
100
AcDbLine
 10
551.0
 20
450.1769999999999
 30
0.0
 11
551.0
 21
550.177
 31
0.0
  0
LINE
  5
61B
330
1E
100
AcDbEntity
  8
0
100
AcDbLine
 10
551.0
 20
550.177
 30
0.0
 11
551.0
 21
450.1769999999999
 31
0.0
  0
LINE
  5
61C
330
1E
100
AcDbEntity
  8
0
100
AcDbLine
 10
551.0
 20
550.177
 30
0.0
 11
551.0
 21
250.177
 31
0.0
  0
LINE
  5
61D
330
1E
100
AcDbEntity
  8
0
100
AcDbLine
 10
551.0
 20
250.177
 30
0.0
 11
551.0
 21
450.1769999999999
 31
0.0
  0
LINE
  5
61E
330
1E
100
AcDbEntity
  8
0
100
AcDbLine
 10
551.0
 20
250.177
 30
0.0
 11
700.0
 21
50.177
 31
0.0
  0
LINE
  5
61F
330
1E
100
AcDbEntity
  8
0
100
AcDbLine
 10
551.0
 20
250.177
 30
0.0
 11
700.0
 21
50.177
 31
0.0
  0
LINE
  5
620
330
1E
100
AcDbEntity
  8
0
100
AcDbLine
 10
700.0
 20
50.177
 30
0.0
 11
700.0
 21
0.177000000000049
 31
0.0
  0
LINE
  5
621
330
1E
100
AcDbEntity
  8
0
100
AcDbLine
 10
700.0
 20
0.17700000000005
 30
0.0
 11
700.0
 21
50.177
 31
0.0
  0
LINE
  5
622
330
1E
100
AcDbEntity
  8
0
100
AcDbLine
 10
400.0
 20
759.095
 30
0.0
 11
400.0
 21
740.0629999999999
 31
0.0
  0
LINE
  5
623
330
1E
100
AcDbEntity
  8
0
100
AcDbLine
 10
400.0
 20
740.0629999999999
 30
0.0
 11
400.0
 21
759.095
 31
0.0
  0
LINE
  5
624
330
1E
100
AcDbEntity
  8
0
100
AcDbLine
 10
399.489
 20
761.8099999999999
 30
0.0
 11
400.0
 21
759.095
 31
0.0
  0
LINE
  5
625
330
1E
100
AcDbEntity
  8
0
100
AcDbLine
 10
389.6349999999999
 20
771.928
 30
0.0
 11
393.285
 21
769.6139999999999
 31
0.0
  0
LINE
  5
626
330
1E
100
AcDbEntity
  8
0
100
AcDbLine
 10
385.329
 20
774.0249999999999
 30
0.0
 11
389.6349999999999
 21
771.928
 31
0.0
  0
LINE
  5
627
330
1E
100
AcDbEntity
  8
0
100
AcDbLine
 10
384.818
 20
774.716
 30
0.0
 11
389.0509999999999
 21
772.6489999999999
 31
0.0
  0
LINE
  5
628
330
1E
100
AcDbEntity
  8
0
100
AcDbLine
 10
389.0509999999999
 20
772.6489999999999
 30
0.0
 11
392.7009999999999
 21
770.3660000000001
 31
0.0
  0
LINE
  5
629
330
1E
100
AcDbEntity
  8
0
100
AcDbLine
 10
393.285
 20
769.6139999999999
 30
0.0
 11
396.1309999999999
 21
767.177
 31
0.0
  0
LINE
  5
62A
330
1E
100
AcDbEntity
  8
0
100
AcDbLine
 10
392.7009999999999
 20
770.3660000000001
 30
0.0
 11
395.401
 21
767.96
 31
0.0
  0
LINE
  5
62B
330
1E
100
AcDbEntity
  8
0
100
AcDbLine
 10
395.401
 20
767.96
 30
0.0
 11
395.6970597238289
 21
767.580450594959
 31
0.0
  0
LINE
  5
62C
330
1E
100
AcDbEntity
  8
0
100
AcDbLine
 10
395.401
 20
767.96
 30
0.0
 11
396.1309999999999
 21
767.177
 31
0.0
  0
LINE
  5
62D
330
1E
100
AcDbEntity
  8
0
100
AcDbLine
 10
380.365
 20
775.846
 30
0.0
 11
385.329
 21
774.0249999999999
 31
0.0
  0
LINE
  5
62E
330
1E
100
AcDbEntity
  8
0
100
AcDbLine
 10
374.8909999999999
 20
777.388
 30
0.0
 11
380.365
 21
775.846
 31
0.0
  0
LINE
  5
62F
330
1E
100
AcDbEntity
  8
0
100
AcDbLine
 10
379.9269999999999
 20
776.505
 30
0.0
 11
384.818
 21
774.716
 31
0.0
  0
LINE
  5
630
330
1E
100
AcDbEntity
  8
0
100
AcDbLine
 10
374.5249999999999
 20
778.0479999999999
 30
0.0
 11
379.9269999999999
 21
776.505
 31
0.0
  0
LINE
  5
631
330
1E
100
AcDbEntity
  8
0
100
AcDbLine
 10
362.92
 20
779.455
 30
0.0
 11
369.124
 21
778.591
 31
0.0
  0
LINE
  5
632
330
1E
100
AcDbEntity
  8
0
100
AcDbLine
 10
368.832
 20
779.1889999999999
 30
0.0
 11
374.5249999999999
 21
778.0479999999999
 31
0.0
  0
LINE
  5
633
330
1E
100
AcDbEntity
  8
0
100
AcDbLine
 10
362.4089999999999
 20
780.0830000000001
 30
0.0
 11
368.832
 21
779.1889999999999
 31
0.0
  0
LINE
  5
634
330
1E
100
AcDbEntity
  8
0
100
AcDbLine
 10
356.35
 20
780.608
 30
0.0
 11
362.4089999999999
 21
780.0830000000001
 31
0.0
  0
LINE
  5
635
330
1E
100
AcDbEntity
  8
0
100
AcDbLine
 10
350.0
 20
780.823
 30
0.0
 11
356.35
 21
780.608
 31
0.0
  0
ENDSEC
  0
SECTION
  2
OBJECTS
  0
DICTIONARY
  5
C
330
0
100
AcDbDictionary
281
     1
  3
ACAD_GROUP
350
D
  3
ACAD_LAYOUT
350
19
  3
ACAD_MLINESTYLE
350
16
  3
ACAD_PLOTSETTINGS
350
18
  3
ACAD_PLOTSTYLENAME
350
E
  3
AcDbVariableDictionary
350
63B
  0
DICTIONARY
  5
D
102
{ACAD_REACTORS
330
C
102
}
330
C
100
AcDbDictionary
281
     1
  0
DICTIONARY
  5
19
102
{ACAD_REACTORS
330
C
102
}
330
C
100
AcDbDictionary
281
     1
  3
Layout1
350
1D
  3
Model
350
21
  0
DICTIONARY
  5
16
102
{ACAD_REACTORS
330
C
102
}
330
C
100
AcDbDictionary
281
     1
  3
Standard
350
17
  0
DICTIONARY
  5
18
102
{ACAD_REACTORS
330
C
102
}
330
C
100
AcDbDictionary
281
     1
  0
ACDBDICTIONARYWDFLT
  5
E
102
{ACAD_REACTORS
330
C
102
}
330
C
100
AcDbDictionary
281
     1
  3
Normal
350
F
100
AcDbDictionaryWithDefault
340
F
  0
DICTIONARY
  5
63B
102
{ACAD_REACTORS
330
C
102
}
330
C
100
AcDbDictionary
281
     1
  3
DIMASSOC
350
63C
  0
LAYOUT
  5
1D
102
{ACAD_REACTORS
330
19
102
}
330
19
100
AcDbPlotSettings
  1

  2
C:\Programme\AutoCAD LT 2002 Deu\plotters\DWF ePlot (optimized for plotting).pc3
  4

  6

 40
0.0
 41
0.0
 42
0.0
 43
0.0
 44
0.0
 45
0.0
 46
0.0
 47
0.0
 48
0.0
 49
0.0
140
0.0
141
0.0
142
1.0
143
1.0
 70
   688
 72
     0
 73
     0
 74
     5
  7

 75
    16
147
1.0
148
0.0
149
0.0
100
AcDbLayout
  1
Layout1
 70
     1
 71
     1
 10
0.0
 20
0.0
 11
12.0
 21
9.0
 12
0.0
 22
0.0
 32
0.0
 14
1.000000000000000E+20
 24
1.000000000000000E+20
 34
1.000000000000000E+20
 15
-1.000000000000000E+20
 25
-1.000000000000000E+20
 35
-1.000000000000000E+20
146
0.0
 13
0.0
 23
0.0
 33
0.0
 16
1.0
 26
0.0
 36
0.0
 17
0.0
 27
1.0
 37
0.0
 76
     0
330
1A
  0
LAYOUT
  5
21
102
{ACAD_REACTORS
330
19
102
}
330
19
100
AcDbPlotSettings
  1

  2
C:\Programme\AutoCAD LT 2002 Deu\plotters\DWF ePlot (optimized for plotting).pc3
  4

  6

 40
0.0
 41
0.0
 42
0.0
 43
0.0
 44
0.0
 45
0.0
 46
0.0
 47
0.0
 48
0.0
 49
0.0
140
0.0
141
0.0
142
1.0
143
1.0
 70
  1712
 72
     0
 73
     0
 74
     0
  7

 75
     0
147
1.0
148
0.0
149
0.0
100
AcDbLayout
  1
Model
 70
     1
 71
     0
 10
0.0
 20
0.0
 11
12.0
 21
9.0
 12
0.0
 22
0.0
 32
0.0
 14
0.0
 24
0.0
 34
0.0
 15
0.0
 25
0.0
 35
0.0
146
0.0
 13
0.0
 23
0.0
 33
0.0
 16
1.0
 26
0.0
 36
0.0
 17
0.0
 27
1.0
 37
0.0
 76
     0
330
1E
  0
MLINESTYLE
  5
17
102
{ACAD_REACTORS
330
16
102
}
330
16
100
AcDbMlineStyle
  2
STANDARD
 70
     0
  3

 62
   256
 51
90.0
 52
90.0
 71
     2
 49
0.5
 62
   256
  6
BYLAYER
 49
-0.5
 62
   256
  6
BYLAYER
  0
ACDBPLACEHOLDER
  5
F
102
{ACAD_REACTORS
330
E
102
}
330
E
  0
DICTIONARYVAR
  5
63C
102
{ACAD_REACTORS
330
63B
102
}
330
63B
100
DictionaryVariables
280
     0
  1
1
  0
ENDSEC
  0
EOF
