  0
SECTION
  2
HEADER
  9
$ACADVER
  1
AC1015
  9
$ACADMAINTVER
 70
    13
  9
$DWGCODEPAGE
  3
ANSI_1252
  9
$INSBASE
 10
0.0
 20
0.0
 30
0.0
  9
$EXTMIN
 10
0.0
 20
-0.0000000000000005
 30
0.0
  9
$EXTMAX
 10
268.0
 20
68.0
 30
0.0
  9
$LIMMIN
 10
0.0
 20
0.0
  9
$LIMMAX
 10
12.0
 20
9.0
  9
$ORTHOMODE
 70
     0
  9
$REGENMODE
 70
     1
  9
$FILLMODE
 70
     1
  9
$QTEXTMODE
 70
     0
  9
$MIRRTEXT
 70
     1
  9
$LTSCALE
 40
1.0
  9
$ATTMODE
 70
     1
  9
$TEXTSIZE
 40
0.2
  9
$TRACEWID
 40
0.05
  9
$TEXTSTYLE
  7
Standard
  9
$CLAYER
  8
0
  9
$CELTYPE
  6
Continuous
  9
$CECOLOR
 62
   256
  9
$CELTSCALE
 40
1.0
  9
$DISPSILH
 70
     0
  9
$DIMSCALE
 40
1.0
  9
$DIMASZ
 40
0.18
  9
$DIMEXO
 40
0.0625
  9
$DIMDLI
 40
0.38
  9
$DIMRND
 40
0.0
  9
$DIMDLE
 40
0.0
  9
$DIMEXE
 40
0.18
  9
$DIMTP
 40
0.0
  9
$DIMTM
 40
0.0
  9
$DIMTXT
 40
0.18
  9
$DIMCEN
 40
0.09
  9
$DIMTSZ
 40
0.0
  9
$DIMTOL
 70
     0
  9
$DIMLIM
 70
     0
  9
$DIMTIH
 70
     1
  9
$DIMTOH
 70
     1
  9
$DIMSE1
 70
     0
  9
$DIMSE2
 70
     0
  9
$DIMTAD
 70
     0
  9
$DIMZIN
 70
     0
  9
$DIMBLK
  1

  9
$DIMASO
 70
     1
  9
$DIMSHO
 70
     1
  9
$DIMPOST
  1

  9
$DIMAPOST
  1

  9
$DIMALT
 70
     0
  9
$DIMALTD
 70
     2
  9
$DIMALTF
 40
25.4
  9
$DIMLFAC
 40
1.0
  9
$DIMTOFL
 70
     0
  9
$DIMTVP
 40
0.0
  9
$DIMTIX
 70
     0
  9
$DIMSOXD
 70
     0
  9
$DIMSAH
 70
     0
  9
$DIMBLK1
  1

  9
$DIMBLK2
  1

  9
$DIMSTYLE
  2
Standard
  9
$DIMCLRD
 70
     0
  9
$DIMCLRE
 70
     0
  9
$DIMCLRT
 70
     0
  9
$DIMTFAC
 40
1.0
  9
$DIMGAP
 40
0.09
  9
$DIMJUST
 70
     0
  9
$DIMSD1
 70
     0
  9
$DIMSD2
 70
     0
  9
$DIMTOLJ
 70
     1
  9
$DIMTZIN
 70
     0
  9
$DIMALTZ
 70
     0
  9
$DIMALTTZ
 70
     0
  9
$DIMUPT
 70
     0
  9
$DIMDEC
 70
     4
  9
$DIMTDEC
 70
     4
  9
$DIMALTU
 70
     2
  9
$DIMALTTD
 70
     2
  9
$DIMTXSTY
  7
Standard
  9
$DIMAUNIT
 70
     0
  9
$DIMADEC
 70
     0
  9
$DIMALTRND
 40
0.0
  9
$DIMAZIN
 70
     0
  9
$DIMDSEP
 70
    46
  9
$DIMATFIT
 70
     3
  9
$DIMFRAC
 70
     0
  9
$DIMLDRBLK
  1

  9
$DIMLUNIT
 70
     2
  9
$DIMLWD
 70
    -2
  9
$DIMLWE
 70
    -2
  9
$DIMTMOVE
 70
     0
  9
$LUNITS
 70
     2
  9
$LUPREC
 70
     4
  9
$SKETCHINC
 40
0.1
  9
$FILLETRAD
 40
0.0
  9
$AUNITS
 70
     0
  9
$AUPREC
 70
     0
  9
$MENU
  1
.
  9
$ELEVATION
 40
0.0
  9
$PELEVATION
 40
0.0
  9
$THICKNESS
 40
0.0
  9
$LIMCHECK
 70
     0
  9
$CHAMFERA
 40
0.0
  9
$CHAMFERB
 40
0.0
  9
$CHAMFERC
 40
0.0
  9
$CHAMFERD
 40
0.0
  9
$SKPOLY
 70
     0
  9
$TDCREATE
 40
2455509.350113206
  9
$TDUCREATE
 40
2455509.308446540
  9
$TDUPDATE
 40
2455509.355892106
  9
$TDUUPDATE
 40
2455509.314225440
  9
$TDINDWG
 40
0.0057789005
  9
$TDUSRTIMER
 40
0.0057789005
  9
$USRTIMER
 70
     1
  9
$ANGBASE
 50
0.0
  9
$ANGDIR
 70
     0
  9
$PDMODE
 70
     0
  9
$PDSIZE
 40
0.0
  9
$PLINEWID
 40
0.0
  9
$SPLFRAME
 70
     0
  9
$SPLINETYPE
 70
     6
  9
$SPLINESEGS
 70
     8
  9
$HANDSEED
  5
380
  9
$SURFTAB1
 70
     6
  9
$SURFTAB2
 70
     6
  9
$SURFTYPE
 70
     6
  9
$SURFU
 70
     6
  9
$SURFV
 70
     6
  9
$UCSBASE
  2

  9
$UCSNAME
  2

  9
$UCSORG
 10
0.0
 20
0.0
 30
0.0
  9
$UCSXDIR
 10
1.0
 20
0.0
 30
0.0
  9
$UCSYDIR
 10
0.0
 20
1.0
 30
0.0
  9
$UCSORTHOREF
  2

  9
$UCSORTHOVIEW
 70
     1
  9
$UCSORGTOP
 10
0.0
 20
0.0
 30
0.0
  9
$UCSORGBOTTOM
 10
0.0
 20
0.0
 30
0.0
  9
$UCSORGLEFT
 10
0.0
 20
0.0
 30
0.0
  9
$UCSORGRIGHT
 10
0.0
 20
0.0
 30
0.0
  9
$UCSORGFRONT
 10
0.0
 20
0.0
 30
0.0
  9
$UCSORGBACK
 10
0.0
 20
0.0
 30
0.0
  9
$PUCSBASE
  2

  9
$PUCSNAME
  2

  9
$PUCSORG
 10
0.0
 20
0.0
 30
0.0
  9
$PUCSXDIR
 10
1.0
 20
0.0
 30
0.0
  9
$PUCSYDIR
 10
0.0
 20
1.0
 30
0.0
  9
$PUCSORTHOREF
  2

  9
$PUCSORTHOVIEW
 70
     0
  9
$PUCSORGTOP
 10
0.0
 20
0.0
 30
0.0
  9
$PUCSORGBOTTOM
 10
0.0
 20
0.0
 30
0.0
  9
$PUCSORGLEFT
 10
0.0
 20
0.0
 30
0.0
  9
$PUCSORGRIGHT
 10
0.0
 20
0.0
 30
0.0
  9
$PUCSORGFRONT
 10
0.0
 20
0.0
 30
0.0
  9
$PUCSORGBACK
 10
0.0
 20
0.0
 30
0.0
  9
$USERI1
 70
     0
  9
$USERI2
 70
     0
  9
$USERI3
 70
     0
  9
$USERI4
 70
     0
  9
$USERI5
 70
     0
  9
$USERR1
 40
0.0
  9
$USERR2
 40
0.0
  9
$USERR3
 40
0.0
  9
$USERR4
 40
0.0
  9
$USERR5
 40
0.0
  9
$WORLDVIEW
 70
     1
  9
$SHADEDGE
 70
     3
  9
$SHADEDIF
 70
    70
  9
$TILEMODE
 70
     1
  9
$MAXACTVP
 70
    64
  9
$PINSBASE
 10
0.0
 20
0.0
 30
0.0
  9
$PLIMCHECK
 70
     0
  9
$PEXTMIN
 10
1.000000000000000E+20
 20
1.000000000000000E+20
 30
1.000000000000000E+20
  9
$PEXTMAX
 10
-1.000000000000000E+20
 20
-1.000000000000000E+20
 30
-1.000000000000000E+20
  9
$PLIMMIN
 10
0.0
 20
0.0
  9
$PLIMMAX
 10
12.0
 20
9.0
  9
$UNITMODE
 70
     0
  9
$VISRETAIN
 70
     1
  9
$PLINEGEN
 70
     0
  9
$PSLTSCALE
 70
     1
  9
$TREEDEPTH
 70
  3020
  9
$CMLSTYLE
  2
Standard
  9
$CMLJUST
 70
     0
  9
$CMLSCALE
 40
1.0
  9
$PROXYGRAPHICS
 70
     1
  9
$MEASUREMENT
 70
     0
  9
$CELWEIGHT
370
    -1
  9
$ENDCAPS
280
     0
  9
$JOINSTYLE
280
     0
  9
$LWDISPLAY
290
     0
  9
$INSUNITS
 70
     0
  9
$HYPERLINKBASE
  1

  9
$STYLESHEET
  1

  9
$XEDIT
290
     1
  9
$CEPSNTYPE
380
     0
  9
$PSTYLEMODE
290
     1
  9
$FINGERPRINTGUID
  2
{88DF4C43-F6B5-4716-805B-EFE8945CE74F}
  9
$VERSIONGUID
  2
{C095C1A0-90E1-4829-933F-44692BE6C161}
  9
$EXTNAMES
290
     1
  9
$PSVPSCALE
 40
0.0
  9
$OLESTARTUP
290
     0
  0
ENDSEC
  0
SECTION
  2
CLASSES
  0
CLASS
  1
ACDBDICTIONARYWDFLT
  2
AcDbDictionaryWithDefault
  3
AutoCAD 2000
 90
        0
280
     0
281
     0
  0
CLASS
  1
ACDBPLACEHOLDER
  2
AcDbPlaceHolder
  3
AutoCAD 2000
 90
        0
280
     0
281
     0
  0
CLASS
  1
LAYOUT
  2
AcDbLayout
  3
AutoCAD 2000
 90
        0
280
     0
281
     0
  0
CLASS
  1
DICTIONARYVAR
  2
AcDbDictionaryVar
  3
AutoCAD 2000
 90
        0
280
     0
281
     0
  0
ENDSEC
  0
SECTION
  2
TABLES
  0
TABLE
  2
VPORT
  5
8
330
0
100
AcDbSymbolTable
 70
     4
  0
VPORT
  5
37F
330
8
100
AcDbSymbolTableRecord
100
AcDbViewportTableRecord
  2
*Active
 70
     0
 10
0.0
 20
0.0
 11
1.0
 21
1.0
 12
134.0
 22
34.0
 13
0.0
 23
0.0
 14
1.0
 24
1.0
 15
0.0
 25
0.0
 16
0.0
 26
0.0
 36
1.0
 17
0.0
 27
0.0
 37
0.0
 40
129.6805277564368
 41
2.073363431151241
 42
50.0
 43
0.0
 44
0.0
 50
0.0
 51
0.0
 71
     0
 72
   100
 73
     1
 74
     3
 75
     0
 76
     0
 77
     0
 78
     0
281
     0
 65
     1
110
0.0
120
0.0
130
0.0
111
1.0
121
0.0
131
0.0
112
0.0
122
1.0
132
0.0
 79
     1
146
0.0
  0
ENDTAB
  0
TABLE
  2
LTYPE
  5
5
330
0
100
AcDbSymbolTable
 70
     1
  0
LTYPE
  5
13
330
5
100
AcDbSymbolTableRecord
100
AcDbLinetypeTableRecord
  2
ByBlock
 70
     0
  3

 72
    65
 73
     0
 40
0.0
  0
LTYPE
  5
14
330
5
100
AcDbSymbolTableRecord
100
AcDbLinetypeTableRecord
  2
ByLayer
 70
     0
  3

 72
    65
 73
     0
 40
0.0
  0
LTYPE
  5
15
330
5
100
AcDbSymbolTableRecord
100
AcDbLinetypeTableRecord
  2
Continuous
 70
     0
  3
Solid line
 72
    65
 73
     0
 40
0.0
  0
ENDTAB
  0
TABLE
  2
LAYER
  5
2
330
0
100
AcDbSymbolTable
 70
     1
  0
LAYER
  5
10
330
2
100
AcDbSymbolTableRecord
100
AcDbLayerTableRecord
  2
0
 70
     0
 62
     7
  6
Continuous
370
    -3
390
F
  0
ENDTAB
  0
TABLE
  2
STYLE
  5
3
330
0
100
AcDbSymbolTable
 70
     1
  0
STYLE
  5
11
330
3
100
AcDbSymbolTableRecord
100
AcDbTextStyleTableRecord
  2
Standard
 70
     0
 40
0.0
 41
1.0
 50
0.0
 71
     0
 42
0.2
  3
txt
  4

  0
ENDTAB
  0
TABLE
  2
VIEW
  5
6
330
0
100
AcDbSymbolTable
 70
     0
  0
ENDTAB
  0
TABLE
  2
UCS
  5
7
330
0
100
AcDbSymbolTable
 70
     0
  0
ENDTAB
  0
TABLE
  2
APPID
  5
9
330
0
100
AcDbSymbolTable
 70
     1
  0
APPID
  5
12
330
9
100
AcDbSymbolTableRecord
100
AcDbRegAppTableRecord
  2
ACAD
 70
     0
  0
ENDTAB
  0
TABLE
  2
DIMSTYLE
  5
A
330
0
100
AcDbSymbolTable
 70
     1
100
AcDbDimStyleTable
 71
     0
  0
DIMSTYLE
105
2D1
330
A
100
AcDbSymbolTableRecord
100
AcDbDimStyleTableRecord
  2
Standard
 70
     0
340
11
  0
ENDTAB
  0
TABLE
  2
BLOCK_RECORD
  5
1
330
0
100
AcDbSymbolTable
 70
     0
  0
BLOCK_RECORD
  5
1E
330
1
100
AcDbSymbolTableRecord
100
AcDbBlockTableRecord
  2
*Model_Space
340
21
  0
BLOCK_RECORD
  5
1A
330
1
100
AcDbSymbolTableRecord
100
AcDbBlockTableRecord
  2
*Paper_Space
340
1D
  0
ENDTAB
  0
ENDSEC
  0
SECTION
  2
BLOCKS
  0
BLOCK
  5
1F
330
1E
100
AcDbEntity
  8
0
100
AcDbBlockBegin
  2
*Model_Space
 70
     0
 10
0.0
 20
0.0
 30
0.0
  3
*Model_Space
  1

  0
ENDBLK
  5
20
330
1E
100
AcDbEntity
  8
0
100
AcDbBlockEnd
  0
BLOCK
  5
1B
330
1A
100
AcDbEntity
 67
     1
  8
0
100
AcDbBlockBegin
  2
*Paper_Space
 70
     0
 10
0.0
 20
0.0
 30
0.0
  3
*Paper_Space
  1

  0
ENDBLK
  5
1C
330
1A
100
AcDbEntity
 67
     1
  8
0
100
AcDbBlockEnd
  0
ENDSEC
  0
SECTION
  2
ENTITIES
  0
LINE
  5
22
330
1E
100
AcDbEntity
  8
0
100
AcDbLine
 10
20.0
 20
2.0
 30
0.0
 11
20.0
 21
3.397560975609759
 31
0.0
  0
LINE
  5
23
330
1E
100
AcDbEntity
  8
0
100
AcDbLine
 10
20.0
 20
2.0
 30
0.0
 11
22.0
 21
2.0
 31
0.0
  0
LINE
  5
24
330
1E
100
AcDbEntity
  8
0
100
AcDbLine
 10
20.0
 20
2.0
 30
0.0
 11
20.0
 21
3.397560975609759
 31
0.0
  0
LINE
  5
25
330
1E
100
AcDbEntity
  8
0
100
AcDbLine
 10
20.0
 20
2.0
 30
0.0
 11
22.0
 21
2.0
 31
0.0
  0
LINE
  5
26
330
1E
100
AcDbEntity
  8
0
100
AcDbLine
 10
21.468
 20
2.0
 30
0.0
 11
22.71599999999999
 21
2.0
 31
0.0
  0
LINE
  5
27
330
1E
100
AcDbEntity
  8
0
100
AcDbLine
 10
22.71599999999999
 20
2.0
 30
0.0
 11
23.3705882352941
 21
2.0
 31
0.0
  0
LINE
  5
28
330
1E
100
AcDbEntity
  8
0
100
AcDbLine
 10
23.25829999999999
 20
2.0
 30
0.0
 11
23.3705882352941
 21
2.0
 31
0.0
  0
LINE
  5
29
330
1E
100
AcDbEntity
  8
0
100
AcDbLine
 10
23.25829999999999
 20
2.0
 30
0.0
 11
23.3705882352941
 21
2.0
 31
0.0
  0
LINE
  5
2A
330
1E
100
AcDbEntity
  8
0
100
AcDbLine
 10
22.85709999999999
 20
2.0
 30
0.0
 11
23.25829999999999
 21
2.0
 31
0.0
  0
LINE
  5
2B
330
1E
100
AcDbEntity
  8
0
100
AcDbLine
 10
22.85709999999999
 20
2.0
 30
0.0
 11
23.25829999999999
 21
2.0
 31
0.0
  0
LINE
  5
2C
330
1E
100
AcDbEntity
  8
0
100
AcDbLine
 10
21.468
 20
2.0
 30
0.0
 11
22.71599999999999
 21
2.0
 31
0.0
  0
LINE
  5
2D
330
1E
100
AcDbEntity
  8
0
100
AcDbLine
 10
20.0
 20
3.397560975609759
 30
0.0
 11
20.0
 21
2.0
 31
0.0
  0
LINE
  5
2E
330
1E
100
AcDbEntity
  8
0
100
AcDbLine
 10
22.71599999999999
 20
2.0
 30
0.0
 11
23.3705882352941
 21
2.0
 31
0.0
  0
LINE
  5
2F
330
1E
100
AcDbEntity
  8
0
100
AcDbLine
 10
21.0
 20
2.0
 30
0.0
 11
21.468
 21
2.0
 31
0.0
  0
LINE
  5
30
330
1E
100
AcDbEntity
  8
0
100
AcDbLine
 10
21.0
 20
2.0
 30
0.0
 11
21.468
 21
2.0
 31
0.0
  0
LINE
  5
31
330
1E
100
AcDbEntity
  8
0
100
AcDbLine
 10
25.3
 20
1.199999999999999
 30
0.0
 11
34.0
 21
-0.0000000000000002
 31
0.0
  0
LINE
  5
32
330
1E
100
AcDbEntity
  8
0
100
AcDbLine
 10
25.3
 20
1.199999999999999
 30
0.0
 11
34.0
 21
-0.0000000000000002
 31
0.0
  0
LINE
  5
35
330
1E
100
AcDbEntity
  8
0
100
AcDbLine
 10
17.1
 20
4.599999999999999
 30
0.0
 11
25.3
 21
1.199999999999999
 31
0.0
  0
LINE
  5
36
330
1E
100
AcDbEntity
  8
0
100
AcDbLine
 10
17.1
 20
4.599999999999999
 30
0.0
 11
25.3
 21
1.199999999999999
 31
0.0
  0
LINE
  5
37
330
1E
100
AcDbEntity
  8
0
100
AcDbLine
 10
134.0
 20
-0.0000000000000002
 30
0.0
 11
142.6999999999999
 21
1.199999999999999
 31
0.0
  0
LINE
  5
38
330
1E
100
AcDbEntity
  8
0
100
AcDbLine
 10
134.0
 20
-0.0000000000000002
 30
0.0
 11
142.6999999999999
 21
1.199999999999999
 31
0.0
  0
LINE
  5
3B
330
1E
100
AcDbEntity
  8
0
100
AcDbLine
 10
34.0
 20
-0.0000000000000002
 30
0.0
 11
42.7
 21
1.199999999999999
 31
0.0
  0
LINE
  5
40
330
1E
100
AcDbEntity
  8
0
100
AcDbLine
 10
42.7
 20
1.199999999999999
 30
0.0
 11
50.89999999999999
 21
4.599999999999999
 31
0.0
  0
LINE
  5
42
330
1E
100
AcDbEntity
  8
0
100
AcDbLine
 10
42.7
 20
1.199999999999999
 30
0.0
 11
50.89999999999999
 21
4.599999999999999
 31
0.0
  0
LINE
  5
44
330
1E
100
AcDbEntity
  8
0
100
AcDbLine
 10
142.6999999999999
 20
1.199999999999999
 30
0.0
 11
150.9
 21
4.599999999999999
 31
0.0
  0
LINE
  5
46
330
1E
100
AcDbEntity
  8
0
100
AcDbLine
 10
44.62941176470589
 20
2.0
 30
0.0
 11
44.74169999999999
 21
2.0
 31
0.0
  0
LINE
  5
47
330
1E
100
AcDbEntity
  8
0
100
AcDbLine
 10
44.74169999999999
 20
2.0
 30
0.0
 11
45.14289999999999
 21
2.0
 31
0.0
  0
LINE
  5
48
330
1E
100
AcDbEntity
  8
0
100
AcDbLine
 10
44.62941176470589
 20
2.0
 30
0.0
 11
45.284
 21
2.0
 31
0.0
  0
LINE
  5
49
330
1E
100
AcDbEntity
  8
0
100
AcDbLine
 10
44.62941176470589
 20
2.0
 30
0.0
 11
44.74169999999999
 21
2.0
 31
0.0
  0
LINE
  5
4A
330
1E
100
AcDbEntity
  8
0
100
AcDbLine
 10
46.0
 20
2.0
 30
0.0
 11
48.0
 21
2.0
 31
0.0
  0
LINE
  5
4B
330
1E
100
AcDbEntity
  8
0
100
AcDbLine
 10
45.284
 20
2.0
 30
0.0
 11
46.532
 21
2.0
 31
0.0
  0
LINE
  5
4C
330
1E
100
AcDbEntity
  8
0
100
AcDbLine
 10
46.0
 20
2.0
 30
0.0
 11
48.0
 21
2.0
 31
0.0
  0
LINE
  5
4D
330
1E
100
AcDbEntity
  8
0
100
AcDbLine
 10
48.0
 20
2.0
 30
0.0
 11
48.0
 21
3.397560975609759
 31
0.0
  0
LINE
  5
4E
330
1E
100
AcDbEntity
  8
0
100
AcDbLine
 10
46.532
 20
2.0
 30
0.0
 11
47.0
 21
2.0
 31
0.0
  0
LINE
  5
4F
330
1E
100
AcDbEntity
  8
0
100
AcDbLine
 10
44.74169999999999
 20
2.0
 30
0.0
 11
45.14289999999999
 21
2.0
 31
0.0
  0
LINE
  5
50
330
1E
100
AcDbEntity
  8
0
100
AcDbLine
 10
44.62941176470589
 20
2.0
 30
0.0
 11
45.284
 21
2.0
 31
0.0
  0
LINE
  5
51
330
1E
100
AcDbEntity
  8
0
100
AcDbLine
 10
48.0
 20
3.397560975609759
 30
0.0
 11
48.0
 21
2.0
 31
0.0
  0
LINE
  5
52
330
1E
100
AcDbEntity
  8
0
100
AcDbLine
 10
45.284
 20
2.0
 30
0.0
 11
46.532
 21
2.0
 31
0.0
  0
LINE
  5
53
330
1E
100
AcDbEntity
  8
0
100
AcDbLine
 10
46.532
 20
2.0
 30
0.0
 11
47.0
 21
2.0
 31
0.0
  0
LINE
  5
54
330
1E
100
AcDbEntity
  8
0
100
AcDbLine
 10
142.6999999999999
 20
1.199999999999999
 30
0.0
 11
150.9
 21
4.599999999999999
 31
0.0
  0
LINE
  5
66
330
1E
100
AcDbEntity
  8
0
100
AcDbLine
 10
150.9
 20
4.599999999999999
 30
0.0
 11
158.0
 21
10.0
 31
0.0
  0
LINE
  5
6A
330
1E
100
AcDbEntity
  8
0
100
AcDbLine
 10
125.2999999999999
 20
1.199999999999999
 30
0.0
 11
134.0
 21
-0.0000000000000002
 31
0.0
  0
LINE
  5
6C
330
1E
100
AcDbEntity
  8
0
100
AcDbLine
 10
125.2999999999999
 20
1.199999999999999
 30
0.0
 11
134.0
 21
-0.0000000000000002
 31
0.0
  0
LINE
  5
6D
330
1E
100
AcDbEntity
  8
0
100
AcDbLine
 10
117.1
 20
4.599999999999999
 30
0.0
 11
125.2999999999999
 21
1.199999999999999
 31
0.0
  0
LINE
  5
6E
330
1E
100
AcDbEntity
  8
0
100
AcDbLine
 10
117.1
 20
4.599999999999999
 30
0.0
 11
125.2999999999999
 21
1.199999999999999
 31
0.0
  0
LINE
  5
6F
330
1E
100
AcDbEntity
  8
0
100
AcDbLine
 10
125.2999999999999
 20
1.199999999999999
 30
0.0
 11
134.0
 21
-0.0000000000000005
 31
0.0
  0
LINE
  5
70
330
1E
100
AcDbEntity
  8
0
100
AcDbLine
 10
125.2999999999999
 20
1.199999999999999
 30
0.0
 11
134.0
 21
-0.0000000000000005
 31
0.0
  0
LINE
  5
8F
330
1E
100
AcDbEntity
  8
0
100
AcDbLine
 10
158.0
 20
10.0
 30
0.0
 11
163.4
 21
17.1
 31
0.0
  0
LINE
  5
93
330
1E
100
AcDbEntity
  8
0
100
AcDbLine
 10
110.0
 20
10.0
 30
0.0
 11
117.1
 21
4.599999999999999
 31
0.0
  0
LINE
  5
9C
330
1E
100
AcDbEntity
  8
0
100
AcDbLine
 10
50.89999999999999
 20
4.599999999999999
 30
0.0
 11
58.0
 21
10.0
 31
0.0
  0
LINE
  5
A7
330
1E
100
AcDbEntity
  8
0
100
AcDbLine
 10
58.0
 20
10.0
 30
0.0
 11
63.39999999999999
 21
17.1
 31
0.0
  0
LINE
  5
AA
330
1E
100
AcDbEntity
  8
0
100
AcDbLine
 10
34.0
 20
-0.0000000000000002
 30
0.0
 11
42.7
 21
1.199999999999999
 31
0.0
  0
LINE
  5
AB
330
1E
100
AcDbEntity
  8
0
100
AcDbLine
 10
25.3
 20
1.199999999999999
 30
0.0
 11
34.0
 21
-0.0000000000000005
 31
0.0
  0
LINE
  5
AC
330
1E
100
AcDbEntity
  8
0
100
AcDbLine
 10
25.3
 20
1.199999999999999
 30
0.0
 11
34.0
 21
-0.0000000000000005
 31
0.0
  0
LINE
  5
AF
330
1E
100
AcDbEntity
  8
0
100
AcDbLine
 10
34.0
 20
17.0
 30
0.0
 11
38.39999999999999
 21
17.6
 31
0.0
  0
LINE
  5
B0
330
1E
100
AcDbEntity
  8
0
100
AcDbLine
 10
29.19999999999999
 20
16.2
 30
0.0
 11
34.0
 21
15.5
 31
0.0
  0
LINE
  5
B2
330
1E
100
AcDbEntity
  8
0
100
AcDbLine
 10
34.0
 20
15.5
 30
0.0
 11
38.79999999999999
 21
16.2
 31
0.0
  0
LINE
  5
BE
330
1E
100
AcDbEntity
  8
0
100
AcDbLine
 10
163.4
 20
17.1
 30
0.0
 11
166.8
 21
25.3
 31
0.0
  0
LINE
  5
BF
330
1E
100
AcDbEntity
  8
0
100
AcDbLine
 10
104.6
 20
17.1
 30
0.0
 11
110.0
 21
10.0
 31
0.0
  0
LINE
  5
C3
330
1E
100
AcDbEntity
  8
0
100
AcDbLine
 10
63.39999999999999
 20
17.1
 30
0.0
 11
66.79999999999999
 21
25.3
 31
0.0
  0
LINE
  5
C4
330
1E
100
AcDbEntity
  8
0
100
AcDbLine
 10
38.79999999999999
 20
16.2
 30
0.0
 11
43.2
 21
18.0
 31
0.0
  0
LINE
  5
C9
330
1E
100
AcDbEntity
  8
0
100
AcDbLine
 10
10.0
 20
10.0
 30
0.0
 11
17.1
 21
4.599999999999999
 31
0.0
  0
LINE
  5
CC
330
1E
100
AcDbEntity
  8
0
100
AcDbLine
 10
18.0
 20
24.8
 30
0.0
 11
21.0
 21
21.0
 31
0.0
  0
LINE
  5
CE
330
1E
100
AcDbEntity
  8
0
100
AcDbLine
 10
38.3
 20
17.9
 30
0.0
 11
42.29999999999999
 21
19.5
 31
0.0
  0
LINE
  5
CF
330
1E
100
AcDbEntity
  8
0
100
AcDbLine
 10
34.0
 20
17.3
 30
0.0
 11
38.3
 21
17.9
 31
0.0
  0
LINE
  5
D0
330
1E
100
AcDbEntity
  8
0
100
AcDbLine
 10
38.39999999999999
 20
17.6
 30
0.0
 11
42.5
 21
19.3
 31
0.0
  0
LINE
  5
D1
330
1E
100
AcDbEntity
  8
0
100
AcDbLine
 10
29.7
 20
17.9
 30
0.0
 11
34.0
 21
17.3
 31
0.0
  0
LINE
  5
D2
330
1E
100
AcDbEntity
  8
0
100
AcDbLine
 10
29.6
 20
17.6
 30
0.0
 11
34.0
 21
17.0
 31
0.0
  0
LINE
  5
D3
330
1E
100
AcDbEntity
  8
0
100
AcDbLine
 10
42.29999999999999
 20
19.5
 30
0.0
 11
45.8
 21
22.2
 31
0.0
  0
LINE
  5
D4
330
1E
100
AcDbEntity
  8
0
100
AcDbLine
 10
42.5
 20
19.3
 30
0.0
 11
46.0
 21
22.0
 31
0.0
  0
LINE
  5
D5
330
1E
100
AcDbEntity
  8
0
100
AcDbLine
 10
25.7
 20
19.5
 30
0.0
 11
29.7
 21
17.9
 31
0.0
  0
LINE
  5
D6
330
1E
100
AcDbEntity
  8
0
100
AcDbLine
 10
25.5
 20
19.3
 30
0.0
 11
29.6
 21
17.6
 31
0.0
  0
LINE
  5
D7
330
1E
100
AcDbEntity
  8
0
100
AcDbLine
 10
24.8
 20
18.0
 30
0.0
 11
29.19999999999999
 21
16.2
 31
0.0
  0
LINE
  5
D8
330
1E
100
AcDbEntity
  8
0
100
AcDbLine
 10
43.2
 20
18.0
 30
0.0
 11
47.0
 21
21.0
 31
0.0
  0
LINE
  5
100
330
1E
100
AcDbEntity
  8
0
100
AcDbLine
 10
46.0
 20
22.0
 30
0.0
 11
48.7
 21
25.5
 31
0.0
  0
LINE
  5
103
330
1E
100
AcDbEntity
  8
0
100
AcDbLine
 10
66.0
 20
21.0
 30
0.0
 11
66.0
 21
21.468
 31
0.0
  0
LINE
  5
104
330
1E
100
AcDbEntity
  8
0
100
AcDbLine
 10
65.0170731707317
 20
21.0
 30
0.0
 11
66.0
 21
21.0
 31
0.0
  0
LINE
  5
108
330
1E
100
AcDbEntity
  8
0
100
AcDbLine
 10
66.0
 20
21.468
 30
0.0
 11
66.0
 21
21.0
 31
0.0
  0
LINE
  5
109
330
1E
100
AcDbEntity
  8
0
100
AcDbLine
 10
66.0
 20
21.468
 30
0.0
 11
66.0
 21
22.71599999999999
 31
0.0
  0
LINE
  5
10D
330
1E
100
AcDbEntity
  8
0
100
AcDbLine
 10
47.0
 20
21.0
 30
0.0
 11
50.0
 21
24.8
 31
0.0
  0
LINE
  5
113
330
1E
100
AcDbEntity
  8
0
100
AcDbLine
 10
66.0
 20
22.71599999999999
 30
0.0
 11
66.0
 21
21.468
 31
0.0
  0
LINE
  5
114
330
1E
100
AcDbEntity
  8
0
100
AcDbLine
 10
66.0
 20
22.71599999999999
 30
0.0
 11
66.0
 21
23.3705882352941
 31
0.0
  0
LINE
  5
117
330
1E
100
AcDbEntity
  8
0
100
AcDbLine
 10
66.0
 20
23.3705882352941
 30
0.0
 11
66.0
 21
22.71599999999999
 31
0.0
  0
LINE
  5
118
330
1E
100
AcDbEntity
  8
0
100
AcDbLine
 10
66.0
 20
23.0
 30
0.0
 11
102.153658536585
 21
23.0
 31
0.0
  0
LINE
  5
11D
330
1E
100
AcDbEntity
  8
0
100
AcDbLine
 10
45.8
 20
22.2
 30
0.0
 11
48.5
 21
25.7
 31
0.0
  0
LINE
  5
11F
330
1E
100
AcDbEntity
  8
0
100
AcDbLine
 10
50.0
 20
24.8
 30
0.0
 11
51.79999999999999
 21
29.19999999999999
 31
0.0
  0
LINE
  5
120
330
1E
100
AcDbEntity
  8
0
100
AcDbLine
 10
22.2
 20
22.2
 30
0.0
 11
25.7
 21
19.5
 31
0.0
  0
LINE
  5
121
330
1E
100
AcDbEntity
  8
0
100
AcDbLine
 10
22.0
 20
22.0
 30
0.0
 11
25.5
 21
19.3
 31
0.0
  0
LINE
  5
122
330
1E
100
AcDbEntity
  8
0
100
AcDbLine
 10
21.0
 20
21.0
 30
0.0
 11
24.8
 21
18.0
 31
0.0
  0
LINE
  5
126
330
1E
100
AcDbEntity
  8
0
100
AcDbLine
 10
166.8
 20
25.3
 30
0.0
 11
168.0
 21
34.0
 31
0.0
  0
LINE
  5
127
330
1E
100
AcDbEntity
  8
0
100
AcDbLine
 10
101.2
 20
25.3
 30
0.0
 11
104.6
 21
17.1
 31
0.0
  0
LINE
  5
12A
330
1E
100
AcDbEntity
  8
0
100
AcDbLine
 10
66.79999999999999
 20
25.3
 30
0.0
 11
68.0
 21
34.0
 31
0.0
  0
LINE
  5
12D
330
1E
100
AcDbEntity
  8
0
100
AcDbLine
 10
4.599999999999999
 20
17.1
 30
0.0
 11
10.0
 21
10.0
 31
0.0
  0
LINE
  5
12E
330
1E
100
AcDbEntity
  8
0
100
AcDbLine
 10
1.199999999999999
 20
25.3
 30
0.0
 11
4.599999999999999
 21
17.1
 31
0.0
  0
LINE
  5
135
330
1E
100
AcDbEntity
  8
0
100
AcDbLine
 10
15.5
 20
34.0
 30
0.0
 11
16.2
 21
29.19999999999999
 31
0.0
  0
LINE
  5
136
330
1E
100
AcDbEntity
  8
0
100
AcDbLine
 10
15.5
 20
34.0
 30
0.0
 11
16.2
 21
38.79999999999999
 31
0.0
  0
LINE
  5
137
330
1E
100
AcDbEntity
  8
0
100
AcDbLine
 10
1.199999999999999
 20
42.7
 30
0.0
 11
4.599999999999999
 21
50.89999999999999
 31
0.0
  0
LINE
  5
13B
330
1E
100
AcDbEntity
  8
0
100
AcDbLine
 10
1.199999999999999
 20
42.7
 30
0.0
 11
4.599999999999999
 21
50.89999999999999
 31
0.0
  0
LINE
  5
13F
330
1E
100
AcDbEntity
  8
0
100
AcDbLine
 10
16.2
 20
38.79999999999999
 30
0.0
 11
18.0
 21
43.2
 31
0.0
  0
LINE
  5
140
330
1E
100
AcDbEntity
  8
0
100
AcDbLine
 10
17.3
 20
34.0
 30
0.0
 11
17.9
 21
29.7
 31
0.0
  0
LINE
  5
141
330
1E
100
AcDbEntity
  8
0
100
AcDbLine
 10
17.3
 20
34.0
 30
0.0
 11
17.9
 21
38.3
 31
0.0
  0
LINE
  5
142
330
1E
100
AcDbEntity
  8
0
100
AcDbLine
 10
48.7
 20
25.5
 30
0.0
 11
50.4
 21
29.6
 31
0.0
  0
LINE
  5
143
330
1E
100
AcDbEntity
  8
0
100
AcDbLine
 10
48.5
 20
25.7
 30
0.0
 11
50.1
 21
29.7
 31
0.0
  0
LINE
  5
144
330
1E
100
AcDbEntity
  8
0
100
AcDbLine
 10
50.1
 20
29.7
 30
0.0
 11
50.7
 21
34.0
 31
0.0
  0
LINE
  5
145
330
1E
100
AcDbEntity
  8
0
100
AcDbLine
 10
50.4
 20
29.6
 30
0.0
 11
51.0
 21
34.0
 31
0.0
  0
LINE
  5
146
330
1E
100
AcDbEntity
  8
0
100
AcDbLine
 10
51.79999999999999
 20
29.19999999999999
 30
0.0
 11
52.5
 21
34.0
 31
0.0
  0
LINE
  5
147
330
1E
100
AcDbEntity
  8
0
100
AcDbLine
 10
19.5
 20
25.7
 30
0.0
 11
22.2
 21
22.2
 31
0.0
  0
LINE
  5
148
330
1E
100
AcDbEntity
  8
0
100
AcDbLine
 10
17.9
 20
29.7
 30
0.0
 11
19.5
 21
25.7
 31
0.0
  0
LINE
  5
149
330
1E
100
AcDbEntity
  8
0
100
AcDbLine
 10
19.3
 20
25.5
 30
0.0
 11
22.0
 21
22.0
 31
0.0
  0
LINE
  5
14A
330
1E
100
AcDbEntity
  8
0
100
AcDbLine
 10
17.6
 20
29.6
 30
0.0
 11
19.3
 21
25.5
 31
0.0
  0
LINE
  5
14B
330
1E
100
AcDbEntity
  8
0
100
AcDbLine
 10
50.1
 20
38.3
 30
0.0
 11
50.7
 21
34.0
 31
0.0
  0
LINE
  5
14C
330
1E
100
AcDbEntity
  8
0
100
AcDbLine
 10
48.5
 20
42.29999999999999
 30
0.0
 11
50.1
 21
38.3
 31
0.0
  0
LINE
  5
14D
330
1E
100
AcDbEntity
  8
0
100
AcDbLine
 10
50.4
 20
38.39999999999999
 30
0.0
 11
51.0
 21
34.0
 31
0.0
  0
LINE
  5
14E
330
1E
100
AcDbEntity
  8
0
100
AcDbLine
 10
51.79999999999999
 20
38.79999999999999
 30
0.0
 11
52.5
 21
34.0
 31
0.0
  0
LINE
  5
14F
330
1E
100
AcDbEntity
  8
0
100
AcDbLine
 10
48.7
 20
42.5
 30
0.0
 11
50.4
 21
38.39999999999999
 31
0.0
  0
LINE
  5
150
330
1E
100
AcDbEntity
  8
0
100
AcDbLine
 10
19.5
 20
42.29999999999999
 30
0.0
 11
22.2
 21
45.8
 31
0.0
  0
LINE
  5
151
330
1E
100
AcDbEntity
  8
0
100
AcDbLine
 10
17.9
 20
38.3
 30
0.0
 11
19.5
 21
42.29999999999999
 31
0.0
  0
LINE
  5
152
330
1E
100
AcDbEntity
  8
0
100
AcDbLine
 10
19.3
 20
42.5
 30
0.0
 11
22.0
 21
46.0
 31
0.0
  0
LINE
  5
153
330
1E
100
AcDbEntity
  8
0
100
AcDbLine
 10
17.6
 20
38.39999999999999
 30
0.0
 11
19.3
 21
42.5
 31
0.0
  0
LINE
  5
154
330
1E
100
AcDbEntity
  8
0
100
AcDbLine
 10
17.0
 20
34.0
 30
0.0
 11
17.6
 21
29.6
 31
0.0
  0
LINE
  5
155
330
1E
100
AcDbEntity
  8
0
100
AcDbLine
 10
17.0
 20
34.0
 30
0.0
 11
17.6
 21
38.39999999999999
 31
0.0
  0
LINE
  5
156
330
1E
100
AcDbEntity
  8
0
100
AcDbLine
 10
16.2
 20
29.19999999999999
 30
0.0
 11
18.0
 21
24.8
 31
0.0
  0
LINE
  5
157
330
1E
100
AcDbEntity
  8
0
100
AcDbLine
 10
45.8
 20
45.8
 30
0.0
 11
48.5
 21
42.29999999999999
 31
0.0
  0
LINE
  5
158
330
1E
100
AcDbEntity
  8
0
100
AcDbLine
 10
50.0
 20
43.2
 30
0.0
 11
51.79999999999999
 21
38.79999999999999
 31
0.0
  0
LINE
  5
159
330
1E
100
AcDbEntity
  8
0
100
AcDbLine
 10
46.0
 20
46.0
 30
0.0
 11
48.7
 21
42.5
 31
0.0
  0
LINE
  5
15A
330
1E
100
AcDbEntity
  8
0
100
AcDbLine
 10
22.2
 20
45.8
 30
0.0
 11
25.7
 21
48.5
 31
0.0
  0
LINE
  5
15B
330
1E
100
AcDbEntity
  8
0
100
AcDbLine
 10
22.0
 20
46.0
 30
0.0
 11
25.5
 21
48.7
 31
0.0
  0
LINE
  5
15C
330
1E
100
AcDbEntity
  8
0
100
AcDbLine
 10
21.0
 20
47.0
 30
0.0
 11
24.8
 21
50.0
 31
0.0
  0
LINE
  5
15D
330
1E
100
AcDbEntity
  8
0
100
AcDbLine
 10
18.0
 20
43.2
 30
0.0
 11
21.0
 21
47.0
 31
0.0
  0
LINE
  5
162
330
1E
100
AcDbEntity
  8
0
100
AcDbLine
 10
25.7
 20
48.5
 30
0.0
 11
29.7
 21
50.1
 31
0.0
  0
LINE
  5
163
330
1E
100
AcDbEntity
  8
0
100
AcDbLine
 10
25.5
 20
48.7
 30
0.0
 11
29.6
 21
50.4
 31
0.0
  0
LINE
  5
164
330
1E
100
AcDbEntity
  8
0
100
AcDbLine
 10
24.8
 20
50.0
 30
0.0
 11
29.19999999999999
 21
51.79999999999999
 31
0.0
  0
LINE
  5
165
330
1E
100
AcDbEntity
  8
0
100
AcDbLine
 10
42.29999999999999
 20
48.5
 30
0.0
 11
45.8
 21
45.8
 31
0.0
  0
LINE
  5
166
330
1E
100
AcDbEntity
  8
0
100
AcDbLine
 10
42.5
 20
48.7
 30
0.0
 11
46.0
 21
46.0
 31
0.0
  0
LINE
  5
167
330
1E
100
AcDbEntity
  8
0
100
AcDbLine
 10
43.2
 20
50.0
 30
0.0
 11
47.0
 21
47.0
 31
0.0
  0
LINE
  5
16A
330
1E
100
AcDbEntity
  8
0
100
AcDbLine
 10
29.7
 20
50.1
 30
0.0
 11
34.0
 21
50.7
 31
0.0
  0
LINE
  5
16B
330
1E
100
AcDbEntity
  8
0
100
AcDbLine
 10
29.6
 20
50.4
 30
0.0
 11
34.0
 21
51.0
 31
0.0
  0
LINE
  5
16C
330
1E
100
AcDbEntity
  8
0
100
AcDbLine
 10
4.599999999999999
 20
50.89999999999999
 30
0.0
 11
10.0
 21
58.0
 31
0.0
  0
LINE
  5
16D
330
1E
100
AcDbEntity
  8
0
100
AcDbLine
 10
29.19999999999999
 20
51.79999999999999
 30
0.0
 11
34.0
 21
52.5
 31
0.0
  0
LINE
  5
16E
330
1E
100
AcDbEntity
  8
0
100
AcDbLine
 10
34.0
 20
50.7
 30
0.0
 11
38.3
 21
50.1
 31
0.0
  0
LINE
  5
16F
330
1E
100
AcDbEntity
  8
0
100
AcDbLine
 10
34.0
 20
51.0
 30
0.0
 11
38.39999999999999
 21
50.4
 31
0.0
  0
LINE
  5
172
330
1E
100
AcDbEntity
  8
0
100
AcDbLine
 10
10.0
 20
58.0
 30
0.0
 11
17.1
 21
63.39999999999999
 31
0.0
  0
LINE
  5
174
330
1E
100
AcDbEntity
  8
0
100
AcDbLine
 10
20.0
 20
64.60243902439029
 30
0.0
 11
20.0
 21
66.0
 31
0.0
  0
LINE
  5
175
330
1E
100
AcDbEntity
  8
0
100
AcDbLine
 10
20.0
 20
66.0
 30
0.0
 11
20.0
 21
64.60243902439029
 31
0.0
  0
LINE
  5
176
330
1E
100
AcDbEntity
  8
0
100
AcDbLine
 10
20.0
 20
66.0
 30
0.0
 11
21.0
 21
66.0
 31
0.0
  0
LINE
  5
177
330
1E
100
AcDbEntity
  8
0
100
AcDbLine
 10
22.71599999999999
 20
66.0
 30
0.0
 11
23.3705882352941
 21
66.0
 31
0.0
  0
LINE
  5
178
330
1E
100
AcDbEntity
  8
0
100
AcDbLine
 10
21.468
 20
66.0
 30
0.0
 11
22.71599999999999
 21
66.0
 31
0.0
  0
LINE
  5
179
330
1E
100
AcDbEntity
  8
0
100
AcDbLine
 10
21.0
 20
66.0
 30
0.0
 11
21.468
 21
66.0
 31
0.0
  0
LINE
  5
17B
330
1E
100
AcDbEntity
  8
0
100
AcDbLine
 10
17.1
 20
63.39999999999999
 30
0.0
 11
25.3
 21
66.79999999999999
 31
0.0
  0
LINE
  5
17D
330
1E
100
AcDbEntity
  8
0
100
AcDbLine
 10
25.3
 20
66.79999999999999
 30
0.0
 11
34.0
 21
68.0
 31
0.0
  0
LINE
  5
181
330
1E
100
AcDbEntity
  8
0
100
AcDbLine
 10
34.0
 20
68.0
 30
0.0
 11
42.7
 21
66.79999999999999
 31
0.0
  0
LINE
  5
184
330
1E
100
AcDbEntity
  8
0
100
AcDbLine
 10
38.3
 20
50.1
 30
0.0
 11
42.29999999999999
 21
48.5
 31
0.0
  0
LINE
  5
185
330
1E
100
AcDbEntity
  8
0
100
AcDbLine
 10
38.39999999999999
 20
50.4
 30
0.0
 11
42.5
 21
48.7
 31
0.0
  0
LINE
  5
187
330
1E
100
AcDbEntity
  8
0
100
AcDbLine
 10
44.62941176470589
 20
66.0
 30
0.0
 11
45.284
 21
66.0
 31
0.0
  0
LINE
  5
188
330
1E
100
AcDbEntity
  8
0
100
AcDbLine
 10
47.0
 20
66.0
 30
0.0
 11
48.0
 21
66.0
 31
0.0
  0
LINE
  5
189
330
1E
100
AcDbEntity
  8
0
100
AcDbLine
 10
45.284
 20
66.0
 30
0.0
 11
46.532
 21
66.0
 31
0.0
  0
LINE
  5
18A
330
1E
100
AcDbEntity
  8
0
100
AcDbLine
 10
46.532
 20
66.0
 30
0.0
 11
47.0
 21
66.0
 31
0.0
  0
LINE
  5
18B
330
1E
100
AcDbEntity
  8
0
100
AcDbLine
 10
42.7
 20
66.79999999999999
 30
0.0
 11
50.89999999999999
 21
63.39999999999999
 31
0.0
  0
LINE
  5
18C
330
1E
100
AcDbEntity
  8
0
100
AcDbLine
 10
38.79999999999999
 20
51.79999999999999
 30
0.0
 11
43.2
 21
50.0
 31
0.0
  0
LINE
  5
18E
330
1E
100
AcDbEntity
  8
0
100
AcDbLine
 10
34.0
 20
52.5
 30
0.0
 11
38.79999999999999
 21
51.79999999999999
 31
0.0
  0
LINE
  5
190
330
1E
100
AcDbEntity
  8
0
100
AcDbLine
 10
48.0
 20
64.60243902439021
 30
0.0
 11
48.0
 21
66.0
 31
0.0
  0
LINE
  5
191
330
1E
100
AcDbEntity
  8
0
100
AcDbLine
 10
48.0
 20
66.0
 30
0.0
 11
48.0
 21
64.60243902439029
 31
0.0
  0
LINE
  5
194
330
1E
100
AcDbEntity
  8
0
100
AcDbLine
 10
50.89999999999999
 20
63.39999999999999
 30
0.0
 11
58.0
 21
58.0
 31
0.0
  0
LINE
  5
19A
330
1E
100
AcDbEntity
  8
0
100
AcDbLine
 10
47.0
 20
47.0
 30
0.0
 11
50.0
 21
43.2
 31
0.0
  0
LINE
  5
19C
330
1E
100
AcDbEntity
  8
0
100
AcDbLine
 10
126.1879999999999
 20
31.5999
 30
0.0
 11
127.6279999999999
 21
30.9251
 31
0.0
  0
LINE
  5
19D
330
1E
100
AcDbEntity
  8
0
100
AcDbLine
 10
134.0
 20
29.2884
 30
0.0
 11
136.816
 21
29.4524
 31
0.0
  0
LINE
  5
19E
330
1E
100
AcDbEntity
  8
0
100
AcDbLine
 10
136.816
 20
29.4524
 30
0.0
 11
139.456
 21
29.8938
 31
0.0
  0
LINE
  5
19F
330
1E
100
AcDbEntity
  8
0
100
AcDbLine
 10
139.456
 20
29.8938
 30
0.0
 11
141.7879999999999
 21
30.6294
 31
0.0
  0
LINE
  5
1A0
330
1E
100
AcDbEntity
  8
0
100
AcDbLine
 10
131.1839999999999
 20
29.4524
 30
0.0
 11
134.0
 21
29.2884
 31
0.0
  0
LINE
  5
1A1
330
1E
100
AcDbEntity
  8
0
100
AcDbLine
 10
134.0
 20
29.9957
 30
0.0
 11
136.304
 21
30.1088
 31
0.0
  0
LINE
  5
1A2
330
1E
100
AcDbEntity
  8
0
100
AcDbLine
 10
136.304
 20
30.1088
 30
0.0
 11
138.464
 21
30.4159
 31
0.0
  0
LINE
  5
1A3
330
1E
100
AcDbEntity
  8
0
100
AcDbLine
 10
138.464
 20
30.4159
 30
0.0
 11
140.372
 21
30.9251
 31
0.0
  0
LINE
  5
1A5
330
1E
100
AcDbEntity
  8
0
100
AcDbLine
 10
131.6959999999999
 20
30.1088
 30
0.0
 11
134.0
 21
29.9957
 31
0.0
  0
LINE
  5
1A6
330
1E
100
AcDbEntity
  8
0
100
AcDbLine
 10
141.7879999999999
 20
30.6294
 30
0.0
 11
143.548
 21
31.6041
 31
0.0
  0
LINE
  5
1A7
330
1E
100
AcDbEntity
  8
0
100
AcDbLine
 10
140.372
 20
30.9251
 30
0.0
 11
141.812
 21
31.5999
 31
0.0
  0
LINE
  5
1A8
330
1E
100
AcDbEntity
  8
0
100
AcDbLine
 10
143.548
 20
31.6041
 30
0.0
 11
144.6039999999999
 21
32.7075
 31
0.0
  0
LINE
  5
1A9
330
1E
100
AcDbEntity
  8
0
100
AcDbLine
 10
141.812
 20
31.5999
 30
0.0
 11
142.676
 21
32.36229999999999
 31
0.0
  0
LINE
  5
1AA
330
1E
100
AcDbEntity
  8
0
100
AcDbLine
 10
141.812
 20
31.5999
 30
0.0
 11
142.676
 21
32.3638
 31
0.0
  0
LINE
  5
1AB
330
1E
100
AcDbEntity
  8
0
100
AcDbLine
 10
129.536
 20
30.4159
 30
0.0
 11
131.6959999999999
 21
30.1088
 31
0.0
  0
LINE
  5
1AC
330
1E
100
AcDbEntity
  8
0
100
AcDbLine
 10
127.6279999999999
 20
30.9251
 30
0.0
 11
129.536
 21
30.4159
 31
0.0
  0
LINE
  5
1AD
330
1E
100
AcDbEntity
  8
0
100
AcDbLine
 10
128.5439999999999
 20
29.8938
 30
0.0
 11
131.1839999999999
 21
29.4524
 31
0.0
  0
LINE
  5
1AE
330
1E
100
AcDbEntity
  8
0
100
AcDbLine
 10
126.212
 20
30.6294
 30
0.0
 11
128.5439999999999
 21
29.8938
 31
0.0
  0
LINE
  5
1AF
330
1E
100
AcDbEntity
  8
0
100
AcDbLine
 10
125.3239999999999
 20
32.3638
 30
0.0
 11
126.1879999999999
 21
31.5999
 31
0.0
  0
LINE
  5
1B0
330
1E
100
AcDbEntity
  8
0
100
AcDbLine
 10
125.0
 20
33.1787
 30
0.0
 11
125.3239999999999
 21
32.36229999999999
 31
0.0
  0
LINE
  5
1B1
330
1E
100
AcDbEntity
  8
0
100
AcDbLine
 10
125.0
 20
33.1787
 30
0.0
 11
125.3239999999999
 21
33.9935
 31
0.0
  0
LINE
  5
1B2
330
1E
100
AcDbEntity
  8
0
100
AcDbLine
 10
125.0
 20
33.1787
 30
0.0
 11
125.3239999999999
 21
32.3638
 31
0.0
  0
LINE
  5
1B3
330
1E
100
AcDbEntity
  8
0
100
AcDbLine
 10
134.0
 20
32.8003
 30
0.0
 11
136.304
 21
32.9149
 31
0.0
  0
LINE
  5
1B4
330
1E
100
AcDbEntity
  8
0
100
AcDbLine
 10
142.676
 20
32.3638
 30
0.0
 11
143.0
 21
33.1787
 31
0.0
  0
LINE
  5
1B5
330
1E
100
AcDbEntity
  8
0
100
AcDbLine
 10
136.304
 20
32.9149
 30
0.0
 11
138.464
 21
33.2205
 31
0.0
  0
LINE
  5
1B6
330
1E
100
AcDbEntity
  8
0
100
AcDbLine
 10
142.676
 20
32.36229999999999
 30
0.0
 11
143.0
 21
33.1787
 31
0.0
  0
LINE
  5
1B7
330
1E
100
AcDbEntity
  8
0
100
AcDbLine
 10
144.6039999999999
 20
32.7075
 30
0.0
 11
145.0
 21
33.8845
 31
0.0
  0
LINE
  5
1B9
330
1E
100
AcDbEntity
  8
0
100
AcDbLine
 10
138.464
 20
33.2205
 30
0.0
 11
140.372
 21
33.7297
 31
0.0
  0
LINE
  5
1BB
330
1E
100
AcDbEntity
  8
0
100
AcDbLine
 10
140.372
 20
33.7297
 30
0.0
 11
141.812
 21
34.4045
 31
0.0
  0
LINE
  5
1BC
330
1E
100
AcDbEntity
  8
0
100
AcDbLine
 10
131.6959999999999
 20
32.9149
 30
0.0
 11
134.0
 21
32.8003
 31
0.0
  0
LINE
  5
1BD
330
1E
100
AcDbEntity
  8
0
100
AcDbLine
 10
129.536
 20
33.2205
 30
0.0
 11
131.6959999999999
 21
32.9149
 31
0.0
  0
LINE
  5
1BE
330
1E
100
AcDbEntity
  8
0
100
AcDbLine
 10
145.0
 20
33.8845
 30
0.0
 11
145.0
 21
35.7552
 31
0.0
  0
LINE
  5
1C0
330
1E
100
AcDbEntity
  8
0
100
AcDbLine
 10
127.6279999999999
 20
33.7297
 30
0.0
 11
129.536
 21
33.2205
 31
0.0
  0
LINE
  5
1C2
330
1E
100
AcDbEntity
  8
0
100
AcDbLine
 10
125.3239999999999
 20
32.36229999999999
 30
0.0
 11
126.1879999999999
 21
31.5999
 31
0.0
  0
LINE
  5
1C3
330
1E
100
AcDbEntity
  8
0
100
AcDbLine
 10
124.452
 20
31.6041
 30
0.0
 11
126.212
 21
30.6294
 31
0.0
  0
LINE
  5
1C4
330
1E
100
AcDbEntity
  8
0
100
AcDbLine
 10
123.3959999999999
 20
32.7075
 30
0.0
 11
124.452
 21
31.6041
 31
0.0
  0
LINE
  5
1C6
330
1E
100
AcDbEntity
  8
0
100
AcDbLine
 10
142.676
 20
33.9935
 30
0.0
 11
143.0
 21
33.1787
 31
0.0
  0
LINE
  5
1C7
330
1E
100
AcDbEntity
  8
0
100
AcDbLine
 10
125.3239999999999
 20
33.9935
 30
0.0
 11
126.1879999999999
 21
34.75589999999999
 31
0.0
  0
LINE
  5
1C8
330
1E
100
AcDbEntity
  8
0
100
AcDbLine
 10
123.0
 20
33.8845
 30
0.0
 11
123.3959999999999
 21
32.7075
 31
0.0
  0
LINE
  5
1C9
330
1E
100
AcDbEntity
  8
0
100
AcDbLine
 10
123.0
 20
33.8845
 30
0.0
 11
123.3959999999999
 21
34.6993
 31
0.0
  0
LINE
  5
1D4
330
1E
100
AcDbEntity
  8
0
100
AcDbLine
 10
100.0
 20
34.0
 30
0.0
 11
101.2
 21
25.3
 31
0.0
  0
LINE
  5
1D6
330
1E
100
AcDbEntity
  8
0
100
AcDbLine
 10
100.0
 20
34.0
 30
0.0
 11
101.2
 21
42.7
 31
0.0
  0
LINE
  5
1F7
330
1E
100
AcDbEntity
  8
0
100
AcDbLine
 10
141.812
 20
34.4045
 30
0.0
 11
142.010918692262
 21
34.5803726724759
 31
0.0
  0
LINE
  5
1F8
330
1E
100
AcDbEntity
  8
0
100
AcDbLine
 10
140.372
 20
35.4322
 30
0.0
 11
141.812
 21
34.75589999999999
 31
0.0
  0
LINE
  5
1F9
330
1E
100
AcDbEntity
  8
0
100
AcDbLine
 10
141.812
 20
34.75589999999999
 30
0.0
 11
142.676
 21
33.9935
 31
0.0
  0
LINE
  5
1FA
330
1E
100
AcDbEntity
  8
0
100
AcDbLine
 10
144.6039999999999
 20
34.6993
 30
0.0
 11
145.0
 21
33.8845
 31
0.0
  0
LINE
  5
1FB
330
1E
100
AcDbEntity
  8
0
100
AcDbLine
 10
143.548
 20
35.4632
 30
0.0
 11
144.6039999999999
 21
34.6993
 31
0.0
  0
LINE
  5
1FC
330
1E
100
AcDbEntity
  8
0
100
AcDbLine
 10
127.6279999999999
 20
35.4322
 30
0.0
 11
129.536
 21
35.94149999999999
 31
0.0
  0
LINE
  5
1FD
330
1E
100
AcDbEntity
  8
0
100
AcDbLine
 10
126.1879999999999
 20
34.75589999999999
 30
0.0
 11
127.6279999999999
 21
35.4322
 31
0.0
  0
LINE
  5
1FE
330
1E
100
AcDbEntity
  8
0
100
AcDbLine
 10
126.1879999999999
 20
34.4045
 30
0.0
 11
127.6279999999999
 21
33.7297
 31
0.0
  0
LINE
  5
1FF
330
1E
100
AcDbEntity
  8
0
100
AcDbLine
 10
125.989081307738
 20
34.5803726724759
 30
0.0
 11
126.1879999999999
 21
34.4045
 31
0.0
  0
LINE
  5
200
330
1E
100
AcDbEntity
  8
0
100
AcDbLine
 10
145.0
 20
35.7552
 30
0.0
 11
145.0
 21
33.8845
 31
0.0
  0
LINE
  5
201
330
1E
100
AcDbEntity
  8
0
100
AcDbLine
 10
124.452
 20
35.4632
 30
0.0
 11
126.212
 21
36.138
 31
0.0
  0
LINE
  5
202
330
1E
100
AcDbEntity
  8
0
100
AcDbLine
 10
123.3959999999999
 20
34.6993
 30
0.0
 11
124.452
 21
35.4632
 31
0.0
  0
LINE
  5
205
330
1E
100
AcDbEntity
  8
0
100
AcDbLine
 10
123.0
 20
42.383
 30
0.0
 11
123.0
 21
35.7552
 31
0.0
  0
LINE
  5
207
330
1E
100
AcDbEntity
  8
0
100
AcDbLine
 10
136.304
 20
36.2471
 30
0.0
 11
138.464
 21
35.94149999999999
 31
0.0
  0
LINE
  5
208
330
1E
100
AcDbEntity
  8
0
100
AcDbLine
 10
138.464
 20
35.94149999999999
 30
0.0
 11
140.372
 21
35.4322
 31
0.0
  0
LINE
  5
209
330
1E
100
AcDbEntity
  8
0
100
AcDbLine
 10
141.7879999999999
 20
36.138
 30
0.0
 11
143.548
 21
35.4632
 31
0.0
  0
LINE
  5
20D
330
1E
100
AcDbEntity
  8
0
100
AcDbLine
 10
139.456
 20
36.6473
 30
0.0
 11
141.7879999999999
 21
36.138
 31
0.0
  0
LINE
  5
20F
330
1E
100
AcDbEntity
  8
0
100
AcDbLine
 10
134.0
 20
36.3616
 30
0.0
 11
136.304
 21
36.2471
 31
0.0
  0
LINE
  5
211
330
1E
100
AcDbEntity
  8
0
100
AcDbLine
 10
131.6959999999999
 20
36.2471
 30
0.0
 11
134.0
 21
36.3616
 31
0.0
  0
LINE
  5
212
330
1E
100
AcDbEntity
  8
0
100
AcDbLine
 10
129.536
 20
35.94149999999999
 30
0.0
 11
131.6959999999999
 21
36.2471
 31
0.0
  0
LINE
  5
213
330
1E
100
AcDbEntity
  8
0
100
AcDbLine
 10
134.0
 20
37.0675
 30
0.0
 11
136.816
 21
36.95289999999999
 31
0.0
  0
LINE
  5
215
330
1E
100
AcDbEntity
  8
0
100
AcDbLine
 10
136.816
 20
36.95289999999999
 30
0.0
 11
139.456
 21
36.6473
 31
0.0
  0
LINE
  5
217
330
1E
100
AcDbEntity
  8
0
100
AcDbLine
 10
145.0
 20
42.383
 30
0.0
 11
145.0
 21
35.7552
 31
0.0
  0
LINE
  5
21A
330
1E
100
AcDbEntity
  8
0
100
AcDbLine
 10
131.1839999999999
 20
36.95289999999999
 30
0.0
 11
134.0
 21
37.0675
 31
0.0
  0
LINE
  5
21B
330
1E
100
AcDbEntity
  8
0
100
AcDbLine
 10
128.5439999999999
 20
36.6473
 30
0.0
 11
131.1839999999999
 21
36.95289999999999
 31
0.0
  0
LINE
  5
21D
330
1E
100
AcDbEntity
  8
0
100
AcDbLine
 10
126.212
 20
36.138
 30
0.0
 11
128.5439999999999
 21
36.6473
 31
0.0
  0
LINE
  5
21E
330
1E
100
AcDbEntity
  8
0
100
AcDbLine
 10
123.0
 20
35.7552
 30
0.0
 11
123.0
 21
33.8845
 31
0.0
  0
LINE
  5
220
330
1E
100
AcDbEntity
  8
0
100
AcDbLine
 10
166.8
 20
42.7
 30
0.0
 11
168.0
 21
34.0
 31
0.0
  0
LINE
  5
222
330
1E
100
AcDbEntity
  8
0
100
AcDbLine
 10
101.2
 20
42.7
 30
0.0
 11
104.6
 21
50.89999999999999
 31
0.0
  0
LINE
  5
233
330
1E
100
AcDbEntity
  8
0
100
AcDbLine
 10
58.0
 20
58.0
 30
0.0
 11
63.39999999999999
 21
50.89999999999999
 31
0.0
  0
LINE
  5
235
330
1E
100
AcDbEntity
  8
0
100
AcDbLine
 10
66.0
 20
44.62941176470589
 30
0.0
 11
66.0
 21
45.284
 31
0.0
  0
LINE
  5
236
330
1E
100
AcDbEntity
  8
0
100
AcDbLine
 10
66.0
 20
45.284
 30
0.0
 11
66.0
 21
44.62941176470589
 31
0.0
  0
LINE
  5
237
330
1E
100
AcDbEntity
  8
0
100
AcDbLine
 10
66.0
 20
45.284
 30
0.0
 11
66.0
 21
46.532
 31
0.0
  0
LINE
  5
238
330
1E
100
AcDbEntity
  8
0
100
AcDbLine
 10
66.0
 20
45.0
 30
0.0
 11
102.153658536585
 21
45.0
 31
0.0
  0
LINE
  5
244
330
1E
100
AcDbEntity
  8
0
100
AcDbLine
 10
65.0170731707317
 20
47.0
 30
0.0
 11
66.0
 21
47.0
 31
0.0
  0
LINE
  5
245
330
1E
100
AcDbEntity
  8
0
100
AcDbLine
 10
65.0170731707317
 20
47.0
 30
0.0
 11
66.0
 21
47.0
 31
0.0
  0
LINE
  5
246
330
1E
100
AcDbEntity
  8
0
100
AcDbLine
 10
66.0
 20
47.0
 30
0.0
 11
66.0
 21
46.532
 31
0.0
  0
LINE
  5
247
330
1E
100
AcDbEntity
  8
0
100
AcDbLine
 10
66.0
 20
46.532
 30
0.0
 11
66.0
 21
45.284
 31
0.0
  0
LINE
  5
248
330
1E
100
AcDbEntity
  8
0
100
AcDbLine
 10
66.0
 20
46.532
 30
0.0
 11
66.0
 21
47.0
 31
0.0
  0
LINE
  5
250
330
1E
100
AcDbEntity
  8
0
100
AcDbLine
 10
145.0
 20
47.4542
 30
0.0
 11
145.0
 21
42.383
 31
0.0
  0
LINE
  5
252
330
1E
100
AcDbEntity
  8
0
100
AcDbLine
 10
123.0
 20
47.4542
 30
0.0
 11
123.0
 21
42.383
 31
0.0
  0
LINE
  5
273
330
1E
100
AcDbEntity
  8
0
100
AcDbLine
 10
145.0
 20
50.7305
 30
0.0
 11
145.0
 21
47.4542
 31
0.0
  0
LINE
  5
274
330
1E
100
AcDbEntity
  8
0
100
AcDbLine
 10
123.0
 20
50.7305
 30
0.0
 11
123.0
 21
47.4542
 31
0.0
  0
LINE
  5
275
330
1E
100
AcDbEntity
  8
0
100
AcDbLine
 10
163.4
 20
50.89999999999999
 30
0.0
 11
166.8
 21
42.7
 31
0.0
  0
LINE
  5
276
330
1E
100
AcDbEntity
  8
0
100
AcDbLine
 10
123.0
 20
51.8182
 30
0.0
 11
123.0
 21
50.7305
 31
0.0
  0
LINE
  5
27A
330
1E
100
AcDbEntity
  8
0
100
AcDbLine
 10
145.0
 20
51.8182
 30
0.0
 11
145.0
 21
50.7305
 31
0.0
  0
LINE
  5
27C
330
1E
100
AcDbEntity
  8
0
100
AcDbLine
 10
104.6
 20
50.89999999999999
 30
0.0
 11
110.0
 21
58.0
 31
0.0
  0
LINE
  5
287
330
1E
100
AcDbEntity
  8
0
100
AcDbLine
 10
141.7879999999999
 20
57.6109
 30
0.0
 11
143.548
 21
55.8764
 31
0.0
  0
LINE
  5
288
330
1E
100
AcDbEntity
  8
0
100
AcDbLine
 10
126.212
 20
57.6109
 30
0.0
 11
128.5439999999999
 21
58.92
 31
0.0
  0
LINE
  5
289
330
1E
100
AcDbEntity
  8
0
100
AcDbLine
 10
124.452
 20
55.8764
 30
0.0
 11
126.212
 21
57.6109
 31
0.0
  0
LINE
  5
28C
330
1E
100
AcDbEntity
  8
0
100
AcDbLine
 10
158.0
 20
58.0
 30
0.0
 11
163.4
 21
50.89999999999999
 31
0.0
  0
LINE
  5
28F
330
1E
100
AcDbEntity
  8
0
100
AcDbLine
 10
110.0
 20
58.0
 30
0.0
 11
117.1
 21
63.39999999999999
 31
0.0
  0
LINE
  5
29A
330
1E
100
AcDbEntity
  8
0
100
AcDbLine
 10
139.456
 20
58.92
 30
0.0
 11
141.7879999999999
 21
57.6109
 31
0.0
  0
LINE
  5
29C
330
1E
100
AcDbEntity
  8
0
100
AcDbLine
 10
136.816
 20
59.7055
 30
0.0
 11
139.456
 21
58.92
 31
0.0
  0
LINE
  5
29E
330
1E
100
AcDbEntity
  8
0
100
AcDbLine
 10
134.0
 20
60.0
 30
0.0
 11
136.816
 21
59.7055
 31
0.0
  0
LINE
  5
29F
330
1E
100
AcDbEntity
  8
0
100
AcDbLine
 10
131.1839999999999
 20
59.7055
 30
0.0
 11
134.0
 21
60.0
 31
0.0
  0
LINE
  5
2A0
330
1E
100
AcDbEntity
  8
0
100
AcDbLine
 10
128.5439999999999
 20
58.92
 30
0.0
 11
131.1839999999999
 21
59.7055
 31
0.0
  0
LINE
  5
2A2
330
1E
100
AcDbEntity
  8
0
100
AcDbLine
 10
150.9
 20
63.39999999999999
 30
0.0
 11
158.0
 21
58.0
 31
0.0
  0
LINE
  5
2A4
330
1E
100
AcDbEntity
  8
0
100
AcDbLine
 10
117.1
 20
63.39999999999999
 30
0.0
 11
125.2999999999999
 21
66.79999999999999
 31
0.0
  0
LINE
  5
2AD
330
1E
100
AcDbEntity
  8
0
100
AcDbLine
 10
142.6999999999999
 20
66.79999999999999
 30
0.0
 11
150.9
 21
63.39999999999999
 31
0.0
  0
LINE
  5
2B1
330
1E
100
AcDbEntity
  8
0
100
AcDbLine
 10
125.2999999999999
 20
66.79999999999999
 30
0.0
 11
134.0
 21
68.0
 31
0.0
  0
LINE
  5
2B6
330
1E
100
AcDbEntity
  8
0
100
AcDbLine
 10
134.0
 20
68.0
 30
0.0
 11
142.6999999999999
 21
66.79999999999999
 31
0.0
  0
LINE
  5
2C5
330
1E
100
AcDbEntity
  8
0
100
AcDbLine
 10
63.39999999999999
 20
50.89999999999999
 30
0.0
 11
66.79999999999999
 21
42.7
 31
0.0
  0
LINE
  5
2C6
330
1E
100
AcDbEntity
  8
0
100
AcDbLine
 10
66.79999999999999
 20
42.7
 30
0.0
 11
68.0
 21
34.0
 31
0.0
  0
LINE
  5
2CE
330
1E
100
AcDbEntity
  8
0
100
AcDbLine
 10
1.199999999999999
 20
25.3
 30
0.0
 11
4.599999999999999
 21
17.1
 31
0.0
  0
LINE
  5
2CF
330
1E
100
AcDbEntity
  8
0
100
AcDbLine
 10
0.0
 20
34.0
 30
0.0
 11
1.199999999999999
 21
25.3
 31
0.0
  0
LINE
  5
2D0
330
1E
100
AcDbEntity
  8
0
100
AcDbLine
 10
0.0
 20
34.0
 30
0.0
 11
1.199999999999999
 21
42.7
 31
0.0
  0
LINE
  5
2D5
330
1E
100
AcDbEntity
  8
0
  6
Continuous
100
AcDbLine
 10
123.0
 20
51.8182
 30
0.0
 11
123.5567183995035
 21
54.36207960441624
 31
0.0
  0
LINE
  5
2D6
330
1E
100
AcDbEntity
  8
0
  6
Continuous
100
AcDbLine
 10
123.5567183995035
 20
54.36207960441624
 30
0.0
 11
124.452
 21
55.8764
 31
0.0
  0
LINE
  5
2D7
330
1E
100
AcDbEntity
  8
0
  6
Continuous
100
AcDbLine
 10
143.548
 20
55.8764
 30
0.0
 11
144.6837176576633
 21
53.82450639556157
 31
0.0
  0
LINE
  5
2D8
330
1E
100
AcDbEntity
  8
0
  6
Continuous
100
AcDbLine
 10
144.6837176576633
 20
53.82450639556157
 30
0.0
 11
145.0
 21
51.8182
 31
0.0
  0
LINE
  5
2D9
330
1E
100
AcDbEntity
  8
0
100
AcDbLine
 10
202.0
 20
45.0
 30
0.0
 11
165.846341463415
 21
45.0
 31
0.0
  0
LINE
  5
2DA
330
1E
100
AcDbEntity
  8
0
100
AcDbLine
 10
202.0
 20
23.0
 30
0.0
 11
165.846341463415
 21
23.0
 31
0.0
  0
LINE
  5
2DB
330
1E
100
AcDbEntity
  8
0
100
AcDbLine
 10
268.0
 20
34.0
 30
0.0
 11
266.8
 21
42.7
 31
0.0
  0
LINE
  5
2DC
330
1E
100
AcDbEntity
  8
0
100
AcDbLine
 10
201.2
 20
42.7
 30
0.0
 11
200.0
 21
34.0
 31
0.0
  0
LINE
  5
2DD
330
1E
100
AcDbEntity
  8
0
100
AcDbLine
 10
251.0
 20
34.0
 30
0.0
 11
250.4
 21
38.39999999999999
 31
0.0
  0
LINE
  5
2DE
330
1E
100
AcDbEntity
  8
0
100
AcDbLine
 10
216.1999999999999
 20
38.79999999999999
 30
0.0
 11
215.5
 21
34.0
 31
0.0
  0
LINE
  5
2DF
330
1E
100
AcDbEntity
  8
0
100
AcDbLine
 10
217.6
 20
38.39999999999999
 30
0.0
 11
217.0
 21
34.0
 31
0.0
  0
LINE
  5
2E0
330
1E
100
AcDbEntity
  8
0
100
AcDbLine
 10
217.9
 20
38.3
 30
0.0
 11
217.3
 21
34.0
 31
0.0
  0
LINE
  5
2E1
330
1E
100
AcDbEntity
  8
0
100
AcDbLine
 10
250.7
 20
34.0
 30
0.0
 11
250.0999999999999
 21
38.3
 31
0.0
  0
LINE
  5
2E2
330
1E
100
AcDbEntity
  8
0
100
AcDbLine
 10
252.4999999999999
 20
34.0
 30
0.0
 11
251.8
 21
38.79999999999999
 31
0.0
  0
LINE
  5
2E3
330
1E
100
AcDbEntity
  8
0
100
AcDbLine
 10
238.3999999999999
 20
17.6
 30
0.0
 11
234.0
 21
17.0
 31
0.0
  0
LINE
  5
2E4
330
1E
100
AcDbEntity
  8
0
100
AcDbLine
 10
238.3
 20
17.9
 30
0.0
 11
234.0
 21
17.3
 31
0.0
  0
LINE
  5
2E5
330
1E
100
AcDbEntity
  8
0
100
AcDbLine
 10
238.8
 20
16.2
 30
0.0
 11
234.0
 21
15.5
 31
0.0
  0
LINE
  5
2E6
330
1E
100
AcDbEntity
  8
0
100
AcDbLine
 10
242.7
 20
1.199999999999999
 30
0.0
 11
234.0
 21
-0.0000000000000005
 31
0.0
  0
LINE
  5
2E7
330
1E
100
AcDbEntity
  8
0
100
AcDbLine
 10
242.7
 20
1.199999999999999
 30
0.0
 11
234.0
 21
-0.0000000000000005
 31
0.0
  0
LINE
  5
2E8
330
1E
100
AcDbEntity
  8
0
100
AcDbLine
 10
242.7
 20
1.199999999999999
 30
0.0
 11
234.0
 21
-0.0000000000000002
 31
0.0
  0
LINE
  5
2E9
330
1E
100
AcDbEntity
  8
0
100
AcDbLine
 10
242.7
 20
1.199999999999999
 30
0.0
 11
234.0
 21
-0.0000000000000002
 31
0.0
  0
LINE
  5
2EA
330
1E
100
AcDbEntity
  8
0
100
AcDbLine
 10
263.3999999999999
 20
17.1
 30
0.0
 11
258.0
 21
10.0
 31
0.0
  0
LINE
  5
2EB
330
1E
100
AcDbEntity
  8
0
100
AcDbLine
 10
248.0
 20
3.397560975609759
 30
0.0
 11
248.0
 21
2.0
 31
0.0
  0
LINE
  5
2EC
330
1E
100
AcDbEntity
  8
0
100
AcDbLine
 10
248.0
 20
2.0
 30
0.0
 11
248.0
 21
3.397560975609759
 31
0.0
  0
LINE
  5
2ED
330
1E
100
AcDbEntity
  8
0
100
AcDbLine
 10
248.0
 20
2.0
 30
0.0
 11
248.0
 21
3.397560975609759
 31
0.0
  0
LINE
  5
2EE
330
1E
100
AcDbEntity
  8
0
100
AcDbLine
 10
250.8999999999999
 20
4.599999999999999
 30
0.0
 11
242.7
 21
1.199999999999999
 31
0.0
  0
LINE
  5
2EF
330
1E
100
AcDbEntity
  8
0
100
AcDbLine
 10
250.8999999999999
 20
4.599999999999999
 30
0.0
 11
242.7
 21
1.199999999999999
 31
0.0
  0
LINE
  5
2F0
330
1E
100
AcDbEntity
  8
0
100
AcDbLine
 10
246.5319999999999
 20
2.0
 30
0.0
 11
245.284
 21
2.0
 31
0.0
  0
LINE
  5
2F1
330
1E
100
AcDbEntity
  8
0
100
AcDbLine
 10
246.5319999999999
 20
2.0
 30
0.0
 11
245.284
 21
2.0
 31
0.0
  0
LINE
  5
2F2
330
1E
100
AcDbEntity
  8
0
100
AcDbLine
 10
248.0
 20
2.0
 30
0.0
 11
246.0
 21
2.0
 31
0.0
  0
LINE
  5
2F3
330
1E
100
AcDbEntity
  8
0
100
AcDbLine
 10
248.0
 20
2.0
 30
0.0
 11
246.0
 21
2.0
 31
0.0
  0
LINE
  5
2F4
330
1E
100
AcDbEntity
  8
0
100
AcDbLine
 10
247.0
 20
2.0
 30
0.0
 11
246.5319999999999
 21
2.0
 31
0.0
  0
LINE
  5
2F5
330
1E
100
AcDbEntity
  8
0
100
AcDbLine
 10
247.0
 20
2.0
 30
0.0
 11
246.5319999999999
 21
2.0
 31
0.0
  0
LINE
  5
2F6
330
1E
100
AcDbEntity
  8
0
100
AcDbLine
 10
244.7417
 20
2.0
 30
0.0
 11
244.6294117647059
 21
2.0
 31
0.0
  0
LINE
  5
2F7
330
1E
100
AcDbEntity
  8
0
100
AcDbLine
 10
244.7417
 20
2.0
 30
0.0
 11
244.6294117647059
 21
2.0
 31
0.0
  0
LINE
  5
2F8
330
1E
100
AcDbEntity
  8
0
100
AcDbLine
 10
245.284
 20
2.0
 30
0.0
 11
244.6294117647059
 21
2.0
 31
0.0
  0
LINE
  5
2F9
330
1E
100
AcDbEntity
  8
0
100
AcDbLine
 10
245.284
 20
2.0
 30
0.0
 11
244.6294117647059
 21
2.0
 31
0.0
  0
LINE
  5
2FA
330
1E
100
AcDbEntity
  8
0
100
AcDbLine
 10
245.1429
 20
2.0
 30
0.0
 11
244.7417
 21
2.0
 31
0.0
  0
LINE
  5
2FB
330
1E
100
AcDbEntity
  8
0
100
AcDbLine
 10
245.1429
 20
2.0
 30
0.0
 11
244.7417
 21
2.0
 31
0.0
  0
LINE
  5
2FC
330
1E
100
AcDbEntity
  8
0
100
AcDbLine
 10
258.0
 20
10.0
 30
0.0
 11
250.8999999999999
 21
4.599999999999999
 31
0.0
  0
LINE
  5
2FD
330
1E
100
AcDbEntity
  8
0
100
AcDbLine
 10
266.8
 20
25.3
 30
0.0
 11
263.3999999999999
 21
17.1
 31
0.0
  0
LINE
  5
2FE
330
1E
100
AcDbEntity
  8
0
100
AcDbLine
 10
266.8
 20
25.3
 30
0.0
 11
263.3999999999999
 21
17.1
 31
0.0
  0
LINE
  5
2FF
330
1E
100
AcDbEntity
  8
0
100
AcDbLine
 10
268.0
 20
34.0
 30
0.0
 11
266.8
 21
25.3
 31
0.0
  0
LINE
  5
300
330
1E
100
AcDbEntity
  8
0
100
AcDbLine
 10
250.0
 20
24.8
 30
0.0
 11
247.0
 21
21.0
 31
0.0
  0
LINE
  5
301
330
1E
100
AcDbEntity
  8
0
100
AcDbLine
 10
248.7
 20
25.5
 30
0.0
 11
246.0
 21
22.0
 31
0.0
  0
LINE
  5
302
330
1E
100
AcDbEntity
  8
0
100
AcDbLine
 10
248.4999999999999
 20
25.7
 30
0.0
 11
245.8
 21
22.2
 31
0.0
  0
LINE
  5
303
330
1E
100
AcDbEntity
  8
0
100
AcDbLine
 10
247.0
 20
21.0
 30
0.0
 11
243.1999999999999
 21
18.0
 31
0.0
  0
LINE
  5
304
330
1E
100
AcDbEntity
  8
0
100
AcDbLine
 10
242.5
 20
19.3
 30
0.0
 11
238.3999999999999
 21
17.6
 31
0.0
  0
LINE
  5
305
330
1E
100
AcDbEntity
  8
0
100
AcDbLine
 10
242.3
 20
19.5
 30
0.0
 11
238.3
 21
17.9
 31
0.0
  0
LINE
  5
306
330
1E
100
AcDbEntity
  8
0
100
AcDbLine
 10
243.1999999999999
 20
18.0
 30
0.0
 11
238.8
 21
16.2
 31
0.0
  0
LINE
  5
307
330
1E
100
AcDbEntity
  8
0
100
AcDbLine
 10
246.0
 20
22.0
 30
0.0
 11
242.5
 21
19.3
 31
0.0
  0
LINE
  5
308
330
1E
100
AcDbEntity
  8
0
100
AcDbLine
 10
245.8
 20
22.2
 30
0.0
 11
242.3
 21
19.5
 31
0.0
  0
LINE
  5
309
330
1E
100
AcDbEntity
  8
0
100
AcDbLine
 10
250.4
 20
29.6
 30
0.0
 11
248.7
 21
25.5
 31
0.0
  0
LINE
  5
30A
330
1E
100
AcDbEntity
  8
0
100
AcDbLine
 10
250.0999999999999
 20
29.7
 30
0.0
 11
248.4999999999999
 21
25.7
 31
0.0
  0
LINE
  5
30B
330
1E
100
AcDbEntity
  8
0
100
AcDbLine
 10
251.8
 20
29.19999999999999
 30
0.0
 11
250.0
 21
24.8
 31
0.0
  0
LINE
  5
30C
330
1E
100
AcDbEntity
  8
0
100
AcDbLine
 10
251.0
 20
34.0
 30
0.0
 11
250.4
 21
29.6
 31
0.0
  0
LINE
  5
30D
330
1E
100
AcDbEntity
  8
0
100
AcDbLine
 10
250.7
 20
34.0
 30
0.0
 11
250.0999999999999
 21
29.7
 31
0.0
  0
LINE
  5
30E
330
1E
100
AcDbEntity
  8
0
100
AcDbLine
 10
252.4999999999999
 20
34.0
 30
0.0
 11
251.8
 21
29.19999999999999
 31
0.0
  0
LINE
  5
30F
330
1E
100
AcDbEntity
  8
0
100
AcDbLine
 10
210.0
 20
10.0
 30
0.0
 11
204.5999999999999
 21
17.1
 31
0.0
  0
LINE
  5
310
330
1E
100
AcDbEntity
  8
0
100
AcDbLine
 10
217.0999999999999
 20
4.599999999999999
 30
0.0
 11
210.0
 21
10.0
 31
0.0
  0
LINE
  5
311
330
1E
100
AcDbEntity
  8
0
100
AcDbLine
 10
220.0
 20
3.397560975609759
 30
0.0
 11
220.0
 21
2.0
 31
0.0
  0
LINE
  5
312
330
1E
100
AcDbEntity
  8
0
100
AcDbLine
 10
220.0
 20
2.0
 30
0.0
 11
220.0
 21
3.397560975609759
 31
0.0
  0
LINE
  5
313
330
1E
100
AcDbEntity
  8
0
100
AcDbLine
 10
225.3
 20
1.199999999999999
 30
0.0
 11
217.0999999999999
 21
4.599999999999999
 31
0.0
  0
LINE
  5
314
330
1E
100
AcDbEntity
  8
0
100
AcDbLine
 10
225.3
 20
1.199999999999999
 30
0.0
 11
217.0999999999999
 21
4.599999999999999
 31
0.0
  0
LINE
  5
315
330
1E
100
AcDbEntity
  8
0
100
AcDbLine
 10
234.0
 20
-0.0000000000000002
 30
0.0
 11
225.3
 21
1.199999999999999
 31
0.0
  0
LINE
  5
316
330
1E
100
AcDbEntity
  8
0
100
AcDbLine
 10
234.0
 20
-0.0000000000000002
 30
0.0
 11
225.3
 21
1.199999999999999
 31
0.0
  0
LINE
  5
317
330
1E
100
AcDbEntity
  8
0
100
AcDbLine
 10
222.0
 20
2.0
 30
0.0
 11
220.0
 21
2.0
 31
0.0
  0
LINE
  5
318
330
1E
100
AcDbEntity
  8
0
100
AcDbLine
 10
222.0
 20
2.0
 30
0.0
 11
220.0
 21
2.0
 31
0.0
  0
LINE
  5
319
330
1E
100
AcDbEntity
  8
0
100
AcDbLine
 10
222.716
 20
2.0
 30
0.0
 11
221.468
 21
2.0
 31
0.0
  0
LINE
  5
31A
330
1E
100
AcDbEntity
  8
0
100
AcDbLine
 10
222.716
 20
2.0
 30
0.0
 11
221.468
 21
2.0
 31
0.0
  0
LINE
  5
31B
330
1E
100
AcDbEntity
  8
0
100
AcDbLine
 10
223.370588235294
 20
2.0
 30
0.0
 11
223.2582999999999
 21
2.0
 31
0.0
  0
LINE
  5
31C
330
1E
100
AcDbEntity
  8
0
100
AcDbLine
 10
223.370588235294
 20
2.0
 30
0.0
 11
223.2582999999999
 21
2.0
 31
0.0
  0
LINE
  5
31D
330
1E
100
AcDbEntity
  8
0
100
AcDbLine
 10
223.370588235294
 20
2.0
 30
0.0
 11
222.716
 21
2.0
 31
0.0
  0
LINE
  5
31E
330
1E
100
AcDbEntity
  8
0
100
AcDbLine
 10
223.2582999999999
 20
2.0
 30
0.0
 11
222.8571
 21
2.0
 31
0.0
  0
LINE
  5
31F
330
1E
100
AcDbEntity
  8
0
100
AcDbLine
 10
223.370588235294
 20
2.0
 30
0.0
 11
222.716
 21
2.0
 31
0.0
  0
LINE
  5
320
330
1E
100
AcDbEntity
  8
0
100
AcDbLine
 10
223.2582999999999
 20
2.0
 30
0.0
 11
222.8571
 21
2.0
 31
0.0
  0
LINE
  5
321
330
1E
100
AcDbEntity
  8
0
100
AcDbLine
 10
221.468
 20
2.0
 30
0.0
 11
221.0
 21
2.0
 31
0.0
  0
LINE
  5
322
330
1E
100
AcDbEntity
  8
0
100
AcDbLine
 10
221.468
 20
2.0
 30
0.0
 11
221.0
 21
2.0
 31
0.0
  0
LINE
  5
323
330
1E
100
AcDbEntity
  8
0
100
AcDbLine
 10
222.1999999999999
 20
22.2
 30
0.0
 11
219.4999999999999
 21
25.7
 31
0.0
  0
LINE
  5
324
330
1E
100
AcDbEntity
  8
0
100
AcDbLine
 10
221.0
 20
21.0
 30
0.0
 11
218.0
 21
24.8
 31
0.0
  0
LINE
  5
325
330
1E
100
AcDbEntity
  8
0
100
AcDbLine
 10
222.0
 20
22.0
 30
0.0
 11
219.3
 21
25.5
 31
0.0
  0
LINE
  5
326
330
1E
100
AcDbEntity
  8
0
100
AcDbLine
 10
225.4999999999999
 20
19.3
 30
0.0
 11
222.0
 21
22.0
 31
0.0
  0
LINE
  5
327
330
1E
100
AcDbEntity
  8
0
100
AcDbLine
 10
225.7
 20
19.5
 30
0.0
 11
222.1999999999999
 21
22.2
 31
0.0
  0
LINE
  5
328
330
1E
100
AcDbEntity
  8
0
100
AcDbLine
 10
224.8
 20
18.0
 30
0.0
 11
221.0
 21
21.0
 31
0.0
  0
LINE
  5
329
330
1E
100
AcDbEntity
  8
0
100
AcDbLine
 10
229.5999999999999
 20
17.6
 30
0.0
 11
225.4999999999999
 21
19.3
 31
0.0
  0
LINE
  5
32A
330
1E
100
AcDbEntity
  8
0
100
AcDbLine
 10
229.7
 20
17.9
 30
0.0
 11
225.7
 21
19.5
 31
0.0
  0
LINE
  5
32B
330
1E
100
AcDbEntity
  8
0
100
AcDbLine
 10
234.0
 20
17.3
 30
0.0
 11
229.7
 21
17.9
 31
0.0
  0
LINE
  5
32C
330
1E
100
AcDbEntity
  8
0
100
AcDbLine
 10
234.0
 20
15.5
 30
0.0
 11
229.1999999999999
 21
16.2
 31
0.0
  0
LINE
  5
32D
330
1E
100
AcDbEntity
  8
0
100
AcDbLine
 10
234.0
 20
17.0
 30
0.0
 11
229.5999999999999
 21
17.6
 31
0.0
  0
LINE
  5
32E
330
1E
100
AcDbEntity
  8
0
100
AcDbLine
 10
229.1999999999999
 20
16.2
 30
0.0
 11
224.8
 21
18.0
 31
0.0
  0
LINE
  5
32F
330
1E
100
AcDbEntity
  8
0
100
AcDbLine
 10
219.4999999999999
 20
25.7
 30
0.0
 11
217.9
 21
29.7
 31
0.0
  0
LINE
  5
330
330
1E
100
AcDbEntity
  8
0
100
AcDbLine
 10
219.3
 20
25.5
 30
0.0
 11
217.6
 21
29.6
 31
0.0
  0
LINE
  5
331
330
1E
100
AcDbEntity
  8
0
100
AcDbLine
 10
218.0
 20
24.8
 30
0.0
 11
216.1999999999999
 21
29.19999999999999
 31
0.0
  0
LINE
  5
332
330
1E
100
AcDbEntity
  8
0
100
AcDbLine
 10
217.6
 20
29.6
 30
0.0
 11
217.0
 21
34.0
 31
0.0
  0
LINE
  5
333
330
1E
100
AcDbEntity
  8
0
100
AcDbLine
 10
217.9
 20
29.7
 30
0.0
 11
217.3
 21
34.0
 31
0.0
  0
LINE
  5
334
330
1E
100
AcDbEntity
  8
0
100
AcDbLine
 10
216.1999999999999
 20
29.19999999999999
 30
0.0
 11
215.5
 21
34.0
 31
0.0
  0
LINE
  5
335
330
1E
100
AcDbEntity
  8
0
100
AcDbLine
 10
204.5999999999999
 20
17.1
 30
0.0
 11
201.2
 21
25.3
 31
0.0
  0
LINE
  5
336
330
1E
100
AcDbEntity
  8
0
100
AcDbLine
 10
202.0
 20
22.71599999999999
 30
0.0
 11
202.0
 21
21.468
 31
0.0
  0
LINE
  5
337
330
1E
100
AcDbEntity
  8
0
100
AcDbLine
 10
202.0
 20
21.468
 30
0.0
 11
202.0
 21
22.71599999999999
 31
0.0
  0
LINE
  5
338
330
1E
100
AcDbEntity
  8
0
100
AcDbLine
 10
202.9829268292683
 20
21.0
 30
0.0
 11
202.0
 21
21.0
 31
0.0
  0
LINE
  5
339
330
1E
100
AcDbEntity
  8
0
100
AcDbLine
 10
202.0
 20
21.468
 30
0.0
 11
202.0
 21
21.0
 31
0.0
  0
LINE
  5
33A
330
1E
100
AcDbEntity
  8
0
100
AcDbLine
 10
202.0
 20
21.0
 30
0.0
 11
202.0
 21
21.468
 31
0.0
  0
LINE
  5
33B
330
1E
100
AcDbEntity
  8
0
100
AcDbLine
 10
202.0
 20
23.3705882352941
 30
0.0
 11
202.0
 21
22.71599999999999
 31
0.0
  0
LINE
  5
33C
330
1E
100
AcDbEntity
  8
0
100
AcDbLine
 10
202.0
 20
22.71599999999999
 30
0.0
 11
202.0
 21
23.3705882352941
 31
0.0
  0
LINE
  5
33D
330
1E
100
AcDbEntity
  8
0
100
AcDbLine
 10
201.2
 20
25.3
 30
0.0
 11
200.0
 21
34.0
 31
0.0
  0
LINE
  5
33E
330
1E
100
AcDbEntity
  8
0
100
AcDbLine
 10
242.7
 20
66.79999999999999
 30
0.0
 11
234.0
 21
68.0
 31
0.0
  0
LINE
  5
33F
330
1E
100
AcDbEntity
  8
0
100
AcDbLine
 10
238.3999999999999
 20
50.4
 30
0.0
 11
234.0
 21
51.0
 31
0.0
  0
LINE
  5
340
330
1E
100
AcDbEntity
  8
0
100
AcDbLine
 10
238.3
 20
50.1
 30
0.0
 11
234.0
 21
50.7
 31
0.0
  0
LINE
  5
341
330
1E
100
AcDbEntity
  8
0
100
AcDbLine
 10
238.8
 20
51.79999999999999
 30
0.0
 11
234.0
 21
52.5
 31
0.0
  0
LINE
  5
342
330
1E
100
AcDbEntity
  8
0
100
AcDbLine
 10
263.3999999999999
 20
50.89999999999999
 30
0.0
 11
258.0
 21
58.0
 31
0.0
  0
LINE
  5
343
330
1E
100
AcDbEntity
  8
0
100
AcDbLine
 10
266.8
 20
42.7
 30
0.0
 11
263.3999999999999
 21
50.89999999999999
 31
0.0
  0
LINE
  5
344
330
1E
100
AcDbEntity
  8
0
100
AcDbLine
 10
266.8
 20
42.7
 30
0.0
 11
263.3999999999999
 21
50.89999999999999
 31
0.0
  0
LINE
  5
345
330
1E
100
AcDbEntity
  8
0
100
AcDbLine
 10
250.0
 20
43.2
 30
0.0
 11
247.0
 21
47.0
 31
0.0
  0
LINE
  5
346
330
1E
100
AcDbEntity
  8
0
100
AcDbLine
 10
248.7
 20
42.5
 30
0.0
 11
246.0
 21
46.0
 31
0.0
  0
LINE
  5
347
330
1E
100
AcDbEntity
  8
0
100
AcDbLine
 10
248.4999999999999
 20
42.29999999999999
 30
0.0
 11
245.8
 21
45.8
 31
0.0
  0
LINE
  5
348
330
1E
100
AcDbEntity
  8
0
100
AcDbLine
 10
250.4
 20
38.39999999999999
 30
0.0
 11
248.7
 21
42.5
 31
0.0
  0
LINE
  5
349
330
1E
100
AcDbEntity
  8
0
100
AcDbLine
 10
250.0999999999999
 20
38.3
 30
0.0
 11
248.4999999999999
 21
42.29999999999999
 31
0.0
  0
LINE
  5
34A
330
1E
100
AcDbEntity
  8
0
100
AcDbLine
 10
251.8
 20
38.79999999999999
 30
0.0
 11
250.0
 21
43.2
 31
0.0
  0
LINE
  5
34B
330
1E
100
AcDbEntity
  8
0
100
AcDbLine
 10
247.0
 20
47.0
 30
0.0
 11
243.1999999999999
 21
50.0
 31
0.0
  0
LINE
  5
34C
330
1E
100
AcDbEntity
  8
0
100
AcDbLine
 10
242.5
 20
48.7
 30
0.0
 11
238.3999999999999
 21
50.4
 31
0.0
  0
LINE
  5
34D
330
1E
100
AcDbEntity
  8
0
100
AcDbLine
 10
242.3
 20
48.5
 30
0.0
 11
238.3
 21
50.1
 31
0.0
  0
LINE
  5
34E
330
1E
100
AcDbEntity
  8
0
100
AcDbLine
 10
246.0
 20
46.0
 30
0.0
 11
242.5
 21
48.7
 31
0.0
  0
LINE
  5
34F
330
1E
100
AcDbEntity
  8
0
100
AcDbLine
 10
245.8
 20
45.8
 30
0.0
 11
242.3
 21
48.5
 31
0.0
  0
LINE
  5
350
330
1E
100
AcDbEntity
  8
0
100
AcDbLine
 10
243.1999999999999
 20
50.0
 30
0.0
 11
238.8
 21
51.79999999999999
 31
0.0
  0
LINE
  5
351
330
1E
100
AcDbEntity
  8
0
100
AcDbLine
 10
250.8999999999999
 20
63.39999999999999
 30
0.0
 11
242.7
 21
66.79999999999999
 31
0.0
  0
LINE
  5
352
330
1E
100
AcDbEntity
  8
0
100
AcDbLine
 10
248.0
 20
66.0
 30
0.0
 11
248.0
 21
64.60243902439029
 31
0.0
  0
LINE
  5
353
330
1E
100
AcDbEntity
  8
0
100
AcDbLine
 10
248.0
 20
64.60243902439029
 30
0.0
 11
248.0
 21
66.0
 31
0.0
  0
LINE
  5
354
330
1E
100
AcDbEntity
  8
0
100
AcDbLine
 10
258.0
 20
58.0
 30
0.0
 11
250.8999999999999
 21
63.39999999999999
 31
0.0
  0
LINE
  5
355
330
1E
100
AcDbEntity
  8
0
100
AcDbLine
 10
246.5319999999999
 20
66.0
 30
0.0
 11
245.284
 21
66.0
 31
0.0
  0
LINE
  5
356
330
1E
100
AcDbEntity
  8
0
100
AcDbLine
 10
248.0
 20
66.0
 30
0.0
 11
247.0
 21
66.0
 31
0.0
  0
LINE
  5
357
330
1E
100
AcDbEntity
  8
0
100
AcDbLine
 10
247.0
 20
66.0
 30
0.0
 11
246.5319999999999
 21
66.0
 31
0.0
  0
LINE
  5
358
330
1E
100
AcDbEntity
  8
0
100
AcDbLine
 10
245.284
 20
66.0
 30
0.0
 11
244.6294117647059
 21
66.0
 31
0.0
  0
LINE
  5
359
330
1E
100
AcDbEntity
  8
0
100
AcDbLine
 10
210.0
 20
58.0
 30
0.0
 11
204.5999999999999
 21
50.89999999999999
 31
0.0
  0
LINE
  5
35A
330
1E
100
AcDbEntity
  8
0
100
AcDbLine
 10
221.0
 20
47.0
 30
0.0
 11
218.0
 21
43.2
 31
0.0
  0
LINE
  5
35B
330
1E
100
AcDbEntity
  8
0
100
AcDbLine
 10
222.0
 20
46.0
 30
0.0
 11
219.3
 21
42.5
 31
0.0
  0
LINE
  5
35C
330
1E
100
AcDbEntity
  8
0
100
AcDbLine
 10
222.1999999999999
 20
45.8
 30
0.0
 11
219.4999999999999
 21
42.29999999999999
 31
0.0
  0
LINE
  5
35D
330
1E
100
AcDbEntity
  8
0
100
AcDbLine
 10
219.4999999999999
 20
42.29999999999999
 30
0.0
 11
217.9
 21
38.3
 31
0.0
  0
LINE
  5
35E
330
1E
100
AcDbEntity
  8
0
100
AcDbLine
 10
218.0
 20
43.2
 30
0.0
 11
216.1999999999999
 21
38.79999999999999
 31
0.0
  0
LINE
  5
35F
330
1E
100
AcDbEntity
  8
0
100
AcDbLine
 10
219.3
 20
42.5
 30
0.0
 11
217.6
 21
38.39999999999999
 31
0.0
  0
LINE
  5
360
330
1E
100
AcDbEntity
  8
0
100
AcDbLine
 10
225.4999999999999
 20
48.7
 30
0.0
 11
222.0
 21
46.0
 31
0.0
  0
LINE
  5
361
330
1E
100
AcDbEntity
  8
0
100
AcDbLine
 10
225.7
 20
48.5
 30
0.0
 11
222.1999999999999
 21
45.8
 31
0.0
  0
LINE
  5
362
330
1E
100
AcDbEntity
  8
0
100
AcDbLine
 10
224.8
 20
50.0
 30
0.0
 11
221.0
 21
47.0
 31
0.0
  0
LINE
  5
363
330
1E
100
AcDbEntity
  8
0
100
AcDbLine
 10
229.5999999999999
 20
50.4
 30
0.0
 11
225.4999999999999
 21
48.7
 31
0.0
  0
LINE
  5
364
330
1E
100
AcDbEntity
  8
0
100
AcDbLine
 10
229.7
 20
50.1
 30
0.0
 11
225.7
 21
48.5
 31
0.0
  0
LINE
  5
365
330
1E
100
AcDbEntity
  8
0
100
AcDbLine
 10
234.0
 20
52.5
 30
0.0
 11
229.1999999999999
 21
51.79999999999999
 31
0.0
  0
LINE
  5
366
330
1E
100
AcDbEntity
  8
0
100
AcDbLine
 10
234.0
 20
51.0
 30
0.0
 11
229.5999999999999
 21
50.4
 31
0.0
  0
LINE
  5
367
330
1E
100
AcDbEntity
  8
0
100
AcDbLine
 10
234.0
 20
50.7
 30
0.0
 11
229.7
 21
50.1
 31
0.0
  0
LINE
  5
368
330
1E
100
AcDbEntity
  8
0
100
AcDbLine
 10
229.1999999999999
 20
51.79999999999999
 30
0.0
 11
224.8
 21
50.0
 31
0.0
  0
LINE
  5
369
330
1E
100
AcDbEntity
  8
0
100
AcDbLine
 10
204.5999999999999
 20
50.89999999999999
 30
0.0
 11
201.2
 21
42.7
 31
0.0
  0
LINE
  5
36A
330
1E
100
AcDbEntity
  8
0
100
AcDbLine
 10
202.0
 20
46.532
 30
0.0
 11
202.0
 21
45.284
 31
0.0
  0
LINE
  5
36B
330
1E
100
AcDbEntity
  8
0
100
AcDbLine
 10
202.0
 20
45.284
 30
0.0
 11
202.0
 21
46.532
 31
0.0
  0
LINE
  5
36C
330
1E
100
AcDbEntity
  8
0
100
AcDbLine
 10
202.0
 20
45.284
 30
0.0
 11
202.0
 21
44.62941176470589
 31
0.0
  0
LINE
  5
36D
330
1E
100
AcDbEntity
  8
0
100
AcDbLine
 10
202.0
 20
44.62941176470589
 30
0.0
 11
202.0
 21
45.284
 31
0.0
  0
LINE
  5
36E
330
1E
100
AcDbEntity
  8
0
100
AcDbLine
 10
202.9829268292683
 20
47.0
 30
0.0
 11
202.0
 21
47.0
 31
0.0
  0
LINE
  5
36F
330
1E
100
AcDbEntity
  8
0
100
AcDbLine
 10
202.9829268292683
 20
47.0
 30
0.0
 11
202.0
 21
47.0
 31
0.0
  0
LINE
  5
370
330
1E
100
AcDbEntity
  8
0
100
AcDbLine
 10
202.0
 20
46.532
 30
0.0
 11
202.0
 21
47.0
 31
0.0
  0
LINE
  5
371
330
1E
100
AcDbEntity
  8
0
100
AcDbLine
 10
202.0
 20
47.0
 30
0.0
 11
202.0
 21
46.532
 31
0.0
  0
LINE
  5
372
330
1E
100
AcDbEntity
  8
0
100
AcDbLine
 10
217.0999999999999
 20
63.39999999999999
 30
0.0
 11
210.0
 21
58.0
 31
0.0
  0
LINE
  5
373
330
1E
100
AcDbEntity
  8
0
100
AcDbLine
 10
220.0
 20
66.0
 30
0.0
 11
220.0
 21
64.60243902439029
 31
0.0
  0
LINE
  5
374
330
1E
100
AcDbEntity
  8
0
100
AcDbLine
 10
220.0
 20
64.60243902439021
 30
0.0
 11
220.0
 21
66.0
 31
0.0
  0
LINE
  5
375
330
1E
100
AcDbEntity
  8
0
100
AcDbLine
 10
225.3
 20
66.79999999999999
 30
0.0
 11
217.0999999999999
 21
63.39999999999999
 31
0.0
  0
LINE
  5
376
330
1E
100
AcDbEntity
  8
0
100
AcDbLine
 10
234.0
 20
68.0
 30
0.0
 11
225.3
 21
66.79999999999999
 31
0.0
  0
LINE
  5
377
330
1E
100
AcDbEntity
  8
0
100
AcDbLine
 10
221.0
 20
66.0
 30
0.0
 11
220.0
 21
66.0
 31
0.0
  0
LINE
  5
378
330
1E
100
AcDbEntity
  8
0
100
AcDbLine
 10
222.716
 20
66.0
 30
0.0
 11
221.468
 21
66.0
 31
0.0
  0
LINE
  5
379
330
1E
100
AcDbEntity
  8
0
100
AcDbLine
 10
223.370588235294
 20
66.0
 30
0.0
 11
222.716
 21
66.0
 31
0.0
  0
LINE
  5
37A
330
1E
100
AcDbEntity
  8
0
100
AcDbLine
 10
221.468
 20
66.0
 30
0.0
 11
221.0
 21
66.0
 31
0.0
  0
ENDSEC
  0
SECTION
  2
OBJECTS
  0
DICTIONARY
  5
C
330
0
100
AcDbDictionary
281
     1
  3
ACAD_GROUP
350
D
  3
ACAD_LAYOUT
350
19
  3
ACAD_MLINESTYLE
350
16
  3
ACAD_PLOTSETTINGS
350
18
  3
ACAD_PLOTSTYLENAME
350
E
  3
AcDbVariableDictionary
350
37C
  0
DICTIONARY
  5
D
102
{ACAD_REACTORS
330
C
102
}
330
C
100
AcDbDictionary
281
     1
  0
DICTIONARY
  5
19
102
{ACAD_REACTORS
330
C
102
}
330
C
100
AcDbDictionary
281
     1
  3
Layout1
350
1D
  3
Model
350
21
  0
DICTIONARY
  5
16
102
{ACAD_REACTORS
330
C
102
}
330
C
100
AcDbDictionary
281
     1
  3
Standard
350
17
  0
DICTIONARY
  5
18
102
{ACAD_REACTORS
330
C
102
}
330
C
100
AcDbDictionary
281
     1
  0
ACDBDICTIONARYWDFLT
  5
E
102
{ACAD_REACTORS
330
C
102
}
330
C
100
AcDbDictionary
281
     1
  3
Normal
350
F
100
AcDbDictionaryWithDefault
340
F
  0
DICTIONARY
  5
37C
102
{ACAD_REACTORS
330
C
102
}
330
C
100
AcDbDictionary
281
     1
  3
DIMASSOC
350
37D
  0
LAYOUT
  5
1D
102
{ACAD_REACTORS
330
19
102
}
330
19
100
AcDbPlotSettings
  1

  2
C:\Programme\AutoCAD LT 2002 Deu\plotters\DWF ePlot (optimized for plotting).pc3
  4

  6

 40
0.0
 41
0.0
 42
0.0
 43
0.0
 44
0.0
 45
0.0
 46
0.0
 47
0.0
 48
0.0
 49
0.0
140
0.0
141
0.0
142
1.0
143
1.0
 70
   688
 72
     0
 73
     0
 74
     5
  7

 75
    16
147
1.0
148
0.0
149
0.0
100
AcDbLayout
  1
Layout1
 70
     1
 71
     1
 10
0.0
 20
0.0
 11
12.0
 21
9.0
 12
0.0
 22
0.0
 32
0.0
 14
1.000000000000000E+20
 24
1.000000000000000E+20
 34
1.000000000000000E+20
 15
-1.000000000000000E+20
 25
-1.000000000000000E+20
 35
-1.000000000000000E+20
146
0.0
 13
0.0
 23
0.0
 33
0.0
 16
1.0
 26
0.0
 36
0.0
 17
0.0
 27
1.0
 37
0.0
 76
     0
330
1A
  0
LAYOUT
  5
21
102
{ACAD_REACTORS
330
19
102
}
330
19
100
AcDbPlotSettings
  1

  2
C:\Programme\AutoCAD LT 2002 Deu\plotters\DWF ePlot (optimized for plotting).pc3
  4

  6

 40
0.0
 41
0.0
 42
0.0
 43
0.0
 44
0.0
 45
0.0
 46
0.0
 47
0.0
 48
0.0
 49
0.0
140
0.0
141
0.0
142
1.0
143
1.0
 70
  1712
 72
     0
 73
     0
 74
     0
  7

 75
     0
147
1.0
148
0.0
149
0.0
100
AcDbLayout
  1
Model
 70
     1
 71
     0
 10
0.0
 20
0.0
 11
12.0
 21
9.0
 12
0.0
 22
0.0
 32
0.0
 14
0.0
 24
0.0
 34
0.0
 15
0.0
 25
0.0
 35
0.0
146
0.0
 13
0.0
 23
0.0
 33
0.0
 16
1.0
 26
0.0
 36
0.0
 17
0.0
 27
1.0
 37
0.0
 76
     0
330
1E
  0
MLINESTYLE
  5
17
102
{ACAD_REACTORS
330
16
102
}
330
16
100
AcDbMlineStyle
  2
STANDARD
 70
     0
  3

 62
   256
 51
90.0
 52
90.0
 71
     2
 49
0.5
 62
   256
  6
BYLAYER
 49
-0.5
 62
   256
  6
BYLAYER
  0
ACDBPLACEHOLDER
  5
F
102
{ACAD_REACTORS
330
E
102
}
330
E
  0
DICTIONARYVAR
  5
37D
102
{ACAD_REACTORS
330
37C
102
}
330
37C
100
DictionaryVariables
280
     0
  1
1
  0
ENDSEC
  0
EOF
