  0
SECTION
  2
HEADER
  9
$ACADVER
  1
AC1015
  9
$ACADMAINTVER
 70
    13
  9
$DWGCODEPAGE
  3
ANSI_1252
  9
$INSBASE
 10
0.0
 20
0.0
 30
0.0
  9
$EXTMIN
 10
0.0
 20
0.0000000000000139
 30
0.0
  9
$EXTMAX
 10
268.0
 20
251.0
 30
0.0
  9
$LIMMIN
 10
0.0
 20
0.0
  9
$LIMMAX
 10
12.0
 20
9.0
  9
$ORTHOMODE
 70
     0
  9
$REGENMODE
 70
     1
  9
$FILLMODE
 70
     1
  9
$QTEXTMODE
 70
     0
  9
$MIRRTEXT
 70
     1
  9
$LTSCALE
 40
1.0
  9
$ATTMODE
 70
     1
  9
$TEXTSIZE
 40
0.2
  9
$TRACEWID
 40
0.05
  9
$TEXTSTYLE
  7
Standard
  9
$CLAYER
  8
0
  9
$CELTYPE
  6
Continuous
  9
$CECOLOR
 62
   256
  9
$CELTSCALE
 40
1.0
  9
$DISPSILH
 70
     0
  9
$DIMSCALE
 40
1.0
  9
$DIMASZ
 40
0.18
  9
$DIMEXO
 40
0.0625
  9
$DIMDLI
 40
0.38
  9
$DIMRND
 40
0.0
  9
$DIMDLE
 40
0.0
  9
$DIMEXE
 40
0.18
  9
$DIMTP
 40
0.0
  9
$DIMTM
 40
0.0
  9
$DIMTXT
 40
0.18
  9
$DIMCEN
 40
0.09
  9
$DIMTSZ
 40
0.0
  9
$DIMTOL
 70
     0
  9
$DIMLIM
 70
     0
  9
$DIMTIH
 70
     1
  9
$DIMTOH
 70
     1
  9
$DIMSE1
 70
     0
  9
$DIMSE2
 70
     0
  9
$DIMTAD
 70
     0
  9
$DIMZIN
 70
     0
  9
$DIMBLK
  1

  9
$DIMASO
 70
     1
  9
$DIMSHO
 70
     1
  9
$DIMPOST
  1

  9
$DIMAPOST
  1

  9
$DIMALT
 70
     0
  9
$DIMALTD
 70
     2
  9
$DIMALTF
 40
25.4
  9
$DIMLFAC
 40
1.0
  9
$DIMTOFL
 70
     0
  9
$DIMTVP
 40
0.0
  9
$DIMTIX
 70
     0
  9
$DIMSOXD
 70
     0
  9
$DIMSAH
 70
     0
  9
$DIMBLK1
  1

  9
$DIMBLK2
  1

  9
$DIMSTYLE
  2
Standard
  9
$DIMCLRD
 70
     0
  9
$DIMCLRE
 70
     0
  9
$DIMCLRT
 70
     0
  9
$DIMTFAC
 40
1.0
  9
$DIMGAP
 40
0.09
  9
$DIMJUST
 70
     0
  9
$DIMSD1
 70
     0
  9
$DIMSD2
 70
     0
  9
$DIMTOLJ
 70
     1
  9
$DIMTZIN
 70
     0
  9
$DIMALTZ
 70
     0
  9
$DIMALTTZ
 70
     0
  9
$DIMUPT
 70
     0
  9
$DIMDEC
 70
     4
  9
$DIMTDEC
 70
     4
  9
$DIMALTU
 70
     2
  9
$DIMALTTD
 70
     2
  9
$DIMTXSTY
  7
Standard
  9
$DIMAUNIT
 70
     0
  9
$DIMADEC
 70
     0
  9
$DIMALTRND
 40
0.0
  9
$DIMAZIN
 70
     0
  9
$DIMDSEP
 70
    46
  9
$DIMATFIT
 70
     3
  9
$DIMFRAC
 70
     0
  9
$DIMLDRBLK
  1

  9
$DIMLUNIT
 70
     2
  9
$DIMLWD
 70
    -2
  9
$DIMLWE
 70
    -2
  9
$DIMTMOVE
 70
     0
  9
$LUNITS
 70
     2
  9
$LUPREC
 70
     4
  9
$SKETCHINC
 40
0.1
  9
$FILLETRAD
 40
0.0
  9
$AUNITS
 70
     0
  9
$AUPREC
 70
     0
  9
$MENU
  1
.
  9
$ELEVATION
 40
0.0
  9
$PELEVATION
 40
0.0
  9
$THICKNESS
 40
0.0
  9
$LIMCHECK
 70
     0
  9
$CHAMFERA
 40
0.0
  9
$CHAMFERB
 40
0.0
  9
$CHAMFERC
 40
0.0
  9
$CHAMFERD
 40
0.0
  9
$SKPOLY
 70
     0
  9
$TDCREATE
 40
2455509.350104340
  9
$TDUCREATE
 40
2455509.308437673
  9
$TDUPDATE
 40
2455509.362107557
  9
$TDUUPDATE
 40
2455509.320440891
  9
$TDINDWG
 40
0.0120034028
  9
$TDUSRTIMER
 40
0.0120034028
  9
$USRTIMER
 70
     1
  9
$ANGBASE
 50
0.0
  9
$ANGDIR
 70
     0
  9
$PDMODE
 70
     0
  9
$PDSIZE
 40
0.0
  9
$PLINEWID
 40
0.0
  9
$SPLFRAME
 70
     0
  9
$SPLINETYPE
 70
     6
  9
$SPLINESEGS
 70
     8
  9
$HANDSEED
  5
4C4
  9
$SURFTAB1
 70
     6
  9
$SURFTAB2
 70
     6
  9
$SURFTYPE
 70
     6
  9
$SURFU
 70
     6
  9
$SURFV
 70
     6
  9
$UCSBASE
  2

  9
$UCSNAME
  2

  9
$UCSORG
 10
0.0
 20
0.0
 30
0.0
  9
$UCSXDIR
 10
1.0
 20
0.0
 30
0.0
  9
$UCSYDIR
 10
0.0
 20
1.0
 30
0.0
  9
$UCSORTHOREF
  2

  9
$UCSORTHOVIEW
 70
     1
  9
$UCSORGTOP
 10
0.0
 20
0.0
 30
0.0
  9
$UCSORGBOTTOM
 10
0.0
 20
0.0
 30
0.0
  9
$UCSORGLEFT
 10
0.0
 20
0.0
 30
0.0
  9
$UCSORGRIGHT
 10
0.0
 20
0.0
 30
0.0
  9
$UCSORGFRONT
 10
0.0
 20
0.0
 30
0.0
  9
$UCSORGBACK
 10
0.0
 20
0.0
 30
0.0
  9
$PUCSBASE
  2

  9
$PUCSNAME
  2

  9
$PUCSORG
 10
0.0
 20
0.0
 30
0.0
  9
$PUCSXDIR
 10
1.0
 20
0.0
 30
0.0
  9
$PUCSYDIR
 10
0.0
 20
1.0
 30
0.0
  9
$PUCSORTHOREF
  2

  9
$PUCSORTHOVIEW
 70
     0
  9
$PUCSORGTOP
 10
0.0
 20
0.0
 30
0.0
  9
$PUCSORGBOTTOM
 10
0.0
 20
0.0
 30
0.0
  9
$PUCSORGLEFT
 10
0.0
 20
0.0
 30
0.0
  9
$PUCSORGRIGHT
 10
0.0
 20
0.0
 30
0.0
  9
$PUCSORGFRONT
 10
0.0
 20
0.0
 30
0.0
  9
$PUCSORGBACK
 10
0.0
 20
0.0
 30
0.0
  9
$USERI1
 70
     0
  9
$USERI2
 70
     0
  9
$USERI3
 70
     0
  9
$USERI4
 70
     0
  9
$USERI5
 70
     0
  9
$USERR1
 40
0.0
  9
$USERR2
 40
0.0
  9
$USERR3
 40
0.0
  9
$USERR4
 40
0.0
  9
$USERR5
 40
0.0
  9
$WORLDVIEW
 70
     1
  9
$SHADEDGE
 70
     3
  9
$SHADEDIF
 70
    70
  9
$TILEMODE
 70
     1
  9
$MAXACTVP
 70
    64
  9
$PINSBASE
 10
0.0
 20
0.0
 30
0.0
  9
$PLIMCHECK
 70
     0
  9
$PEXTMIN
 10
1.000000000000000E+20
 20
1.000000000000000E+20
 30
1.000000000000000E+20
  9
$PEXTMAX
 10
-1.000000000000000E+20
 20
-1.000000000000000E+20
 30
-1.000000000000000E+20
  9
$PLIMMIN
 10
0.0
 20
0.0
  9
$PLIMMAX
 10
12.0
 20
9.0
  9
$UNITMODE
 70
     0
  9
$VISRETAIN
 70
     1
  9
$PLINEGEN
 70
     0
  9
$PSLTSCALE
 70
     1
  9
$TREEDEPTH
 70
  3020
  9
$CMLSTYLE
  2
Standard
  9
$CMLJUST
 70
     0
  9
$CMLSCALE
 40
1.0
  9
$PROXYGRAPHICS
 70
     1
  9
$MEASUREMENT
 70
     0
  9
$CELWEIGHT
370
    -1
  9
$ENDCAPS
280
     0
  9
$JOINSTYLE
280
     0
  9
$LWDISPLAY
290
     0
  9
$INSUNITS
 70
     0
  9
$HYPERLINKBASE
  1

  9
$STYLESHEET
  1

  9
$XEDIT
290
     1
  9
$CEPSNTYPE
380
     0
  9
$PSTYLEMODE
290
     1
  9
$FINGERPRINTGUID
  2
{7C89C85F-1BEF-444D-9920-1118964F6EAF}
  9
$VERSIONGUID
  2
{D5BA5E31-6AF0-4F18-A8FA-265CEF595A1C}
  9
$EXTNAMES
290
     1
  9
$PSVPSCALE
 40
0.0
  9
$OLESTARTUP
290
     0
  0
ENDSEC
  0
SECTION
  2
CLASSES
  0
CLASS
  1
ACDBDICTIONARYWDFLT
  2
AcDbDictionaryWithDefault
  3
AutoCAD 2000
 90
        0
280
     0
281
     0
  0
CLASS
  1
ACDBPLACEHOLDER
  2
AcDbPlaceHolder
  3
AutoCAD 2000
 90
        0
280
     0
281
     0
  0
CLASS
  1
LAYOUT
  2
AcDbLayout
  3
AutoCAD 2000
 90
        0
280
     0
281
     0
  0
CLASS
  1
DICTIONARYVAR
  2
AcDbDictionaryVar
  3
AutoCAD 2000
 90
        0
280
     0
281
     0
  0
ENDSEC
  0
SECTION
  2
TABLES
  0
TABLE
  2
VPORT
  5
8
330
0
100
AcDbSymbolTable
 70
     3
  0
VPORT
  5
4C3
330
8
100
AcDbSymbolTableRecord
100
AcDbViewportTableRecord
  2
*Active
 70
     0
 10
0.0
 20
0.0
 11
1.0
 21
1.0
 12
134.0
 22
125.5
 13
0.0
 23
0.0
 14
1.0
 24
1.0
 15
0.0
 25
0.0
 16
0.0
 26
0.0
 36
1.0
 17
0.0
 27
0.0
 37
0.0
 40
252.6978579481397
 41
2.073363431151241
 42
50.0
 43
0.0
 44
0.0
 50
0.0
 51
0.0
 71
     0
 72
   100
 73
     1
 74
     3
 75
     0
 76
     0
 77
     0
 78
     0
281
     0
 65
     1
110
0.0
120
0.0
130
0.0
111
1.0
121
0.0
131
0.0
112
0.0
122
1.0
132
0.0
 79
     1
146
0.0
  0
ENDTAB
  0
TABLE
  2
LTYPE
  5
5
330
0
100
AcDbSymbolTable
 70
     1
  0
LTYPE
  5
13
330
5
100
AcDbSymbolTableRecord
100
AcDbLinetypeTableRecord
  2
ByBlock
 70
     0
  3

 72
    65
 73
     0
 40
0.0
  0
LTYPE
  5
14
330
5
100
AcDbSymbolTableRecord
100
AcDbLinetypeTableRecord
  2
ByLayer
 70
     0
  3

 72
    65
 73
     0
 40
0.0
  0
LTYPE
  5
15
330
5
100
AcDbSymbolTableRecord
100
AcDbLinetypeTableRecord
  2
Continuous
 70
     0
  3
Solid line
 72
    65
 73
     0
 40
0.0
  0
ENDTAB
  0
TABLE
  2
LAYER
  5
2
330
0
100
AcDbSymbolTable
 70
     1
  0
LAYER
  5
10
330
2
100
AcDbSymbolTableRecord
100
AcDbLayerTableRecord
  2
0
 70
     0
 62
     7
  6
Continuous
370
    -3
390
F
  0
ENDTAB
  0
TABLE
  2
STYLE
  5
3
330
0
100
AcDbSymbolTable
 70
     1
  0
STYLE
  5
11
330
3
100
AcDbSymbolTableRecord
100
AcDbTextStyleTableRecord
  2
Standard
 70
     0
 40
0.0
 41
1.0
 50
0.0
 71
     0
 42
0.2
  3
txt
  4

  0
ENDTAB
  0
TABLE
  2
VIEW
  5
6
330
0
100
AcDbSymbolTable
 70
     0
  0
ENDTAB
  0
TABLE
  2
UCS
  5
7
330
0
100
AcDbSymbolTable
 70
     0
  0
ENDTAB
  0
TABLE
  2
APPID
  5
9
330
0
100
AcDbSymbolTable
 70
     1
  0
APPID
  5
12
330
9
100
AcDbSymbolTableRecord
100
AcDbRegAppTableRecord
  2
ACAD
 70
     0
  0
ENDTAB
  0
TABLE
  2
DIMSTYLE
  5
A
330
0
100
AcDbSymbolTable
 70
     1
100
AcDbDimStyleTable
 71
     0
  0
DIMSTYLE
105
3B8
330
A
100
AcDbSymbolTableRecord
100
AcDbDimStyleTableRecord
  2
Standard
 70
     0
340
11
  0
ENDTAB
  0
TABLE
  2
BLOCK_RECORD
  5
1
330
0
100
AcDbSymbolTable
 70
     0
  0
BLOCK_RECORD
  5
1E
330
1
100
AcDbSymbolTableRecord
100
AcDbBlockTableRecord
  2
*Model_Space
340
21
  0
BLOCK_RECORD
  5
1A
330
1
100
AcDbSymbolTableRecord
100
AcDbBlockTableRecord
  2
*Paper_Space
340
1D
  0
ENDTAB
  0
ENDSEC
  0
SECTION
  2
BLOCKS
  0
BLOCK
  5
1F
330
1E
100
AcDbEntity
  8
0
100
AcDbBlockBegin
  2
*Model_Space
 70
     0
 10
0.0
 20
0.0
 30
0.0
  3
*Model_Space
  1

  0
ENDBLK
  5
20
330
1E
100
AcDbEntity
  8
0
100
AcDbBlockEnd
  0
BLOCK
  5
1B
330
1A
100
AcDbEntity
 67
     1
  8
0
100
AcDbBlockBegin
  2
*Paper_Space
 70
     0
 10
0.0
 20
0.0
 30
0.0
  3
*Paper_Space
  1

  0
ENDBLK
  5
1C
330
1A
100
AcDbEntity
 67
     1
  8
0
100
AcDbBlockEnd
  0
ENDSEC
  0
SECTION
  2
ENTITIES
  0
LINE
  5
22
330
1E
100
AcDbEntity
  8
0
100
AcDbLine
 10
0.0
 20
210.0
 30
0.0
 11
1.199999999999999
 21
210.0
 31
0.0
  0
LINE
  5
23
330
1E
100
AcDbEntity
  8
0
100
AcDbLine
 10
0.0
 20
210.0
 30
0.0
 11
0.0
 21
205.5
 31
0.0
  0
LINE
  5
24
330
1E
100
AcDbEntity
  8
0
100
AcDbLine
 10
15.5
 20
200.11
 30
0.0
 11
15.7
 21
200.3
 31
0.0
  0
LINE
  5
25
330
1E
100
AcDbEntity
  8
0
100
AcDbLine
 10
15.5
 20
200.11
 30
0.0
 11
17.0
 21
155.966
 31
0.0
  0
LINE
  5
26
330
1E
100
AcDbEntity
  8
0
100
AcDbLine
 10
15.5
 20
200.11
 30
0.0
 11
16.2
 21
200.11
 31
0.0
  0
LINE
  5
2C
330
1E
100
AcDbEntity
  8
0
100
AcDbLine
 10
0.5
 20
205.0
 30
0.0
 11
12.5
 21
204.4999999999999
 31
0.0
  0
LINE
  5
2F
330
1E
100
AcDbEntity
  8
0
100
AcDbLine
 10
12.5
 20
204.4999999999999
 30
0.0
 11
14.0
 21
204.0
 31
0.0
  0
LINE
  5
31
330
1E
100
AcDbEntity
  8
0
100
AcDbLine
 10
14.0
 20
204.0
 30
0.0
 11
15.0
 21
203.0
 31
0.0
  0
LINE
  5
32
330
1E
100
AcDbEntity
  8
0
100
AcDbLine
 10
15.0
 20
203.0
 30
0.0
 11
15.5
 21
201.5
 31
0.0
  0
LINE
  5
33
330
1E
100
AcDbEntity
  8
0
100
AcDbLine
 10
15.7
 20
200.3
 30
0.0
 11
16.39999999999999
 21
200.3
 31
0.0
  0
LINE
  5
34
330
1E
100
AcDbEntity
  8
0
100
AcDbLine
 10
15.7
 20
200.3
 30
0.0
 11
15.7
 21
201.3
 31
0.0
  0
LINE
  5
37
330
1E
100
AcDbEntity
  8
0
100
AcDbLine
 10
17.3
 20
155.681
 30
0.0
 11
20.89999999999999
 21
155.49
 31
0.0
  0
LINE
  5
39
330
1E
100
AcDbEntity
  8
0
100
AcDbLine
 10
18.2
 20
200.3
 30
0.0
 11
21.1
 21
200.3
 31
0.0
  0
LINE
  5
3A
330
1E
100
AcDbEntity
  8
0
100
AcDbLine
 10
18.0
 20
200.11
 30
0.0
 11
21.0
 21
200.11
 31
0.0
  0
LINE
  5
3B
330
1E
100
AcDbEntity
  8
0
100
AcDbLine
 10
16.39999999999999
 20
200.3
 30
0.0
 11
18.2
 21
200.3
 31
0.0
  0
LINE
  5
3C
330
1E
100
AcDbEntity
  8
0
100
AcDbLine
 10
16.2
 20
200.11
 30
0.0
 11
18.0
 21
200.11
 31
0.0
  0
LINE
  5
3D
330
1E
100
AcDbEntity
  8
0
100
AcDbLine
 10
17.0
 20
155.966
 30
0.0
 11
17.3
 21
155.681
 31
0.0
  0
LINE
  5
41
330
1E
100
AcDbEntity
  8
0
100
AcDbLine
 10
21.1
 20
200.3
 30
0.0
 11
24.9
 21
200.3
 31
0.0
  0
LINE
  5
42
330
1E
100
AcDbEntity
  8
0
100
AcDbLine
 10
21.0
 20
200.11
 30
0.0
 11
24.8
 21
200.11
 31
0.0
  0
LINE
  5
43
330
1E
100
AcDbEntity
  8
0
100
AcDbLine
 10
24.9
 20
200.3
 30
0.0
 11
29.3
 21
200.3
 31
0.0
  0
LINE
  5
44
330
1E
100
AcDbEntity
  8
0
100
AcDbLine
 10
24.8
 20
200.11
 30
0.0
 11
29.19999999999999
 21
200.11
 31
0.0
  0
LINE
  5
47
330
1E
100
AcDbEntity
  8
0
100
AcDbLine
 10
20.89999999999999
 20
155.49
 30
0.0
 11
28.0
 21
155.3
 31
0.0
  0
LINE
  5
4A
330
1E
100
AcDbEntity
  8
0
100
AcDbLine
 10
29.8
 20
155.3
 30
0.0
 11
31.0
 21
155.3
 31
0.0
  0
LINE
  5
4B
330
1E
100
AcDbEntity
  8
0
100
AcDbLine
 10
37.0
 20
155.3
 30
0.0
 11
38.2
 21
155.3
 31
0.0
  0
LINE
  5
4C
330
1E
100
AcDbEntity
  8
0
100
AcDbLine
 10
35.5
 20
155.3
 30
0.0
 11
37.0
 21
155.3
 31
0.0
  0
LINE
  5
4D
330
1E
100
AcDbEntity
  8
0
100
AcDbLine
 10
34.0
 20
155.3
 30
0.0
 11
35.5
 21
155.3
 31
0.0
  0
LINE
  5
4E
330
1E
100
AcDbEntity
  8
0
100
AcDbLine
 10
38.2
 20
155.3
 30
0.0
 11
39.2
 21
155.3
 31
0.0
  0
LINE
  5
4F
330
1E
100
AcDbEntity
  8
0
100
AcDbLine
 10
31.0
 20
155.3
 30
0.0
 11
32.5
 21
155.3
 31
0.0
  0
LINE
  5
50
330
1E
100
AcDbEntity
  8
0
100
AcDbLine
 10
32.5
 20
155.3
 30
0.0
 11
34.0
 21
155.3
 31
0.0
  0
LINE
  5
51
330
1E
100
AcDbEntity
  8
0
100
AcDbLine
 10
28.8
 20
155.3
 30
0.0
 11
29.8
 21
155.3
 31
0.0
  0
LINE
  5
54
330
1E
100
AcDbEntity
  8
0
100
AcDbLine
 10
29.3
 20
200.3
 30
0.0
 11
34.0
 21
200.3
 31
0.0
  0
LINE
  5
55
330
1E
100
AcDbEntity
  8
0
100
AcDbLine
 10
29.19999999999999
 20
200.11
 30
0.0
 11
34.0
 21
200.11
 31
0.0
  0
LINE
  5
58
330
1E
100
AcDbEntity
  8
0
100
AcDbLine
 10
34.0
 20
200.3
 30
0.0
 11
38.7
 21
200.3
 31
0.0
  0
LINE
  5
5B
330
1E
100
AcDbEntity
  8
0
100
AcDbLine
 10
38.7
 20
200.3
 30
0.0
 11
43.1
 21
200.3
 31
0.0
  0
LINE
  5
5C
330
1E
100
AcDbEntity
  8
0
100
AcDbLine
 10
34.0
 20
200.11
 30
0.0
 11
38.79999999999999
 21
200.11
 31
0.0
  0
LINE
  5
5D
330
1E
100
AcDbEntity
  8
0
100
AcDbLine
 10
28.2
 20
155.3
 30
0.0
 11
28.8
 21
155.3
 31
0.0
  0
LINE
  5
5E
330
1E
100
AcDbEntity
  8
0
100
AcDbLine
 10
28.0
 20
155.3
 30
0.0
 11
28.2
 21
155.3
 31
0.0
  0
LINE
  5
5F
330
1E
100
AcDbEntity
  8
0
100
AcDbLine
 10
29.3
 20
201.3
 30
0.0
 11
34.0
 21
201.3
 31
0.0
  0
LINE
  5
60
330
1E
100
AcDbEntity
  8
0
100
AcDbLine
 10
24.9
 20
201.3
 30
0.0
 11
29.3
 21
201.3
 31
0.0
  0
LINE
  5
61
330
1E
100
AcDbEntity
  8
0
100
AcDbLine
 10
21.1
 20
201.3
 30
0.0
 11
24.9
 21
201.3
 31
0.0
  0
LINE
  5
62
330
1E
100
AcDbEntity
  8
0
100
AcDbLine
 10
18.2
 20
201.3
 30
0.0
 11
21.1
 21
201.3
 31
0.0
  0
LINE
  5
63
330
1E
100
AcDbEntity
  8
0
100
AcDbLine
 10
16.39999999999999
 20
201.3
 30
0.0
 11
18.2
 21
201.3
 31
0.0
  0
LINE
  5
64
330
1E
100
AcDbEntity
  8
0
100
AcDbLine
 10
15.7
 20
201.3
 30
0.0
 11
16.39999999999999
 21
201.3
 31
0.0
  0
LINE
  5
65
330
1E
100
AcDbEntity
  8
0
100
AcDbLine
 10
15.7
 20
201.3
 30
0.0
 11
15.7
 21
200.3
 31
0.0
  0
LINE
  5
67
330
1E
100
AcDbEntity
  8
0
100
AcDbLine
 10
34.0
 20
201.3
 30
0.0
 11
38.7
 21
201.3
 31
0.0
  0
LINE
  5
68
330
1E
100
AcDbEntity
  8
0
100
AcDbLine
 10
39.2
 20
155.3
 30
0.0
 11
39.8
 21
155.3
 31
0.0
  0
LINE
  5
69
330
1E
100
AcDbEntity
  8
0
100
AcDbLine
 10
39.8
 20
155.3
 30
0.0
 11
40.0
 21
155.3
 31
0.0
  0
LINE
  5
6E
330
1E
100
AcDbEntity
  8
0
100
AcDbLine
 10
46.9
 20
200.3
 30
0.0
 11
49.8
 21
200.3
 31
0.0
  0
LINE
  5
6F
330
1E
100
AcDbEntity
  8
0
100
AcDbLine
 10
43.1
 20
200.3
 30
0.0
 11
46.9
 21
200.3
 31
0.0
  0
LINE
  5
70
330
1E
100
AcDbEntity
  8
0
100
AcDbLine
 10
43.2
 20
200.11
 30
0.0
 11
47.0
 21
200.11
 31
0.0
  0
LINE
  5
71
330
1E
100
AcDbEntity
  8
0
100
AcDbLine
 10
38.79999999999999
 20
200.11
 30
0.0
 11
43.2
 21
200.11
 31
0.0
  0
LINE
  5
72
330
1E
100
AcDbEntity
  8
0
100
AcDbLine
 10
40.0
 20
155.3
 30
0.0
 11
47.09999999999999
 21
155.49
 31
0.0
  0
LINE
  5
73
330
1E
100
AcDbEntity
  8
0
100
AcDbLine
 10
38.7
 20
201.3
 30
0.0
 11
43.1
 21
201.3
 31
0.0
  0
LINE
  5
74
330
1E
100
AcDbEntity
  8
0
100
AcDbLine
 10
43.1
 20
201.3
 30
0.0
 11
46.9
 21
201.3
 31
0.0
  0
LINE
  5
76
330
1E
100
AcDbEntity
  8
0
100
AcDbLine
 10
47.09999999999999
 20
155.49
 30
0.0
 11
50.7
 21
155.681
 31
0.0
  0
LINE
  5
7A
330
1E
100
AcDbEntity
  8
0
100
AcDbLine
 10
50.7
 20
155.681
 30
0.0
 11
51.0
 21
155.966
 31
0.0
  0
LINE
  5
7B
330
1E
100
AcDbEntity
  8
0
100
AcDbLine
 10
47.0
 20
200.11
 30
0.0
 11
50.0
 21
200.11
 31
0.0
  0
LINE
  5
7C
330
1E
100
AcDbEntity
  8
0
100
AcDbLine
 10
49.8
 20
200.3
 30
0.0
 11
51.6
 21
200.3
 31
0.0
  0
LINE
  5
7D
330
1E
100
AcDbEntity
  8
0
100
AcDbLine
 10
50.0
 20
200.11
 30
0.0
 11
51.79999999999999
 21
200.11
 31
0.0
  0
LINE
  5
7E
330
1E
100
AcDbEntity
  8
0
100
AcDbLine
 10
51.6
 20
200.3
 30
0.0
 11
52.3
 21
200.3
 31
0.0
  0
LINE
  5
7F
330
1E
100
AcDbEntity
  8
0
100
AcDbLine
 10
51.0
 20
155.966
 30
0.0
 11
52.5
 21
200.11
 31
0.0
  0
LINE
  5
81
330
1E
100
AcDbEntity
  8
0
100
AcDbLine
 10
46.9
 20
201.3
 30
0.0
 11
49.8
 21
201.3
 31
0.0
  0
LINE
  5
82
330
1E
100
AcDbEntity
  8
0
100
AcDbLine
 10
49.8
 20
201.3
 30
0.0
 11
51.6
 21
201.3
 31
0.0
  0
LINE
  5
85
330
1E
100
AcDbEntity
  8
0
100
AcDbLine
 10
124.452
 20
4.242900000000009
 30
0.0
 11
126.212
 21
2.458200000000009
 31
0.0
  0
LINE
  5
86
330
1E
100
AcDbEntity
  8
0
100
AcDbLine
 10
134.0
 20
0.0000000000000139
 30
0.0
 11
136.816
 21
0.303100000000009
 31
0.0
  0
LINE
  5
87
330
1E
100
AcDbEntity
  8
0
100
AcDbLine
 10
131.1839999999999
 20
0.303100000000009
 30
0.0
 11
134.0
 21
0.0000000000000139
 31
0.0
  0
LINE
  5
88
330
1E
100
AcDbEntity
  8
0
100
AcDbLine
 10
136.816
 20
0.303100000000009
 30
0.0
 11
139.456
 21
1.111200000000009
 31
0.0
  0
LINE
  5
89
330
1E
100
AcDbEntity
  8
0
100
AcDbLine
 10
139.456
 20
1.111200000000009
 30
0.0
 11
141.7879999999999
 21
2.458200000000009
 31
0.0
  0
LINE
  5
8D
330
1E
100
AcDbEntity
  8
0
100
AcDbLine
 10
141.7879999999999
 20
2.458200000000009
 30
0.0
 11
143.548
 21
4.242900000000009
 31
0.0
  0
LINE
  5
8F
330
1E
100
AcDbEntity
  8
0
100
AcDbLine
 10
143.548
 20
4.242900000000009
 30
0.0
 11
144.6039999999999
 21
6.263300000000018
 31
0.0
  0
LINE
  5
90
330
1E
100
AcDbEntity
  8
0
100
AcDbLine
 10
144.6039999999999
 20
6.263300000000018
 30
0.0
 11
145.0
 21
8.418400000000008
 31
0.0
  0
LINE
  5
92
330
1E
100
AcDbEntity
  8
0
100
AcDbLine
 10
128.5439999999999
 20
1.111200000000009
 30
0.0
 11
131.1839999999999
 21
0.303100000000009
 31
0.0
  0
LINE
  5
94
330
1E
100
AcDbEntity
  8
0
100
AcDbLine
 10
126.212
 20
2.458200000000009
 30
0.0
 11
128.5439999999999
 21
1.111200000000009
 31
0.0
  0
LINE
  5
95
330
1E
100
AcDbEntity
  8
0
100
AcDbLine
 10
145.0
 20
8.418400000000008
 30
0.0
 11
145.0
 21
9.125700000000019
 31
0.0
  0
LINE
  5
96
330
1E
100
AcDbEntity
  8
0
100
AcDbLine
 10
145.0
 20
9.125700000000019
 30
0.0
 11
145.0
 21
8.418400000000008
 31
0.0
  0
LINE
  5
9A
330
1E
100
AcDbEntity
  8
0
100
AcDbLine
 10
123.3959999999999
 20
6.263300000000018
 30
0.0
 11
124.452
 21
4.242900000000009
 31
0.0
  0
LINE
  5
9B
330
1E
100
AcDbEntity
  8
0
100
AcDbLine
 10
123.0
 20
8.418400000000008
 30
0.0
 11
123.3959999999999
 21
6.263300000000018
 31
0.0
  0
LINE
  5
9C
330
1E
100
AcDbEntity
  8
0
100
AcDbLine
 10
123.0
 20
14.30649999999999
 30
0.0
 11
123.0
 21
9.125700000000019
 31
0.0
  0
LINE
  5
9E
330
1E
100
AcDbEntity
  8
0
100
AcDbLine
 10
123.0
 20
27.7174
 30
0.0
 11
123.0
 21
20.39979999999999
 31
0.0
  0
LINE
  5
A0
330
1E
100
AcDbEntity
  8
0
100
AcDbLine
 10
123.0
 20
35.69819999999999
 30
0.0
 11
123.0
 21
27.7174
 31
0.0
  0
LINE
  5
A1
330
1E
100
AcDbEntity
  8
0
100
AcDbLine
 10
123.0
 20
20.39979999999999
 30
0.0
 11
123.0
 21
14.30649999999999
 31
0.0
  0
LINE
  5
A2
330
1E
100
AcDbEntity
  8
0
100
AcDbLine
 10
145.0
 20
14.30649999999999
 30
0.0
 11
145.0
 21
9.125700000000019
 31
0.0
  0
LINE
  5
A6
330
1E
100
AcDbEntity
  8
0
100
AcDbLine
 10
145.0
 20
27.7174
 30
0.0
 11
145.0
 21
20.39979999999999
 31
0.0
  0
LINE
  5
A8
330
1E
100
AcDbEntity
  8
0
100
AcDbLine
 10
145.0
 20
20.39979999999999
 30
0.0
 11
145.0
 21
14.30649999999999
 31
0.0
  0
LINE
  5
A9
330
1E
100
AcDbEntity
  8
0
100
AcDbLine
 10
145.0
 20
35.69819999999999
 30
0.0
 11
145.0
 21
27.7174
 31
0.0
  0
LINE
  5
AB
330
1E
100
AcDbEntity
  8
0
100
AcDbLine
 10
145.0
 20
35.69819999999999
 30
0.0
 11
152.5
 21
201.5
 31
0.0
  0
LINE
  5
AF
330
1E
100
AcDbEntity
  8
0
100
AcDbLine
 10
123.0
 20
9.125700000000019
 30
0.0
 11
123.0
 21
8.418400000000008
 31
0.0
  0
LINE
  5
F8
330
1E
100
AcDbEntity
  8
0
100
AcDbLine
 10
51.79999999999999
 20
200.11
 30
0.0
 11
52.5
 21
200.11
 31
0.0
  0
LINE
  5
10A
330
1E
100
AcDbEntity
  8
0
100
AcDbLine
 10
52.3
 20
200.3
 30
0.0
 11
52.5
 21
200.11
 31
0.0
  0
LINE
  5
10B
330
1E
100
AcDbEntity
  8
0
100
AcDbLine
 10
52.3
 20
200.3
 30
0.0
 11
52.3
 21
201.3
 31
0.0
  0
LINE
  5
10C
330
1E
100
AcDbEntity
  8
0
100
AcDbLine
 10
51.6
 20
201.3
 30
0.0
 11
52.3
 21
201.3
 31
0.0
  0
LINE
  5
126
330
1E
100
AcDbEntity
  8
0
100
AcDbLine
 10
115.5
 20
201.5
 30
0.0
 11
123.0
 21
35.69819999999999
 31
0.0
  0
LINE
  5
128
330
1E
100
AcDbEntity
  8
0
100
AcDbLine
 10
152.5
 20
201.5
 30
0.0
 11
153.0
 21
203.0
 31
0.0
  0
LINE
  5
131
330
1E
100
AcDbEntity
  8
0
100
AcDbLine
 10
153.0
 20
203.0
 30
0.0
 11
154.0
 21
204.0
 31
0.0
  0
LINE
  5
134
330
1E
100
AcDbEntity
  8
0
100
AcDbLine
 10
115.0
 20
203.0
 30
0.0
 11
115.5
 21
201.5
 31
0.0
  0
LINE
  5
140
330
1E
100
AcDbEntity
  8
0
100
AcDbLine
 10
154.0
 20
204.0
 30
0.0
 11
155.4999999999999
 21
204.4999999999999
 31
0.0
  0
LINE
  5
143
330
1E
100
AcDbEntity
  8
0
100
AcDbLine
 10
114.0
 20
204.0
 30
0.0
 11
115.0
 21
203.0
 31
0.0
  0
LINE
  5
147
330
1E
100
AcDbEntity
  8
0
100
AcDbLine
 10
155.4999999999999
 20
204.4999999999999
 30
0.0
 11
167.5
 21
205.0
 31
0.0
  0
LINE
  5
14A
330
1E
100
AcDbEntity
  8
0
100
AcDbLine
 10
112.5
 20
204.4999999999999
 30
0.0
 11
114.0
 21
204.0
 31
0.0
  0
LINE
  5
15C
330
1E
100
AcDbEntity
  8
0
100
AcDbLine
 10
167.5
 20
205.0
 30
0.0
 11
168.0
 21
205.5
 31
0.0
  0
LINE
  5
161
330
1E
100
AcDbEntity
  8
0
100
AcDbLine
 10
100.5
 20
205.0
 30
0.0
 11
112.5
 21
204.4999999999999
 31
0.0
  0
LINE
  5
178
330
1E
100
AcDbEntity
  8
0
100
AcDbLine
 10
55.5
 20
204.4999999999999
 30
0.0
 11
67.5
 21
205.0
 31
0.0
  0
LINE
  5
179
330
1E
100
AcDbEntity
  8
0
100
AcDbLine
 10
67.5
 20
205.0
 30
0.0
 11
68.0
 21
205.5
 31
0.0
  0
LINE
  5
17A
330
1E
100
AcDbEntity
  8
0
100
AcDbLine
 10
54.0
 20
204.0
 30
0.0
 11
55.5
 21
204.4999999999999
 31
0.0
  0
LINE
  5
17B
330
1E
100
AcDbEntity
  8
0
100
AcDbLine
 10
53.0
 20
203.0
 30
0.0
 11
54.0
 21
204.0
 31
0.0
  0
LINE
  5
17C
330
1E
100
AcDbEntity
  8
0
100
AcDbLine
 10
52.5
 20
201.5
 30
0.0
 11
53.0
 21
203.0
 31
0.0
  0
LINE
  5
17D
330
1E
100
AcDbEntity
  8
0
100
AcDbLine
 10
52.3
 20
201.3
 30
0.0
 11
52.5
 21
201.5
 31
0.0
  0
LINE
  5
17E
330
1E
100
AcDbEntity
  8
0
100
AcDbLine
 10
52.3
 20
201.3
 30
0.0
 11
52.3
 21
200.3
 31
0.0
  0
LINE
  5
17F
330
1E
100
AcDbEntity
  8
0
100
AcDbLine
 10
15.5
 20
201.5
 30
0.0
 11
15.7
 21
201.3
 31
0.0
  0
LINE
  5
18A
330
1E
100
AcDbEntity
  8
0
100
AcDbLine
 10
1.199999999999999
 20
210.0
 30
0.0
 11
4.599999999999999
 21
210.0
 31
0.0
  0
LINE
  5
18B
330
1E
100
AcDbEntity
  8
0
100
AcDbLine
 10
4.599999999999999
 20
210.0
 30
0.0
 11
10.0
 21
210.0
 31
0.0
  0
LINE
  5
18C
330
1E
100
AcDbEntity
  8
0
100
AcDbLine
 10
1.199999999999999
 20
210.0
 30
0.0
 11
4.599999999999999
 21
210.0
 31
0.0
  0
LINE
  5
18D
330
1E
100
AcDbEntity
  8
0
100
AcDbLine
 10
22.0
 20
210.0
 30
0.0
 11
22.0
 21
211.0
 31
0.0
  0
LINE
  5
18E
330
1E
100
AcDbEntity
  8
0
100
AcDbLine
 10
10.0
 20
210.0
 30
0.0
 11
17.1
 21
210.0
 31
0.0
  0
LINE
  5
190
330
1E
100
AcDbEntity
  8
0
100
AcDbLine
 10
17.1
 20
210.0
 30
0.0
 11
25.3
 21
210.0
 31
0.0
  0
LINE
  5
191
330
1E
100
AcDbEntity
  8
0
100
AcDbLine
 10
25.3
 20
210.0
 30
0.0
 11
34.0
 21
210.0
 31
0.0
  0
LINE
  5
194
330
1E
100
AcDbEntity
  8
0
100
AcDbLine
 10
46.0
 20
210.0
 30
0.0
 11
46.0
 21
211.0
 31
0.0
  0
LINE
  5
198
330
1E
100
AcDbEntity
  8
0
100
AcDbLine
 10
63.39999999999999
 20
210.0
 30
0.0
 11
66.79999999999999
 21
210.0
 31
0.0
  0
LINE
  5
199
330
1E
100
AcDbEntity
  8
0
100
AcDbLine
 10
66.79999999999999
 20
210.0
 30
0.0
 11
68.0
 21
210.0
 31
0.0
  0
LINE
  5
19B
330
1E
100
AcDbEntity
  8
0
100
AcDbLine
 10
58.0
 20
210.0
 30
0.0
 11
63.39999999999999
 21
210.0
 31
0.0
  0
LINE
  5
19D
330
1E
100
AcDbEntity
  8
0
100
AcDbLine
 10
50.89999999999999
 20
210.0
 30
0.0
 11
58.0
 21
210.0
 31
0.0
  0
LINE
  5
19E
330
1E
100
AcDbEntity
  8
0
100
AcDbLine
 10
42.7
 20
210.0
 30
0.0
 11
50.89999999999999
 21
210.0
 31
0.0
  0
LINE
  5
19F
330
1E
100
AcDbEntity
  8
0
100
AcDbLine
 10
22.0
 20
211.0
 30
0.0
 11
22.43199999999999
 21
211.0
 31
0.0
  0
LINE
  5
1A0
330
1E
100
AcDbEntity
  8
0
100
AcDbLine
 10
22.0
 20
211.0
 30
0.0
 11
22.0
 21
210.0
 31
0.0
  0
LINE
  5
1A1
330
1E
100
AcDbEntity
  8
0
100
AcDbLine
 10
22.43199999999999
 20
211.0
 30
0.0
 11
23.584
 21
211.0
 31
0.0
  0
LINE
  5
1A2
330
1E
100
AcDbEntity
  8
0
100
AcDbLine
 10
23.584
 20
211.0
 30
0.0
 11
25.504
 21
211.0
 31
0.0
  0
LINE
  5
1A3
330
1E
100
AcDbEntity
  8
0
100
AcDbLine
 10
25.504
 20
211.0
 30
0.0
 11
28.048
 21
211.0
 31
0.0
  0
LINE
  5
1A4
330
1E
100
AcDbEntity
  8
0
100
AcDbLine
 10
28.048
 20
211.0
 30
0.0
 11
30.928
 21
211.0
 31
0.0
  0
LINE
  5
1A5
330
1E
100
AcDbEntity
  8
0
100
AcDbLine
 10
42.496
 20
211.0
 30
0.0
 11
44.416
 21
211.0
 31
0.0
  0
LINE
  5
1A6
330
1E
100
AcDbEntity
  8
0
100
AcDbLine
 10
39.952
 20
211.0
 30
0.0
 11
42.496
 21
211.0
 31
0.0
  0
LINE
  5
1A7
330
1E
100
AcDbEntity
  8
0
100
AcDbLine
 10
45.568
 20
211.0
 30
0.0
 11
46.0
 21
211.0
 31
0.0
  0
LINE
  5
1A8
330
1E
100
AcDbEntity
  8
0
100
AcDbLine
 10
44.416
 20
211.0
 30
0.0
 11
45.568
 21
211.0
 31
0.0
  0
LINE
  5
1A9
330
1E
100
AcDbEntity
  8
0
100
AcDbLine
 10
43.20399999999999
 20
211.0
 30
0.0
 11
45.284
 21
211.0
 31
0.0
  0
LINE
  5
1AA
330
1E
100
AcDbEntity
  8
0
100
AcDbLine
 10
45.284
 20
211.0
 30
0.0
 11
46.532
 21
211.0
 31
0.0
  0
LINE
  5
1AB
330
1E
100
AcDbEntity
  8
0
100
AcDbLine
 10
24.796
 20
211.0
 30
0.0
 11
27.552
 21
211.0
 31
0.0
  0
LINE
  5
1AC
330
1E
100
AcDbEntity
  8
0
100
AcDbLine
 10
22.71599999999999
 20
211.0
 30
0.0
 11
24.796
 21
211.0
 31
0.0
  0
LINE
  5
1AD
330
1E
100
AcDbEntity
  8
0
100
AcDbLine
 10
21.468
 20
211.0
 30
0.0
 11
22.0
 21
211.0
 31
0.0
  0
LINE
  5
1AE
330
1E
100
AcDbEntity
  8
0
100
AcDbLine
 10
21.468
 20
211.0
 30
0.0
 11
22.71599999999999
 21
211.0
 31
0.0
  0
LINE
  5
1AF
330
1E
100
AcDbEntity
  8
0
100
AcDbLine
 10
21.0
 20
211.0
 30
0.0
 11
21.468
 21
211.0
 31
0.0
  0
LINE
  5
1B0
330
1E
100
AcDbEntity
  8
0
100
AcDbLine
 10
21.0
 20
211.0
 30
0.0
 11
21.0
 21
236.0
 31
0.0
  0
LINE
  5
1B1
330
1E
100
AcDbEntity
  8
0
100
AcDbLine
 10
47.0
 20
211.0
 30
0.0
 11
47.0
 21
225.0
 31
0.0
  0
LINE
  5
1B2
330
1E
100
AcDbEntity
  8
0
100
AcDbLine
 10
46.0
 20
211.0
 30
0.0
 11
46.532
 21
211.0
 31
0.0
  0
LINE
  5
1B3
330
1E
100
AcDbEntity
  8
0
100
AcDbLine
 10
46.0
 20
211.0
 30
0.0
 11
46.0
 21
210.0
 31
0.0
  0
LINE
  5
1B4
330
1E
100
AcDbEntity
  8
0
100
AcDbLine
 10
26.134
 20
226.3755999999999
 30
0.0
 11
27.86599999999999
 21
225.3756
 31
0.0
  0
LINE
  5
1B5
330
1E
100
AcDbEntity
  8
0
100
AcDbLine
 10
26.134
 20
226.3755999999999
 30
0.0
 11
27.134
 21
228.1076999999999
 31
0.0
  0
LINE
  5
1B6
330
1E
100
AcDbEntity
  8
0
100
AcDbLine
 10
26.134
 20
226.3755999999999
 30
0.0
 11
26.7012265751552
 21
227.3580931508259
 31
0.0
  0
LINE
  5
1B7
330
1E
100
AcDbEntity
  8
0
100
AcDbLine
 10
27.552
 20
226.716
 30
0.0
 11
30.67199999999999
 21
225.468
 31
0.0
  0
LINE
  5
1B8
330
1E
100
AcDbEntity
  8
0
100
AcDbLine
 10
30.928
 20
211.0
 30
0.0
 11
34.0
 21
211.0
 31
0.0
  0
LINE
  5
1B9
330
1E
100
AcDbEntity
  8
0
100
AcDbLine
 10
37.07199999999999
 20
211.0
 30
0.0
 11
39.952
 21
211.0
 31
0.0
  0
LINE
  5
1BA
330
1E
100
AcDbEntity
  8
0
100
AcDbLine
 10
34.0
 20
211.0
 30
0.0
 11
37.328
 21
211.0
 31
0.0
  0
LINE
  5
1BB
330
1E
100
AcDbEntity
  8
0
100
AcDbLine
 10
34.0
 20
211.0
 30
0.0
 11
37.07199999999999
 21
211.0
 31
0.0
  0
LINE
  5
1BC
330
1E
100
AcDbEntity
  8
0
100
AcDbLine
 10
37.328
 20
211.0
 30
0.0
 11
40.448
 21
211.0
 31
0.0
  0
LINE
  5
1BD
330
1E
100
AcDbEntity
  8
0
100
AcDbLine
 10
40.448
 20
211.0
 30
0.0
 11
43.20399999999999
 21
211.0
 31
0.0
  0
LINE
  5
1BE
330
1E
100
AcDbEntity
  8
0
100
AcDbLine
 10
27.86599999999999
 20
225.3756
 30
0.0
 11
28.86599999999999
 21
227.1077
 31
0.0
  0
LINE
  5
1BF
330
1E
100
AcDbEntity
  8
0
100
AcDbLine
 10
34.0
 20
225.0
 30
0.0
 11
37.328
 21
225.468
 31
0.0
  0
LINE
  5
1C0
330
1E
100
AcDbEntity
  8
0
100
AcDbLine
 10
40.13399999999999
 20
225.3756
 30
0.0
 11
41.86600000000001
 21
226.3755999999999
 31
0.0
  0
LINE
  5
1C1
330
1E
100
AcDbEntity
  8
0
100
AcDbLine
 10
37.328
 20
225.468
 30
0.0
 11
39.56423310351299
 21
226.362493241405
 31
0.0
  0
LINE
  5
1C2
330
1E
100
AcDbEntity
  8
0
100
AcDbLine
 10
37.328
 20
225.468
 30
0.0
 11
40.448
 21
226.716
 31
0.0
  0
LINE
  5
1C3
330
1E
100
AcDbEntity
  8
0
100
AcDbLine
 10
39.56423310351299
 20
226.362493241405
 30
0.0
 11
40.13399999999999
 21
225.3756
 31
0.0
  0
LINE
  5
1C4
330
1E
100
AcDbEntity
  8
0
100
AcDbLine
 10
34.0
 20
226.8571
 30
0.0
 11
36.8526
 21
227.2583
 31
0.0
  0
LINE
  5
1C5
330
1E
100
AcDbEntity
  8
0
100
AcDbLine
 10
40.448
 20
226.716
 30
0.0
 11
43.20399999999999
 21
228.7959999999999
 31
0.0
  0
LINE
  5
1C6
330
1E
100
AcDbEntity
  8
0
100
AcDbLine
 10
30.67199999999999
 20
225.468
 30
0.0
 11
34.0
 21
225.0
 31
0.0
  0
LINE
  5
1C7
330
1E
100
AcDbEntity
  8
0
100
AcDbLine
 10
28.435766896487
 20
226.362493241405
 30
0.0
 11
30.67199999999999
 21
225.468
 31
0.0
  0
LINE
  5
1C8
330
1E
100
AcDbEntity
  8
0
100
AcDbLine
 10
30.67199999999999
 20
211.0
 30
0.0
 11
34.0
 21
211.0
 31
0.0
  0
LINE
  5
1C9
330
1E
100
AcDbEntity
  8
0
100
AcDbLine
 10
27.552
 20
211.0
 30
0.0
 11
30.67199999999999
 21
211.0
 31
0.0
  0
LINE
  5
1CA
330
1E
100
AcDbEntity
  8
0
100
AcDbLine
 10
46.532
 20
211.0
 30
0.0
 11
47.0
 21
211.0
 31
0.0
  0
LINE
  5
1CB
330
1E
100
AcDbEntity
  8
0
100
AcDbLine
 10
66.0
 20
225.0
 30
0.0
 11
66.0
 21
225.468
 31
0.0
  0
LINE
  5
1CC
330
1E
100
AcDbEntity
  8
0
100
AcDbLine
 10
66.0
 20
226.716
 30
0.0
 11
66.0
 21
225.468
 31
0.0
  0
LINE
  5
1CD
330
1E
100
AcDbEntity
  8
0
100
AcDbLine
 10
66.0
 20
226.716
 30
0.0
 11
66.0
 21
228.7959999999999
 31
0.0
  0
LINE
  5
1CE
330
1E
100
AcDbEntity
  8
0
100
AcDbLine
 10
66.0
 20
225.468
 30
0.0
 11
66.0
 21
225.0
 31
0.0
  0
LINE
  5
1CF
330
1E
100
AcDbEntity
  8
0
100
AcDbLine
 10
66.0
 20
225.468
 30
0.0
 11
66.0
 21
226.716
 31
0.0
  0
LINE
  5
1D0
330
1E
100
AcDbEntity
  8
0
100
AcDbLine
 10
47.0
 20
225.0
 30
0.0
 11
66.0
 21
225.0
 31
0.0
  0
LINE
  5
1D1
330
1E
100
AcDbEntity
  8
0
100
AcDbLine
 10
47.0
 20
225.0
 30
0.0
 11
47.0
 21
211.0
 31
0.0
  0
LINE
  5
1D2
330
1E
100
AcDbEntity
  8
0
100
AcDbLine
 10
9.0
 20
236.0
 30
0.0
 11
9.199999999999999
 21
236.0
 31
0.0
  0
LINE
  5
1D3
330
1E
100
AcDbEntity
  8
0
100
AcDbLine
 10
9.0
 20
236.0
 30
0.0
 11
9.0
 21
240.0
 31
0.0
  0
LINE
  5
1D5
330
1E
100
AcDbEntity
  8
0
100
AcDbLine
 10
9.199999999999999
 20
236.0
 30
0.0
 11
9.699999999999999
 21
236.0
 31
0.0
  0
LINE
  5
1D7
330
1E
100
AcDbEntity
  8
0
100
AcDbLine
 10
9.699999999999999
 20
236.0
 30
0.0
 11
10.5
 21
236.0
 31
0.0
  0
LINE
  5
1D9
330
1E
100
AcDbEntity
  8
0
100
AcDbLine
 10
10.5
 20
236.0
 30
0.0
 11
11.5
 21
236.0
 31
0.0
  0
LINE
  5
1DA
330
1E
100
AcDbEntity
  8
0
100
AcDbLine
 10
22.71599999999999
 20
231.552
 30
0.0
 11
24.796
 21
228.7959999999999
 31
0.0
  0
LINE
  5
1DB
330
1E
100
AcDbEntity
  8
0
100
AcDbLine
 10
27.134
 20
228.1076999999999
 30
0.0
 11
28.86599999999999
 21
227.1077
 31
0.0
  0
LINE
  5
1DC
330
1E
100
AcDbEntity
  8
0
100
AcDbLine
 10
31.1474
 20
227.2583
 30
0.0
 11
34.0
 21
226.8571
 31
0.0
  0
LINE
  5
1DD
330
1E
100
AcDbEntity
  8
0
100
AcDbLine
 10
28.4731
 20
228.3279999999999
 30
0.0
 11
31.1474
 21
227.2583
 31
0.0
  0
LINE
  5
1DE
330
1E
100
AcDbEntity
  8
0
100
AcDbLine
 10
26.1109
 20
230.1108999999999
 30
0.0
 11
28.4731
 21
228.3279999999999
 31
0.0
  0
LINE
  5
1DF
330
1E
100
AcDbEntity
  8
0
100
AcDbLine
 10
24.328
 20
232.4730999999999
 30
0.0
 11
26.1109
 21
230.1108999999999
 31
0.0
  0
LINE
  5
1E0
330
1E
100
AcDbEntity
  8
0
100
AcDbLine
 10
24.796
 20
228.7959999999999
 30
0.0
 11
27.552
 21
226.716
 31
0.0
  0
LINE
  5
1E1
330
1E
100
AcDbEntity
  8
0
100
AcDbLine
 10
24.796
 20
228.7959999999999
 30
0.0
 11
26.7012265751552
 21
227.3580931508259
 31
0.0
  0
LINE
  5
1E2
330
1E
100
AcDbEntity
  8
0
100
AcDbLine
 10
22.71599999999999
 20
231.552
 30
0.0
 11
24.796
 21
228.7959999999999
 31
0.0
  0
LINE
  5
1E3
330
1E
100
AcDbEntity
  8
0
100
AcDbLine
 10
23.25829999999999
 20
235.1474
 30
0.0
 11
24.328
 21
232.4730999999999
 31
0.0
  0
LINE
  5
1E4
330
1E
100
AcDbEntity
  8
0
100
AcDbLine
 10
21.468
 20
234.6719999999999
 30
0.0
 11
22.71599999999999
 21
231.552
 31
0.0
  0
LINE
  5
1E5
330
1E
100
AcDbEntity
  8
0
100
AcDbLine
 10
21.468
 20
234.6719999999999
 30
0.0
 11
22.71599999999999
 21
231.552
 31
0.0
  0
LINE
  5
1E6
330
1E
100
AcDbEntity
  8
0
100
AcDbLine
 10
11.5
 20
236.0
 30
0.0
 11
21.28125
 21
236.0
 31
0.0
  0
LINE
  5
1E7
330
1E
100
AcDbEntity
  8
0
100
AcDbLine
 10
11.5
 20
236.0
 30
0.0
 11
21.28125
 21
236.0
 31
0.0
  0
LINE
  5
1E8
330
1E
100
AcDbEntity
  8
0
100
AcDbLine
 10
11.5
 20
236.0
 30
0.0
 11
21.0
 21
236.0
 31
0.0
  0
LINE
  5
1E9
330
1E
100
AcDbEntity
  8
0
100
AcDbLine
 10
9.0
 20
240.0
 30
0.0
 11
9.199999999999999
 21
240.0
 31
0.0
  0
LINE
  5
1EA
330
1E
100
AcDbEntity
  8
0
100
AcDbLine
 10
9.0
 20
240.0
 30
0.0
 11
9.0
 21
236.0
 31
0.0
  0
LINE
  5
1EB
330
1E
100
AcDbEntity
  8
0
100
AcDbLine
 10
9.199999999999999
 20
240.0
 30
0.0
 11
9.699999999999999
 21
240.0
 31
0.0
  0
LINE
  5
1ED
330
1E
100
AcDbEntity
  8
0
100
AcDbLine
 10
9.699999999999999
 20
240.0
 30
0.0
 11
10.5
 21
240.0
 31
0.0
  0
LINE
  5
1EF
330
1E
100
AcDbEntity
  8
0
100
AcDbLine
 10
10.5
 20
240.0
 30
0.0
 11
11.5
 21
240.0
 31
0.0
  0
LINE
  5
1F1
330
1E
100
AcDbEntity
  8
0
100
AcDbLine
 10
20.0
 20
237.0
 30
0.0
 11
22.0
 21
237.0
 31
0.0
  0
LINE
  5
1F2
330
1E
100
AcDbEntity
  8
0
100
AcDbLine
 10
20.0
 20
237.0
 30
0.0
 11
21.140625
 21
237.0
 31
0.0
  0
LINE
  5
1F3
330
1E
100
AcDbEntity
  8
0
100
AcDbLine
 10
20.0
 20
237.0
 30
0.0
 11
20.0
 21
239.0
 31
0.0
  0
LINE
  5
1F4
330
1E
100
AcDbEntity
  8
0
100
AcDbLine
 10
22.0
 20
237.0
 30
0.0
 11
22.0
 21
239.0
 31
0.0
  0
LINE
  5
1F5
330
1E
100
AcDbEntity
  8
0
100
AcDbLine
 10
22.85709999999999
 20
238.0
 30
0.0
 11
23.25829999999999
 21
235.1474
 31
0.0
  0
LINE
  5
1F6
330
1E
100
AcDbEntity
  8
0
100
AcDbLine
 10
22.85709999999999
 20
238.0
 30
0.0
 11
23.25829999999999
 21
240.8526
 31
0.0
  0
LINE
  5
1F7
330
1E
100
AcDbEntity
  8
0
100
AcDbLine
 10
21.140625
 20
237.0
 30
0.0
 11
21.468
 21
234.6719999999999
 31
0.0
  0
LINE
  5
1F8
330
1E
100
AcDbEntity
  8
0
100
AcDbLine
 10
22.0
 20
239.0
 30
0.0
 11
22.0
 21
237.0
 31
0.0
  0
LINE
  5
1F9
330
1E
100
AcDbEntity
  8
0
100
AcDbLine
 10
20.0
 20
239.0
 30
0.0
 11
20.0
 21
237.0
 31
0.0
  0
LINE
  5
1FA
330
1E
100
AcDbEntity
  8
0
100
AcDbLine
 10
20.0
 20
239.0
 30
0.0
 11
22.0
 21
239.0
 31
0.0
  0
LINE
  5
1FB
330
1E
100
AcDbEntity
  8
0
100
AcDbLine
 10
21.28125
 20
240.0
 30
0.0
 11
21.468
 21
241.3279999999999
 31
0.0
  0
LINE
  5
1FC
330
1E
100
AcDbEntity
  8
0
100
AcDbLine
 10
21.468
 20
241.3279999999999
 30
0.0
 11
22.71599999999999
 21
244.4479999999999
 31
0.0
  0
LINE
  5
1FD
330
1E
100
AcDbEntity
  8
0
100
AcDbLine
 10
22.71599999999999
 20
244.4479999999999
 30
0.0
 11
24.796
 21
247.204
 31
0.0
  0
LINE
  5
1FE
330
1E
100
AcDbEntity
  8
0
100
AcDbLine
 10
27.134
 20
247.8922999999999
 30
0.0
 11
28.86599999999999
 21
248.8923
 31
0.0
  0
LINE
  5
1FF
330
1E
100
AcDbEntity
  8
0
100
AcDbLine
 10
26.134
 20
249.6244
 30
0.0
 11
27.86599999999999
 21
250.6244
 31
0.0
  0
LINE
  5
200
330
1E
100
AcDbEntity
  8
0
100
AcDbLine
 10
26.134
 20
249.6244
 30
0.0
 11
26.7012265751552
 21
248.6419068491739
 31
0.0
  0
LINE
  5
201
330
1E
100
AcDbEntity
  8
0
100
AcDbLine
 10
26.134
 20
249.6244
 30
0.0
 11
27.134
 21
247.8922999999999
 31
0.0
  0
LINE
  5
202
330
1E
100
AcDbEntity
  8
0
100
AcDbLine
 10
31.1474
 20
248.7417
 30
0.0
 11
34.0
 21
249.1429
 31
0.0
  0
LINE
  5
203
330
1E
100
AcDbEntity
  8
0
100
AcDbLine
 10
28.4731
 20
247.6719999999999
 30
0.0
 11
31.1474
 21
248.7417
 31
0.0
  0
LINE
  5
204
330
1E
100
AcDbEntity
  8
0
100
AcDbLine
 10
27.552
 20
249.284
 30
0.0
 11
30.67199999999999
 21
250.532
 31
0.0
  0
LINE
  5
205
330
1E
100
AcDbEntity
  8
0
100
AcDbLine
 10
26.1109
 20
245.8891
 30
0.0
 11
28.4731
 21
247.6719999999999
 31
0.0
  0
LINE
  5
206
330
1E
100
AcDbEntity
  8
0
100
AcDbLine
 10
24.796
 20
247.204
 30
0.0
 11
27.552
 21
249.284
 31
0.0
  0
LINE
  5
207
330
1E
100
AcDbEntity
  8
0
100
AcDbLine
 10
24.328
 20
243.5269
 30
0.0
 11
26.1109
 21
245.8891
 31
0.0
  0
LINE
  5
208
330
1E
100
AcDbEntity
  8
0
100
AcDbLine
 10
23.25829999999999
 20
240.8526
 30
0.0
 11
24.328
 21
243.5269
 31
0.0
  0
LINE
  5
209
330
1E
100
AcDbEntity
  8
0
100
AcDbLine
 10
27.86599999999999
 20
250.6244
 30
0.0
 11
28.86599999999999
 21
248.8923
 31
0.0
  0
LINE
  5
20A
330
1E
100
AcDbEntity
  8
0
100
AcDbLine
 10
30.67199999999999
 20
250.532
 30
0.0
 11
34.0
 21
251.0
 31
0.0
  0
LINE
  5
20B
330
1E
100
AcDbEntity
  8
0
100
AcDbLine
 10
28.435766896487
 20
249.637506758595
 30
0.0
 11
30.67199999999999
 21
250.532
 31
0.0
  0
LINE
  5
20C
330
1E
100
AcDbEntity
  8
0
100
AcDbLine
 10
21.140625
 20
239.0
 30
0.0
 11
21.468
 21
241.3279999999999
 31
0.0
  0
LINE
  5
20D
330
1E
100
AcDbEntity
  8
0
100
AcDbLine
 10
34.0
 20
249.1429
 30
0.0
 11
36.8526
 21
248.7417
 31
0.0
  0
LINE
  5
20E
330
1E
100
AcDbEntity
  8
0
100
AcDbLine
 10
21.0
 20
238.0
 30
0.0
 11
21.468
 21
234.6719999999999
 31
0.0
  0
LINE
  5
20F
330
1E
100
AcDbEntity
  8
0
100
AcDbLine
 10
21.0
 20
238.0
 30
0.0
 11
21.468
 21
241.3279999999999
 31
0.0
  0
LINE
  5
210
330
1E
100
AcDbEntity
  8
0
100
AcDbLine
 10
11.5
 20
240.0
 30
0.0
 11
21.28125
 21
240.0
 31
0.0
  0
LINE
  5
211
330
1E
100
AcDbEntity
  8
0
100
AcDbLine
 10
21.0
 20
236.0
 30
0.0
 11
21.0
 21
211.0
 31
0.0
  0
LINE
  5
212
330
1E
100
AcDbEntity
  8
0
100
AcDbLine
 10
39.134
 20
227.1077
 30
0.0
 11
40.13399999999999
 21
225.3756
 31
0.0
  0
LINE
  5
213
330
1E
100
AcDbEntity
  8
0
100
AcDbLine
 10
39.134
 20
227.1077
 30
0.0
 11
40.86599999999999
 21
228.1076999999999
 31
0.0
  0
LINE
  5
214
330
1E
100
AcDbEntity
  8
0
100
AcDbLine
 10
40.86599999999999
 20
228.1076999999999
 30
0.0
 11
41.86600000000001
 21
226.3755999999999
 31
0.0
  0
LINE
  5
215
330
1E
100
AcDbEntity
  8
0
100
AcDbLine
 10
36.8526
 20
227.2583
 30
0.0
 11
39.5269
 21
228.3279999999999
 31
0.0
  0
LINE
  5
216
330
1E
100
AcDbEntity
  8
0
100
AcDbLine
 10
39.5269
 20
228.3279999999999
 30
0.0
 11
41.88909999999999
 21
230.1108999999999
 31
0.0
  0
LINE
  5
217
330
1E
100
AcDbEntity
  8
0
100
AcDbLine
 10
43.20399999999999
 20
228.7959999999999
 30
0.0
 11
45.284
 21
231.552
 31
0.0
  0
LINE
  5
218
330
1E
100
AcDbEntity
  8
0
100
AcDbLine
 10
43.20399999999999
 20
228.7959999999999
 30
0.0
 11
45.284
 21
231.552
 31
0.0
  0
LINE
  5
219
330
1E
100
AcDbEntity
  8
0
100
AcDbLine
 10
41.88909999999999
 20
230.1108999999999
 30
0.0
 11
43.67199999999999
 21
232.4730999999999
 31
0.0
  0
LINE
  5
21A
330
1E
100
AcDbEntity
  8
0
100
AcDbLine
 10
45.284
 20
231.552
 30
0.0
 11
46.532
 21
234.6719999999999
 31
0.0
  0
LINE
  5
21B
330
1E
100
AcDbEntity
  8
0
100
AcDbLine
 10
46.532
 20
234.6719999999999
 30
0.0
 11
47.0
 21
238.0
 31
0.0
  0
LINE
  5
21C
330
1E
100
AcDbEntity
  8
0
100
AcDbLine
 10
45.284
 20
231.552
 30
0.0
 11
46.532
 21
234.6719999999999
 31
0.0
  0
LINE
  5
21D
330
1E
100
AcDbEntity
  8
0
100
AcDbLine
 10
43.67199999999999
 20
232.4730999999999
 30
0.0
 11
44.74169999999999
 21
235.1474
 31
0.0
  0
LINE
  5
21E
330
1E
100
AcDbEntity
  8
0
100
AcDbLine
 10
43.67199999999999
 20
243.5269
 30
0.0
 11
44.74169999999999
 21
240.8526
 31
0.0
  0
LINE
  5
21F
330
1E
100
AcDbEntity
  8
0
100
AcDbLine
 10
44.74169999999999
 20
240.8526
 30
0.0
 11
45.14289999999999
 21
238.0
 31
0.0
  0
LINE
  5
220
330
1E
100
AcDbEntity
  8
0
100
AcDbLine
 10
46.0
 20
237.0
 30
0.0
 11
48.0
 21
237.0
 31
0.0
  0
LINE
  5
221
330
1E
100
AcDbEntity
  8
0
100
AcDbLine
 10
46.0
 20
237.0
 30
0.0
 11
46.0
 21
239.0
 31
0.0
  0
LINE
  5
222
330
1E
100
AcDbEntity
  8
0
100
AcDbLine
 10
46.0
 20
239.0
 30
0.0
 11
48.0
 21
239.0
 31
0.0
  0
LINE
  5
223
330
1E
100
AcDbEntity
  8
0
100
AcDbLine
 10
46.0
 20
239.0
 30
0.0
 11
46.0
 21
237.0
 31
0.0
  0
LINE
  5
224
330
1E
100
AcDbEntity
  8
0
100
AcDbLine
 10
46.859375
 20
237.0
 30
0.0
 11
48.0
 21
237.0
 31
0.0
  0
LINE
  5
225
330
1E
100
AcDbEntity
  8
0
100
AcDbLine
 10
48.0
 20
239.0
 30
0.0
 11
48.0
 21
237.0
 31
0.0
  0
LINE
  5
226
330
1E
100
AcDbEntity
  8
0
100
AcDbLine
 10
48.0
 20
237.0
 30
0.0
 11
48.0
 21
239.0
 31
0.0
  0
LINE
  5
227
330
1E
100
AcDbEntity
  8
0
100
AcDbLine
 10
46.532
 20
241.3279999999999
 30
0.0
 11
47.0
 21
238.0
 31
0.0
  0
LINE
  5
228
330
1E
100
AcDbEntity
  8
0
100
AcDbLine
 10
44.74169999999999
 20
235.1474
 30
0.0
 11
45.14289999999999
 21
238.0
 31
0.0
  0
LINE
  5
229
330
1E
100
AcDbEntity
  8
0
100
AcDbLine
 10
66.0
 20
241.3279999999999
 30
0.0
 11
66.0
 21
238.0
 31
0.0
  0
LINE
  5
22A
330
1E
100
AcDbEntity
  8
0
100
AcDbLine
 10
66.0
 20
241.3279999999999
 30
0.0
 11
66.0
 21
244.4479999999999
 31
0.0
  0
LINE
  5
22B
330
1E
100
AcDbEntity
  8
0
100
AcDbLine
 10
41.88909999999999
 20
245.8891
 30
0.0
 11
43.67199999999999
 21
243.5269
 31
0.0
  0
LINE
  5
22C
330
1E
100
AcDbEntity
  8
0
100
AcDbLine
 10
39.134
 20
248.8923
 30
0.0
 11
40.13399999999999
 21
250.6244
 31
0.0
  0
LINE
  5
22D
330
1E
100
AcDbEntity
  8
0
100
AcDbLine
 10
39.134
 20
248.8923
 30
0.0
 11
40.86599999999999
 21
247.8922999999999
 31
0.0
  0
LINE
  5
22E
330
1E
100
AcDbEntity
  8
0
100
AcDbLine
 10
36.8526
 20
248.7417
 30
0.0
 11
39.5269
 21
247.6719999999999
 31
0.0
  0
LINE
  5
22F
330
1E
100
AcDbEntity
  8
0
100
AcDbLine
 10
39.5269
 20
247.6719999999999
 30
0.0
 11
41.88909999999999
 21
245.8891
 31
0.0
  0
LINE
  5
230
330
1E
100
AcDbEntity
  8
0
100
AcDbLine
 10
40.86599999999999
 20
247.8922999999999
 30
0.0
 11
41.86600000000001
 21
249.6244
 31
0.0
  0
LINE
  5
231
330
1E
100
AcDbEntity
  8
0
100
AcDbLine
 10
40.448
 20
249.284
 30
0.0
 11
43.20399999999999
 21
247.204
 31
0.0
  0
LINE
  5
232
330
1E
100
AcDbEntity
  8
0
100
AcDbLine
 10
43.20399999999999
 20
247.204
 30
0.0
 11
45.284
 21
244.4479999999999
 31
0.0
  0
LINE
  5
233
330
1E
100
AcDbEntity
  8
0
100
AcDbLine
 10
45.284
 20
244.4479999999999
 30
0.0
 11
46.532
 21
241.3279999999999
 31
0.0
  0
LINE
  5
234
330
1E
100
AcDbEntity
  8
0
100
AcDbLine
 10
66.0
 20
244.4479999999999
 30
0.0
 11
66.0
 21
241.3279999999999
 31
0.0
  0
LINE
  5
235
330
1E
100
AcDbEntity
  8
0
100
AcDbLine
 10
66.0
 20
244.4479999999999
 30
0.0
 11
66.0
 21
247.204
 31
0.0
  0
LINE
  5
236
330
1E
100
AcDbEntity
  8
0
100
AcDbLine
 10
66.0
 20
247.204
 30
0.0
 11
66.0
 21
244.4479999999999
 31
0.0
  0
LINE
  5
237
330
1E
100
AcDbEntity
  8
0
100
AcDbLine
 10
66.0
 20
247.204
 30
0.0
 11
66.0
 21
249.284
 31
0.0
  0
LINE
  5
238
330
1E
100
AcDbEntity
  8
0
100
AcDbLine
 10
39.56423310351299
 20
249.637506758595
 30
0.0
 11
40.13399999999999
 21
250.6244
 31
0.0
  0
LINE
  5
239
330
1E
100
AcDbEntity
  8
0
100
AcDbLine
 10
40.13399999999999
 20
250.6244
 30
0.0
 11
41.86600000000001
 21
249.6244
 31
0.0
  0
LINE
  5
23A
330
1E
100
AcDbEntity
  8
0
100
AcDbLine
 10
37.328
 20
250.532
 30
0.0
 11
40.448
 21
249.284
 31
0.0
  0
LINE
  5
23B
330
1E
100
AcDbEntity
  8
0
100
AcDbLine
 10
66.0
 20
249.284
 30
0.0
 11
66.0
 21
247.204
 31
0.0
  0
LINE
  5
23C
330
1E
100
AcDbEntity
  8
0
100
AcDbLine
 10
66.0
 20
249.284
 30
0.0
 11
66.0
 21
250.532
 31
0.0
  0
LINE
  5
23D
330
1E
100
AcDbEntity
  8
0
100
AcDbLine
 10
66.0
 20
250.532
 30
0.0
 11
66.0
 21
249.284
 31
0.0
  0
LINE
  5
23E
330
1E
100
AcDbEntity
  8
0
100
AcDbLine
 10
66.0
 20
250.532
 30
0.0
 11
66.0
 21
251.0
 31
0.0
  0
LINE
  5
23F
330
1E
100
AcDbEntity
  8
0
100
AcDbLine
 10
66.0
 20
251.0
 30
0.0
 11
66.0
 21
250.532
 31
0.0
  0
LINE
  5
240
330
1E
100
AcDbEntity
  8
0
100
AcDbLine
 10
66.0
 20
238.0
 30
0.0
 11
66.0
 21
234.6719999999999
 31
0.0
  0
LINE
  5
241
330
1E
100
AcDbEntity
  8
0
100
AcDbLine
 10
66.0
 20
238.0
 30
0.0
 11
66.0
 21
241.3279999999999
 31
0.0
  0
LINE
  5
242
330
1E
100
AcDbEntity
  8
0
100
AcDbLine
 10
66.0
 20
234.6719999999999
 30
0.0
 11
66.0
 21
231.552
 31
0.0
  0
LINE
  5
243
330
1E
100
AcDbEntity
  8
0
100
AcDbLine
 10
66.0
 20
234.6719999999999
 30
0.0
 11
66.0
 21
238.0
 31
0.0
  0
LINE
  5
244
330
1E
100
AcDbEntity
  8
0
100
AcDbLine
 10
66.0
 20
231.552
 30
0.0
 11
66.0
 21
228.7959999999999
 31
0.0
  0
LINE
  5
245
330
1E
100
AcDbEntity
  8
0
100
AcDbLine
 10
66.0
 20
231.552
 30
0.0
 11
66.0
 21
234.6719999999999
 31
0.0
  0
LINE
  5
246
330
1E
100
AcDbEntity
  8
0
100
AcDbLine
 10
66.0
 20
228.7959999999999
 30
0.0
 11
66.0
 21
226.716
 31
0.0
  0
LINE
  5
247
330
1E
100
AcDbEntity
  8
0
100
AcDbLine
 10
66.0
 20
228.7959999999999
 30
0.0
 11
66.0
 21
231.552
 31
0.0
  0
LINE
  5
248
330
1E
100
AcDbEntity
  8
0
100
AcDbLine
 10
34.0
 20
251.0
 30
0.0
 11
66.0
 21
251.0
 31
0.0
  0
LINE
  5
249
330
1E
100
AcDbEntity
  8
0
100
AcDbLine
 10
34.0
 20
251.0
 30
0.0
 11
37.328
 21
250.532
 31
0.0
  0
LINE
  5
24A
330
1E
100
AcDbEntity
  8
0
100
AcDbLine
 10
66.0
 20
227.0
 30
0.0
 11
106.0
 21
227.0
 31
0.0
  0
LINE
  5
24B
330
1E
100
AcDbEntity
  8
0
100
AcDbLine
 10
66.0
 20
249.0
 30
0.0
 11
106.0
 21
249.0
 31
0.0
  0
LINE
  5
24C
330
1E
100
AcDbEntity
  8
0
100
AcDbLine
 10
34.0
 20
210.0
 30
0.0
 11
42.7
 21
210.0
 31
0.0
  0
LINE
  5
25C
330
1E
100
AcDbEntity
  8
0
100
AcDbLine
 10
100.0
 20
205.5
 30
0.0
 11
100.5
 21
205.0
 31
0.0
  0
LINE
  5
26B
330
1E
100
AcDbEntity
  8
0
100
AcDbLine
 10
104.6
 20
210.0
 30
0.0
 11
110.0
 21
210.0
 31
0.0
  0
LINE
  5
26C
330
1E
100
AcDbEntity
  8
0
100
AcDbLine
 10
101.2
 20
210.0
 30
0.0
 11
104.6
 21
210.0
 31
0.0
  0
LINE
  5
26D
330
1E
100
AcDbEntity
  8
0
100
AcDbLine
 10
122.0
 20
210.0
 30
0.0
 11
122.0
 21
211.0
 31
0.0
  0
LINE
  5
26E
330
1E
100
AcDbEntity
  8
0
100
AcDbLine
 10
110.0
 20
210.0
 30
0.0
 11
117.1
 21
210.0
 31
0.0
  0
LINE
  5
26F
330
1E
100
AcDbEntity
  8
0
100
AcDbLine
 10
117.1
 20
210.0
 30
0.0
 11
125.2999999999999
 21
210.0
 31
0.0
  0
LINE
  5
270
330
1E
100
AcDbEntity
  8
0
100
AcDbLine
 10
146.0
 20
210.0
 30
0.0
 11
146.0
 21
211.0
 31
0.0
  0
LINE
  5
271
330
1E
100
AcDbEntity
  8
0
100
AcDbLine
 10
150.9
 20
210.0
 30
0.0
 11
158.0
 21
210.0
 31
0.0
  0
LINE
  5
272
330
1E
100
AcDbEntity
  8
0
100
AcDbLine
 10
142.6999999999999
 20
210.0
 30
0.0
 11
150.9
 21
210.0
 31
0.0
  0
LINE
  5
273
330
1E
100
AcDbEntity
  8
0
100
AcDbLine
 10
158.0
 20
210.0
 30
0.0
 11
163.4
 21
210.0
 31
0.0
  0
LINE
  5
274
330
1E
100
AcDbEntity
  8
0
100
AcDbLine
 10
163.4
 20
210.0
 30
0.0
 11
166.8
 21
210.0
 31
0.0
  0
LINE
  5
275
330
1E
100
AcDbEntity
  8
0
100
AcDbLine
 10
168.0
 20
210.0
 30
0.0
 11
168.0
 21
205.5
 31
0.0
  0
LINE
  5
276
330
1E
100
AcDbEntity
  8
0
100
AcDbLine
 10
166.8
 20
210.0
 30
0.0
 11
168.0
 21
210.0
 31
0.0
  0
LINE
  5
278
330
1E
100
AcDbEntity
  8
0
100
AcDbLine
 10
134.0
 20
210.0
 30
0.0
 11
142.6999999999999
 21
210.0
 31
0.0
  0
LINE
  5
279
330
1E
100
AcDbEntity
  8
0
100
AcDbLine
 10
125.2999999999999
 20
210.0
 30
0.0
 11
134.0
 21
210.0
 31
0.0
  0
LINE
  5
27A
330
1E
100
AcDbEntity
  8
0
100
AcDbLine
 10
100.0
 20
210.0
 30
0.0
 11
100.0
 21
205.5
 31
0.0
  0
LINE
  5
27B
330
1E
100
AcDbEntity
  8
0
100
AcDbLine
 10
100.0
 20
210.0
 30
0.0
 11
101.2
 21
210.0
 31
0.0
  0
LINE
  5
290
330
1E
100
AcDbEntity
  8
0
100
AcDbLine
 10
106.0
 20
226.716
 30
0.0
 11
106.0
 21
225.468
 31
0.0
  0
LINE
  5
291
330
1E
100
AcDbEntity
  8
0
100
AcDbLine
 10
106.0
 20
226.716
 30
0.0
 11
106.0
 21
228.7959999999999
 31
0.0
  0
LINE
  5
292
330
1E
100
AcDbEntity
  8
0
100
AcDbLine
 10
106.0
 20
226.716
 30
0.0
 11
106.0
 21
227.0
 31
0.0
  0
LINE
  5
293
330
1E
100
AcDbEntity
  8
0
100
AcDbLine
 10
106.0
 20
226.716
 30
0.0
 11
106.0
 21
225.468
 31
0.0
  0
LINE
  5
294
330
1E
100
AcDbEntity
  8
0
100
AcDbLine
 10
106.0
 20
225.468
 30
0.0
 11
106.0
 21
226.716
 31
0.0
  0
LINE
  5
295
330
1E
100
AcDbEntity
  8
0
100
AcDbLine
 10
106.0
 20
225.468
 30
0.0
 11
106.0
 21
225.0
 31
0.0
  0
LINE
  5
296
330
1E
100
AcDbEntity
  8
0
100
AcDbLine
 10
106.0
 20
225.468
 30
0.0
 11
106.0
 21
226.716
 31
0.0
  0
LINE
  5
297
330
1E
100
AcDbEntity
  8
0
100
AcDbLine
 10
106.0
 20
225.0
 30
0.0
 11
106.0
 21
225.468
 31
0.0
  0
LINE
  5
298
330
1E
100
AcDbEntity
  8
0
100
AcDbLine
 10
106.0
 20
225.0
 30
0.0
 11
121.0
 21
225.0
 31
0.0
  0
LINE
  5
299
330
1E
100
AcDbEntity
  8
0
100
AcDbLine
 10
106.0
 20
228.7959999999999
 30
0.0
 11
106.0
 21
226.716
 31
0.0
  0
LINE
  5
29A
330
1E
100
AcDbEntity
  8
0
100
AcDbLine
 10
106.0
 20
228.7959999999999
 30
0.0
 11
106.0
 21
231.552
 31
0.0
  0
LINE
  5
29B
330
1E
100
AcDbEntity
  8
0
100
AcDbLine
 10
106.0
 20
234.6719999999999
 30
0.0
 11
106.0
 21
231.552
 31
0.0
  0
LINE
  5
29C
330
1E
100
AcDbEntity
  8
0
100
AcDbLine
 10
106.0
 20
234.6719999999999
 30
0.0
 11
106.0
 21
238.0
 31
0.0
  0
LINE
  5
29D
330
1E
100
AcDbEntity
  8
0
100
AcDbLine
 10
106.0
 20
231.552
 30
0.0
 11
106.0
 21
228.7959999999999
 31
0.0
  0
LINE
  5
29E
330
1E
100
AcDbEntity
  8
0
100
AcDbLine
 10
106.0
 20
231.552
 30
0.0
 11
106.0
 21
234.6719999999999
 31
0.0
  0
LINE
  5
29F
330
1E
100
AcDbEntity
  8
0
100
AcDbLine
 10
106.0
 20
241.3279999999999
 30
0.0
 11
106.0
 21
238.0
 31
0.0
  0
LINE
  5
2A0
330
1E
100
AcDbEntity
  8
0
100
AcDbLine
 10
106.0
 20
241.3279999999999
 30
0.0
 11
106.0
 21
244.4479999999999
 31
0.0
  0
LINE
  5
2A1
330
1E
100
AcDbEntity
  8
0
100
AcDbLine
 10
106.0
 20
238.0
 30
0.0
 11
106.0
 21
240.8159999999999
 31
0.0
  0
LINE
  5
2A2
330
1E
100
AcDbEntity
  8
0
100
AcDbLine
 10
106.0
 20
238.0
 30
0.0
 11
106.0
 21
234.6719999999999
 31
0.0
  0
LINE
  5
2A3
330
1E
100
AcDbEntity
  8
0
100
AcDbLine
 10
106.0
 20
238.0
 30
0.0
 11
106.0
 21
241.3279999999999
 31
0.0
  0
LINE
  5
2A4
330
1E
100
AcDbEntity
  8
0
100
AcDbLine
 10
106.0
 20
240.8159999999999
 30
0.0
 11
106.0
 21
243.4559999999999
 31
0.0
  0
LINE
  5
2A5
330
1E
100
AcDbEntity
  8
0
100
AcDbLine
 10
106.0
 20
244.4479999999999
 30
0.0
 11
106.0
 21
241.3279999999999
 31
0.0
  0
LINE
  5
2A6
330
1E
100
AcDbEntity
  8
0
100
AcDbLine
 10
106.0
 20
244.4479999999999
 30
0.0
 11
106.0
 21
247.204
 31
0.0
  0
LINE
  5
2A7
330
1E
100
AcDbEntity
  8
0
100
AcDbLine
 10
106.0
 20
247.204
 30
0.0
 11
106.0
 21
244.4479999999999
 31
0.0
  0
LINE
  5
2A8
330
1E
100
AcDbEntity
  8
0
100
AcDbLine
 10
106.0
 20
247.204
 30
0.0
 11
106.0
 21
249.284
 31
0.0
  0
LINE
  5
2A9
330
1E
100
AcDbEntity
  8
0
100
AcDbLine
 10
106.0
 20
243.4559999999999
 30
0.0
 11
106.0
 21
245.7879999999999
 31
0.0
  0
LINE
  5
2AA
330
1E
100
AcDbEntity
  8
0
100
AcDbLine
 10
106.0
 20
245.7879999999999
 30
0.0
 11
106.0
 21
247.548
 31
0.0
  0
LINE
  5
2AB
330
1E
100
AcDbEntity
  8
0
100
AcDbLine
 10
106.0
 20
249.0
 30
0.0
 11
106.0
 21
249.284
 31
0.0
  0
LINE
  5
2AC
330
1E
100
AcDbEntity
  8
0
100
AcDbLine
 10
106.0
 20
249.284
 30
0.0
 11
106.0
 21
250.532
 31
0.0
  0
LINE
  5
2AD
330
1E
100
AcDbEntity
  8
0
100
AcDbLine
 10
106.0
 20
249.284
 30
0.0
 11
106.0
 21
249.0
 31
0.0
  0
LINE
  5
2AE
330
1E
100
AcDbEntity
  8
0
100
AcDbLine
 10
106.0
 20
249.284
 30
0.0
 11
106.0
 21
247.204
 31
0.0
  0
LINE
  5
2AF
330
1E
100
AcDbEntity
  8
0
100
AcDbLine
 10
106.0
 20
250.532
 30
0.0
 11
106.0
 21
251.0
 31
0.0
  0
LINE
  5
2B0
330
1E
100
AcDbEntity
  8
0
100
AcDbLine
 10
106.0
 20
250.532
 30
0.0
 11
106.0
 21
249.284
 31
0.0
  0
LINE
  5
2B1
330
1E
100
AcDbEntity
  8
0
100
AcDbLine
 10
106.0
 20
251.0
 30
0.0
 11
162.0
 21
251.0
 31
0.0
  0
LINE
  5
2B2
330
1E
100
AcDbEntity
  8
0
100
AcDbLine
 10
106.0
 20
251.0
 30
0.0
 11
106.0
 21
250.532
 31
0.0
  0
LINE
  5
2B3
330
1E
100
AcDbEntity
  8
0
100
AcDbLine
 10
106.0
 20
247.548
 30
0.0
 11
106.0
 21
248.604
 31
0.0
  0
LINE
  5
2B4
330
1E
100
AcDbEntity
  8
0
100
AcDbLine
 10
106.0
 20
248.604
 30
0.0
 11
106.0
 21
249.0
 31
0.0
  0
LINE
  5
2B5
330
1E
100
AcDbEntity
  8
0
100
AcDbLine
 10
106.0
 20
235.184
 30
0.0
 11
106.0
 21
238.0
 31
0.0
  0
LINE
  5
2B6
330
1E
100
AcDbEntity
  8
0
100
AcDbLine
 10
106.0
 20
232.5439999999999
 30
0.0
 11
106.0
 21
235.184
 31
0.0
  0
LINE
  5
2B7
330
1E
100
AcDbEntity
  8
0
100
AcDbLine
 10
106.0
 20
230.212
 30
0.0
 11
106.0
 21
232.5439999999999
 31
0.0
  0
LINE
  5
2B8
330
1E
100
AcDbEntity
  8
0
100
AcDbLine
 10
106.0
 20
228.452
 30
0.0
 11
106.0
 21
230.212
 31
0.0
  0
LINE
  5
2B9
330
1E
100
AcDbEntity
  8
0
100
AcDbLine
 10
106.0
 20
227.3959999999999
 30
0.0
 11
106.0
 21
228.452
 31
0.0
  0
LINE
  5
2BA
330
1E
100
AcDbEntity
  8
0
100
AcDbLine
 10
122.0
 20
211.0
 30
0.0
 11
122.0
 21
210.0
 31
0.0
  0
LINE
  5
2BB
330
1E
100
AcDbEntity
  8
0
100
AcDbLine
 10
122.0
 20
211.0
 30
0.0
 11
122.432
 21
211.0
 31
0.0
  0
LINE
  5
2BC
330
1E
100
AcDbEntity
  8
0
100
AcDbLine
 10
122.432
 20
211.0
 30
0.0
 11
123.584
 21
211.0
 31
0.0
  0
LINE
  5
2BD
330
1E
100
AcDbEntity
  8
0
100
AcDbLine
 10
123.584
 20
211.0
 30
0.0
 11
125.5039999999999
 21
211.0
 31
0.0
  0
LINE
  5
2BE
330
1E
100
AcDbEntity
  8
0
100
AcDbLine
 10
125.5039999999999
 20
211.0
 30
0.0
 11
128.048
 21
211.0
 31
0.0
  0
LINE
  5
2BF
330
1E
100
AcDbEntity
  8
0
100
AcDbLine
 10
128.048
 20
211.0
 30
0.0
 11
130.9279999999999
 21
211.0
 31
0.0
  0
LINE
  5
2C0
330
1E
100
AcDbEntity
  8
0
100
AcDbLine
 10
142.496
 20
211.0
 30
0.0
 11
144.4159999999999
 21
211.0
 31
0.0
  0
LINE
  5
2C1
330
1E
100
AcDbEntity
  8
0
100
AcDbLine
 10
139.952
 20
211.0
 30
0.0
 11
142.496
 21
211.0
 31
0.0
  0
LINE
  5
2C2
330
1E
100
AcDbEntity
  8
0
100
AcDbLine
 10
145.5679999999999
 20
211.0
 30
0.0
 11
146.0
 21
211.0
 31
0.0
  0
LINE
  5
2C3
330
1E
100
AcDbEntity
  8
0
100
AcDbLine
 10
144.4159999999999
 20
211.0
 30
0.0
 11
145.5679999999999
 21
211.0
 31
0.0
  0
LINE
  5
2C4
330
1E
100
AcDbEntity
  8
0
100
AcDbLine
 10
143.204
 20
211.0
 30
0.0
 11
145.2839999999999
 21
211.0
 31
0.0
  0
LINE
  5
2C5
330
1E
100
AcDbEntity
  8
0
100
AcDbLine
 10
145.2839999999999
 20
211.0
 30
0.0
 11
146.532
 21
211.0
 31
0.0
  0
LINE
  5
2C6
330
1E
100
AcDbEntity
  8
0
100
AcDbLine
 10
124.796
 20
211.0
 30
0.0
 11
127.5519999999999
 21
211.0
 31
0.0
  0
LINE
  5
2C7
330
1E
100
AcDbEntity
  8
0
100
AcDbLine
 10
122.716
 20
211.0
 30
0.0
 11
124.796
 21
211.0
 31
0.0
  0
LINE
  5
2C8
330
1E
100
AcDbEntity
  8
0
100
AcDbLine
 10
121.4679999999999
 20
211.0
 30
0.0
 11
122.0
 21
211.0
 31
0.0
  0
LINE
  5
2C9
330
1E
100
AcDbEntity
  8
0
100
AcDbLine
 10
121.4679999999999
 20
211.0
 30
0.0
 11
122.716
 21
211.0
 31
0.0
  0
LINE
  5
2CA
330
1E
100
AcDbEntity
  8
0
100
AcDbLine
 10
121.0
 20
211.0
 30
0.0
 11
121.4679999999999
 21
211.0
 31
0.0
  0
LINE
  5
2CB
330
1E
100
AcDbEntity
  8
0
100
AcDbLine
 10
121.0
 20
211.0
 30
0.0
 11
121.0
 21
225.0
 31
0.0
  0
LINE
  5
2CC
330
1E
100
AcDbEntity
  8
0
100
AcDbLine
 10
147.0
 20
211.0
 30
0.0
 11
147.0
 21
225.0
 31
0.0
  0
LINE
  5
2CD
330
1E
100
AcDbEntity
  8
0
100
AcDbLine
 10
146.0
 20
211.0
 30
0.0
 11
146.532
 21
211.0
 31
0.0
  0
LINE
  5
2CE
330
1E
100
AcDbEntity
  8
0
100
AcDbLine
 10
146.0
 20
211.0
 30
0.0
 11
146.0
 21
210.0
 31
0.0
  0
LINE
  5
2CF
330
1E
100
AcDbEntity
  8
0
100
AcDbLine
 10
121.0
 20
225.0
 30
0.0
 11
121.0
 21
211.0
 31
0.0
  0
LINE
  5
2D0
330
1E
100
AcDbEntity
  8
0
100
AcDbLine
 10
130.9279999999999
 20
211.0
 30
0.0
 11
134.0
 21
211.0
 31
0.0
  0
LINE
  5
2D1
330
1E
100
AcDbEntity
  8
0
100
AcDbLine
 10
137.072
 20
211.0
 30
0.0
 11
139.952
 21
211.0
 31
0.0
  0
LINE
  5
2D2
330
1E
100
AcDbEntity
  8
0
100
AcDbLine
 10
134.0
 20
211.0
 30
0.0
 11
137.328
 21
211.0
 31
0.0
  0
LINE
  5
2D3
330
1E
100
AcDbEntity
  8
0
100
AcDbLine
 10
134.0
 20
211.0
 30
0.0
 11
137.072
 21
211.0
 31
0.0
  0
LINE
  5
2D4
330
1E
100
AcDbEntity
  8
0
100
AcDbLine
 10
137.328
 20
211.0
 30
0.0
 11
140.4479999999999
 21
211.0
 31
0.0
  0
LINE
  5
2D5
330
1E
100
AcDbEntity
  8
0
100
AcDbLine
 10
140.4479999999999
 20
211.0
 30
0.0
 11
143.204
 21
211.0
 31
0.0
  0
LINE
  5
2D6
330
1E
100
AcDbEntity
  8
0
100
AcDbLine
 10
130.672
 20
211.0
 30
0.0
 11
134.0
 21
211.0
 31
0.0
  0
LINE
  5
2D7
330
1E
100
AcDbEntity
  8
0
100
AcDbLine
 10
127.5519999999999
 20
211.0
 30
0.0
 11
130.672
 21
211.0
 31
0.0
  0
LINE
  5
2D8
330
1E
100
AcDbEntity
  8
0
100
AcDbLine
 10
146.532
 20
211.0
 30
0.0
 11
147.0
 21
211.0
 31
0.0
  0
LINE
  5
2FB
330
1E
100
AcDbEntity
  8
0
100
AcDbLine
 10
162.0
 20
225.0
 30
0.0
 11
162.0
 21
225.468
 31
0.0
  0
LINE
  5
2FD
330
1E
100
AcDbEntity
  8
0
100
AcDbLine
 10
162.0
 20
241.3279999999999
 30
0.0
 11
162.0
 21
238.0
 31
0.0
  0
LINE
  5
2FE
330
1E
100
AcDbEntity
  8
0
100
AcDbLine
 10
162.0
 20
241.3279999999999
 30
0.0
 11
162.0
 21
244.4479999999999
 31
0.0
  0
LINE
  5
2FF
330
1E
100
AcDbEntity
  8
0
100
AcDbLine
 10
162.0
 20
244.4479999999999
 30
0.0
 11
162.0
 21
241.3279999999999
 31
0.0
  0
LINE
  5
300
330
1E
100
AcDbEntity
  8
0
100
AcDbLine
 10
162.0
 20
244.4479999999999
 30
0.0
 11
162.0
 21
247.204
 31
0.0
  0
LINE
  5
302
330
1E
100
AcDbEntity
  8
0
100
AcDbLine
 10
162.0
 20
247.204
 30
0.0
 11
162.0
 21
244.4479999999999
 31
0.0
  0
LINE
  5
303
330
1E
100
AcDbEntity
  8
0
100
AcDbLine
 10
162.0
 20
247.204
 30
0.0
 11
162.0
 21
249.284
 31
0.0
  0
LINE
  5
304
330
1E
100
AcDbEntity
  8
0
100
AcDbLine
 10
162.0
 20
249.284
 30
0.0
 11
162.0
 21
247.204
 31
0.0
  0
LINE
  5
305
330
1E
100
AcDbEntity
  8
0
100
AcDbLine
 10
162.0
 20
249.284
 30
0.0
 11
162.0
 21
250.532
 31
0.0
  0
LINE
  5
306
330
1E
100
AcDbEntity
  8
0
100
AcDbLine
 10
162.0
 20
250.532
 30
0.0
 11
162.0
 21
249.284
 31
0.0
  0
LINE
  5
307
330
1E
100
AcDbEntity
  8
0
100
AcDbLine
 10
162.0
 20
250.532
 30
0.0
 11
162.0
 21
251.0
 31
0.0
  0
LINE
  5
308
330
1E
100
AcDbEntity
  8
0
100
AcDbLine
 10
162.0
 20
251.0
 30
0.0
 11
162.0
 21
250.532
 31
0.0
  0
LINE
  5
309
330
1E
100
AcDbEntity
  8
0
100
AcDbLine
 10
162.0
 20
238.0
 30
0.0
 11
162.0
 21
234.6719999999999
 31
0.0
  0
LINE
  5
30A
330
1E
100
AcDbEntity
  8
0
100
AcDbLine
 10
162.0
 20
238.0
 30
0.0
 11
162.0
 21
241.3279999999999
 31
0.0
  0
LINE
  5
30B
330
1E
100
AcDbEntity
  8
0
100
AcDbLine
 10
162.0
 20
234.6719999999999
 30
0.0
 11
162.0
 21
231.552
 31
0.0
  0
LINE
  5
30C
330
1E
100
AcDbEntity
  8
0
100
AcDbLine
 10
162.0
 20
234.6719999999999
 30
0.0
 11
162.0
 21
238.0
 31
0.0
  0
LINE
  5
30D
330
1E
100
AcDbEntity
  8
0
100
AcDbLine
 10
162.0
 20
231.552
 30
0.0
 11
162.0
 21
228.7959999999999
 31
0.0
  0
LINE
  5
30E
330
1E
100
AcDbEntity
  8
0
100
AcDbLine
 10
162.0
 20
231.552
 30
0.0
 11
162.0
 21
234.6719999999999
 31
0.0
  0
LINE
  5
30F
330
1E
100
AcDbEntity
  8
0
100
AcDbLine
 10
162.0
 20
228.7959999999999
 30
0.0
 11
162.0
 21
226.716
 31
0.0
  0
LINE
  5
310
330
1E
100
AcDbEntity
  8
0
100
AcDbLine
 10
162.0
 20
228.7959999999999
 30
0.0
 11
162.0
 21
231.552
 31
0.0
  0
LINE
  5
311
330
1E
100
AcDbEntity
  8
0
100
AcDbLine
 10
162.0
 20
226.716
 30
0.0
 11
162.0
 21
225.468
 31
0.0
  0
LINE
  5
312
330
1E
100
AcDbEntity
  8
0
100
AcDbLine
 10
162.0
 20
226.716
 30
0.0
 11
162.0
 21
228.7959999999999
 31
0.0
  0
LINE
  5
3AC
330
1E
100
AcDbEntity
  8
0
100
AcDbLine
 10
162.0
 20
225.468
 30
0.0
 11
162.0
 21
225.0
 31
0.0
  0
LINE
  5
3AD
330
1E
100
AcDbEntity
  8
0
100
AcDbLine
 10
162.0
 20
225.468
 30
0.0
 11
162.0
 21
226.716
 31
0.0
  0
LINE
  5
3AE
330
1E
100
AcDbEntity
  8
0
100
AcDbLine
 10
147.0
 20
225.0
 30
0.0
 11
162.0
 21
225.0
 31
0.0
  0
LINE
  5
3AF
330
1E
100
AcDbEntity
  8
0
100
AcDbLine
 10
147.0
 20
225.0
 30
0.0
 11
147.0
 21
211.0
 31
0.0
  0
LINE
  5
3B0
330
1E
100
AcDbEntity
  8
0
100
AcDbLine
 10
106.0
 20
227.0
 30
0.0
 11
106.0
 21
227.3959999999999
 31
0.0
  0
LINE
  5
3B1
330
1E
100
AcDbEntity
  8
0
100
AcDbLine
 10
106.0
 20
227.0
 30
0.0
 11
106.0
 21
226.716
 31
0.0
  0
LINE
  5
3B3
330
1E
100
AcDbEntity
  8
0
100
AcDbLine
 10
68.0
 20
205.5
 30
0.0
 11
68.0
 21
210.0
 31
0.0
  0
LINE
  5
3B4
330
1E
100
AcDbEntity
  8
0
100
AcDbLine
 10
0.5
 20
205.0
 30
0.0
 11
12.5
 21
204.4999999999999
 31
0.0
  0
LINE
  5
3B5
330
1E
100
AcDbEntity
  8
0
100
AcDbLine
 10
0.0
 20
205.5
 30
0.0
 11
0.0
 21
210.0
 31
0.0
  0
LINE
  5
3B6
330
1E
100
AcDbEntity
  8
0
100
AcDbLine
 10
0.0
 20
205.5
 30
0.0
 11
0.5
 21
205.0
 31
0.0
  0
LINE
  5
3BC
330
1E
100
AcDbEntity
  8
0
100
AcDbLine
 10
202.0
 20
249.0
 30
0.0
 11
162.0
 21
249.0
 31
0.0
  0
LINE
  5
3BD
330
1E
100
AcDbEntity
  8
0
100
AcDbLine
 10
202.0
 20
227.0
 30
0.0
 11
162.0
 21
227.0
 31
0.0
  0
LINE
  5
3BE
330
1E
100
AcDbEntity
  8
0
100
AcDbLine
 10
237.328
 20
250.532
 30
0.0
 11
234.0
 21
251.0
 31
0.0
  0
LINE
  5
3BF
330
1E
100
AcDbEntity
  8
0
100
AcDbLine
 10
236.8526
 20
248.7417
 30
0.0
 11
234.0
 21
249.1429
 31
0.0
  0
LINE
  5
3C0
330
1E
100
AcDbEntity
  8
0
100
AcDbLine
 10
236.8526
 20
227.2583
 30
0.0
 11
234.0
 21
226.8571
 31
0.0
  0
LINE
  5
3C1
330
1E
100
AcDbEntity
  8
0
100
AcDbLine
 10
237.328
 20
225.468
 30
0.0
 11
234.0
 21
225.0
 31
0.0
  0
LINE
  5
3C2
330
1E
100
AcDbEntity
  8
0
100
AcDbLine
 10
237.328
 20
211.0
 30
0.0
 11
234.0
 21
211.0
 31
0.0
  0
LINE
  5
3C3
330
1E
100
AcDbEntity
  8
0
100
AcDbLine
 10
237.0719999999999
 20
211.0
 30
0.0
 11
234.0
 21
211.0
 31
0.0
  0
LINE
  5
3C4
330
1E
100
AcDbEntity
  8
0
100
AcDbLine
 10
242.7
 20
210.0
 30
0.0
 11
234.0
 21
210.0
 31
0.0
  0
LINE
  5
3C5
330
1E
100
AcDbEntity
  8
0
100
AcDbLine
 10
238.7
 20
201.3
 30
0.0
 11
234.0
 21
201.3
 31
0.0
  0
LINE
  5
3C6
330
1E
100
AcDbEntity
  8
0
100
AcDbLine
 10
238.8
 20
200.11
 30
0.0
 11
234.0
 21
200.11
 31
0.0
  0
LINE
  5
3C7
330
1E
100
AcDbEntity
  8
0
100
AcDbLine
 10
238.7
 20
200.3
 30
0.0
 11
234.0
 21
200.3
 31
0.0
  0
LINE
  5
3C8
330
1E
100
AcDbEntity
  8
0
100
AcDbLine
 10
237.0
 20
155.3
 30
0.0
 11
235.4999999999999
 21
155.3
 31
0.0
  0
LINE
  5
3C9
330
1E
100
AcDbEntity
  8
0
100
AcDbLine
 10
254.0
 20
204.0
 30
0.0
 11
253.0
 21
203.0
 31
0.0
  0
LINE
  5
3CA
330
1E
100
AcDbEntity
  8
0
100
AcDbLine
 10
252.4999999999999
 20
200.11
 30
0.0
 11
251.0
 21
155.966
 31
0.0
  0
LINE
  5
3CB
330
1E
100
AcDbEntity
  8
0
100
AcDbLine
 10
250.7
 20
155.681
 30
0.0
 11
247.1
 21
155.49
 31
0.0
  0
LINE
  5
3CC
330
1E
100
AcDbEntity
  8
0
100
AcDbLine
 10
251.0
 20
155.966
 30
0.0
 11
250.7
 21
155.681
 31
0.0
  0
LINE
  5
3CD
330
1E
100
AcDbEntity
  8
0
100
AcDbLine
 10
247.1
 20
155.49
 30
0.0
 11
240.0
 21
155.3
 31
0.0
  0
LINE
  5
3CE
330
1E
100
AcDbEntity
  8
0
100
AcDbLine
 10
239.8
 20
155.3
 30
0.0
 11
239.1999999999999
 21
155.3
 31
0.0
  0
LINE
  5
3CF
330
1E
100
AcDbEntity
  8
0
100
AcDbLine
 10
240.0
 20
155.3
 30
0.0
 11
239.8
 21
155.3
 31
0.0
  0
LINE
  5
3D0
330
1E
100
AcDbEntity
  8
0
100
AcDbLine
 10
238.2
 20
155.3
 30
0.0
 11
237.0
 21
155.3
 31
0.0
  0
LINE
  5
3D1
330
1E
100
AcDbEntity
  8
0
100
AcDbLine
 10
239.1999999999999
 20
155.3
 30
0.0
 11
238.2
 21
155.3
 31
0.0
  0
LINE
  5
3D2
330
1E
100
AcDbEntity
  8
0
100
AcDbLine
 10
249.8
 20
201.3
 30
0.0
 11
246.9
 21
201.3
 31
0.0
  0
LINE
  5
3D3
330
1E
100
AcDbEntity
  8
0
100
AcDbLine
 10
250.0
 20
200.11
 30
0.0
 11
247.0
 21
200.11
 31
0.0
  0
LINE
  5
3D4
330
1E
100
AcDbEntity
  8
0
100
AcDbLine
 10
249.8
 20
200.3
 30
0.0
 11
246.9
 21
200.3
 31
0.0
  0
LINE
  5
3D5
330
1E
100
AcDbEntity
  8
0
100
AcDbLine
 10
253.0
 20
203.0
 30
0.0
 11
252.4999999999999
 21
201.5
 31
0.0
  0
LINE
  5
3D6
330
1E
100
AcDbEntity
  8
0
100
AcDbLine
 10
251.6
 20
201.3
 30
0.0
 11
249.8
 21
201.3
 31
0.0
  0
LINE
  5
3D7
330
1E
100
AcDbEntity
  8
0
100
AcDbLine
 10
251.6
 20
200.3
 30
0.0
 11
249.8
 21
200.3
 31
0.0
  0
LINE
  5
3D8
330
1E
100
AcDbEntity
  8
0
100
AcDbLine
 10
251.8
 20
200.11
 30
0.0
 11
250.0
 21
200.11
 31
0.0
  0
LINE
  5
3D9
330
1E
100
AcDbEntity
  8
0
100
AcDbLine
 10
252.4999999999999
 20
201.5
 30
0.0
 11
252.3
 21
201.3
 31
0.0
  0
LINE
  5
3DA
330
1E
100
AcDbEntity
  8
0
100
AcDbLine
 10
252.3
 20
201.3
 30
0.0
 11
252.3
 21
200.3
 31
0.0
  0
LINE
  5
3DB
330
1E
100
AcDbEntity
  8
0
100
AcDbLine
 10
252.3
 20
200.3
 30
0.0
 11
252.3
 21
201.3
 31
0.0
  0
LINE
  5
3DC
330
1E
100
AcDbEntity
  8
0
100
AcDbLine
 10
252.4999999999999
 20
200.11
 30
0.0
 11
251.8
 21
200.11
 31
0.0
  0
LINE
  5
3DD
330
1E
100
AcDbEntity
  8
0
100
AcDbLine
 10
252.4999999999999
 20
200.11
 30
0.0
 11
252.3
 21
200.3
 31
0.0
  0
LINE
  5
3DE
330
1E
100
AcDbEntity
  8
0
100
AcDbLine
 10
252.3
 20
201.3
 30
0.0
 11
251.6
 21
201.3
 31
0.0
  0
LINE
  5
3DF
330
1E
100
AcDbEntity
  8
0
100
AcDbLine
 10
252.3
 20
200.3
 30
0.0
 11
251.6
 21
200.3
 31
0.0
  0
LINE
  5
3E0
330
1E
100
AcDbEntity
  8
0
100
AcDbLine
 10
243.1
 20
201.3
 30
0.0
 11
238.7
 21
201.3
 31
0.0
  0
LINE
  5
3E1
330
1E
100
AcDbEntity
  8
0
100
AcDbLine
 10
243.1999999999999
 20
200.11
 30
0.0
 11
238.8
 21
200.11
 31
0.0
  0
LINE
  5
3E2
330
1E
100
AcDbEntity
  8
0
100
AcDbLine
 10
243.1
 20
200.3
 30
0.0
 11
238.7
 21
200.3
 31
0.0
  0
LINE
  5
3E3
330
1E
100
AcDbEntity
  8
0
100
AcDbLine
 10
246.9
 20
201.3
 30
0.0
 11
243.1
 21
201.3
 31
0.0
  0
LINE
  5
3E4
330
1E
100
AcDbEntity
  8
0
100
AcDbLine
 10
247.0
 20
200.11
 30
0.0
 11
243.1999999999999
 21
200.11
 31
0.0
  0
LINE
  5
3E5
330
1E
100
AcDbEntity
  8
0
100
AcDbLine
 10
246.9
 20
200.3
 30
0.0
 11
243.1
 21
200.3
 31
0.0
  0
LINE
  5
3E6
330
1E
100
AcDbEntity
  8
0
100
AcDbLine
 10
267.5
 20
205.0
 30
0.0
 11
255.5
 21
204.4999999999999
 31
0.0
  0
LINE
  5
3E7
330
1E
100
AcDbEntity
  8
0
100
AcDbLine
 10
263.3999999999999
 20
210.0
 30
0.0
 11
258.0
 21
210.0
 31
0.0
  0
LINE
  5
3E8
330
1E
100
AcDbEntity
  8
0
100
AcDbLine
 10
267.5
 20
205.0
 30
0.0
 11
255.5
 21
204.4999999999999
 31
0.0
  0
LINE
  5
3E9
330
1E
100
AcDbEntity
  8
0
100
AcDbLine
 10
266.8
 20
210.0
 30
0.0
 11
263.3999999999999
 21
210.0
 31
0.0
  0
LINE
  5
3EA
330
1E
100
AcDbEntity
  8
0
100
AcDbLine
 10
266.8
 20
210.0
 30
0.0
 11
263.3999999999999
 21
210.0
 31
0.0
  0
LINE
  5
3EB
330
1E
100
AcDbEntity
  8
0
100
AcDbLine
 10
268.0
 20
205.5
 30
0.0
 11
268.0
 21
210.0
 31
0.0
  0
LINE
  5
3EC
330
1E
100
AcDbEntity
  8
0
100
AcDbLine
 10
268.0
 20
210.0
 30
0.0
 11
268.0
 21
205.5
 31
0.0
  0
LINE
  5
3ED
330
1E
100
AcDbEntity
  8
0
100
AcDbLine
 10
268.0
 20
205.5
 30
0.0
 11
267.5
 21
205.0
 31
0.0
  0
LINE
  5
3EE
330
1E
100
AcDbEntity
  8
0
100
AcDbLine
 10
268.0
 20
210.0
 30
0.0
 11
266.8
 21
210.0
 31
0.0
  0
LINE
  5
3EF
330
1E
100
AcDbEntity
  8
0
100
AcDbLine
 10
244.7417
 20
240.8526
 30
0.0
 11
243.672
 21
243.5269
 31
0.0
  0
LINE
  5
3F0
330
1E
100
AcDbEntity
  8
0
100
AcDbLine
 10
246.5319999999999
 20
241.3279999999999
 30
0.0
 11
245.284
 21
244.4479999999999
 31
0.0
  0
LINE
  5
3F1
330
1E
100
AcDbEntity
  8
0
100
AcDbLine
 10
256.4999999999999
 20
240.0
 30
0.0
 11
246.71875
 21
240.0
 31
0.0
  0
LINE
  5
3F2
330
1E
100
AcDbEntity
  8
0
100
AcDbLine
 10
256.4999999999999
 20
236.0
 30
0.0
 11
247.0
 21
236.0
 31
0.0
  0
LINE
  5
3F3
330
1E
100
AcDbEntity
  8
0
100
AcDbLine
 10
256.4999999999999
 20
236.0
 30
0.0
 11
246.71875
 21
236.0
 31
0.0
  0
LINE
  5
3F4
330
1E
100
AcDbEntity
  8
0
100
AcDbLine
 10
256.4999999999999
 20
236.0
 30
0.0
 11
246.71875
 21
236.0
 31
0.0
  0
LINE
  5
3F5
330
1E
100
AcDbEntity
  8
0
100
AcDbLine
 10
250.8999999999999
 20
210.0
 30
0.0
 11
242.7
 21
210.0
 31
0.0
  0
LINE
  5
3F6
330
1E
100
AcDbEntity
  8
0
100
AcDbLine
 10
258.0
 20
210.0
 30
0.0
 11
250.8999999999999
 21
210.0
 31
0.0
  0
LINE
  5
3F7
330
1E
100
AcDbEntity
  8
0
100
AcDbLine
 10
255.5
 20
204.4999999999999
 30
0.0
 11
254.0
 21
204.0
 31
0.0
  0
LINE
  5
3F8
330
1E
100
AcDbEntity
  8
0
100
AcDbLine
 10
259.0
 20
240.0
 30
0.0
 11
259.0
 21
236.0
 31
0.0
  0
LINE
  5
3F9
330
1E
100
AcDbEntity
  8
0
100
AcDbLine
 10
259.0
 20
236.0
 30
0.0
 11
259.0
 21
240.0
 31
0.0
  0
LINE
  5
3FA
330
1E
100
AcDbEntity
  8
0
100
AcDbLine
 10
258.3
 20
236.0
 30
0.0
 11
257.5
 21
236.0
 31
0.0
  0
LINE
  5
3FB
330
1E
100
AcDbEntity
  8
0
100
AcDbLine
 10
258.8
 20
236.0
 30
0.0
 11
258.3
 21
236.0
 31
0.0
  0
LINE
  5
3FC
330
1E
100
AcDbEntity
  8
0
100
AcDbLine
 10
259.0
 20
236.0
 30
0.0
 11
258.8
 21
236.0
 31
0.0
  0
LINE
  5
3FD
330
1E
100
AcDbEntity
  8
0
100
AcDbLine
 10
257.5
 20
236.0
 30
0.0
 11
256.4999999999999
 21
236.0
 31
0.0
  0
LINE
  5
3FE
330
1E
100
AcDbEntity
  8
0
100
AcDbLine
 10
258.3
 20
240.0
 30
0.0
 11
257.5
 21
240.0
 31
0.0
  0
LINE
  5
3FF
330
1E
100
AcDbEntity
  8
0
100
AcDbLine
 10
258.8
 20
240.0
 30
0.0
 11
258.3
 21
240.0
 31
0.0
  0
LINE
  5
400
330
1E
100
AcDbEntity
  8
0
100
AcDbLine
 10
259.0
 20
240.0
 30
0.0
 11
258.8
 21
240.0
 31
0.0
  0
LINE
  5
401
330
1E
100
AcDbEntity
  8
0
100
AcDbLine
 10
257.5
 20
240.0
 30
0.0
 11
256.4999999999999
 21
240.0
 31
0.0
  0
LINE
  5
402
330
1E
100
AcDbEntity
  8
0
100
AcDbLine
 10
247.0
 20
236.0
 30
0.0
 11
247.0
 21
211.0
 31
0.0
  0
LINE
  5
403
330
1E
100
AcDbEntity
  8
0
100
AcDbLine
 10
247.0
 20
211.0
 30
0.0
 11
247.0
 21
236.0
 31
0.0
  0
LINE
  5
404
330
1E
100
AcDbEntity
  8
0
100
AcDbLine
 10
243.204
 20
211.0
 30
0.0
 11
240.4479999999999
 21
211.0
 31
0.0
  0
LINE
  5
405
330
1E
100
AcDbEntity
  8
0
100
AcDbLine
 10
244.416
 20
211.0
 30
0.0
 11
242.496
 21
211.0
 31
0.0
  0
LINE
  5
406
330
1E
100
AcDbEntity
  8
0
100
AcDbLine
 10
246.5319999999999
 20
211.0
 30
0.0
 11
245.284
 21
211.0
 31
0.0
  0
LINE
  5
407
330
1E
100
AcDbEntity
  8
0
100
AcDbLine
 10
246.5319999999999
 20
211.0
 30
0.0
 11
246.0
 21
211.0
 31
0.0
  0
LINE
  5
408
330
1E
100
AcDbEntity
  8
0
100
AcDbLine
 10
247.0
 20
211.0
 30
0.0
 11
246.5319999999999
 21
211.0
 31
0.0
  0
LINE
  5
409
330
1E
100
AcDbEntity
  8
0
100
AcDbLine
 10
245.568
 20
211.0
 30
0.0
 11
244.416
 21
211.0
 31
0.0
  0
LINE
  5
40A
330
1E
100
AcDbEntity
  8
0
100
AcDbLine
 10
245.284
 20
211.0
 30
0.0
 11
243.204
 21
211.0
 31
0.0
  0
LINE
  5
40B
330
1E
100
AcDbEntity
  8
0
100
AcDbLine
 10
246.0
 20
211.0
 30
0.0
 11
246.0
 21
210.0
 31
0.0
  0
LINE
  5
40C
330
1E
100
AcDbEntity
  8
0
100
AcDbLine
 10
246.0
 20
211.0
 30
0.0
 11
245.568
 21
211.0
 31
0.0
  0
LINE
  5
40D
330
1E
100
AcDbEntity
  8
0
100
AcDbLine
 10
246.0
 20
210.0
 30
0.0
 11
246.0
 21
211.0
 31
0.0
  0
LINE
  5
40E
330
1E
100
AcDbEntity
  8
0
100
AcDbLine
 10
240.4479999999999
 20
211.0
 30
0.0
 11
237.328
 21
211.0
 31
0.0
  0
LINE
  5
40F
330
1E
100
AcDbEntity
  8
0
100
AcDbLine
 10
239.9519999999999
 20
211.0
 30
0.0
 11
237.0719999999999
 21
211.0
 31
0.0
  0
LINE
  5
410
330
1E
100
AcDbEntity
  8
0
100
AcDbLine
 10
242.496
 20
211.0
 30
0.0
 11
239.9519999999999
 21
211.0
 31
0.0
  0
LINE
  5
411
330
1E
100
AcDbEntity
  8
0
100
AcDbLine
 10
243.672
 20
232.4730999999999
 30
0.0
 11
241.8890999999999
 21
230.1108999999999
 31
0.0
  0
LINE
  5
412
330
1E
100
AcDbEntity
  8
0
100
AcDbLine
 10
243.204
 20
228.7959999999999
 30
0.0
 11
241.2987734248448
 21
227.3580931508259
 31
0.0
  0
LINE
  5
413
330
1E
100
AcDbEntity
  8
0
100
AcDbLine
 10
243.204
 20
228.7959999999999
 30
0.0
 11
240.4479999999999
 21
226.716
 31
0.0
  0
LINE
  5
414
330
1E
100
AcDbEntity
  8
0
100
AcDbLine
 10
246.5319999999999
 20
234.6719999999999
 30
0.0
 11
245.284
 21
231.552
 31
0.0
  0
LINE
  5
415
330
1E
100
AcDbEntity
  8
0
100
AcDbLine
 10
246.5319999999999
 20
234.6719999999999
 30
0.0
 11
245.284
 21
231.552
 31
0.0
  0
LINE
  5
416
330
1E
100
AcDbEntity
  8
0
100
AcDbLine
 10
244.7417
 20
235.1474
 30
0.0
 11
243.672
 21
232.4730999999999
 31
0.0
  0
LINE
  5
417
330
1E
100
AcDbEntity
  8
0
100
AcDbLine
 10
245.284
 20
231.552
 30
0.0
 11
243.204
 21
228.7959999999999
 31
0.0
  0
LINE
  5
418
330
1E
100
AcDbEntity
  8
0
100
AcDbLine
 10
245.284
 20
231.552
 30
0.0
 11
243.204
 21
228.7959999999999
 31
0.0
  0
LINE
  5
419
330
1E
100
AcDbEntity
  8
0
100
AcDbLine
 10
248.0
 20
239.0
 30
0.0
 11
246.0
 21
239.0
 31
0.0
  0
LINE
  5
41A
330
1E
100
AcDbEntity
  8
0
100
AcDbLine
 10
248.0
 20
237.0
 30
0.0
 11
246.0
 21
237.0
 31
0.0
  0
LINE
  5
41B
330
1E
100
AcDbEntity
  8
0
100
AcDbLine
 10
247.0
 20
238.0
 30
0.0
 11
246.5319999999999
 21
241.3279999999999
 31
0.0
  0
LINE
  5
41C
330
1E
100
AcDbEntity
  8
0
100
AcDbLine
 10
248.0
 20
239.0
 30
0.0
 11
248.0
 21
237.0
 31
0.0
  0
LINE
  5
41D
330
1E
100
AcDbEntity
  8
0
100
AcDbLine
 10
248.0
 20
237.0
 30
0.0
 11
248.0
 21
239.0
 31
0.0
  0
LINE
  5
41E
330
1E
100
AcDbEntity
  8
0
100
AcDbLine
 10
248.0
 20
237.0
 30
0.0
 11
246.859375
 21
237.0
 31
0.0
  0
LINE
  5
41F
330
1E
100
AcDbEntity
  8
0
100
AcDbLine
 10
247.0
 20
238.0
 30
0.0
 11
246.5319999999999
 21
234.6719999999999
 31
0.0
  0
LINE
  5
420
330
1E
100
AcDbEntity
  8
0
100
AcDbLine
 10
246.859375
 20
237.0
 30
0.0
 11
246.5319999999999
 21
234.6719999999999
 31
0.0
  0
LINE
  5
421
330
1E
100
AcDbEntity
  8
0
100
AcDbLine
 10
246.859375
 20
239.0
 30
0.0
 11
246.5319999999999
 21
241.3279999999999
 31
0.0
  0
LINE
  5
422
330
1E
100
AcDbEntity
  8
0
100
AcDbLine
 10
246.71875
 20
240.0
 30
0.0
 11
246.5319999999999
 21
241.3279999999999
 31
0.0
  0
LINE
  5
423
330
1E
100
AcDbEntity
  8
0
100
AcDbLine
 10
246.0
 20
239.0
 30
0.0
 11
246.0
 21
237.0
 31
0.0
  0
LINE
  5
424
330
1E
100
AcDbEntity
  8
0
100
AcDbLine
 10
245.1429
 20
238.0
 30
0.0
 11
244.7417
 21
240.8526
 31
0.0
  0
LINE
  5
425
330
1E
100
AcDbEntity
  8
0
100
AcDbLine
 10
246.0
 20
237.0
 30
0.0
 11
246.0
 21
239.0
 31
0.0
  0
LINE
  5
426
330
1E
100
AcDbEntity
  8
0
100
AcDbLine
 10
245.1429
 20
238.0
 30
0.0
 11
244.7417
 21
235.1474
 31
0.0
  0
LINE
  5
427
330
1E
100
AcDbEntity
  8
0
100
AcDbLine
 10
240.8659999999999
 20
228.1076999999999
 30
0.0
 11
239.134
 21
227.1077
 31
0.0
  0
LINE
  5
428
330
1E
100
AcDbEntity
  8
0
100
AcDbLine
 10
240.134
 20
225.3756
 30
0.0
 11
239.134
 21
227.1077
 31
0.0
  0
LINE
  5
429
330
1E
100
AcDbEntity
  8
0
100
AcDbLine
 10
241.8890999999999
 20
230.1108999999999
 30
0.0
 11
239.5269
 21
228.3279999999999
 31
0.0
  0
LINE
  5
42A
330
1E
100
AcDbEntity
  8
0
100
AcDbLine
 10
240.4479999999999
 20
226.716
 30
0.0
 11
237.328
 21
225.468
 31
0.0
  0
LINE
  5
42B
330
1E
100
AcDbEntity
  8
0
100
AcDbLine
 10
241.866
 20
226.3755999999999
 30
0.0
 11
241.2987734248448
 21
227.3580931508259
 31
0.0
  0
LINE
  5
42C
330
1E
100
AcDbEntity
  8
0
100
AcDbLine
 10
241.866
 20
226.3755999999999
 30
0.0
 11
240.8659999999999
 21
228.1076999999999
 31
0.0
  0
LINE
  5
42D
330
1E
100
AcDbEntity
  8
0
100
AcDbLine
 10
241.866
 20
226.3755999999999
 30
0.0
 11
240.134
 21
225.3756
 31
0.0
  0
LINE
  5
42E
330
1E
100
AcDbEntity
  8
0
100
AcDbLine
 10
239.5269
 20
228.3279999999999
 30
0.0
 11
236.8526
 21
227.2583
 31
0.0
  0
LINE
  5
42F
330
1E
100
AcDbEntity
  8
0
100
AcDbLine
 10
239.564233103513
 20
226.362493241405
 30
0.0
 11
237.328
 21
225.468
 31
0.0
  0
LINE
  5
430
330
1E
100
AcDbEntity
  8
0
100
AcDbLine
 10
243.672
 20
243.5269
 30
0.0
 11
241.8890999999999
 21
245.8891
 31
0.0
  0
LINE
  5
431
330
1E
100
AcDbEntity
  8
0
100
AcDbLine
 10
243.204
 20
247.204
 30
0.0
 11
240.4479999999999
 21
249.284
 31
0.0
  0
LINE
  5
432
330
1E
100
AcDbEntity
  8
0
100
AcDbLine
 10
245.284
 20
244.4479999999999
 30
0.0
 11
243.204
 21
247.204
 31
0.0
  0
LINE
  5
433
330
1E
100
AcDbEntity
  8
0
100
AcDbLine
 10
240.134
 20
250.6244
 30
0.0
 11
239.134
 21
248.8923
 31
0.0
  0
LINE
  5
434
330
1E
100
AcDbEntity
  8
0
100
AcDbLine
 10
241.8890999999999
 20
245.8891
 30
0.0
 11
239.5269
 21
247.6719999999999
 31
0.0
  0
LINE
  5
435
330
1E
100
AcDbEntity
  8
0
100
AcDbLine
 10
240.8659999999999
 20
247.8922999999999
 30
0.0
 11
239.134
 21
248.8923
 31
0.0
  0
LINE
  5
436
330
1E
100
AcDbEntity
  8
0
100
AcDbLine
 10
240.4479999999999
 20
249.284
 30
0.0
 11
237.328
 21
250.532
 31
0.0
  0
LINE
  5
437
330
1E
100
AcDbEntity
  8
0
100
AcDbLine
 10
241.866
 20
249.6244
 30
0.0
 11
240.8659999999999
 21
247.8922999999999
 31
0.0
  0
LINE
  5
438
330
1E
100
AcDbEntity
  8
0
100
AcDbLine
 10
241.866
 20
249.6244
 30
0.0
 11
241.2987734248448
 21
248.6419068491739
 31
0.0
  0
LINE
  5
439
330
1E
100
AcDbEntity
  8
0
100
AcDbLine
 10
241.866
 20
249.6244
 30
0.0
 11
240.134
 21
250.6244
 31
0.0
  0
LINE
  5
43A
330
1E
100
AcDbEntity
  8
0
100
AcDbLine
 10
239.5269
 20
247.6719999999999
 30
0.0
 11
236.8526
 21
248.7417
 31
0.0
  0
LINE
  5
43B
330
1E
100
AcDbEntity
  8
0
100
AcDbLine
 10
239.564233103513
 20
249.637506758595
 30
0.0
 11
237.328
 21
250.532
 31
0.0
  0
LINE
  5
43C
330
1E
100
AcDbEntity
  8
0
100
AcDbLine
 10
215.0
 20
203.0
 30
0.0
 11
214.0
 21
204.0
 31
0.0
  0
LINE
  5
43D
330
1E
100
AcDbEntity
  8
0
100
AcDbLine
 10
217.0
 20
155.966
 30
0.0
 11
215.5
 21
200.11
 31
0.0
  0
LINE
  5
43E
330
1E
100
AcDbEntity
  8
0
100
AcDbLine
 10
228.0
 20
155.3
 30
0.0
 11
220.9
 21
155.49
 31
0.0
  0
LINE
  5
43F
330
1E
100
AcDbEntity
  8
0
100
AcDbLine
 10
231.0
 20
155.3
 30
0.0
 11
229.8
 21
155.3
 31
0.0
  0
LINE
  5
440
330
1E
100
AcDbEntity
  8
0
100
AcDbLine
 10
234.0
 20
155.3
 30
0.0
 11
232.5
 21
155.3
 31
0.0
  0
LINE
  5
441
330
1E
100
AcDbEntity
  8
0
100
AcDbLine
 10
235.4999999999999
 20
155.3
 30
0.0
 11
234.0
 21
155.3
 31
0.0
  0
LINE
  5
442
330
1E
100
AcDbEntity
  8
0
100
AcDbLine
 10
232.5
 20
155.3
 30
0.0
 11
231.0
 21
155.3
 31
0.0
  0
LINE
  5
443
330
1E
100
AcDbEntity
  8
0
100
AcDbLine
 10
228.8
 20
155.3
 30
0.0
 11
228.2
 21
155.3
 31
0.0
  0
LINE
  5
444
330
1E
100
AcDbEntity
  8
0
100
AcDbLine
 10
229.8
 20
155.3
 30
0.0
 11
228.8
 21
155.3
 31
0.0
  0
LINE
  5
445
330
1E
100
AcDbEntity
  8
0
100
AcDbLine
 10
228.2
 20
155.3
 30
0.0
 11
228.0
 21
155.3
 31
0.0
  0
LINE
  5
446
330
1E
100
AcDbEntity
  8
0
100
AcDbLine
 10
220.9
 20
155.49
 30
0.0
 11
217.3
 21
155.681
 31
0.0
  0
LINE
  5
447
330
1E
100
AcDbEntity
  8
0
100
AcDbLine
 10
217.3
 20
155.681
 30
0.0
 11
217.0
 21
155.966
 31
0.0
  0
LINE
  5
448
330
1E
100
AcDbEntity
  8
0
100
AcDbLine
 10
224.9
 20
201.3
 30
0.0
 11
221.0999999999999
 21
201.3
 31
0.0
  0
LINE
  5
449
330
1E
100
AcDbEntity
  8
0
100
AcDbLine
 10
224.8
 20
200.11
 30
0.0
 11
221.0
 21
200.11
 31
0.0
  0
LINE
  5
44A
330
1E
100
AcDbEntity
  8
0
100
AcDbLine
 10
224.9
 20
200.3
 30
0.0
 11
221.0999999999999
 21
200.3
 31
0.0
  0
LINE
  5
44B
330
1E
100
AcDbEntity
  8
0
100
AcDbLine
 10
234.0
 20
201.3
 30
0.0
 11
229.3
 21
201.3
 31
0.0
  0
LINE
  5
44C
330
1E
100
AcDbEntity
  8
0
100
AcDbLine
 10
234.0
 20
200.11
 30
0.0
 11
229.1999999999999
 21
200.11
 31
0.0
  0
LINE
  5
44D
330
1E
100
AcDbEntity
  8
0
100
AcDbLine
 10
234.0
 20
200.3
 30
0.0
 11
229.3
 21
200.3
 31
0.0
  0
LINE
  5
44E
330
1E
100
AcDbEntity
  8
0
100
AcDbLine
 10
229.3
 20
201.3
 30
0.0
 11
224.9
 21
201.3
 31
0.0
  0
LINE
  5
44F
330
1E
100
AcDbEntity
  8
0
100
AcDbLine
 10
229.1999999999999
 20
200.11
 30
0.0
 11
224.8
 21
200.11
 31
0.0
  0
LINE
  5
450
330
1E
100
AcDbEntity
  8
0
100
AcDbLine
 10
229.3
 20
200.3
 30
0.0
 11
224.9
 21
200.3
 31
0.0
  0
LINE
  5
451
330
1E
100
AcDbEntity
  8
0
100
AcDbLine
 10
218.1999999999999
 20
201.3
 30
0.0
 11
216.4
 21
201.3
 31
0.0
  0
LINE
  5
452
330
1E
100
AcDbEntity
  8
0
100
AcDbLine
 10
218.0
 20
200.11
 30
0.0
 11
216.1999999999999
 21
200.11
 31
0.0
  0
LINE
  5
453
330
1E
100
AcDbEntity
  8
0
100
AcDbLine
 10
218.1999999999999
 20
200.3
 30
0.0
 11
216.4
 21
200.3
 31
0.0
  0
LINE
  5
454
330
1E
100
AcDbEntity
  8
0
100
AcDbLine
 10
221.0999999999999
 20
201.3
 30
0.0
 11
218.1999999999999
 21
201.3
 31
0.0
  0
LINE
  5
455
330
1E
100
AcDbEntity
  8
0
100
AcDbLine
 10
221.0
 20
200.11
 30
0.0
 11
218.0
 21
200.11
 31
0.0
  0
LINE
  5
456
330
1E
100
AcDbEntity
  8
0
100
AcDbLine
 10
221.0999999999999
 20
200.3
 30
0.0
 11
218.1999999999999
 21
200.3
 31
0.0
  0
LINE
  5
457
330
1E
100
AcDbEntity
  8
0
100
AcDbLine
 10
215.5
 20
201.5
 30
0.0
 11
215.0
 21
203.0
 31
0.0
  0
LINE
  5
458
330
1E
100
AcDbEntity
  8
0
100
AcDbLine
 10
215.7
 20
201.3
 30
0.0
 11
215.7
 21
200.3
 31
0.0
  0
LINE
  5
459
330
1E
100
AcDbEntity
  8
0
100
AcDbLine
 10
215.7
 20
201.3
 30
0.0
 11
215.5
 21
201.5
 31
0.0
  0
LINE
  5
45A
330
1E
100
AcDbEntity
  8
0
100
AcDbLine
 10
216.4
 20
201.3
 30
0.0
 11
215.7
 21
201.3
 31
0.0
  0
LINE
  5
45B
330
1E
100
AcDbEntity
  8
0
100
AcDbLine
 10
215.7
 20
200.3
 30
0.0
 11
215.7
 21
201.3
 31
0.0
  0
LINE
  5
45C
330
1E
100
AcDbEntity
  8
0
100
AcDbLine
 10
215.7
 20
200.3
 30
0.0
 11
215.5
 21
200.11
 31
0.0
  0
LINE
  5
45D
330
1E
100
AcDbEntity
  8
0
100
AcDbLine
 10
216.1999999999999
 20
200.11
 30
0.0
 11
215.5
 21
200.11
 31
0.0
  0
LINE
  5
45E
330
1E
100
AcDbEntity
  8
0
100
AcDbLine
 10
216.4
 20
200.3
 30
0.0
 11
215.7
 21
200.3
 31
0.0
  0
LINE
  5
45F
330
1E
100
AcDbEntity
  8
0
100
AcDbLine
 10
217.0999999999999
 20
210.0
 30
0.0
 11
210.0
 21
210.0
 31
0.0
  0
LINE
  5
460
330
1E
100
AcDbEntity
  8
0
100
AcDbLine
 10
212.5
 20
204.4999999999999
 30
0.0
 11
200.4999999999999
 21
205.0
 31
0.0
  0
LINE
  5
461
330
1E
100
AcDbEntity
  8
0
100
AcDbLine
 10
234.0
 20
251.0
 30
0.0
 11
202.0
 21
251.0
 31
0.0
  0
LINE
  5
462
330
1E
100
AcDbEntity
  8
0
100
AcDbLine
 10
221.0
 20
225.0
 30
0.0
 11
202.0
 21
225.0
 31
0.0
  0
LINE
  5
463
330
1E
100
AcDbEntity
  8
0
100
AcDbLine
 10
222.716
 20
244.4479999999999
 30
0.0
 11
221.468
 21
241.3279999999999
 31
0.0
  0
LINE
  5
464
330
1E
100
AcDbEntity
  8
0
100
AcDbLine
 10
224.3279999999999
 20
243.5269
 30
0.0
 11
223.2582999999999
 21
240.8526
 31
0.0
  0
LINE
  5
465
330
1E
100
AcDbEntity
  8
0
100
AcDbLine
 10
224.7959999999999
 20
228.7959999999999
 30
0.0
 11
222.716
 21
231.552
 31
0.0
  0
LINE
  5
466
330
1E
100
AcDbEntity
  8
0
100
AcDbLine
 10
224.7959999999999
 20
228.7959999999999
 30
0.0
 11
222.716
 21
231.552
 31
0.0
  0
LINE
  5
467
330
1E
100
AcDbEntity
  8
0
100
AcDbLine
 10
224.3279999999999
 20
232.4730999999999
 30
0.0
 11
223.2582999999999
 21
235.1474
 31
0.0
  0
LINE
  5
468
330
1E
100
AcDbEntity
  8
0
100
AcDbLine
 10
224.7959999999999
 20
211.0
 30
0.0
 11
222.716
 21
211.0
 31
0.0
  0
LINE
  5
469
330
1E
100
AcDbEntity
  8
0
100
AcDbLine
 10
223.584
 20
211.0
 30
0.0
 11
222.432
 21
211.0
 31
0.0
  0
LINE
  5
46A
330
1E
100
AcDbEntity
  8
0
100
AcDbLine
 10
225.3
 20
210.0
 30
0.0
 11
217.0999999999999
 21
210.0
 31
0.0
  0
LINE
  5
46B
330
1E
100
AcDbEntity
  8
0
100
AcDbLine
 10
234.0
 20
210.0
 30
0.0
 11
225.3
 21
210.0
 31
0.0
  0
LINE
  5
46C
330
1E
100
AcDbEntity
  8
0
100
AcDbLine
 10
230.6719999999999
 20
211.0
 30
0.0
 11
227.5519999999999
 21
211.0
 31
0.0
  0
LINE
  5
46D
330
1E
100
AcDbEntity
  8
0
100
AcDbLine
 10
230.928
 20
211.0
 30
0.0
 11
228.048
 21
211.0
 31
0.0
  0
LINE
  5
46E
330
1E
100
AcDbEntity
  8
0
100
AcDbLine
 10
234.0
 20
211.0
 30
0.0
 11
230.928
 21
211.0
 31
0.0
  0
LINE
  5
46F
330
1E
100
AcDbEntity
  8
0
100
AcDbLine
 10
234.0
 20
211.0
 30
0.0
 11
230.6719999999999
 21
211.0
 31
0.0
  0
LINE
  5
470
330
1E
100
AcDbEntity
  8
0
100
AcDbLine
 10
227.5519999999999
 20
211.0
 30
0.0
 11
224.7959999999999
 21
211.0
 31
0.0
  0
LINE
  5
471
330
1E
100
AcDbEntity
  8
0
100
AcDbLine
 10
228.048
 20
211.0
 30
0.0
 11
225.504
 21
211.0
 31
0.0
  0
LINE
  5
472
330
1E
100
AcDbEntity
  8
0
100
AcDbLine
 10
225.504
 20
211.0
 30
0.0
 11
223.584
 21
211.0
 31
0.0
  0
LINE
  5
473
330
1E
100
AcDbEntity
  8
0
100
AcDbLine
 10
230.6719999999999
 20
225.468
 30
0.0
 11
228.435766896487
 21
226.362493241405
 31
0.0
  0
LINE
  5
474
330
1E
100
AcDbEntity
  8
0
100
AcDbLine
 10
231.1474
 20
227.2583
 30
0.0
 11
228.4730999999999
 21
228.3279999999999
 31
0.0
  0
LINE
  5
475
330
1E
100
AcDbEntity
  8
0
100
AcDbLine
 10
230.6719999999999
 20
225.468
 30
0.0
 11
227.5519999999999
 21
226.716
 31
0.0
  0
LINE
  5
476
330
1E
100
AcDbEntity
  8
0
100
AcDbLine
 10
234.0
 20
226.8571
 30
0.0
 11
231.1474
 21
227.2583
 31
0.0
  0
LINE
  5
477
330
1E
100
AcDbEntity
  8
0
100
AcDbLine
 10
234.0
 20
225.0
 30
0.0
 11
230.6719999999999
 21
225.468
 31
0.0
  0
LINE
  5
478
330
1E
100
AcDbEntity
  8
0
100
AcDbLine
 10
227.134
 20
228.1076999999999
 30
0.0
 11
226.134
 21
226.3755999999999
 31
0.0
  0
LINE
  5
479
330
1E
100
AcDbEntity
  8
0
100
AcDbLine
 10
227.8659999999999
 20
225.3756
 30
0.0
 11
226.134
 21
226.3755999999999
 31
0.0
  0
LINE
  5
47A
330
1E
100
AcDbEntity
  8
0
100
AcDbLine
 10
227.5519999999999
 20
226.716
 30
0.0
 11
224.7959999999999
 21
228.7959999999999
 31
0.0
  0
LINE
  5
47B
330
1E
100
AcDbEntity
  8
0
100
AcDbLine
 10
228.4730999999999
 20
228.3279999999999
 30
0.0
 11
226.1109
 21
230.1108999999999
 31
0.0
  0
LINE
  5
47C
330
1E
100
AcDbEntity
  8
0
100
AcDbLine
 10
228.8659999999999
 20
227.1077
 30
0.0
 11
227.134
 21
228.1076999999999
 31
0.0
  0
LINE
  5
47D
330
1E
100
AcDbEntity
  8
0
100
AcDbLine
 10
228.8659999999999
 20
227.1077
 30
0.0
 11
227.8659999999999
 21
225.3756
 31
0.0
  0
LINE
  5
47E
330
1E
100
AcDbEntity
  8
0
100
AcDbLine
 10
228.435766896487
 20
226.362493241405
 30
0.0
 11
227.8659999999999
 21
225.3756
 31
0.0
  0
LINE
  5
47F
330
1E
100
AcDbEntity
  8
0
100
AcDbLine
 10
226.1109
 20
230.1108999999999
 30
0.0
 11
224.3279999999999
 21
232.4730999999999
 31
0.0
  0
LINE
  5
480
330
1E
100
AcDbEntity
  8
0
100
AcDbLine
 10
221.0
 20
225.0
 30
0.0
 11
221.0
 21
211.0
 31
0.0
  0
LINE
  5
481
330
1E
100
AcDbEntity
  8
0
100
AcDbLine
 10
221.0
 20
211.0
 30
0.0
 11
221.0
 21
225.0
 31
0.0
  0
LINE
  5
482
330
1E
100
AcDbEntity
  8
0
100
AcDbLine
 10
222.0
 20
211.0
 30
0.0
 11
221.468
 21
211.0
 31
0.0
  0
LINE
  5
483
330
1E
100
AcDbEntity
  8
0
100
AcDbLine
 10
222.716
 20
211.0
 30
0.0
 11
221.468
 21
211.0
 31
0.0
  0
LINE
  5
484
330
1E
100
AcDbEntity
  8
0
100
AcDbLine
 10
222.0
 20
211.0
 30
0.0
 11
222.0
 21
210.0
 31
0.0
  0
LINE
  5
485
330
1E
100
AcDbEntity
  8
0
100
AcDbLine
 10
222.432
 20
211.0
 30
0.0
 11
222.0
 21
211.0
 31
0.0
  0
LINE
  5
486
330
1E
100
AcDbEntity
  8
0
100
AcDbLine
 10
222.0
 20
210.0
 30
0.0
 11
222.0
 21
211.0
 31
0.0
  0
LINE
  5
487
330
1E
100
AcDbEntity
  8
0
100
AcDbLine
 10
221.468
 20
211.0
 30
0.0
 11
221.0
 21
211.0
 31
0.0
  0
LINE
  5
488
330
1E
100
AcDbEntity
  8
0
100
AcDbLine
 10
214.0
 20
204.0
 30
0.0
 11
212.5
 21
204.4999999999999
 31
0.0
  0
LINE
  5
489
330
1E
100
AcDbEntity
  8
0
100
AcDbLine
 10
222.716
 20
231.552
 30
0.0
 11
221.468
 21
234.6719999999999
 31
0.0
  0
LINE
  5
48A
330
1E
100
AcDbEntity
  8
0
100
AcDbLine
 10
222.716
 20
231.552
 30
0.0
 11
221.468
 21
234.6719999999999
 31
0.0
  0
LINE
  5
48B
330
1E
100
AcDbEntity
  8
0
100
AcDbLine
 10
222.0
 20
239.0
 30
0.0
 11
220.0
 21
239.0
 31
0.0
  0
LINE
  5
48C
330
1E
100
AcDbEntity
  8
0
100
AcDbLine
 10
221.140625
 20
237.0
 30
0.0
 11
220.0
 21
237.0
 31
0.0
  0
LINE
  5
48D
330
1E
100
AcDbEntity
  8
0
100
AcDbLine
 10
222.0
 20
237.0
 30
0.0
 11
220.0
 21
237.0
 31
0.0
  0
LINE
  5
48E
330
1E
100
AcDbEntity
  8
0
100
AcDbLine
 10
221.468
 20
241.3279999999999
 30
0.0
 11
221.0
 21
238.0
 31
0.0
  0
LINE
  5
48F
330
1E
100
AcDbEntity
  8
0
100
AcDbLine
 10
222.0
 20
239.0
 30
0.0
 11
222.0
 21
237.0
 31
0.0
  0
LINE
  5
490
330
1E
100
AcDbEntity
  8
0
100
AcDbLine
 10
222.0
 20
237.0
 30
0.0
 11
222.0
 21
239.0
 31
0.0
  0
LINE
  5
491
330
1E
100
AcDbEntity
  8
0
100
AcDbLine
 10
223.2582999999999
 20
240.8526
 30
0.0
 11
222.8571
 21
238.0
 31
0.0
  0
LINE
  5
492
330
1E
100
AcDbEntity
  8
0
100
AcDbLine
 10
223.2582999999999
 20
235.1474
 30
0.0
 11
222.8571
 21
238.0
 31
0.0
  0
LINE
  5
493
330
1E
100
AcDbEntity
  8
0
100
AcDbLine
 10
221.468
 20
234.6719999999999
 30
0.0
 11
221.0
 21
238.0
 31
0.0
  0
LINE
  5
494
330
1E
100
AcDbEntity
  8
0
100
AcDbLine
 10
220.0
 20
237.0
 30
0.0
 11
220.0
 21
239.0
 31
0.0
  0
LINE
  5
495
330
1E
100
AcDbEntity
  8
0
100
AcDbLine
 10
220.0
 20
239.0
 30
0.0
 11
220.0
 21
237.0
 31
0.0
  0
LINE
  5
496
330
1E
100
AcDbEntity
  8
0
100
AcDbLine
 10
224.7959999999999
 20
247.204
 30
0.0
 11
222.716
 21
244.4479999999999
 31
0.0
  0
LINE
  5
497
330
1E
100
AcDbEntity
  8
0
100
AcDbLine
 10
231.1474
 20
248.7417
 30
0.0
 11
228.4730999999999
 21
247.6719999999999
 31
0.0
  0
LINE
  5
498
330
1E
100
AcDbEntity
  8
0
100
AcDbLine
 10
230.6719999999999
 20
250.532
 30
0.0
 11
227.5519999999999
 21
249.284
 31
0.0
  0
LINE
  5
499
330
1E
100
AcDbEntity
  8
0
100
AcDbLine
 10
234.0
 20
251.0
 30
0.0
 11
230.6719999999999
 21
250.532
 31
0.0
  0
LINE
  5
49A
330
1E
100
AcDbEntity
  8
0
100
AcDbLine
 10
234.0
 20
249.1429
 30
0.0
 11
231.1474
 21
248.7417
 31
0.0
  0
LINE
  5
49B
330
1E
100
AcDbEntity
  8
0
100
AcDbLine
 10
227.8659999999999
 20
250.6244
 30
0.0
 11
226.134
 21
249.6244
 31
0.0
  0
LINE
  5
49C
330
1E
100
AcDbEntity
  8
0
100
AcDbLine
 10
227.5519999999999
 20
249.284
 30
0.0
 11
224.7959999999999
 21
247.204
 31
0.0
  0
LINE
  5
49D
330
1E
100
AcDbEntity
  8
0
100
AcDbLine
 10
227.134
 20
247.8922999999999
 30
0.0
 11
226.134
 21
249.6244
 31
0.0
  0
LINE
  5
49E
330
1E
100
AcDbEntity
  8
0
100
AcDbLine
 10
228.4730999999999
 20
247.6719999999999
 30
0.0
 11
226.1109
 21
245.8891
 31
0.0
  0
LINE
  5
49F
330
1E
100
AcDbEntity
  8
0
100
AcDbLine
 10
228.8659999999999
 20
248.8923
 30
0.0
 11
227.134
 21
247.8922999999999
 31
0.0
  0
LINE
  5
4A0
330
1E
100
AcDbEntity
  8
0
100
AcDbLine
 10
228.435766896487
 20
249.637506758595
 30
0.0
 11
227.8659999999999
 21
250.6244
 31
0.0
  0
LINE
  5
4A1
330
1E
100
AcDbEntity
  8
0
100
AcDbLine
 10
228.8659999999999
 20
248.8923
 30
0.0
 11
227.8659999999999
 21
250.6244
 31
0.0
  0
LINE
  5
4A2
330
1E
100
AcDbEntity
  8
0
100
AcDbLine
 10
226.1109
 20
245.8891
 30
0.0
 11
224.3279999999999
 21
243.5269
 31
0.0
  0
LINE
  5
4A3
330
1E
100
AcDbEntity
  8
0
100
AcDbLine
 10
202.0
 20
244.4479999999999
 30
0.0
 11
202.0
 21
241.3279999999999
 31
0.0
  0
LINE
  5
4A4
330
1E
100
AcDbEntity
  8
0
100
AcDbLine
 10
202.0
 20
241.3279999999999
 30
0.0
 11
202.0
 21
244.4479999999999
 31
0.0
  0
LINE
  5
4A5
330
1E
100
AcDbEntity
  8
0
100
AcDbLine
 10
204.5999999999999
 20
210.0
 30
0.0
 11
201.2
 21
210.0
 31
0.0
  0
LINE
  5
4A6
330
1E
100
AcDbEntity
  8
0
100
AcDbLine
 10
210.0
 20
210.0
 30
0.0
 11
204.5999999999999
 21
210.0
 31
0.0
  0
LINE
  5
4A7
330
1E
100
AcDbEntity
  8
0
100
AcDbLine
 10
201.2
 20
210.0
 30
0.0
 11
200.0
 21
210.0
 31
0.0
  0
LINE
  5
4A8
330
1E
100
AcDbEntity
  8
0
100
AcDbLine
 10
200.4999999999999
 20
205.0
 30
0.0
 11
200.0
 21
205.5
 31
0.0
  0
LINE
  5
4A9
330
1E
100
AcDbEntity
  8
0
100
AcDbLine
 10
200.0
 20
205.5
 30
0.0
 11
200.0
 21
210.0
 31
0.0
  0
LINE
  5
4AA
330
1E
100
AcDbEntity
  8
0
100
AcDbLine
 10
202.0
 20
231.552
 30
0.0
 11
202.0
 21
234.6719999999999
 31
0.0
  0
LINE
  5
4AB
330
1E
100
AcDbEntity
  8
0
100
AcDbLine
 10
202.0
 20
234.6719999999999
 30
0.0
 11
202.0
 21
231.552
 31
0.0
  0
LINE
  5
4AC
330
1E
100
AcDbEntity
  8
0
100
AcDbLine
 10
202.0
 20
228.7959999999999
 30
0.0
 11
202.0
 21
226.716
 31
0.0
  0
LINE
  5
4AD
330
1E
100
AcDbEntity
  8
0
100
AcDbLine
 10
202.0
 20
226.716
 30
0.0
 11
202.0
 21
228.7959999999999
 31
0.0
  0
LINE
  5
4AE
330
1E
100
AcDbEntity
  8
0
100
AcDbLine
 10
202.0
 20
225.468
 30
0.0
 11
202.0
 21
226.716
 31
0.0
  0
LINE
  5
4AF
330
1E
100
AcDbEntity
  8
0
100
AcDbLine
 10
202.0
 20
225.468
 30
0.0
 11
202.0
 21
225.0
 31
0.0
  0
LINE
  5
4B0
330
1E
100
AcDbEntity
  8
0
100
AcDbLine
 10
202.0
 20
226.716
 30
0.0
 11
202.0
 21
225.468
 31
0.0
  0
LINE
  5
4B1
330
1E
100
AcDbEntity
  8
0
100
AcDbLine
 10
202.0
 20
225.0
 30
0.0
 11
202.0
 21
225.468
 31
0.0
  0
LINE
  5
4B2
330
1E
100
AcDbEntity
  8
0
100
AcDbLine
 10
202.0
 20
228.7959999999999
 30
0.0
 11
202.0
 21
231.552
 31
0.0
  0
LINE
  5
4B3
330
1E
100
AcDbEntity
  8
0
100
AcDbLine
 10
202.0
 20
231.552
 30
0.0
 11
202.0
 21
228.7959999999999
 31
0.0
  0
LINE
  5
4B4
330
1E
100
AcDbEntity
  8
0
100
AcDbLine
 10
202.0
 20
238.0
 30
0.0
 11
202.0
 21
241.3279999999999
 31
0.0
  0
LINE
  5
4B5
330
1E
100
AcDbEntity
  8
0
100
AcDbLine
 10
202.0
 20
241.3279999999999
 30
0.0
 11
202.0
 21
238.0
 31
0.0
  0
LINE
  5
4B6
330
1E
100
AcDbEntity
  8
0
100
AcDbLine
 10
202.0
 20
234.6719999999999
 30
0.0
 11
202.0
 21
238.0
 31
0.0
  0
LINE
  5
4B7
330
1E
100
AcDbEntity
  8
0
100
AcDbLine
 10
202.0
 20
238.0
 30
0.0
 11
202.0
 21
234.6719999999999
 31
0.0
  0
LINE
  5
4B8
330
1E
100
AcDbEntity
  8
0
100
AcDbLine
 10
202.0
 20
249.284
 30
0.0
 11
202.0
 21
247.204
 31
0.0
  0
LINE
  5
4B9
330
1E
100
AcDbEntity
  8
0
100
AcDbLine
 10
202.0
 20
247.204
 30
0.0
 11
202.0
 21
249.284
 31
0.0
  0
LINE
  5
4BA
330
1E
100
AcDbEntity
  8
0
100
AcDbLine
 10
202.0
 20
247.204
 30
0.0
 11
202.0
 21
244.4479999999999
 31
0.0
  0
LINE
  5
4BB
330
1E
100
AcDbEntity
  8
0
100
AcDbLine
 10
202.0
 20
244.4479999999999
 30
0.0
 11
202.0
 21
247.204
 31
0.0
  0
LINE
  5
4BC
330
1E
100
AcDbEntity
  8
0
100
AcDbLine
 10
202.0
 20
251.0
 30
0.0
 11
202.0
 21
250.532
 31
0.0
  0
LINE
  5
4BD
330
1E
100
AcDbEntity
  8
0
100
AcDbLine
 10
202.0
 20
250.532
 30
0.0
 11
202.0
 21
251.0
 31
0.0
  0
LINE
  5
4BE
330
1E
100
AcDbEntity
  8
0
100
AcDbLine
 10
202.0
 20
250.532
 30
0.0
 11
202.0
 21
249.284
 31
0.0
  0
LINE
  5
4BF
330
1E
100
AcDbEntity
  8
0
100
AcDbLine
 10
202.0
 20
249.284
 30
0.0
 11
202.0
 21
250.532
 31
0.0
  0
ENDSEC
  0
SECTION
  2
OBJECTS
  0
DICTIONARY
  5
C
330
0
100
AcDbDictionary
281
     1
  3
ACAD_GROUP
350
D
  3
ACAD_LAYOUT
350
19
  3
ACAD_MLINESTYLE
350
16
  3
ACAD_PLOTSETTINGS
350
18
  3
ACAD_PLOTSTYLENAME
350
E
  3
AcDbVariableDictionary
350
4C1
  0
DICTIONARY
  5
D
102
{ACAD_REACTORS
330
C
102
}
330
C
100
AcDbDictionary
281
     1
  0
DICTIONARY
  5
19
102
{ACAD_REACTORS
330
C
102
}
330
C
100
AcDbDictionary
281
     1
  3
Layout1
350
1D
  3
Model
350
21
  0
DICTIONARY
  5
16
102
{ACAD_REACTORS
330
C
102
}
330
C
100
AcDbDictionary
281
     1
  3
Standard
350
17
  0
DICTIONARY
  5
18
102
{ACAD_REACTORS
330
C
102
}
330
C
100
AcDbDictionary
281
     1
  0
ACDBDICTIONARYWDFLT
  5
E
102
{ACAD_REACTORS
330
C
102
}
330
C
100
AcDbDictionary
281
     1
  3
Normal
350
F
100
AcDbDictionaryWithDefault
340
F
  0
DICTIONARY
  5
4C1
102
{ACAD_REACTORS
330
C
102
}
330
C
100
AcDbDictionary
281
     1
  3
DIMASSOC
350
4C2
  0
LAYOUT
  5
1D
102
{ACAD_REACTORS
330
19
102
}
330
19
100
AcDbPlotSettings
  1

  2
C:\Programme\AutoCAD LT 2002 Deu\plotters\DWF ePlot (optimized for plotting).pc3
  4

  6

 40
0.0
 41
0.0
 42
0.0
 43
0.0
 44
0.0
 45
0.0
 46
0.0
 47
0.0
 48
0.0
 49
0.0
140
0.0
141
0.0
142
1.0
143
1.0
 70
   688
 72
     0
 73
     0
 74
     5
  7

 75
    16
147
1.0
148
0.0
149
0.0
100
AcDbLayout
  1
Layout1
 70
     1
 71
     1
 10
0.0
 20
0.0
 11
12.0
 21
9.0
 12
0.0
 22
0.0
 32
0.0
 14
1.000000000000000E+20
 24
1.000000000000000E+20
 34
1.000000000000000E+20
 15
-1.000000000000000E+20
 25
-1.000000000000000E+20
 35
-1.000000000000000E+20
146
0.0
 13
0.0
 23
0.0
 33
0.0
 16
1.0
 26
0.0
 36
0.0
 17
0.0
 27
1.0
 37
0.0
 76
     0
330
1A
  0
LAYOUT
  5
21
102
{ACAD_REACTORS
330
19
102
}
330
19
100
AcDbPlotSettings
  1

  2
C:\Programme\AutoCAD LT 2002 Deu\plotters\DWF ePlot (optimized for plotting).pc3
  4

  6

 40
0.0
 41
0.0
 42
0.0
 43
0.0
 44
0.0
 45
0.0
 46
0.0
 47
0.0
 48
0.0
 49
0.0
140
0.0
141
0.0
142
1.0
143
1.0
 70
  1712
 72
     0
 73
     0
 74
     0
  7

 75
     0
147
1.0
148
0.0
149
0.0
100
AcDbLayout
  1
Model
 70
     1
 71
     0
 10
0.0
 20
0.0
 11
12.0
 21
9.0
 12
0.0
 22
0.0
 32
0.0
 14
0.0
 24
0.0
 34
0.0
 15
0.0
 25
0.0
 35
0.0
146
0.0
 13
0.0
 23
0.0
 33
0.0
 16
1.0
 26
0.0
 36
0.0
 17
0.0
 27
1.0
 37
0.0
 76
     0
330
1E
  0
MLINESTYLE
  5
17
102
{ACAD_REACTORS
330
16
102
}
330
16
100
AcDbMlineStyle
  2
STANDARD
 70
     0
  3

 62
   256
 51
90.0
 52
90.0
 71
     2
 49
0.5
 62
   256
  6
BYLAYER
 49
-0.5
 62
   256
  6
BYLAYER
  0
ACDBPLACEHOLDER
  5
F
102
{ACAD_REACTORS
330
E
102
}
330
E
  0
DICTIONARYVAR
  5
4C2
102
{ACAD_REACTORS
330
4C1
102
}
330
4C1
100
DictionaryVariables
280
     0
  1
1
  0
ENDSEC
  0
EOF
