  0
SECTION
  2
HEADER
  9
$ACADVER
  1
AC1015
  9
$ACADMAINTVER
 70
    13
  9
$DWGCODEPAGE
  3
ANSI_1252
  9
$INSBASE
 10
0.0
 20
0.0
 30
0.0
  9
$EXTMIN
 10
-0.0000000000000075
 20
0.0000000000000182
 30
0.0
  9
$EXTMAX
 10
270.0
 20
239.0
 30
0.0
  9
$LIMMIN
 10
0.0
 20
0.0
  9
$LIMMAX
 10
12.0
 20
9.0
  9
$ORTHOMODE
 70
     0
  9
$REGENMODE
 70
     1
  9
$FILLMODE
 70
     1
  9
$QTEXTMODE
 70
     0
  9
$MIRRTEXT
 70
     1
  9
$LTSCALE
 40
1.0
  9
$ATTMODE
 70
     1
  9
$TEXTSIZE
 40
0.2
  9
$TRACEWID
 40
0.05
  9
$TEXTSTYLE
  7
Standard
  9
$CLAYER
  8
0
  9
$CELTYPE
  6
Continuous
  9
$CECOLOR
 62
   256
  9
$CELTSCALE
 40
1.0
  9
$DISPSILH
 70
     0
  9
$DIMSCALE
 40
1.0
  9
$DIMASZ
 40
0.18
  9
$DIMEXO
 40
0.0625
  9
$DIMDLI
 40
0.38
  9
$DIMRND
 40
0.0
  9
$DIMDLE
 40
0.0
  9
$DIMEXE
 40
0.18
  9
$DIMTP
 40
0.0
  9
$DIMTM
 40
0.0
  9
$DIMTXT
 40
0.18
  9
$DIMCEN
 40
0.09
  9
$DIMTSZ
 40
0.0
  9
$DIMTOL
 70
     0
  9
$DIMLIM
 70
     0
  9
$DIMTIH
 70
     1
  9
$DIMTOH
 70
     1
  9
$DIMSE1
 70
     0
  9
$DIMSE2
 70
     0
  9
$DIMTAD
 70
     0
  9
$DIMZIN
 70
     0
  9
$DIMBLK
  1

  9
$DIMASO
 70
     1
  9
$DIMSHO
 70
     1
  9
$DIMPOST
  1

  9
$DIMAPOST
  1

  9
$DIMALT
 70
     0
  9
$DIMALTD
 70
     2
  9
$DIMALTF
 40
25.4
  9
$DIMLFAC
 40
1.0
  9
$DIMTOFL
 70
     0
  9
$DIMTVP
 40
0.0
  9
$DIMTIX
 70
     0
  9
$DIMSOXD
 70
     0
  9
$DIMSAH
 70
     0
  9
$DIMBLK1
  1

  9
$DIMBLK2
  1

  9
$DIMSTYLE
  2
Standard
  9
$DIMCLRD
 70
     0
  9
$DIMCLRE
 70
     0
  9
$DIMCLRT
 70
     0
  9
$DIMTFAC
 40
1.0
  9
$DIMGAP
 40
0.09
  9
$DIMJUST
 70
     0
  9
$DIMSD1
 70
     0
  9
$DIMSD2
 70
     0
  9
$DIMTOLJ
 70
     1
  9
$DIMTZIN
 70
     0
  9
$DIMALTZ
 70
     0
  9
$DIMALTTZ
 70
     0
  9
$DIMUPT
 70
     0
  9
$DIMDEC
 70
     4
  9
$DIMTDEC
 70
     4
  9
$DIMALTU
 70
     2
  9
$DIMALTTD
 70
     2
  9
$DIMTXSTY
  7
Standard
  9
$DIMAUNIT
 70
     0
  9
$DIMADEC
 70
     0
  9
$DIMALTRND
 40
0.0
  9
$DIMAZIN
 70
     0
  9
$DIMDSEP
 70
    46
  9
$DIMATFIT
 70
     3
  9
$DIMFRAC
 70
     0
  9
$DIMLDRBLK
  1

  9
$DIMLUNIT
 70
     2
  9
$DIMLWD
 70
    -2
  9
$DIMLWE
 70
    -2
  9
$DIMTMOVE
 70
     0
  9
$LUNITS
 70
     2
  9
$LUPREC
 70
     4
  9
$SKETCHINC
 40
0.1
  9
$FILLETRAD
 40
0.0
  9
$AUNITS
 70
     0
  9
$AUPREC
 70
     0
  9
$MENU
  1
.
  9
$ELEVATION
 40
0.0
  9
$PELEVATION
 40
0.0
  9
$THICKNESS
 40
0.0
  9
$LIMCHECK
 70
     0
  9
$CHAMFERA
 40
0.0
  9
$CHAMFERB
 40
0.0
  9
$CHAMFERC
 40
0.0
  9
$CHAMFERD
 40
0.0
  9
$SKPOLY
 70
     0
  9
$TDCREATE
 40
2455335.876006944
  9
$TDUCREATE
 40
2455335.792673611
  9
$TDUPDATE
 40
2455335.877484988
  9
$TDUUPDATE
 40
2455335.794151654
  9
$TDINDWG
 40
0.0014780440
  9
$TDUSRTIMER
 40
0.0014780440
  9
$USRTIMER
 70
     1
  9
$ANGBASE
 50
0.0
  9
$ANGDIR
 70
     0
  9
$PDMODE
 70
     0
  9
$PDSIZE
 40
0.0
  9
$PLINEWID
 40
0.0
  9
$SPLFRAME
 70
     0
  9
$SPLINETYPE
 70
     6
  9
$SPLINESEGS
 70
     8
  9
$HANDSEED
  5
266
  9
$SURFTAB1
 70
     6
  9
$SURFTAB2
 70
     6
  9
$SURFTYPE
 70
     6
  9
$SURFU
 70
     6
  9
$SURFV
 70
     6
  9
$UCSBASE
  2

  9
$UCSNAME
  2

  9
$UCSORG
 10
0.0
 20
0.0
 30
0.0
  9
$UCSXDIR
 10
1.0
 20
0.0
 30
0.0
  9
$UCSYDIR
 10
0.0
 20
1.0
 30
0.0
  9
$UCSORTHOREF
  2

  9
$UCSORTHOVIEW
 70
     1
  9
$UCSORGTOP
 10
0.0
 20
0.0
 30
0.0
  9
$UCSORGBOTTOM
 10
0.0
 20
0.0
 30
0.0
  9
$UCSORGLEFT
 10
0.0
 20
0.0
 30
0.0
  9
$UCSORGRIGHT
 10
0.0
 20
0.0
 30
0.0
  9
$UCSORGFRONT
 10
0.0
 20
0.0
 30
0.0
  9
$UCSORGBACK
 10
0.0
 20
0.0
 30
0.0
  9
$PUCSBASE
  2

  9
$PUCSNAME
  2

  9
$PUCSORG
 10
0.0
 20
0.0
 30
0.0
  9
$PUCSXDIR
 10
1.0
 20
0.0
 30
0.0
  9
$PUCSYDIR
 10
0.0
 20
1.0
 30
0.0
  9
$PUCSORTHOREF
  2

  9
$PUCSORTHOVIEW
 70
     0
  9
$PUCSORGTOP
 10
0.0
 20
0.0
 30
0.0
  9
$PUCSORGBOTTOM
 10
0.0
 20
0.0
 30
0.0
  9
$PUCSORGLEFT
 10
0.0
 20
0.0
 30
0.0
  9
$PUCSORGRIGHT
 10
0.0
 20
0.0
 30
0.0
  9
$PUCSORGFRONT
 10
0.0
 20
0.0
 30
0.0
  9
$PUCSORGBACK
 10
0.0
 20
0.0
 30
0.0
  9
$USERI1
 70
     0
  9
$USERI2
 70
     0
  9
$USERI3
 70
     0
  9
$USERI4
 70
     0
  9
$USERI5
 70
     0
  9
$USERR1
 40
0.0
  9
$USERR2
 40
0.0
  9
$USERR3
 40
0.0
  9
$USERR4
 40
0.0
  9
$USERR5
 40
0.0
  9
$WORLDVIEW
 70
     1
  9
$SHADEDGE
 70
     3
  9
$SHADEDIF
 70
    70
  9
$TILEMODE
 70
     1
  9
$MAXACTVP
 70
    64
  9
$PINSBASE
 10
0.0
 20
0.0
 30
0.0
  9
$PLIMCHECK
 70
     0
  9
$PEXTMIN
 10
1.000000000000000E+20
 20
1.000000000000000E+20
 30
1.000000000000000E+20
  9
$PEXTMAX
 10
-1.000000000000000E+20
 20
-1.000000000000000E+20
 30
-1.000000000000000E+20
  9
$PLIMMIN
 10
0.0
 20
0.0
  9
$PLIMMAX
 10
12.0
 20
9.0
  9
$UNITMODE
 70
     0
  9
$VISRETAIN
 70
     1
  9
$PLINEGEN
 70
     0
  9
$PSLTSCALE
 70
     1
  9
$TREEDEPTH
 70
  3020
  9
$CMLSTYLE
  2
Standard
  9
$CMLJUST
 70
     0
  9
$CMLSCALE
 40
1.0
  9
$PROXYGRAPHICS
 70
     1
  9
$MEASUREMENT
 70
     0
  9
$CELWEIGHT
370
    -1
  9
$ENDCAPS
280
     0
  9
$JOINSTYLE
280
     0
  9
$LWDISPLAY
290
     0
  9
$INSUNITS
 70
     0
  9
$HYPERLINKBASE
  1

  9
$STYLESHEET
  1

  9
$XEDIT
290
     1
  9
$CEPSNTYPE
380
     0
  9
$PSTYLEMODE
290
     1
  9
$FINGERPRINTGUID
  2
{E0C18424-B6BD-4E6E-A4A0-8860B4FB4AE7}
  9
$VERSIONGUID
  2
{90545499-F9F5-4DAE-AE67-3FBCBBA74968}
  9
$EXTNAMES
290
     1
  9
$PSVPSCALE
 40
0.0
  9
$OLESTARTUP
290
     0
  0
ENDSEC
  0
SECTION
  2
CLASSES
  0
CLASS
  1
ACDBDICTIONARYWDFLT
  2
AcDbDictionaryWithDefault
  3
AutoCAD 2000
 90
        0
280
     0
281
     0
  0
CLASS
  1
ACDBPLACEHOLDER
  2
AcDbPlaceHolder
  3
AutoCAD 2000
 90
        0
280
     0
281
     0
  0
CLASS
  1
LAYOUT
  2
AcDbLayout
  3
AutoCAD 2000
 90
        0
280
     0
281
     0
  0
CLASS
  1
DICTIONARYVAR
  2
AcDbDictionaryVar
  3
AutoCAD 2000
 90
        0
280
     0
281
     0
  0
ENDSEC
  0
SECTION
  2
TABLES
  0
TABLE
  2
VPORT
  5
8
330
0
100
AcDbSymbolTable
 70
     3
  0
VPORT
  5
265
330
8
100
AcDbSymbolTableRecord
100
AcDbViewportTableRecord
  2
*Active
 70
     0
 10
0.0
 20
0.0
 11
1.0
 21
1.0
 12
135.0
 22
119.5
 13
0.0
 23
0.0
 14
1.0
 24
1.0
 15
0.0
 25
0.0
 16
0.0
 26
0.0
 36
1.0
 17
0.0
 27
0.0
 37
0.0
 40
240.5689277899343
 41
2.041621029572836
 42
50.0
 43
0.0
 44
0.0
 50
0.0
 51
0.0
 71
     0
 72
   100
 73
     1
 74
     3
 75
     0
 76
     0
 77
     0
 78
     0
281
     0
 65
     1
110
0.0
120
0.0
130
0.0
111
1.0
121
0.0
131
0.0
112
0.0
122
1.0
132
0.0
 79
     1
146
0.0
  0
ENDTAB
  0
TABLE
  2
LTYPE
  5
5
330
0
100
AcDbSymbolTable
 70
     1
  0
LTYPE
  5
13
330
5
100
AcDbSymbolTableRecord
100
AcDbLinetypeTableRecord
  2
ByBlock
 70
     0
  3

 72
    65
 73
     0
 40
0.0
  0
LTYPE
  5
14
330
5
100
AcDbSymbolTableRecord
100
AcDbLinetypeTableRecord
  2
ByLayer
 70
     0
  3

 72
    65
 73
     0
 40
0.0
  0
LTYPE
  5
15
330
5
100
AcDbSymbolTableRecord
100
AcDbLinetypeTableRecord
  2
Continuous
 70
     0
  3
Solid line
 72
    65
 73
     0
 40
0.0
  0
ENDTAB
  0
TABLE
  2
LAYER
  5
2
330
0
100
AcDbSymbolTable
 70
     1
  0
LAYER
  5
10
330
2
100
AcDbSymbolTableRecord
100
AcDbLayerTableRecord
  2
0
 70
     0
 62
     7
  6
Continuous
370
    -3
390
F
  0
ENDTAB
  0
TABLE
  2
STYLE
  5
3
330
0
100
AcDbSymbolTable
 70
     1
  0
STYLE
  5
11
330
3
100
AcDbSymbolTableRecord
100
AcDbTextStyleTableRecord
  2
Standard
 70
     0
 40
0.0
 41
1.0
 50
0.0
 71
     0
 42
0.2
  3
txt
  4

  0
ENDTAB
  0
TABLE
  2
VIEW
  5
6
330
0
100
AcDbSymbolTable
 70
     0
  0
ENDTAB
  0
TABLE
  2
UCS
  5
7
330
0
100
AcDbSymbolTable
 70
     0
  0
ENDTAB
  0
TABLE
  2
APPID
  5
9
330
0
100
AcDbSymbolTable
 70
     1
  0
APPID
  5
12
330
9
100
AcDbSymbolTableRecord
100
AcDbRegAppTableRecord
  2
ACAD
 70
     0
  0
ENDTAB
  0
TABLE
  2
DIMSTYLE
  5
A
330
0
100
AcDbSymbolTable
 70
     1
100
AcDbDimStyleTable
 71
     0
  0
DIMSTYLE
105
25E
330
A
100
AcDbSymbolTableRecord
100
AcDbDimStyleTableRecord
  2
Standard
 70
     0
340
11
  0
ENDTAB
  0
TABLE
  2
BLOCK_RECORD
  5
1
330
0
100
AcDbSymbolTable
 70
     0
  0
BLOCK_RECORD
  5
1E
330
1
100
AcDbSymbolTableRecord
100
AcDbBlockTableRecord
  2
*Model_Space
340
21
  0
BLOCK_RECORD
  5
1A
330
1
100
AcDbSymbolTableRecord
100
AcDbBlockTableRecord
  2
*Paper_Space
340
1D
  0
ENDTAB
  0
ENDSEC
  0
SECTION
  2
BLOCKS
  0
BLOCK
  5
1F
330
1E
100
AcDbEntity
  8
0
100
AcDbBlockBegin
  2
*Model_Space
 70
     0
 10
0.0
 20
0.0
 30
0.0
  3
*Model_Space
  1

  0
ENDBLK
  5
20
330
1E
100
AcDbEntity
  8
0
100
AcDbBlockEnd
  0
BLOCK
  5
1B
330
1A
100
AcDbEntity
 67
     1
  8
0
100
AcDbBlockBegin
  2
*Paper_Space
 70
     0
 10
0.0
 20
0.0
 30
0.0
  3
*Paper_Space
  1

  0
ENDBLK
  5
1C
330
1A
100
AcDbEntity
 67
     1
  8
0
100
AcDbBlockEnd
  0
ENDSEC
  0
SECTION
  2
ENTITIES
  0
LINE
  5
22
330
1E
100
AcDbEntity
  8
0
100
AcDbLine
 10
-0.0000000000000075
 20
208.0
 30
0.0
 11
0.499999999999986
 21
207.5
 31
0.0
  0
LINE
  5
23
330
1E
100
AcDbEntity
  8
0
100
AcDbLine
 10
-0.0000000000000075
 20
208.0
 30
0.0
 11
-0.0000000000000075
 21
204.0
 31
0.0
  0
LINE
  5
24
330
1E
100
AcDbEntity
  8
0
100
AcDbLine
 10
-0.0000000000000075
 20
208.0
 30
0.0
 11
30.6
 21
208.0
 31
0.0
  0
LINE
  5
25
330
1E
100
AcDbEntity
  8
0
100
AcDbLine
 10
-0.0000000000000075
 20
204.0
 30
0.0
 11
-0.0000000000000075
 21
200.0
 31
0.0
  0
LINE
  5
26
330
1E
100
AcDbEntity
  8
0
100
AcDbLine
 10
-0.0000000000000075
 20
204.0
 30
0.0
 11
-0.0000000000000075
 21
208.0
 31
0.0
  0
LINE
  5
27
330
1E
100
AcDbEntity
  8
0
100
AcDbLine
 10
1.29999999999998
 20
195.0
 30
0.0
 11
4.69999999999999
 21
186.5999999999999
 31
0.0
  0
LINE
  5
28
330
1E
100
AcDbEntity
  8
0
100
AcDbLine
 10
4.69999999999999
 20
186.5999999999999
 30
0.0
 11
10.3
 21
179.3
 31
0.0
  0
LINE
  5
29
330
1E
100
AcDbEntity
  8
0
100
AcDbLine
 10
10.3
 20
179.3
 30
0.0
 11
17.6
 21
173.6999999999999
 31
0.0
  0
LINE
  5
2A
330
1E
100
AcDbEntity
  8
0
100
AcDbLine
 10
17.6
 20
173.6999999999999
 30
0.0
 11
26.0
 21
170.3
 31
0.0
  0
LINE
  5
2B
330
1E
100
AcDbEntity
  8
0
100
AcDbLine
 10
26.0
 20
170.3
 30
0.0
 11
31.0
 21
169.577777777778
 31
0.0
  0
LINE
  5
2C
330
1E
100
AcDbEntity
  8
0
100
AcDbLine
 10
30.5
 20
187.1
 30
0.0
 11
31.0
 21
187.033333333333
 31
0.0
  0
LINE
  5
2D
330
1E
100
AcDbEntity
  8
0
100
AcDbLine
 10
30.4
 20
186.6999999999999
 30
0.0
 11
31.0
 21
186.6086956521739
 31
0.0
  0
LINE
  5
2E
330
1E
100
AcDbEntity
  8
0
100
AcDbLine
 10
26.1
 20
170.6999999999999
 30
0.0
 11
31.0
 21
170.039325842697
 31
0.0
  0
LINE
  5
2F
330
1E
100
AcDbEntity
  8
0
100
AcDbLine
 10
26.3
 20
188.8
 30
0.0
 11
30.5
 21
187.1
 31
0.0
  0
LINE
  5
30
330
1E
100
AcDbEntity
  8
0
100
AcDbLine
 10
26.1
 20
188.4
 30
0.0
 11
30.4
 21
186.6999999999999
 31
0.0
  0
LINE
  5
31
330
1E
100
AcDbEntity
  8
0
100
AcDbLine
 10
17.9
 20
174.0999999999999
 30
0.0
 11
26.1
 21
170.6999999999999
 31
0.0
  0
LINE
  5
32
330
1E
100
AcDbEntity
  8
0
100
AcDbLine
 10
22.6
 20
191.6
 30
0.0
 11
26.3
 21
188.8
 31
0.0
  0
LINE
  5
33
330
1E
100
AcDbEntity
  8
0
100
AcDbLine
 10
22.29999999999999
 20
191.3
 30
0.0
 11
26.1
 21
188.4
 31
0.0
  0
LINE
  5
34
330
1E
100
AcDbEntity
  8
0
100
AcDbLine
 10
10.6
 20
179.6
 30
0.0
 11
17.9
 21
174.0999999999999
 31
0.0
  0
LINE
  5
35
330
1E
100
AcDbEntity
  8
0
100
AcDbLine
 10
19.39999999999999
 20
195.1
 30
0.0
 11
22.29999999999999
 21
191.3
 31
0.0
  0
LINE
  5
36
330
1E
100
AcDbEntity
  8
0
100
AcDbLine
 10
5.09999999999999
 20
186.8999999999999
 30
0.0
 11
10.6
 21
179.6
 31
0.0
  0
LINE
  5
37
330
1E
100
AcDbEntity
  8
0
100
AcDbLine
 10
19.8
 20
195.3
 30
0.0
 11
22.6
 21
191.6
 31
0.0
  0
LINE
  5
38
330
1E
100
AcDbEntity
  8
0
100
AcDbLine
 10
18.1
 20
199.5
 30
0.0
 11
19.8
 21
195.3
 31
0.0
  0
LINE
  5
39
330
1E
100
AcDbEntity
  8
0
100
AcDbLine
 10
17.7
 20
199.3999999999999
 30
0.0
 11
19.39999999999999
 21
195.1
 31
0.0
  0
LINE
  5
3A
330
1E
100
AcDbEntity
  8
0
100
AcDbLine
 10
1.699999999999989
 20
195.1
 30
0.0
 11
5.09999999999999
 21
186.8999999999999
 31
0.0
  0
LINE
  5
3B
330
1E
100
AcDbEntity
  8
0
100
AcDbLine
 10
31.0
 20
199.6
 30
0.0
 11
31.0
 21
169.0
 31
0.0
  0
LINE
  5
3C
330
1E
100
AcDbEntity
  8
0
100
AcDbLine
 10
31.0
 20
199.6
 30
0.0
 11
31.5
 21
200.1999999999999
 31
0.0
  0
LINE
  5
3D
330
1E
100
AcDbEntity
  8
0
100
AcDbLine
 10
0.5777777777777679
 20
200.0
 30
0.0
 11
1.29999999999998
 21
195.0
 31
0.0
  0
LINE
  5
3E
330
1E
100
AcDbEntity
  8
0
100
AcDbLine
 10
0.5777777777777679
 20
200.0
 30
0.0
 11
1.29999999999998
 21
195.0
 31
0.0
  0
LINE
  5
3F
330
1E
100
AcDbEntity
  8
0
100
AcDbLine
 10
18.0333333333333
 20
200.0
 30
0.0
 11
18.1
 21
199.5
 31
0.0
  0
LINE
  5
40
330
1E
100
AcDbEntity
  8
0
100
AcDbLine
 10
17.60869565217389
 20
200.0
 30
0.0
 11
17.7
 21
199.3999999999999
 31
0.0
  0
LINE
  5
41
330
1E
100
AcDbEntity
  8
0
100
AcDbLine
 10
1.039325842696619
 20
200.0
 30
0.0
 11
1.699999999999989
 21
195.1
 31
0.0
  0
LINE
  5
42
330
1E
100
AcDbEntity
  8
0
100
AcDbLine
 10
30.8
 20
199.8
 30
0.0
 11
31.0
 21
199.6
 31
0.0
  0
LINE
  5
43
330
1E
100
AcDbEntity
  8
0
100
AcDbLine
 10
35.0
 20
169.5
 30
0.0
 11
38.5
 21
169.5
 31
0.0
  0
LINE
  5
44
330
1E
100
AcDbEntity
  8
0
100
AcDbLine
 10
121.0
 20
0.5000000000000201
 30
0.0
 11
121.0
 21
2.20000000000002
 31
0.0
  0
LINE
  5
45
330
1E
100
AcDbEntity
  8
0
100
AcDbLine
 10
121.0
 20
2.20000000000002
 30
0.0
 11
121.0
 21
6.600000000000019
 31
0.0
  0
LINE
  5
46
330
1E
100
AcDbEntity
  8
0
100
AcDbLine
 10
121.0
 20
2.20000000000002
 30
0.0
 11
121.0
 21
0.5000000000000201
 31
0.0
  0
LINE
  5
47
330
1E
100
AcDbEntity
  8
0
100
AcDbLine
 10
121.0
 20
6.600000000000019
 30
0.0
 11
121.0
 21
13.9
 31
0.0
  0
LINE
  5
48
330
1E
100
AcDbEntity
  8
0
100
AcDbLine
 10
121.0
 20
6.600000000000019
 30
0.0
 11
121.0
 21
2.20000000000002
 31
0.0
  0
LINE
  5
49
330
1E
100
AcDbEntity
  8
0
100
AcDbLine
 10
121.0
 20
13.9
 30
0.0
 11
121.0
 21
23.39999999999999
 31
0.0
  0
LINE
  5
4A
330
1E
100
AcDbEntity
  8
0
100
AcDbLine
 10
121.0
 20
13.9
 30
0.0
 11
121.0
 21
6.600000000000019
 31
0.0
  0
LINE
  5
4B
330
1E
100
AcDbEntity
  8
0
100
AcDbLine
 10
121.0
 20
23.39999999999999
 30
0.0
 11
121.0
 21
34.29999999999999
 31
0.0
  0
LINE
  5
4C
330
1E
100
AcDbEntity
  8
0
100
AcDbLine
 10
121.0
 20
23.39999999999999
 30
0.0
 11
121.0
 21
13.9
 31
0.0
  0
LINE
  5
4D
330
1E
100
AcDbEntity
  8
0
100
AcDbLine
 10
121.0
 20
27.5
 30
0.0
 11
121.0
 21
28.1
 31
0.0
  0
LINE
  5
4E
330
1E
100
AcDbEntity
  8
0
100
AcDbLine
 10
121.0
 20
28.1
 30
0.0
 11
121.0
 21
30.0
 31
0.0
  0
LINE
  5
4F
330
1E
100
AcDbEntity
  8
0
100
AcDbLine
 10
121.0
 20
28.1
 30
0.0
 11
121.0
 21
27.5
 31
0.0
  0
LINE
  5
50
330
1E
100
AcDbEntity
  8
0
100
AcDbLine
 10
121.0
 20
30.0
 30
0.0
 11
121.0
 21
32.9
 31
0.0
  0
LINE
  5
51
330
1E
100
AcDbEntity
  8
0
100
AcDbLine
 10
121.0
 20
30.0
 30
0.0
 11
121.0
 21
28.1
 31
0.0
  0
LINE
  5
52
330
1E
100
AcDbEntity
  8
0
100
AcDbLine
 10
121.0
 20
32.9
 30
0.0
 11
121.0
 21
36.79999999999999
 31
0.0
  0
LINE
  5
53
330
1E
100
AcDbEntity
  8
0
100
AcDbLine
 10
121.0
 20
32.9
 30
0.0
 11
121.0
 21
30.0
 31
0.0
  0
LINE
  5
54
330
1E
100
AcDbEntity
  8
0
100
AcDbLine
 10
121.0
 20
36.79999999999999
 30
0.0
 11
121.0
 21
41.2
 31
0.0
  0
LINE
  5
55
330
1E
100
AcDbEntity
  8
0
100
AcDbLine
 10
121.0
 20
36.79999999999999
 30
0.0
 11
121.0
 21
32.9
 31
0.0
  0
LINE
  5
56
330
1E
100
AcDbEntity
  8
0
100
AcDbLine
 10
121.0
 20
41.2
 30
0.0
 11
121.0
 21
46.0
 31
0.0
  0
LINE
  5
57
330
1E
100
AcDbEntity
  8
0
100
AcDbLine
 10
121.0
 20
41.2
 30
0.0
 11
121.0
 21
36.79999999999999
 31
0.0
  0
LINE
  5
58
330
1E
100
AcDbEntity
  8
0
100
AcDbLine
 10
121.0
 20
46.0
 30
0.0
 11
121.0
 21
165.0
 31
0.0
  0
LINE
  5
59
330
1E
100
AcDbEntity
  8
0
100
AcDbLine
 10
121.0
 20
46.0
 30
0.0
 11
121.0
 21
41.2
 31
0.0
  0
LINE
  5
5A
330
1E
100
AcDbEntity
  8
0
100
AcDbLine
 10
121.0
 20
34.29999999999999
 30
0.0
 11
121.0
 21
46.0
 31
0.0
  0
LINE
  5
5B
330
1E
100
AcDbEntity
  8
0
100
AcDbLine
 10
121.0
 20
34.29999999999999
 30
0.0
 11
121.0
 21
23.39999999999999
 31
0.0
  0
LINE
  5
5C
330
1E
100
AcDbEntity
  8
0
100
AcDbLine
 10
121.0
 20
46.0
 30
0.0
 11
121.0
 21
165.0
 31
0.0
  0
LINE
  5
5D
330
1E
100
AcDbEntity
  8
0
100
AcDbLine
 10
121.0
 20
46.0
 30
0.0
 11
121.0
 21
34.29999999999999
 31
0.0
  0
LINE
  5
5E
330
1E
100
AcDbEntity
  8
0
100
AcDbLine
 10
121.0
 20
27.5
 30
0.0
 11
121.0
 21
0.500000000000018
 31
0.0
  0
LINE
  5
5F
330
1E
100
AcDbEntity
  8
0
100
AcDbLine
 10
121.5
 20
1.700000000000019
 30
0.0
 11
121.5
 21
6.200000000000018
 31
0.0
  0
LINE
  5
60
330
1E
100
AcDbEntity
  8
0
100
AcDbLine
 10
121.5
 20
1.700000000000019
 30
0.0
 11
121.5
 21
0.0000000000000199
 31
0.0
  0
LINE
  5
61
330
1E
100
AcDbEntity
  8
0
100
AcDbLine
 10
121.5
 20
6.200000000000018
 30
0.0
 11
121.5
 21
13.6
 31
0.0
  0
LINE
  5
62
330
1E
100
AcDbEntity
  8
0
100
AcDbLine
 10
121.5
 20
6.200000000000018
 30
0.0
 11
121.5
 21
1.700000000000019
 31
0.0
  0
LINE
  5
63
330
1E
100
AcDbEntity
  8
0
100
AcDbLine
 10
121.5
 20
13.6
 30
0.0
 11
121.5
 21
23.1
 31
0.0
  0
LINE
  5
64
330
1E
100
AcDbEntity
  8
0
100
AcDbLine
 10
121.5
 20
13.6
 30
0.0
 11
121.5
 21
6.200000000000018
 31
0.0
  0
LINE
  5
65
330
1E
100
AcDbEntity
  8
0
100
AcDbLine
 10
121.5
 20
23.1
 30
0.0
 11
121.5
 21
34.2
 31
0.0
  0
LINE
  5
66
330
1E
100
AcDbEntity
  8
0
100
AcDbLine
 10
121.5
 20
23.1
 30
0.0
 11
121.5
 21
13.6
 31
0.0
  0
LINE
  5
67
330
1E
100
AcDbEntity
  8
0
100
AcDbLine
 10
121.5
 20
34.2
 30
0.0
 11
121.5
 21
46.0
 31
0.0
  0
LINE
  5
68
330
1E
100
AcDbEntity
  8
0
100
AcDbLine
 10
121.5
 20
34.2
 30
0.0
 11
121.5
 21
23.1
 31
0.0
  0
LINE
  5
69
330
1E
100
AcDbEntity
  8
0
100
AcDbLine
 10
121.5
 20
46.0
 30
0.0
 11
121.5
 21
165.0
 31
0.0
  0
LINE
  5
6A
330
1E
100
AcDbEntity
  8
0
100
AcDbLine
 10
121.5
 20
46.0
 30
0.0
 11
121.5
 21
34.2
 31
0.0
  0
LINE
  5
6B
330
1E
100
AcDbEntity
  8
0
100
AcDbLine
 10
121.5
 20
0.0000000000000199
 30
0.0
 11
121.5
 21
1.700000000000019
 31
0.0
  0
LINE
  5
6C
330
1E
100
AcDbEntity
  8
0
100
AcDbLine
 10
121.5
 20
0.0000000000000182
 30
0.0
 11
135.0
 21
0.0000000000000182
 31
0.0
  0
LINE
  5
6D
330
1E
100
AcDbEntity
  8
0
100
AcDbLine
 10
121.0
 20
0.500000000000018
 30
0.0
 11
121.5
 21
0.0000000000000182
 31
0.0
  0
LINE
  5
6E
330
1E
100
AcDbEntity
  8
0
100
AcDbLine
 10
121.0
 20
0.500000000000018
 30
0.0
 11
121.0
 21
27.5
 31
0.0
  0
LINE
  5
6F
330
1E
100
AcDbEntity
  8
0
100
AcDbLine
 10
121.0
 20
165.0
 30
0.0
 11
121.0
 21
172.0
 31
0.0
  0
LINE
  5
70
330
1E
100
AcDbEntity
  8
0
100
AcDbLine
 10
121.0
 20
165.0
 30
0.0
 11
121.0
 21
46.0
 31
0.0
  0
LINE
  5
71
330
1E
100
AcDbEntity
  8
0
100
AcDbLine
 10
135.0
 20
0.0000000000000182
 30
0.0
 11
148.5
 21
0.0000000000000182
 31
0.0
  0
LINE
  5
72
330
1E
100
AcDbEntity
  8
0
100
AcDbLine
 10
148.5
 20
0.0000000000000199
 30
0.0
 11
148.5
 21
1.700000000000019
 31
0.0
  0
LINE
  5
73
330
1E
100
AcDbEntity
  8
0
100
AcDbLine
 10
148.5
 20
1.700000000000019
 30
0.0
 11
148.5
 21
0.0000000000000199
 31
0.0
  0
LINE
  5
74
330
1E
100
AcDbEntity
  8
0
100
AcDbLine
 10
148.5
 20
1.700000000000019
 30
0.0
 11
148.5
 21
6.200000000000018
 31
0.0
  0
LINE
  5
75
330
1E
100
AcDbEntity
  8
0
100
AcDbLine
 10
149.0
 20
0.5000000000000201
 30
0.0
 11
149.0
 21
2.20000000000002
 31
0.0
  0
LINE
  5
76
330
1E
100
AcDbEntity
  8
0
100
AcDbLine
 10
149.0
 20
2.20000000000002
 30
0.0
 11
149.0
 21
0.5000000000000201
 31
0.0
  0
LINE
  5
77
330
1E
100
AcDbEntity
  8
0
100
AcDbLine
 10
149.0
 20
2.20000000000002
 30
0.0
 11
149.0
 21
6.600000000000019
 31
0.0
  0
LINE
  5
78
330
1E
100
AcDbEntity
  8
0
100
AcDbLine
 10
149.0
 20
6.600000000000019
 30
0.0
 11
149.0
 21
2.20000000000002
 31
0.0
  0
LINE
  5
79
330
1E
100
AcDbEntity
  8
0
100
AcDbLine
 10
149.0
 20
6.600000000000019
 30
0.0
 11
149.0
 21
13.9
 31
0.0
  0
LINE
  5
7A
330
1E
100
AcDbEntity
  8
0
100
AcDbLine
 10
148.5
 20
6.200000000000018
 30
0.0
 11
148.5
 21
1.700000000000019
 31
0.0
  0
LINE
  5
7B
330
1E
100
AcDbEntity
  8
0
100
AcDbLine
 10
148.5
 20
6.200000000000018
 30
0.0
 11
148.5
 21
13.6
 31
0.0
  0
LINE
  5
7C
330
1E
100
AcDbEntity
  8
0
100
AcDbLine
 10
148.5
 20
13.6
 30
0.0
 11
148.5
 21
6.200000000000018
 31
0.0
  0
LINE
  5
7D
330
1E
100
AcDbEntity
  8
0
100
AcDbLine
 10
148.5
 20
13.6
 30
0.0
 11
148.5
 21
23.1
 31
0.0
  0
LINE
  5
7E
330
1E
100
AcDbEntity
  8
0
100
AcDbLine
 10
148.5
 20
23.1
 30
0.0
 11
148.5
 21
13.6
 31
0.0
  0
LINE
  5
7F
330
1E
100
AcDbEntity
  8
0
100
AcDbLine
 10
148.5
 20
23.1
 30
0.0
 11
148.5
 21
34.2
 31
0.0
  0
LINE
  5
80
330
1E
100
AcDbEntity
  8
0
100
AcDbLine
 10
148.5
 20
34.2
 30
0.0
 11
148.5
 21
23.1
 31
0.0
  0
LINE
  5
81
330
1E
100
AcDbEntity
  8
0
100
AcDbLine
 10
148.5
 20
34.2
 30
0.0
 11
148.5
 21
46.0
 31
0.0
  0
LINE
  5
82
330
1E
100
AcDbEntity
  8
0
100
AcDbLine
 10
148.5
 20
46.0
 30
0.0
 11
148.5
 21
34.2
 31
0.0
  0
LINE
  5
83
330
1E
100
AcDbEntity
  8
0
100
AcDbLine
 10
148.5
 20
46.0
 30
0.0
 11
148.5
 21
165.0
 31
0.0
  0
LINE
  5
84
330
1E
100
AcDbEntity
  8
0
100
AcDbLine
 10
149.0
 20
13.9
 30
0.0
 11
149.0
 21
6.600000000000019
 31
0.0
  0
LINE
  5
85
330
1E
100
AcDbEntity
  8
0
100
AcDbLine
 10
149.0
 20
13.9
 30
0.0
 11
149.0
 21
23.39999999999999
 31
0.0
  0
LINE
  5
86
330
1E
100
AcDbEntity
  8
0
100
AcDbLine
 10
149.0
 20
23.39999999999999
 30
0.0
 11
149.0
 21
13.9
 31
0.0
  0
LINE
  5
87
330
1E
100
AcDbEntity
  8
0
100
AcDbLine
 10
149.0
 20
23.39999999999999
 30
0.0
 11
149.0
 21
34.29999999999999
 31
0.0
  0
LINE
  5
88
330
1E
100
AcDbEntity
  8
0
100
AcDbLine
 10
149.0
 20
34.29999999999999
 30
0.0
 11
149.0
 21
23.39999999999999
 31
0.0
  0
LINE
  5
89
330
1E
100
AcDbEntity
  8
0
100
AcDbLine
 10
149.0
 20
34.29999999999999
 30
0.0
 11
149.0
 21
46.0
 31
0.0
  0
LINE
  5
8A
330
1E
100
AcDbEntity
  8
0
100
AcDbLine
 10
149.0
 20
46.0
 30
0.0
 11
149.0
 21
34.29999999999999
 31
0.0
  0
LINE
  5
8B
330
1E
100
AcDbEntity
  8
0
100
AcDbLine
 10
149.0
 20
46.0
 30
0.0
 11
149.0
 21
165.0
 31
0.0
  0
LINE
  5
8C
330
1E
100
AcDbEntity
  8
0
100
AcDbLine
 10
149.0
 20
165.0
 30
0.0
 11
149.0
 21
172.0
 31
0.0
  0
LINE
  5
8D
330
1E
100
AcDbEntity
  8
0
100
AcDbLine
 10
149.0
 20
165.0
 30
0.0
 11
149.0
 21
46.0
 31
0.0
  0
LINE
  5
8E
330
1E
100
AcDbEntity
  8
0
100
AcDbLine
 10
148.5
 20
165.0
 30
0.0
 11
148.5
 21
172.0
 31
0.0
  0
LINE
  5
8F
330
1E
100
AcDbEntity
  8
0
100
AcDbLine
 10
148.5
 20
165.0
 30
0.0
 11
148.5
 21
46.0
 31
0.0
  0
LINE
  5
90
330
1E
100
AcDbEntity
  8
0
100
AcDbLine
 10
121.5
 20
165.0
 30
0.0
 11
121.5
 21
172.0
 31
0.0
  0
LINE
  5
91
330
1E
100
AcDbEntity
  8
0
100
AcDbLine
 10
121.5
 20
165.0
 30
0.0
 11
121.5
 21
46.0
 31
0.0
  0
LINE
  5
92
330
1E
100
AcDbEntity
  8
0
100
AcDbLine
 10
231.0
 20
169.0
 30
0.0
 11
235.0
 21
169.0
 31
0.0
  0
LINE
  5
93
330
1E
100
AcDbEntity
  8
0
100
AcDbLine
 10
231.0
 20
169.0
 30
0.0
 11
231.0
 21
199.6
 31
0.0
  0
LINE
  5
94
330
1E
100
AcDbEntity
  8
0
100
AcDbLine
 10
231.0
 20
169.0
 30
0.0
 11
231.4999999999999
 21
169.5
 31
0.0
  0
LINE
  5
95
330
1E
100
AcDbEntity
  8
0
100
AcDbLine
 10
239.0
 20
169.0
 30
0.0
 11
239.0
 21
199.6
 31
0.0
  0
LINE
  5
96
330
1E
100
AcDbEntity
  8
0
100
AcDbLine
 10
235.0
 20
169.0
 30
0.0
 11
239.0
 21
169.0
 31
0.0
  0
LINE
  5
97
330
1E
100
AcDbEntity
  8
0
100
AcDbLine
 10
231.4999999999999
 20
169.5
 30
0.0
 11
235.0
 21
169.5
 31
0.0
  0
LINE
  5
98
330
1E
100
AcDbEntity
  8
0
100
AcDbLine
 10
231.4999999999999
 20
169.5
 30
0.0
 11
231.4999999999999
 21
200.1999999999999
 31
0.0
  0
LINE
  5
99
330
1E
100
AcDbEntity
  8
0
100
AcDbLine
 10
238.5
 20
169.5
 30
0.0
 11
239.0
 21
169.0
 31
0.0
  0
LINE
  5
9A
330
1E
100
AcDbEntity
  8
0
100
AcDbLine
 10
238.5
 20
169.5
 30
0.0
 11
238.5
 21
200.1999999999999
 31
0.0
  0
LINE
  5
9B
330
1E
100
AcDbEntity
  8
0
100
AcDbLine
 10
235.0
 20
169.5
 30
0.0
 11
238.5
 21
169.5
 31
0.0
  0
LINE
  5
9C
330
1E
100
AcDbEntity
  8
0
100
AcDbLine
 10
38.5
 20
169.5
 30
0.0
 11
39.0
 21
169.0
 31
0.0
  0
LINE
  5
9D
330
1E
100
AcDbEntity
  8
0
100
AcDbLine
 10
38.5
 20
169.5
 30
0.0
 11
38.5
 21
200.1999999999999
 31
0.0
  0
LINE
  5
9E
330
1E
100
AcDbEntity
  8
0
100
AcDbLine
 10
39.0
 20
169.0
 30
0.0
 11
39.0
 21
199.6
 31
0.0
  0
LINE
  5
9F
330
1E
100
AcDbEntity
  8
0
100
AcDbLine
 10
35.0
 20
169.0
 30
0.0
 11
39.0
 21
169.0
 31
0.0
  0
LINE
  5
A0
330
1E
100
AcDbEntity
  8
0
100
AcDbLine
 10
39.0
 20
169.577777777778
 30
0.0
 11
44.0
 21
170.3
 31
0.0
  0
LINE
  5
A1
330
1E
100
AcDbEntity
  8
0
100
AcDbLine
 10
39.0
 20
187.033333333333
 30
0.0
 11
39.5
 21
187.1
 31
0.0
  0
LINE
  5
A2
330
1E
100
AcDbEntity
  8
0
100
AcDbLine
 10
39.0
 20
186.6086956521739
 30
0.0
 11
39.6
 21
186.6999999999999
 31
0.0
  0
LINE
  5
A3
330
1E
100
AcDbEntity
  8
0
100
AcDbLine
 10
39.0
 20
170.039325842697
 30
0.0
 11
43.89999999999999
 21
170.6999999999999
 31
0.0
  0
LINE
  5
A4
330
1E
100
AcDbEntity
  8
0
100
AcDbLine
 10
44.0
 20
170.3
 30
0.0
 11
52.4
 21
173.6999999999999
 31
0.0
  0
LINE
  5
A5
330
1E
100
AcDbEntity
  8
0
100
AcDbLine
 10
52.4
 20
173.6999999999999
 30
0.0
 11
59.7
 21
179.3
 31
0.0
  0
LINE
  5
A6
330
1E
100
AcDbEntity
  8
0
100
AcDbLine
 10
43.89999999999999
 20
170.6999999999999
 30
0.0
 11
52.1
 21
174.0999999999999
 31
0.0
  0
LINE
  5
A7
330
1E
100
AcDbEntity
  8
0
100
AcDbLine
 10
39.6
 20
186.6999999999999
 30
0.0
 11
43.89999999999999
 21
188.4
 31
0.0
  0
LINE
  5
A8
330
1E
100
AcDbEntity
  8
0
100
AcDbLine
 10
52.1
 20
174.0999999999999
 30
0.0
 11
59.4
 21
179.6
 31
0.0
  0
LINE
  5
A9
330
1E
100
AcDbEntity
  8
0
100
AcDbLine
 10
59.7
 20
179.3
 30
0.0
 11
65.3
 21
186.5999999999999
 31
0.0
  0
LINE
  5
AA
330
1E
100
AcDbEntity
  8
0
100
AcDbLine
 10
65.3
 20
186.5999999999999
 30
0.0
 11
68.7
 21
195.0
 31
0.0
  0
LINE
  5
AB
330
1E
100
AcDbEntity
  8
0
100
AcDbLine
 10
59.4
 20
179.6
 30
0.0
 11
64.90000000000001
 21
186.8999999999999
 31
0.0
  0
LINE
  5
AC
330
1E
100
AcDbEntity
  8
0
100
AcDbLine
 10
39.5
 20
187.1
 30
0.0
 11
43.7
 21
188.8
 31
0.0
  0
LINE
  5
AD
330
1E
100
AcDbEntity
  8
0
100
AcDbLine
 10
43.7
 20
188.8
 30
0.0
 11
47.4
 21
191.6
 31
0.0
  0
LINE
  5
AE
330
1E
100
AcDbEntity
  8
0
100
AcDbLine
 10
47.4
 20
191.6
 30
0.0
 11
50.2
 21
195.3
 31
0.0
  0
LINE
  5
AF
330
1E
100
AcDbEntity
  8
0
100
AcDbLine
 10
43.89999999999999
 20
188.4
 30
0.0
 11
47.7
 21
191.3
 31
0.0
  0
LINE
  5
B0
330
1E
100
AcDbEntity
  8
0
100
AcDbLine
 10
47.7
 20
191.3
 30
0.0
 11
50.6
 21
195.1
 31
0.0
  0
LINE
  5
B1
330
1E
100
AcDbEntity
  8
0
100
AcDbLine
 10
50.2
 20
195.3
 30
0.0
 11
51.9
 21
199.5
 31
0.0
  0
LINE
  5
B2
330
1E
100
AcDbEntity
  8
0
100
AcDbLine
 10
51.9
 20
199.5
 30
0.0
 11
51.96666666666669
 21
200.0
 31
0.0
  0
LINE
  5
B3
330
1E
100
AcDbEntity
  8
0
100
AcDbLine
 10
50.6
 20
195.1
 30
0.0
 11
52.3
 21
199.3999999999999
 31
0.0
  0
LINE
  5
B4
330
1E
100
AcDbEntity
  8
0
100
AcDbLine
 10
52.3
 20
199.3999999999999
 30
0.0
 11
52.3913043478261
 21
200.0
 31
0.0
  0
LINE
  5
B5
330
1E
100
AcDbEntity
  8
0
100
AcDbLine
 10
64.90000000000001
 20
186.8999999999999
 30
0.0
 11
68.3
 21
195.1
 31
0.0
  0
LINE
  5
B6
330
1E
100
AcDbEntity
  8
0
100
AcDbLine
 10
68.7
 20
195.0
 30
0.0
 11
69.4222222222222
 21
200.0
 31
0.0
  0
LINE
  5
B7
330
1E
100
AcDbEntity
  8
0
100
AcDbLine
 10
68.3
 20
195.1
 30
0.0
 11
68.9606741573034
 21
200.0
 31
0.0
  0
LINE
  5
B8
330
1E
100
AcDbEntity
  8
0
100
AcDbLine
 10
39.2
 20
199.8
 30
0.0
 11
39.39999999999999
 21
200.0
 31
0.0
  0
LINE
  5
B9
330
1E
100
AcDbEntity
  8
0
100
AcDbLine
 10
226.1
 20
170.6999999999999
 30
0.0
 11
231.0
 21
170.039325842697
 31
0.0
  0
LINE
  5
BA
330
1E
100
AcDbEntity
  8
0
100
AcDbLine
 10
226.0
 20
170.3
 30
0.0
 11
231.0
 21
169.577777777778
 31
0.0
  0
LINE
  5
BB
330
1E
100
AcDbEntity
  8
0
100
AcDbLine
 10
239.0
 20
169.577777777778
 30
0.0
 11
244.0
 21
170.3
 31
0.0
  0
LINE
  5
BC
330
1E
100
AcDbEntity
  8
0
100
AcDbLine
 10
244.0
 20
170.3
 30
0.0
 11
252.4
 21
173.6999999999999
 31
0.0
  0
LINE
  5
BD
330
1E
100
AcDbEntity
  8
0
100
AcDbLine
 10
239.0
 20
170.039325842697
 30
0.0
 11
243.9
 21
170.6999999999999
 31
0.0
  0
LINE
  5
BE
330
1E
100
AcDbEntity
  8
0
100
AcDbLine
 10
121.0
 20
172.0
 30
0.0
 11
121.0
 21
183.8
 31
0.0
  0
LINE
  5
BF
330
1E
100
AcDbEntity
  8
0
100
AcDbLine
 10
121.0
 20
172.0
 30
0.0
 11
121.0
 21
176.8
 31
0.0
  0
LINE
  5
C0
330
1E
100
AcDbEntity
  8
0
100
AcDbLine
 10
121.0
 20
172.0
 30
0.0
 11
121.0
 21
165.0
 31
0.0
  0
LINE
  5
C1
330
1E
100
AcDbEntity
  8
0
100
AcDbLine
 10
149.0
 20
172.0
 30
0.0
 11
149.0
 21
165.0
 31
0.0
  0
LINE
  5
C2
330
1E
100
AcDbEntity
  8
0
100
AcDbLine
 10
149.0
 20
172.0
 30
0.0
 11
149.0
 21
183.8
 31
0.0
  0
LINE
  5
C3
330
1E
100
AcDbEntity
  8
0
100
AcDbLine
 10
148.5
 20
172.0
 30
0.0
 11
148.5
 21
165.0
 31
0.0
  0
LINE
  5
C4
330
1E
100
AcDbEntity
  8
0
100
AcDbLine
 10
148.5
 20
172.0
 30
0.0
 11
148.5
 21
183.9
 31
0.0
  0
LINE
  5
C5
330
1E
100
AcDbEntity
  8
0
100
AcDbLine
 10
121.5
 20
172.0
 30
0.0
 11
121.5
 21
183.9
 31
0.0
  0
LINE
  5
C6
330
1E
100
AcDbEntity
  8
0
100
AcDbLine
 10
121.5
 20
172.0
 30
0.0
 11
121.5
 21
165.0
 31
0.0
  0
LINE
  5
C7
330
1E
100
AcDbEntity
  8
0
100
AcDbLine
 10
149.0
 20
172.814634146341
 30
0.0
 11
152.0999999999999
 21
174.0999999999999
 31
0.0
  0
LINE
  5
C8
330
1E
100
AcDbEntity
  8
0
100
AcDbLine
 10
152.0999999999999
 20
174.0999999999999
 30
0.0
 11
159.4
 21
179.6
 31
0.0
  0
LINE
  5
C9
330
1E
100
AcDbEntity
  8
0
100
AcDbLine
 10
149.0
 20
172.32380952381
 30
0.0
 11
152.4
 21
173.6999999999999
 31
0.0
  0
LINE
  5
CA
330
1E
100
AcDbEntity
  8
0
100
AcDbLine
 10
152.4
 20
173.6999999999999
 30
0.0
 11
159.6999999999999
 21
179.3
 31
0.0
  0
LINE
  5
CB
330
1E
100
AcDbEntity
  8
0
100
AcDbLine
 10
121.0
 20
176.8
 30
0.0
 11
121.0
 21
181.1999999999999
 31
0.0
  0
LINE
  5
CC
330
1E
100
AcDbEntity
  8
0
100
AcDbLine
 10
121.0
 20
176.8
 30
0.0
 11
121.0
 21
172.0
 31
0.0
  0
LINE
  5
CD
330
1E
100
AcDbEntity
  8
0
100
AcDbLine
 10
159.6999999999999
 20
179.3
 30
0.0
 11
165.3
 21
186.5999999999999
 31
0.0
  0
LINE
  5
CE
330
1E
100
AcDbEntity
  8
0
100
AcDbLine
 10
117.9
 20
174.0999999999999
 30
0.0
 11
121.0
 21
172.814634146341
 31
0.0
  0
LINE
  5
CF
330
1E
100
AcDbEntity
  8
0
100
AcDbLine
 10
117.5999999999999
 20
173.6999999999999
 30
0.0
 11
121.0
 21
172.32380952381
 31
0.0
  0
LINE
  5
D0
330
1E
100
AcDbEntity
  8
0
100
AcDbLine
 10
159.4
 20
179.6
 30
0.0
 11
164.9
 21
186.8999999999999
 31
0.0
  0
LINE
  5
D1
330
1E
100
AcDbEntity
  8
0
100
AcDbLine
 10
110.5999999999999
 20
179.6
 30
0.0
 11
117.9
 21
174.0999999999999
 31
0.0
  0
LINE
  5
D2
330
1E
100
AcDbEntity
  8
0
100
AcDbLine
 10
110.2999999999999
 20
179.3
 30
0.0
 11
117.5999999999999
 21
173.6999999999999
 31
0.0
  0
LINE
  5
D3
330
1E
100
AcDbEntity
  8
0
100
AcDbLine
 10
217.9
 20
174.0999999999999
 30
0.0
 11
226.1
 21
170.6999999999999
 31
0.0
  0
LINE
  5
D4
330
1E
100
AcDbEntity
  8
0
100
AcDbLine
 10
210.5999999999999
 20
179.6
 30
0.0
 11
217.9
 21
174.0999999999999
 31
0.0
  0
LINE
  5
D5
330
1E
100
AcDbEntity
  8
0
100
AcDbLine
 10
217.6
 20
173.6999999999999
 30
0.0
 11
226.0
 21
170.3
 31
0.0
  0
LINE
  5
D6
330
1E
100
AcDbEntity
  8
0
100
AcDbLine
 10
210.3
 20
179.3
 30
0.0
 11
217.6
 21
173.6999999999999
 31
0.0
  0
LINE
  5
D7
330
1E
100
AcDbEntity
  8
0
100
AcDbLine
 10
243.9
 20
170.6999999999999
 30
0.0
 11
252.0999999999999
 21
174.0999999999999
 31
0.0
  0
LINE
  5
D8
330
1E
100
AcDbEntity
  8
0
100
AcDbLine
 10
259.6999999999999
 20
179.3
 30
0.0
 11
265.3
 21
186.5999999999999
 31
0.0
  0
LINE
  5
D9
330
1E
100
AcDbEntity
  8
0
100
AcDbLine
 10
252.4
 20
173.6999999999999
 30
0.0
 11
259.6999999999999
 21
179.3
 31
0.0
  0
LINE
  5
DA
330
1E
100
AcDbEntity
  8
0
100
AcDbLine
 10
252.0999999999999
 20
174.0999999999999
 30
0.0
 11
259.3999999999999
 21
179.6
 31
0.0
  0
LINE
  5
DB
330
1E
100
AcDbEntity
  8
0
100
AcDbLine
 10
121.0
 20
181.1999999999999
 30
0.0
 11
121.0
 21
185.0999999999999
 31
0.0
  0
LINE
  5
DC
330
1E
100
AcDbEntity
  8
0
100
AcDbLine
 10
121.0
 20
181.1999999999999
 30
0.0
 11
121.0
 21
176.8
 31
0.0
  0
LINE
  5
DD
330
1E
100
AcDbEntity
  8
0
100
AcDbLine
 10
149.0
 20
183.8
 30
0.0
 11
149.0
 21
172.0
 31
0.0
  0
LINE
  5
DE
330
1E
100
AcDbEntity
  8
0
100
AcDbLine
 10
149.0
 20
183.8
 30
0.0
 11
149.0
 21
194.6999999999999
 31
0.0
  0
LINE
  5
DF
330
1E
100
AcDbEntity
  8
0
100
AcDbLine
 10
148.5
 20
183.9
 30
0.0
 11
148.5
 21
172.0
 31
0.0
  0
LINE
  5
E0
330
1E
100
AcDbEntity
  8
0
100
AcDbLine
 10
148.5
 20
183.9
 30
0.0
 11
148.5
 21
194.9
 31
0.0
  0
LINE
  5
E1
330
1E
100
AcDbEntity
  8
0
100
AcDbLine
 10
121.0
 20
183.8
 30
0.0
 11
121.0
 21
194.6999999999999
 31
0.0
  0
LINE
  5
E2
330
1E
100
AcDbEntity
  8
0
100
AcDbLine
 10
121.0
 20
183.8
 30
0.0
 11
121.0
 21
172.0
 31
0.0
  0
LINE
  5
E3
330
1E
100
AcDbEntity
  8
0
100
AcDbLine
 10
121.0
 20
185.0999999999999
 30
0.0
 11
121.0
 21
188.1
 31
0.0
  0
LINE
  5
E4
330
1E
100
AcDbEntity
  8
0
100
AcDbLine
 10
121.0
 20
185.0999999999999
 30
0.0
 11
121.0
 21
181.1999999999999
 31
0.0
  0
LINE
  5
E5
330
1E
100
AcDbEntity
  8
0
100
AcDbLine
 10
121.5
 20
183.9
 30
0.0
 11
121.5
 21
194.9
 31
0.0
  0
LINE
  5
E6
330
1E
100
AcDbEntity
  8
0
100
AcDbLine
 10
121.5
 20
183.9
 30
0.0
 11
121.5
 21
172.0
 31
0.0
  0
LINE
  5
E7
330
1E
100
AcDbEntity
  8
0
100
AcDbLine
 10
149.0
 20
184.176470588235
 30
0.0
 11
152.3
 21
186.6999999999999
 31
0.0
  0
LINE
  5
E8
330
1E
100
AcDbEntity
  8
0
100
AcDbLine
 10
149.0
 20
183.8
 30
0.0
 11
152.5999999999999
 21
186.4
 31
0.0
  0
LINE
  5
E9
330
1E
100
AcDbEntity
  8
0
100
AcDbLine
 10
152.3
 20
186.6999999999999
 30
0.0
 11
156.1999999999999
 21
191.8
 31
0.0
  0
LINE
  5
EA
330
1E
100
AcDbEntity
  8
0
100
AcDbLine
 10
165.3
 20
186.5999999999999
 30
0.0
 11
168.6999999999999
 21
195.0
 31
0.0
  0
LINE
  5
EB
330
1E
100
AcDbEntity
  8
0
100
AcDbLine
 10
152.5999999999999
 20
186.4
 30
0.0
 11
156.6999999999999
 21
191.6
 31
0.0
  0
LINE
  5
EC
330
1E
100
AcDbEntity
  8
0
100
AcDbLine
 10
164.9
 20
186.8999999999999
 30
0.0
 11
168.3
 21
195.1
 31
0.0
  0
LINE
  5
ED
330
1E
100
AcDbEntity
  8
0
100
AcDbLine
 10
117.7
 20
186.6999999999999
 30
0.0
 11
121.0
 21
184.176470588235
 31
0.0
  0
LINE
  5
EE
330
1E
100
AcDbEntity
  8
0
100
AcDbLine
 10
117.4
 20
186.4
 30
0.0
 11
121.0
 21
183.8
 31
0.0
  0
LINE
  5
EF
330
1E
100
AcDbEntity
  8
0
100
AcDbLine
 10
121.0
 20
188.1
 30
0.0
 11
121.0
 21
189.9
 31
0.0
  0
LINE
  5
F0
330
1E
100
AcDbEntity
  8
0
100
AcDbLine
 10
121.0
 20
188.1
 30
0.0
 11
121.0
 21
185.0999999999999
 31
0.0
  0
LINE
  5
F1
330
1E
100
AcDbEntity
  8
0
100
AcDbLine
 10
121.0
 20
189.9
 30
0.0
 11
121.0
 21
190.5
 31
0.0
  0
LINE
  5
F2
330
1E
100
AcDbEntity
  8
0
100
AcDbLine
 10
121.0
 20
189.9
 30
0.0
 11
121.0
 21
188.1
 31
0.0
  0
LINE
  5
F3
330
1E
100
AcDbEntity
  8
0
100
AcDbLine
 10
121.0
 20
190.5
 30
0.0
 11
121.0
 21
217.5
 31
0.0
  0
LINE
  5
F4
330
1E
100
AcDbEntity
  8
0
100
AcDbLine
 10
121.0
 20
190.5
 30
0.0
 11
121.0
 21
189.9
 31
0.0
  0
LINE
  5
F5
330
1E
100
AcDbEntity
  8
0
100
AcDbLine
 10
156.1999999999999
 20
191.8
 30
0.0
 11
158.6
 21
197.6999999999999
 31
0.0
  0
LINE
  5
F6
330
1E
100
AcDbEntity
  8
0
100
AcDbLine
 10
156.6999999999999
 20
191.6
 30
0.0
 11
159.1
 21
197.5999999999999
 31
0.0
  0
LINE
  5
F7
330
1E
100
AcDbEntity
  8
0
100
AcDbLine
 10
149.0
 20
194.6999999999999
 30
0.0
 11
149.0
 21
183.8
 31
0.0
  0
LINE
  5
F8
330
1E
100
AcDbEntity
  8
0
100
AcDbLine
 10
149.0
 20
194.6999999999999
 30
0.0
 11
149.0
 21
204.0999999999999
 31
0.0
  0
LINE
  5
F9
330
1E
100
AcDbEntity
  8
0
100
AcDbLine
 10
148.5
 20
194.9
 30
0.0
 11
148.5
 21
183.9
 31
0.0
  0
LINE
  5
FA
330
1E
100
AcDbEntity
  8
0
100
AcDbLine
 10
148.5
 20
194.9
 30
0.0
 11
148.5
 21
204.4999999999999
 31
0.0
  0
LINE
  5
FB
330
1E
100
AcDbEntity
  8
0
100
AcDbLine
 10
121.0
 20
194.6999999999999
 30
0.0
 11
121.0
 21
204.0999999999999
 31
0.0
  0
LINE
  5
FC
330
1E
100
AcDbEntity
  8
0
100
AcDbLine
 10
121.0
 20
194.6999999999999
 30
0.0
 11
121.0
 21
183.8
 31
0.0
  0
LINE
  5
FD
330
1E
100
AcDbEntity
  8
0
100
AcDbLine
 10
121.5
 20
194.9
 30
0.0
 11
121.5
 21
204.4999999999999
 31
0.0
  0
LINE
  5
FE
330
1E
100
AcDbEntity
  8
0
100
AcDbLine
 10
121.5
 20
194.9
 30
0.0
 11
121.5
 21
183.9
 31
0.0
  0
LINE
  5
FF
330
1E
100
AcDbEntity
  8
0
100
AcDbLine
 10
168.6999999999999
 20
195.0
 30
0.0
 11
170.0
 21
204.0
 31
0.0
  0
LINE
  5
100
330
1E
100
AcDbEntity
  8
0
100
AcDbLine
 10
113.7999999999999
 20
191.8
 30
0.0
 11
117.7
 21
186.6999999999999
 31
0.0
  0
LINE
  5
101
330
1E
100
AcDbEntity
  8
0
100
AcDbLine
 10
113.3
 20
191.6
 30
0.0
 11
117.4
 21
186.4
 31
0.0
  0
LINE
  5
102
330
1E
100
AcDbEntity
  8
0
100
AcDbLine
 10
105.0999999999999
 20
186.8999999999999
 30
0.0
 11
110.5999999999999
 21
179.6
 31
0.0
  0
LINE
  5
103
330
1E
100
AcDbEntity
  8
0
100
AcDbLine
 10
104.7
 20
186.5999999999999
 30
0.0
 11
110.2999999999999
 21
179.3
 31
0.0
  0
LINE
  5
104
330
1E
100
AcDbEntity
  8
0
100
AcDbLine
 10
101.2999999999999
 20
195.0
 30
0.0
 11
104.7
 21
186.5999999999999
 31
0.0
  0
LINE
  5
105
330
1E
100
AcDbEntity
  8
0
100
AcDbLine
 10
239.0
 20
186.6086956521739
 30
0.0
 11
239.5999999999999
 21
186.6999999999999
 31
0.0
  0
LINE
  5
106
330
1E
100
AcDbEntity
  8
0
100
AcDbLine
 10
239.5999999999999
 20
186.6999999999999
 30
0.0
 11
243.9
 21
188.4
 31
0.0
  0
LINE
  5
107
330
1E
100
AcDbEntity
  8
0
100
AcDbLine
 10
230.4
 20
186.6999999999999
 30
0.0
 11
231.0
 21
186.6086956521739
 31
0.0
  0
LINE
  5
108
330
1E
100
AcDbEntity
  8
0
100
AcDbLine
 10
239.0
 20
187.033333333333
 30
0.0
 11
239.5
 21
187.1
 31
0.0
  0
LINE
  5
109
330
1E
100
AcDbEntity
  8
0
100
AcDbLine
 10
239.5
 20
187.1
 30
0.0
 11
243.6999999999999
 21
188.8
 31
0.0
  0
LINE
  5
10A
330
1E
100
AcDbEntity
  8
0
100
AcDbLine
 10
230.5
 20
187.1
 30
0.0
 11
231.0
 21
187.033333333333
 31
0.0
  0
LINE
  5
10B
330
1E
100
AcDbEntity
  8
0
100
AcDbLine
 10
243.6999999999999
 20
188.8
 30
0.0
 11
247.4
 21
191.6
 31
0.0
  0
LINE
  5
10C
330
1E
100
AcDbEntity
  8
0
100
AcDbLine
 10
226.3
 20
188.8
 30
0.0
 11
230.5
 21
187.1
 31
0.0
  0
LINE
  5
10D
330
1E
100
AcDbEntity
  8
0
100
AcDbLine
 10
222.5999999999999
 20
191.6
 30
0.0
 11
226.3
 21
188.8
 31
0.0
  0
LINE
  5
10E
330
1E
100
AcDbEntity
  8
0
100
AcDbLine
 10
226.1
 20
188.4
 30
0.0
 11
230.4
 21
186.6999999999999
 31
0.0
  0
LINE
  5
10F
330
1E
100
AcDbEntity
  8
0
100
AcDbLine
 10
222.3
 20
191.3
 30
0.0
 11
226.1
 21
188.4
 31
0.0
  0
LINE
  5
110
330
1E
100
AcDbEntity
  8
0
100
AcDbLine
 10
205.1
 20
186.8999999999999
 30
0.0
 11
210.5999999999999
 21
179.6
 31
0.0
  0
LINE
  5
111
330
1E
100
AcDbEntity
  8
0
100
AcDbLine
 10
204.6999999999999
 20
186.5999999999999
 30
0.0
 11
210.3
 21
179.3
 31
0.0
  0
LINE
  5
112
330
1E
100
AcDbEntity
  8
0
100
AcDbLine
 10
168.3
 20
195.1
 30
0.0
 11
169.5
 21
204.0
 31
0.0
  0
LINE
  5
113
330
1E
100
AcDbEntity
  8
0
100
AcDbLine
 10
101.7
 20
195.1
 30
0.0
 11
105.0999999999999
 21
186.8999999999999
 31
0.0
  0
LINE
  5
114
330
1E
100
AcDbEntity
  8
0
100
AcDbLine
 10
219.3999999999999
 20
195.1
 30
0.0
 11
222.3
 21
191.3
 31
0.0
  0
LINE
  5
115
330
1E
100
AcDbEntity
  8
0
100
AcDbLine
 10
201.6999999999999
 20
195.1
 30
0.0
 11
205.1
 21
186.8999999999999
 31
0.0
  0
LINE
  5
116
330
1E
100
AcDbEntity
  8
0
100
AcDbLine
 10
201.3
 20
195.0
 30
0.0
 11
204.6999999999999
 21
186.5999999999999
 31
0.0
  0
LINE
  5
117
330
1E
100
AcDbEntity
  8
0
100
AcDbLine
 10
247.4
 20
191.6
 30
0.0
 11
250.1999999999999
 21
195.3
 31
0.0
  0
LINE
  5
118
330
1E
100
AcDbEntity
  8
0
100
AcDbLine
 10
247.6999999999999
 20
191.3
 30
0.0
 11
250.5999999999999
 21
195.1
 31
0.0
  0
LINE
  5
119
330
1E
100
AcDbEntity
  8
0
100
AcDbLine
 10
250.5999999999999
 20
195.1
 30
0.0
 11
252.3
 21
199.3999999999999
 31
0.0
  0
LINE
  5
11A
330
1E
100
AcDbEntity
  8
0
100
AcDbLine
 10
243.9
 20
188.4
 30
0.0
 11
247.6999999999999
 21
191.3
 31
0.0
  0
LINE
  5
11B
330
1E
100
AcDbEntity
  8
0
100
AcDbLine
 10
259.3999999999999
 20
179.6
 30
0.0
 11
264.9
 21
186.8999999999999
 31
0.0
  0
LINE
  5
11C
330
1E
100
AcDbEntity
  8
0
100
AcDbLine
 10
265.3
 20
186.5999999999999
 30
0.0
 11
268.6999999999999
 21
195.0
 31
0.0
  0
LINE
  5
11D
330
1E
100
AcDbEntity
  8
0
100
AcDbLine
 10
268.6999999999999
 20
195.0
 30
0.0
 11
269.422222222222
 21
200.0
 31
0.0
  0
LINE
  5
11E
330
1E
100
AcDbEntity
  8
0
100
AcDbLine
 10
264.9
 20
186.8999999999999
 30
0.0
 11
268.3
 21
195.1
 31
0.0
  0
LINE
  5
11F
330
1E
100
AcDbEntity
  8
0
100
AcDbLine
 10
158.6
 20
197.6999999999999
 30
0.0
 11
159.4999999999999
 21
204.0
 31
0.0
  0
LINE
  5
120
330
1E
100
AcDbEntity
  8
0
100
AcDbLine
 10
159.1
 20
197.5999999999999
 30
0.0
 11
160.0
 21
204.0
 31
0.0
  0
LINE
  5
121
330
1E
100
AcDbEntity
  8
0
100
AcDbLine
 10
111.4
 20
197.6999999999999
 30
0.0
 11
113.7999999999999
 21
191.8
 31
0.0
  0
LINE
  5
122
330
1E
100
AcDbEntity
  8
0
100
AcDbLine
 10
110.8999999999999
 20
197.5999999999999
 30
0.0
 11
113.3
 21
191.6
 31
0.0
  0
LINE
  5
123
330
1E
100
AcDbEntity
  8
0
100
AcDbLine
 10
200.0
 20
200.0
 30
0.0
 11
200.0
 21
204.0
 31
0.0
  0
LINE
  5
124
330
1E
100
AcDbEntity
  8
0
100
AcDbLine
 10
200.0
 20
200.0
 30
0.0
 11
230.6
 21
200.0
 31
0.0
  0
LINE
  5
125
330
1E
100
AcDbEntity
  8
0
100
AcDbLine
 10
200.0
 20
200.0
 30
0.0
 11
200.4999999999999
 21
200.4999999999999
 31
0.0
  0
LINE
  5
126
330
1E
100
AcDbEntity
  8
0
100
AcDbLine
 10
250.1999999999999
 20
195.3
 30
0.0
 11
251.9
 21
199.5
 31
0.0
  0
LINE
  5
127
330
1E
100
AcDbEntity
  8
0
100
AcDbLine
 10
252.3
 20
199.3999999999999
 30
0.0
 11
252.3913043478259
 21
200.0
 31
0.0
  0
LINE
  5
128
330
1E
100
AcDbEntity
  8
0
100
AcDbLine
 10
219.7999999999999
 20
195.3
 30
0.0
 11
222.5999999999999
 21
191.6
 31
0.0
  0
LINE
  5
129
330
1E
100
AcDbEntity
  8
0
100
AcDbLine
 10
251.9
 20
199.5
 30
0.0
 11
251.9666666666669
 21
200.0
 31
0.0
  0
LINE
  5
12A
330
1E
100
AcDbEntity
  8
0
100
AcDbLine
 10
231.0
 20
199.6
 30
0.0
 11
231.0
 21
169.0
 31
0.0
  0
LINE
  5
12B
330
1E
100
AcDbEntity
  8
0
100
AcDbLine
 10
231.0
 20
199.6
 30
0.0
 11
231.4999999999999
 21
200.1999999999999
 31
0.0
  0
LINE
  5
12C
330
1E
100
AcDbEntity
  8
0
100
AcDbLine
 10
230.8
 20
199.8
 30
0.0
 11
231.0
 21
199.6
 31
0.0
  0
LINE
  5
12D
330
1E
100
AcDbEntity
  8
0
100
AcDbLine
 10
239.0
 20
199.6
 30
0.0
 11
239.0
 21
169.0
 31
0.0
  0
LINE
  5
12E
330
1E
100
AcDbEntity
  8
0
100
AcDbLine
 10
239.0
 20
199.6
 30
0.0
 11
239.1999999999999
 21
199.8
 31
0.0
  0
LINE
  5
12F
330
1E
100
AcDbEntity
  8
0
100
AcDbLine
 10
230.6
 20
200.0
 30
0.0
 11
230.8
 21
199.8
 31
0.0
  0
LINE
  5
130
330
1E
100
AcDbEntity
  8
0
100
AcDbLine
 10
230.6
 20
200.0
 30
0.0
 11
231.1999999999999
 21
200.4999999999999
 31
0.0
  0
LINE
  5
131
330
1E
100
AcDbEntity
  8
0
100
AcDbLine
 10
239.1999999999999
 20
199.8
 30
0.0
 11
239.4
 21
200.0
 31
0.0
  0
LINE
  5
132
330
1E
100
AcDbEntity
  8
0
100
AcDbLine
 10
270.0
 20
200.0
 30
0.0
 11
270.0
 21
204.0
 31
0.0
  0
LINE
  5
133
330
1E
100
AcDbEntity
  8
0
100
AcDbLine
 10
239.4
 20
200.0
 30
0.0
 11
270.0
 21
200.0
 31
0.0
  0
LINE
  5
134
330
1E
100
AcDbEntity
  8
0
100
AcDbLine
 10
218.1
 20
199.5
 30
0.0
 11
219.7999999999999
 21
195.3
 31
0.0
  0
LINE
  5
135
330
1E
100
AcDbEntity
  8
0
100
AcDbLine
 10
218.033333333333
 20
200.0
 30
0.0
 11
218.1
 21
199.5
 31
0.0
  0
LINE
  5
136
330
1E
100
AcDbEntity
  8
0
100
AcDbLine
 10
217.7
 20
199.3999999999999
 30
0.0
 11
219.3999999999999
 21
195.1
 31
0.0
  0
LINE
  5
137
330
1E
100
AcDbEntity
  8
0
100
AcDbLine
 10
217.6086956521739
 20
200.0
 30
0.0
 11
217.7
 21
199.3999999999999
 31
0.0
  0
LINE
  5
138
330
1E
100
AcDbEntity
  8
0
100
AcDbLine
 10
201.039325842697
 20
200.0
 30
0.0
 11
201.6999999999999
 21
195.1
 31
0.0
  0
LINE
  5
139
330
1E
100
AcDbEntity
  8
0
100
AcDbLine
 10
200.577777777778
 20
200.0
 30
0.0
 11
201.3
 21
195.0
 31
0.0
  0
LINE
  5
13A
330
1E
100
AcDbEntity
  8
0
100
AcDbLine
 10
268.3
 20
195.1
 30
0.0
 11
268.960674157303
 21
200.0
 31
0.0
  0
LINE
  5
13B
330
1E
100
AcDbEntity
  8
0
100
AcDbLine
 10
70.0
 20
200.0
 30
0.0
 11
70.0
 21
204.0
 31
0.0
  0
LINE
  5
13C
330
1E
100
AcDbEntity
  8
0
100
AcDbLine
 10
39.39999999999999
 20
200.0
 30
0.0
 11
70.0
 21
200.0
 31
0.0
  0
LINE
  5
13D
330
1E
100
AcDbEntity
  8
0
100
AcDbLine
 10
39.0
 20
199.6
 30
0.0
 11
39.0
 21
169.0
 31
0.0
  0
LINE
  5
13E
330
1E
100
AcDbEntity
  8
0
100
AcDbLine
 10
39.0
 20
199.6
 30
0.0
 11
39.2
 21
199.8
 31
0.0
  0
LINE
  5
13F
330
1E
100
AcDbEntity
  8
0
100
AcDbLine
 10
31.5
 20
169.5
 30
0.0
 11
35.0
 21
169.5
 31
0.0
  0
LINE
  5
140
330
1E
100
AcDbEntity
  8
0
100
AcDbLine
 10
31.5
 20
169.5
 30
0.0
 11
31.5
 21
200.1999999999999
 31
0.0
  0
LINE
  5
141
330
1E
100
AcDbEntity
  8
0
100
AcDbLine
 10
31.0
 20
169.0
 30
0.0
 11
35.0
 21
169.0
 31
0.0
  0
LINE
  5
142
330
1E
100
AcDbEntity
  8
0
100
AcDbLine
 10
31.0
 20
169.0
 30
0.0
 11
31.0
 21
199.6
 31
0.0
  0
LINE
  5
143
330
1E
100
AcDbEntity
  8
0
100
AcDbLine
 10
31.0
 20
169.0
 30
0.0
 11
31.5
 21
169.5
 31
0.0
  0
LINE
  5
144
330
1E
100
AcDbEntity
  8
0
100
AcDbLine
 10
0.499999999999986
 20
207.5
 30
0.0
 11
31.2
 21
207.5
 31
0.0
  0
LINE
  5
145
330
1E
100
AcDbEntity
  8
0
100
AcDbLine
 10
0.499999999999986
 20
207.5
 30
0.0
 11
0.499999999999986
 21
204.0
 31
0.0
  0
LINE
  5
146
330
1E
100
AcDbEntity
  8
0
100
AcDbLine
 10
0.499999999999986
 20
204.0
 30
0.0
 11
0.499999999999986
 21
200.4999999999999
 31
0.0
  0
LINE
  5
147
330
1E
100
AcDbEntity
  8
0
100
AcDbLine
 10
0.499999999999986
 20
204.0
 30
0.0
 11
0.499999999999986
 21
207.5
 31
0.0
  0
LINE
  5
148
330
1E
100
AcDbEntity
  8
0
100
AcDbLine
 10
231.4999999999999
 20
200.1999999999999
 30
0.0
 11
231.4999999999999
 21
169.5
 31
0.0
  0
LINE
  5
149
330
1E
100
AcDbEntity
  8
0
100
AcDbLine
 10
238.5
 20
200.1999999999999
 30
0.0
 11
238.5
 21
169.5
 31
0.0
  0
LINE
  5
14A
330
1E
100
AcDbEntity
  8
0
100
AcDbLine
 10
238.5
 20
200.1999999999999
 30
0.0
 11
239.0
 21
199.6
 31
0.0
  0
LINE
  5
14B
330
1E
100
AcDbEntity
  8
0
100
AcDbLine
 10
38.5
 20
200.1999999999999
 30
0.0
 11
38.5
 21
169.5
 31
0.0
  0
LINE
  5
14C
330
1E
100
AcDbEntity
  8
0
100
AcDbLine
 10
38.5
 20
200.1999999999999
 30
0.0
 11
39.0
 21
199.6
 31
0.0
  0
LINE
  5
14D
330
1E
100
AcDbEntity
  8
0
100
AcDbLine
 10
38.79999999999999
 20
200.4999999999999
 30
0.0
 11
39.39999999999999
 21
200.0
 31
0.0
  0
LINE
  5
14E
330
1E
100
AcDbEntity
  8
0
100
AcDbLine
 10
38.79999999999999
 20
200.4999999999999
 30
0.0
 11
69.5
 21
200.4999999999999
 31
0.0
  0
LINE
  5
14F
330
1E
100
AcDbEntity
  8
0
100
AcDbLine
 10
0.5777777777777651
 20
208.0
 30
0.0
 11
1.29999999999998
 21
213.0
 31
0.0
  0
LINE
  5
150
330
1E
100
AcDbEntity
  8
0
100
AcDbLine
 10
0.577777777777766
 20
208.0
 30
0.0
 11
1.29999999999998
 21
213.0
 31
0.0
  0
LINE
  5
151
330
1E
100
AcDbEntity
  8
0
100
AcDbLine
 10
18.0333333333333
 20
208.0
 30
0.0
 11
18.1
 21
208.4999999999999
 31
0.0
  0
LINE
  5
152
330
1E
100
AcDbEntity
  8
0
100
AcDbLine
 10
1.039325842696619
 20
208.0
 30
0.0
 11
1.699999999999989
 21
212.9
 31
0.0
  0
LINE
  5
153
330
1E
100
AcDbEntity
  8
0
100
AcDbLine
 10
17.60869565217389
 20
208.0
 30
0.0
 11
17.7
 21
208.5999999999999
 31
0.0
  0
LINE
  5
154
330
1E
100
AcDbEntity
  8
0
100
AcDbLine
 10
1.039325842696619
 20
208.0
 30
0.0
 11
1.699999999999989
 21
212.9
 31
0.0
  0
LINE
  5
155
330
1E
100
AcDbEntity
  8
0
100
AcDbLine
 10
30.6
 20
208.0
 30
0.0
 11
30.8
 21
208.1999999999999
 31
0.0
  0
LINE
  5
156
330
1E
100
AcDbEntity
  8
0
100
AcDbLine
 10
30.6
 20
208.0
 30
0.0
 11
31.2
 21
207.5
 31
0.0
  0
LINE
  5
157
330
1E
100
AcDbEntity
  8
0
100
AcDbLine
 10
31.5
 20
207.8
 30
0.0
 11
31.5
 21
238.5
 31
0.0
  0
LINE
  5
158
330
1E
100
AcDbEntity
  8
0
100
AcDbLine
 10
30.8
 20
208.1999999999999
 30
0.0
 11
31.0
 21
208.4
 31
0.0
  0
LINE
  5
159
330
1E
100
AcDbEntity
  8
0
100
AcDbLine
 10
38.5
 20
207.8
 30
0.0
 11
39.0
 21
208.4
 31
0.0
  0
LINE
  5
15A
330
1E
100
AcDbEntity
  8
0
100
AcDbLine
 10
38.5
 20
207.8
 30
0.0
 11
38.5
 21
238.5
 31
0.0
  0
LINE
  5
15B
330
1E
100
AcDbEntity
  8
0
100
AcDbLine
 10
38.79999999999999
 20
207.5
 30
0.0
 11
69.5
 21
207.5
 31
0.0
  0
LINE
  5
15C
330
1E
100
AcDbEntity
  8
0
100
AcDbLine
 10
38.79999999999999
 20
207.5
 30
0.0
 11
39.39999999999999
 21
208.0
 31
0.0
  0
LINE
  5
15D
330
1E
100
AcDbEntity
  8
0
100
AcDbLine
 10
69.5
 20
207.5
 30
0.0
 11
69.5
 21
204.0
 31
0.0
  0
LINE
  5
15E
330
1E
100
AcDbEntity
  8
0
100
AcDbLine
 10
69.5
 20
207.5
 30
0.0
 11
70.0
 21
208.0
 31
0.0
  0
LINE
  5
15F
330
1E
100
AcDbEntity
  8
0
100
AcDbLine
 10
39.39999999999999
 20
208.0
 30
0.0
 11
70.0
 21
208.0
 31
0.0
  0
LINE
  5
160
330
1E
100
AcDbEntity
  8
0
100
AcDbLine
 10
18.1
 20
208.4999999999999
 30
0.0
 11
19.8
 21
212.6999999999999
 31
0.0
  0
LINE
  5
161
330
1E
100
AcDbEntity
  8
0
100
AcDbLine
 10
17.7
 20
208.5999999999999
 30
0.0
 11
19.39999999999999
 21
212.9
 31
0.0
  0
LINE
  5
162
330
1E
100
AcDbEntity
  8
0
100
AcDbLine
 10
19.8
 20
212.6999999999999
 30
0.0
 11
22.6
 21
216.4
 31
0.0
  0
LINE
  5
163
330
1E
100
AcDbEntity
  8
0
100
AcDbLine
 10
19.39999999999999
 20
212.9
 30
0.0
 11
22.29999999999999
 21
216.6999999999999
 31
0.0
  0
LINE
  5
164
330
1E
100
AcDbEntity
  8
0
100
AcDbLine
 10
4.69999999999999
 20
221.3999999999999
 30
0.0
 11
10.3
 21
228.6999999999999
 31
0.0
  0
LINE
  5
165
330
1E
100
AcDbEntity
  8
0
100
AcDbLine
 10
1.29999999999998
 20
213.0
 30
0.0
 11
4.69999999999999
 21
221.3999999999999
 31
0.0
  0
LINE
  5
166
330
1E
100
AcDbEntity
  8
0
100
AcDbLine
 10
22.6
 20
216.4
 30
0.0
 11
26.3
 21
219.1999999999999
 31
0.0
  0
LINE
  5
167
330
1E
100
AcDbEntity
  8
0
100
AcDbLine
 10
22.29999999999999
 20
216.6999999999999
 30
0.0
 11
26.1
 21
219.6
 31
0.0
  0
LINE
  5
168
330
1E
100
AcDbEntity
  8
0
100
AcDbLine
 10
30.5
 20
220.9
 30
0.0
 11
31.0
 21
220.9666666666669
 31
0.0
  0
LINE
  5
169
330
1E
100
AcDbEntity
  8
0
100
AcDbLine
 10
26.3
 20
219.1999999999999
 30
0.0
 11
30.5
 21
220.9
 31
0.0
  0
LINE
  5
16A
330
1E
100
AcDbEntity
  8
0
100
AcDbLine
 10
30.4
 20
221.3
 30
0.0
 11
31.0
 21
221.391304347826
 31
0.0
  0
LINE
  5
16B
330
1E
100
AcDbEntity
  8
0
100
AcDbLine
 10
26.1
 20
219.6
 30
0.0
 11
30.4
 21
221.3
 31
0.0
  0
LINE
  5
16C
330
1E
100
AcDbEntity
  8
0
100
AcDbLine
 10
17.6
 20
234.2999999999999
 30
0.0
 11
26.0
 21
237.6999999999999
 31
0.0
  0
LINE
  5
16D
330
1E
100
AcDbEntity
  8
0
100
AcDbLine
 10
10.3
 20
228.6999999999999
 30
0.0
 11
17.6
 21
234.2999999999999
 31
0.0
  0
LINE
  5
16E
330
1E
100
AcDbEntity
  8
0
100
AcDbLine
 10
26.0
 20
237.6999999999999
 30
0.0
 11
31.0
 21
238.422222222222
 31
0.0
  0
LINE
  5
16F
330
1E
100
AcDbEntity
  8
0
100
AcDbLine
 10
26.1
 20
237.3
 30
0.0
 11
31.0
 21
237.9606741573029
 31
0.0
  0
LINE
  5
170
330
1E
100
AcDbEntity
  8
0
100
AcDbLine
 10
17.9
 20
233.8999999999999
 30
0.0
 11
26.1
 21
237.3
 31
0.0
  0
LINE
  5
171
330
1E
100
AcDbEntity
  8
0
100
AcDbLine
 10
10.6
 20
228.4
 30
0.0
 11
17.9
 21
233.8999999999999
 31
0.0
  0
LINE
  5
172
330
1E
100
AcDbEntity
  8
0
100
AcDbLine
 10
5.09999999999999
 20
221.0999999999999
 30
0.0
 11
10.6
 21
228.4
 31
0.0
  0
LINE
  5
173
330
1E
100
AcDbEntity
  8
0
100
AcDbLine
 10
1.699999999999989
 20
212.9
 30
0.0
 11
5.09999999999999
 21
221.0999999999999
 31
0.0
  0
LINE
  5
174
330
1E
100
AcDbEntity
  8
0
100
AcDbLine
 10
31.5
 20
238.5
 30
0.0
 11
35.0
 21
238.5
 31
0.0
  0
LINE
  5
175
330
1E
100
AcDbEntity
  8
0
100
AcDbLine
 10
31.5
 20
238.5
 30
0.0
 11
31.5
 21
207.8
 31
0.0
  0
LINE
  5
176
330
1E
100
AcDbEntity
  8
0
100
AcDbLine
 10
31.0
 20
208.4
 30
0.0
 11
31.0
 21
239.0
 31
0.0
  0
LINE
  5
177
330
1E
100
AcDbEntity
  8
0
100
AcDbLine
 10
31.0
 20
208.4
 30
0.0
 11
31.5
 21
207.8
 31
0.0
  0
LINE
  5
178
330
1E
100
AcDbEntity
  8
0
100
AcDbLine
 10
31.0
 20
239.0
 30
0.0
 11
35.0
 21
239.0
 31
0.0
  0
LINE
  5
179
330
1E
100
AcDbEntity
  8
0
100
AcDbLine
 10
31.0
 20
239.0
 30
0.0
 11
31.0
 21
208.4
 31
0.0
  0
LINE
  5
17A
330
1E
100
AcDbEntity
  8
0
100
AcDbLine
 10
31.0
 20
239.0
 30
0.0
 11
31.5
 21
238.5
 31
0.0
  0
LINE
  5
17B
330
1E
100
AcDbEntity
  8
0
100
AcDbLine
 10
35.0
 20
238.5
 30
0.0
 11
38.5
 21
238.5
 31
0.0
  0
LINE
  5
17C
330
1E
100
AcDbEntity
  8
0
100
AcDbLine
 10
39.0
 20
220.9666666666669
 30
0.0
 11
39.5
 21
220.9
 31
0.0
  0
LINE
  5
17D
330
1E
100
AcDbEntity
  8
0
100
AcDbLine
 10
39.0
 20
221.391304347826
 30
0.0
 11
39.6
 21
221.3
 31
0.0
  0
LINE
  5
17E
330
1E
100
AcDbEntity
  8
0
100
AcDbLine
 10
39.0
 20
237.9606741573029
 30
0.0
 11
43.89999999999999
 21
237.3
 31
0.0
  0
LINE
  5
17F
330
1E
100
AcDbEntity
  8
0
100
AcDbLine
 10
39.0
 20
238.422222222222
 30
0.0
 11
44.0
 21
237.6999999999999
 31
0.0
  0
LINE
  5
180
330
1E
100
AcDbEntity
  8
0
100
AcDbLine
 10
38.5
 20
238.5
 30
0.0
 11
39.0
 21
239.0
 31
0.0
  0
LINE
  5
181
330
1E
100
AcDbEntity
  8
0
100
AcDbLine
 10
38.5
 20
238.5
 30
0.0
 11
38.5
 21
207.8
 31
0.0
  0
LINE
  5
182
330
1E
100
AcDbEntity
  8
0
100
AcDbLine
 10
50.2
 20
212.6999999999999
 30
0.0
 11
51.9
 21
208.4999999999999
 31
0.0
  0
LINE
  5
183
330
1E
100
AcDbEntity
  8
0
100
AcDbLine
 10
51.9
 20
208.4999999999999
 30
0.0
 11
51.96666666666669
 21
208.0
 31
0.0
  0
LINE
  5
184
330
1E
100
AcDbEntity
  8
0
100
AcDbLine
 10
50.6
 20
212.9
 30
0.0
 11
52.3
 21
208.5999999999999
 31
0.0
  0
LINE
  5
185
330
1E
100
AcDbEntity
  8
0
100
AcDbLine
 10
52.3
 20
208.5999999999999
 30
0.0
 11
52.3913043478261
 21
208.0
 31
0.0
  0
LINE
  5
186
330
1E
100
AcDbEntity
  8
0
100
AcDbLine
 10
47.4
 20
216.4
 30
0.0
 11
50.2
 21
212.6999999999999
 31
0.0
  0
LINE
  5
187
330
1E
100
AcDbEntity
  8
0
100
AcDbLine
 10
39.5
 20
220.9
 30
0.0
 11
43.7
 21
219.1999999999999
 31
0.0
  0
LINE
  5
188
330
1E
100
AcDbEntity
  8
0
100
AcDbLine
 10
43.7
 20
219.1999999999999
 30
0.0
 11
47.4
 21
216.4
 31
0.0
  0
LINE
  5
189
330
1E
100
AcDbEntity
  8
0
100
AcDbLine
 10
39.6
 20
221.3
 30
0.0
 11
43.89999999999999
 21
219.6
 31
0.0
  0
LINE
  5
18A
330
1E
100
AcDbEntity
  8
0
100
AcDbLine
 10
43.89999999999999
 20
219.6
 30
0.0
 11
47.7
 21
216.6999999999999
 31
0.0
  0
LINE
  5
18B
330
1E
100
AcDbEntity
  8
0
100
AcDbLine
 10
47.7
 20
216.6999999999999
 30
0.0
 11
50.6
 21
212.9
 31
0.0
  0
LINE
  5
18C
330
1E
100
AcDbEntity
  8
0
100
AcDbLine
 10
64.90000000000001
 20
221.0999999999999
 30
0.0
 11
68.3
 21
212.9
 31
0.0
  0
LINE
  5
18D
330
1E
100
AcDbEntity
  8
0
100
AcDbLine
 10
68.3
 20
212.9
 30
0.0
 11
68.9606741573034
 21
208.0
 31
0.0
  0
LINE
  5
18E
330
1E
100
AcDbEntity
  8
0
100
AcDbLine
 10
68.7
 20
213.0
 30
0.0
 11
69.4222222222222
 21
208.0
 31
0.0
  0
LINE
  5
18F
330
1E
100
AcDbEntity
  8
0
100
AcDbLine
 10
43.89999999999999
 20
237.3
 30
0.0
 11
52.1
 21
233.8999999999999
 31
0.0
  0
LINE
  5
190
330
1E
100
AcDbEntity
  8
0
100
AcDbLine
 10
59.4
 20
228.4
 30
0.0
 11
64.90000000000001
 21
221.0999999999999
 31
0.0
  0
LINE
  5
191
330
1E
100
AcDbEntity
  8
0
100
AcDbLine
 10
52.1
 20
233.8999999999999
 30
0.0
 11
59.4
 21
228.4
 31
0.0
  0
LINE
  5
192
330
1E
100
AcDbEntity
  8
0
100
AcDbLine
 10
52.4
 20
234.2999999999999
 30
0.0
 11
59.7
 21
228.6999999999999
 31
0.0
  0
LINE
  5
193
330
1E
100
AcDbEntity
  8
0
100
AcDbLine
 10
59.7
 20
228.6999999999999
 30
0.0
 11
65.3
 21
221.3999999999999
 31
0.0
  0
LINE
  5
194
330
1E
100
AcDbEntity
  8
0
100
AcDbLine
 10
44.0
 20
237.6999999999999
 30
0.0
 11
52.4
 21
234.2999999999999
 31
0.0
  0
LINE
  5
195
330
1E
100
AcDbEntity
  8
0
100
AcDbLine
 10
65.3
 20
221.3999999999999
 30
0.0
 11
68.7
 21
213.0
 31
0.0
  0
LINE
  5
196
330
1E
100
AcDbEntity
  8
0
100
AcDbLine
 10
39.0
 20
208.4
 30
0.0
 11
39.2
 21
208.1999999999999
 31
0.0
  0
LINE
  5
197
330
1E
100
AcDbEntity
  8
0
100
AcDbLine
 10
39.0
 20
208.4
 30
0.0
 11
39.0
 21
239.0
 31
0.0
  0
LINE
  5
198
330
1E
100
AcDbEntity
  8
0
100
AcDbLine
 10
39.0
 20
239.0
 30
0.0
 11
39.0
 21
208.4
 31
0.0
  0
LINE
  5
199
330
1E
100
AcDbEntity
  8
0
100
AcDbLine
 10
35.0
 20
239.0
 30
0.0
 11
39.0
 21
239.0
 31
0.0
  0
LINE
  5
19A
330
1E
100
AcDbEntity
  8
0
100
AcDbLine
 10
39.2
 20
208.1999999999999
 30
0.0
 11
39.39999999999999
 21
208.0
 31
0.0
  0
LINE
  5
19B
330
1E
100
AcDbEntity
  8
0
100
AcDbLine
 10
70.0
 20
208.0
 30
0.0
 11
70.0
 21
204.0
 31
0.0
  0
LINE
  5
19C
330
1E
100
AcDbEntity
  8
0
100
AcDbLine
 10
69.5
 20
204.0
 30
0.0
 11
69.5
 21
200.4999999999999
 31
0.0
  0
LINE
  5
19D
330
1E
100
AcDbEntity
  8
0
100
AcDbLine
 10
69.5
 20
204.0
 30
0.0
 11
69.5
 21
207.5
 31
0.0
  0
LINE
  5
19E
330
1E
100
AcDbEntity
  8
0
100
AcDbLine
 10
69.5
 20
200.4999999999999
 30
0.0
 11
70.0
 21
200.0
 31
0.0
  0
LINE
  5
19F
330
1E
100
AcDbEntity
  8
0
100
AcDbLine
 10
69.5
 20
200.4999999999999
 30
0.0
 11
69.5
 21
204.0
 31
0.0
  0
LINE
  5
1A0
330
1E
100
AcDbEntity
  8
0
100
AcDbLine
 10
110.4999999999999
 20
204.0
 30
0.0
 11
111.4
 21
197.6999999999999
 31
0.0
  0
LINE
  5
1A1
330
1E
100
AcDbEntity
  8
0
100
AcDbLine
 10
110.4999999999999
 20
204.0
 30
0.0
 11
111.4
 21
210.3
 31
0.0
  0
LINE
  5
1A2
330
1E
100
AcDbEntity
  8
0
100
AcDbLine
 10
110.0
 20
204.0
 30
0.0
 11
110.8999999999999
 21
197.5999999999999
 31
0.0
  0
LINE
  5
1A3
330
1E
100
AcDbEntity
  8
0
100
AcDbLine
 10
110.0
 20
204.0
 30
0.0
 11
110.8999999999999
 21
210.4
 31
0.0
  0
LINE
  5
1A4
330
1E
100
AcDbEntity
  8
0
100
AcDbLine
 10
121.0
 20
204.0999999999999
 30
0.0
 11
121.0
 21
211.3999999999999
 31
0.0
  0
LINE
  5
1A5
330
1E
100
AcDbEntity
  8
0
100
AcDbLine
 10
121.0
 20
204.0999999999999
 30
0.0
 11
121.0
 21
194.6999999999999
 31
0.0
  0
LINE
  5
1A6
330
1E
100
AcDbEntity
  8
0
100
AcDbLine
 10
149.0
 20
204.0999999999999
 30
0.0
 11
149.0
 21
194.6999999999999
 31
0.0
  0
LINE
  5
1A7
330
1E
100
AcDbEntity
  8
0
100
AcDbLine
 10
149.0
 20
204.0999999999999
 30
0.0
 11
149.0
 21
211.3999999999999
 31
0.0
  0
LINE
  5
1A8
330
1E
100
AcDbEntity
  8
0
100
AcDbLine
 10
148.5
 20
204.4999999999999
 30
0.0
 11
148.5
 21
194.9
 31
0.0
  0
LINE
  5
1A9
330
1E
100
AcDbEntity
  8
0
100
AcDbLine
 10
148.5
 20
204.4999999999999
 30
0.0
 11
148.5
 21
211.8
 31
0.0
  0
LINE
  5
1AA
330
1E
100
AcDbEntity
  8
0
100
AcDbLine
 10
121.5
 20
204.4999999999999
 30
0.0
 11
121.5
 21
211.8
 31
0.0
  0
LINE
  5
1AB
330
1E
100
AcDbEntity
  8
0
100
AcDbLine
 10
121.5
 20
204.4999999999999
 30
0.0
 11
121.5
 21
194.9
 31
0.0
  0
LINE
  5
1AC
330
1E
100
AcDbEntity
  8
0
100
AcDbLine
 10
100.5
 20
204.0
 30
0.0
 11
101.7
 21
195.1
 31
0.0
  0
LINE
  5
1AD
330
1E
100
AcDbEntity
  8
0
100
AcDbLine
 10
100.5
 20
204.0
 30
0.0
 11
101.7
 21
212.9
 31
0.0
  0
LINE
  5
1AE
330
1E
100
AcDbEntity
  8
0
100
AcDbLine
 10
100.0
 20
204.0
 30
0.0
 11
101.2999999999999
 21
195.0
 31
0.0
  0
LINE
  5
1AF
330
1E
100
AcDbEntity
  8
0
100
AcDbLine
 10
100.0
 20
204.0
 30
0.0
 11
101.2999999999999
 21
213.0
 31
0.0
  0
LINE
  5
1B0
330
1E
100
AcDbEntity
  8
0
100
AcDbLine
 10
200.0
 20
208.0
 30
0.0
 11
200.0
 21
204.0
 31
0.0
  0
LINE
  5
1B1
330
1E
100
AcDbEntity
  8
0
100
AcDbLine
 10
200.0
 20
208.0
 30
0.0
 11
230.6
 21
208.0
 31
0.0
  0
LINE
  5
1B2
330
1E
100
AcDbEntity
  8
0
100
AcDbLine
 10
200.0
 20
208.0
 30
0.0
 11
200.4999999999999
 21
207.5
 31
0.0
  0
LINE
  5
1B3
330
1E
100
AcDbEntity
  8
0
100
AcDbLine
 10
200.4999999999999
 20
207.5
 30
0.0
 11
231.1999999999999
 21
207.5
 31
0.0
  0
LINE
  5
1B4
330
1E
100
AcDbEntity
  8
0
100
AcDbLine
 10
200.4999999999999
 20
207.5
 30
0.0
 11
200.4999999999999
 21
204.0
 31
0.0
  0
LINE
  5
1B5
330
1E
100
AcDbEntity
  8
0
100
AcDbLine
 10
200.4999999999999
 20
204.0
 30
0.0
 11
200.4999999999999
 21
200.4999999999999
 31
0.0
  0
LINE
  5
1B6
330
1E
100
AcDbEntity
  8
0
100
AcDbLine
 10
200.4999999999999
 20
204.0
 30
0.0
 11
200.4999999999999
 21
207.5
 31
0.0
  0
LINE
  5
1B7
330
1E
100
AcDbEntity
  8
0
100
AcDbLine
 10
200.4999999999999
 20
200.4999999999999
 30
0.0
 11
200.4999999999999
 21
204.0
 31
0.0
  0
LINE
  5
1B8
330
1E
100
AcDbEntity
  8
0
100
AcDbLine
 10
200.4999999999999
 20
200.4999999999999
 30
0.0
 11
231.1999999999999
 21
200.4999999999999
 31
0.0
  0
LINE
  5
1B9
330
1E
100
AcDbEntity
  8
0
100
AcDbLine
 10
200.0
 20
204.0
 30
0.0
 11
200.0
 21
200.0
 31
0.0
  0
LINE
  5
1BA
330
1E
100
AcDbEntity
  8
0
100
AcDbLine
 10
200.0
 20
204.0
 30
0.0
 11
200.0
 21
208.0
 31
0.0
  0
LINE
  5
1BB
330
1E
100
AcDbEntity
  8
0
100
AcDbLine
 10
200.577777777778
 20
208.0
 30
0.0
 11
201.3
 21
213.0
 31
0.0
  0
LINE
  5
1BC
330
1E
100
AcDbEntity
  8
0
100
AcDbLine
 10
230.6
 20
208.0
 30
0.0
 11
230.8
 21
208.1999999999999
 31
0.0
  0
LINE
  5
1BD
330
1E
100
AcDbEntity
  8
0
100
AcDbLine
 10
230.6
 20
208.0
 30
0.0
 11
231.1999999999999
 21
207.5
 31
0.0
  0
LINE
  5
1BE
330
1E
100
AcDbEntity
  8
0
100
AcDbLine
 10
238.8
 20
207.5
 30
0.0
 11
269.4999999999999
 21
207.5
 31
0.0
  0
LINE
  5
1BF
330
1E
100
AcDbEntity
  8
0
100
AcDbLine
 10
238.8
 20
207.5
 30
0.0
 11
239.4
 21
208.0
 31
0.0
  0
LINE
  5
1C0
330
1E
100
AcDbEntity
  8
0
100
AcDbLine
 10
238.8
 20
200.4999999999999
 30
0.0
 11
239.4
 21
200.0
 31
0.0
  0
LINE
  5
1C1
330
1E
100
AcDbEntity
  8
0
100
AcDbLine
 10
238.8
 20
200.4999999999999
 30
0.0
 11
269.4999999999999
 21
200.4999999999999
 31
0.0
  0
LINE
  5
1C2
330
1E
100
AcDbEntity
  8
0
100
AcDbLine
 10
239.4
 20
208.0
 30
0.0
 11
270.0
 21
208.0
 31
0.0
  0
LINE
  5
1C3
330
1E
100
AcDbEntity
  8
0
100
AcDbLine
 10
238.5
 20
207.8
 30
0.0
 11
239.0
 21
208.4
 31
0.0
  0
LINE
  5
1C4
330
1E
100
AcDbEntity
  8
0
100
AcDbLine
 10
238.5
 20
207.8
 30
0.0
 11
238.5
 21
238.5
 31
0.0
  0
LINE
  5
1C5
330
1E
100
AcDbEntity
  8
0
100
AcDbLine
 10
231.4999999999999
 20
207.8
 30
0.0
 11
231.4999999999999
 21
238.5
 31
0.0
  0
LINE
  5
1C6
330
1E
100
AcDbEntity
  8
0
100
AcDbLine
 10
218.033333333333
 20
208.0
 30
0.0
 11
218.1
 21
208.4999999999999
 31
0.0
  0
LINE
  5
1C7
330
1E
100
AcDbEntity
  8
0
100
AcDbLine
 10
217.6086956521739
 20
208.0
 30
0.0
 11
217.7
 21
208.5999999999999
 31
0.0
  0
LINE
  5
1C8
330
1E
100
AcDbEntity
  8
0
100
AcDbLine
 10
230.8
 20
208.1999999999999
 30
0.0
 11
231.0
 21
208.4
 31
0.0
  0
LINE
  5
1C9
330
1E
100
AcDbEntity
  8
0
100
AcDbLine
 10
239.1999999999999
 20
208.1999999999999
 30
0.0
 11
239.4
 21
208.0
 31
0.0
  0
LINE
  5
1CA
330
1E
100
AcDbEntity
  8
0
100
AcDbLine
 10
239.0
 20
208.4
 30
0.0
 11
239.1999999999999
 21
208.1999999999999
 31
0.0
  0
LINE
  5
1CB
330
1E
100
AcDbEntity
  8
0
100
AcDbLine
 10
239.0
 20
208.4
 30
0.0
 11
239.0
 21
239.0
 31
0.0
  0
LINE
  5
1CC
330
1E
100
AcDbEntity
  8
0
100
AcDbLine
 10
231.0
 20
208.4
 30
0.0
 11
231.0
 21
239.0
 31
0.0
  0
LINE
  5
1CD
330
1E
100
AcDbEntity
  8
0
100
AcDbLine
 10
231.0
 20
208.4
 30
0.0
 11
231.4999999999999
 21
207.8
 31
0.0
  0
LINE
  5
1CE
330
1E
100
AcDbEntity
  8
0
100
AcDbLine
 10
218.1
 20
208.4999999999999
 30
0.0
 11
219.7999999999999
 21
212.6999999999999
 31
0.0
  0
LINE
  5
1CF
330
1E
100
AcDbEntity
  8
0
100
AcDbLine
 10
217.7
 20
208.5999999999999
 30
0.0
 11
219.3999999999999
 21
212.9
 31
0.0
  0
LINE
  5
1D0
330
1E
100
AcDbEntity
  8
0
100
AcDbLine
 10
201.039325842697
 20
208.0
 30
0.0
 11
201.6999999999999
 21
212.9
 31
0.0
  0
LINE
  5
1D1
330
1E
100
AcDbEntity
  8
0
100
AcDbLine
 10
269.4999999999999
 20
204.0
 30
0.0
 11
269.4999999999999
 21
200.4999999999999
 31
0.0
  0
LINE
  5
1D2
330
1E
100
AcDbEntity
  8
0
100
AcDbLine
 10
269.4999999999999
 20
204.0
 30
0.0
 11
269.4999999999999
 21
207.5
 31
0.0
  0
LINE
  5
1D3
330
1E
100
AcDbEntity
  8
0
100
AcDbLine
 10
269.4999999999999
 20
200.4999999999999
 30
0.0
 11
270.0
 21
200.0
 31
0.0
  0
LINE
  5
1D4
330
1E
100
AcDbEntity
  8
0
100
AcDbLine
 10
269.4999999999999
 20
200.4999999999999
 30
0.0
 11
269.4999999999999
 21
204.0
 31
0.0
  0
LINE
  5
1D5
330
1E
100
AcDbEntity
  8
0
100
AcDbLine
 10
269.4999999999999
 20
207.5
 30
0.0
 11
269.4999999999999
 21
204.0
 31
0.0
  0
LINE
  5
1D6
330
1E
100
AcDbEntity
  8
0
100
AcDbLine
 10
269.4999999999999
 20
207.5
 30
0.0
 11
270.0
 21
208.0
 31
0.0
  0
LINE
  5
1D7
330
1E
100
AcDbEntity
  8
0
100
AcDbLine
 10
270.0
 20
208.0
 30
0.0
 11
270.0
 21
204.0
 31
0.0
  0
LINE
  5
1D8
330
1E
100
AcDbEntity
  8
0
100
AcDbLine
 10
270.0
 20
204.0
 30
0.0
 11
270.0
 21
200.0
 31
0.0
  0
LINE
  5
1D9
330
1E
100
AcDbEntity
  8
0
100
AcDbLine
 10
270.0
 20
204.0
 30
0.0
 11
270.0
 21
208.0
 31
0.0
  0
LINE
  5
1DA
330
1E
100
AcDbEntity
  8
0
100
AcDbLine
 10
251.9
 20
208.4999999999999
 30
0.0
 11
251.9666666666669
 21
208.0
 31
0.0
  0
LINE
  5
1DB
330
1E
100
AcDbEntity
  8
0
100
AcDbLine
 10
111.4
 20
210.3
 30
0.0
 11
113.7999999999999
 21
216.1999999999999
 31
0.0
  0
LINE
  5
1DC
330
1E
100
AcDbEntity
  8
0
100
AcDbLine
 10
101.7
 20
212.9
 30
0.0
 11
105.0999999999999
 21
221.0999999999999
 31
0.0
  0
LINE
  5
1DD
330
1E
100
AcDbEntity
  8
0
100
AcDbLine
 10
101.2999999999999
 20
213.0
 30
0.0
 11
104.7
 21
221.3999999999999
 31
0.0
  0
LINE
  5
1DE
330
1E
100
AcDbEntity
  8
0
100
AcDbLine
 10
149.0
 20
211.3999999999999
 30
0.0
 11
149.0
 21
204.0999999999999
 31
0.0
  0
LINE
  5
1DF
330
1E
100
AcDbEntity
  8
0
100
AcDbLine
 10
149.0
 20
211.3999999999999
 30
0.0
 11
149.0
 21
215.9
 31
0.0
  0
LINE
  5
1E0
330
1E
100
AcDbEntity
  8
0
100
AcDbLine
 10
148.5
 20
211.8
 30
0.0
 11
148.5
 21
204.4999999999999
 31
0.0
  0
LINE
  5
1E1
330
1E
100
AcDbEntity
  8
0
100
AcDbLine
 10
148.5
 20
211.8
 30
0.0
 11
148.5
 21
216.3
 31
0.0
  0
LINE
  5
1E2
330
1E
100
AcDbEntity
  8
0
100
AcDbLine
 10
121.0
 20
211.3999999999999
 30
0.0
 11
121.0
 21
215.9
 31
0.0
  0
LINE
  5
1E3
330
1E
100
AcDbEntity
  8
0
100
AcDbLine
 10
121.0
 20
211.3999999999999
 30
0.0
 11
121.0
 21
204.0999999999999
 31
0.0
  0
LINE
  5
1E4
330
1E
100
AcDbEntity
  8
0
100
AcDbLine
 10
121.5
 20
211.8
 30
0.0
 11
121.5
 21
216.3
 31
0.0
  0
LINE
  5
1E5
330
1E
100
AcDbEntity
  8
0
100
AcDbLine
 10
121.5
 20
211.8
 30
0.0
 11
121.5
 21
204.4999999999999
 31
0.0
  0
LINE
  5
1E6
330
1E
100
AcDbEntity
  8
0
100
AcDbLine
 10
110.8999999999999
 20
210.4
 30
0.0
 11
113.3
 21
216.4
 31
0.0
  0
LINE
  5
1E7
330
1E
100
AcDbEntity
  8
0
100
AcDbLine
 10
158.6
 20
210.3
 30
0.0
 11
159.4999999999999
 21
204.0
 31
0.0
  0
LINE
  5
1E8
330
1E
100
AcDbEntity
  8
0
100
AcDbLine
 10
168.3
 20
212.9
 30
0.0
 11
169.5
 21
204.0
 31
0.0
  0
LINE
  5
1E9
330
1E
100
AcDbEntity
  8
0
100
AcDbLine
 10
168.6999999999999
 20
213.0
 30
0.0
 11
170.0
 21
204.0
 31
0.0
  0
LINE
  5
1EA
330
1E
100
AcDbEntity
  8
0
100
AcDbLine
 10
159.1
 20
210.4
 30
0.0
 11
160.0
 21
204.0
 31
0.0
  0
LINE
  5
1EB
330
1E
100
AcDbEntity
  8
0
100
AcDbLine
 10
149.0
 20
215.9
 30
0.0
 11
149.0
 21
211.3999999999999
 31
0.0
  0
LINE
  5
1EC
330
1E
100
AcDbEntity
  8
0
100
AcDbLine
 10
149.0
 20
215.9
 30
0.0
 11
149.0
 21
217.5
 31
0.0
  0
LINE
  5
1ED
330
1E
100
AcDbEntity
  8
0
100
AcDbLine
 10
121.0
 20
215.9
 30
0.0
 11
121.0
 21
217.5
 31
0.0
  0
LINE
  5
1EE
330
1E
100
AcDbEntity
  8
0
100
AcDbLine
 10
121.0
 20
215.9
 30
0.0
 11
121.0
 21
211.3999999999999
 31
0.0
  0
LINE
  5
1EF
330
1E
100
AcDbEntity
  8
0
100
AcDbLine
 10
113.7999999999999
 20
216.1999999999999
 30
0.0
 11
117.7
 21
221.3
 31
0.0
  0
LINE
  5
1F0
330
1E
100
AcDbEntity
  8
0
100
AcDbLine
 10
148.5
 20
216.3
 30
0.0
 11
148.5
 21
211.8
 31
0.0
  0
LINE
  5
1F1
330
1E
100
AcDbEntity
  8
0
100
AcDbLine
 10
148.5
 20
216.3
 30
0.0
 11
148.5
 21
218.0
 31
0.0
  0
LINE
  5
1F2
330
1E
100
AcDbEntity
  8
0
100
AcDbLine
 10
121.5
 20
216.3
 30
0.0
 11
121.5
 21
218.0
 31
0.0
  0
LINE
  5
1F3
330
1E
100
AcDbEntity
  8
0
100
AcDbLine
 10
121.5
 20
216.3
 30
0.0
 11
121.5
 21
211.8
 31
0.0
  0
LINE
  5
1F4
330
1E
100
AcDbEntity
  8
0
100
AcDbLine
 10
113.3
 20
216.4
 30
0.0
 11
117.4
 21
221.6
 31
0.0
  0
LINE
  5
1F5
330
1E
100
AcDbEntity
  8
0
100
AcDbLine
 10
156.1999999999999
 20
216.1999999999999
 30
0.0
 11
158.6
 21
210.3
 31
0.0
  0
LINE
  5
1F6
330
1E
100
AcDbEntity
  8
0
100
AcDbLine
 10
156.6999999999999
 20
216.4
 30
0.0
 11
159.1
 21
210.4
 31
0.0
  0
LINE
  5
1F7
330
1E
100
AcDbEntity
  8
0
100
AcDbLine
 10
201.3
 20
213.0
 30
0.0
 11
204.6999999999999
 21
221.3999999999999
 31
0.0
  0
LINE
  5
1F8
330
1E
100
AcDbEntity
  8
0
100
AcDbLine
 10
219.7999999999999
 20
212.6999999999999
 30
0.0
 11
222.5999999999999
 21
216.4
 31
0.0
  0
LINE
  5
1F9
330
1E
100
AcDbEntity
  8
0
100
AcDbLine
 10
222.5999999999999
 20
216.4
 30
0.0
 11
226.3
 21
219.1999999999999
 31
0.0
  0
LINE
  5
1FA
330
1E
100
AcDbEntity
  8
0
100
AcDbLine
 10
219.3999999999999
 20
212.9
 30
0.0
 11
222.3
 21
216.6999999999999
 31
0.0
  0
LINE
  5
1FB
330
1E
100
AcDbEntity
  8
0
100
AcDbLine
 10
201.6999999999999
 20
212.9
 30
0.0
 11
205.1
 21
221.0999999999999
 31
0.0
  0
LINE
  5
1FC
330
1E
100
AcDbEntity
  8
0
100
AcDbLine
 10
222.3
 20
216.6999999999999
 30
0.0
 11
226.1
 21
219.6
 31
0.0
  0
LINE
  5
1FD
330
1E
100
AcDbEntity
  8
0
100
AcDbLine
 10
247.4
 20
216.4
 30
0.0
 11
250.1999999999999
 21
212.6999999999999
 31
0.0
  0
LINE
  5
1FE
330
1E
100
AcDbEntity
  8
0
100
AcDbLine
 10
250.1999999999999
 20
212.6999999999999
 30
0.0
 11
251.9
 21
208.4999999999999
 31
0.0
  0
LINE
  5
1FF
330
1E
100
AcDbEntity
  8
0
100
AcDbLine
 10
149.0
 20
217.5
 30
0.0
 11
149.0
 21
215.9
 31
0.0
  0
LINE
  5
200
330
1E
100
AcDbEntity
  8
0
100
AcDbLine
 10
148.5
 20
218.0
 30
0.0
 11
148.5
 21
216.3
 31
0.0
  0
LINE
  5
201
330
1E
100
AcDbEntity
  8
0
100
AcDbLine
 10
148.5
 20
218.0
 30
0.0
 11
149.0
 21
217.5
 31
0.0
  0
LINE
  5
202
330
1E
100
AcDbEntity
  8
0
100
AcDbLine
 10
135.0
 20
218.0
 30
0.0
 11
148.5
 21
218.0
 31
0.0
  0
LINE
  5
203
330
1E
100
AcDbEntity
  8
0
100
AcDbLine
 10
121.0
 20
217.5
 30
0.0
 11
121.5
 21
218.0
 31
0.0
  0
LINE
  5
204
330
1E
100
AcDbEntity
  8
0
100
AcDbLine
 10
121.0
 20
217.5
 30
0.0
 11
121.0
 21
215.9
 31
0.0
  0
LINE
  5
205
330
1E
100
AcDbEntity
  8
0
100
AcDbLine
 10
121.5
 20
218.0
 30
0.0
 11
135.0
 21
218.0
 31
0.0
  0
LINE
  5
206
330
1E
100
AcDbEntity
  8
0
100
AcDbLine
 10
121.5
 20
218.0
 30
0.0
 11
121.5
 21
216.3
 31
0.0
  0
LINE
  5
207
330
1E
100
AcDbEntity
  8
0
100
AcDbLine
 10
230.5
 20
220.9
 30
0.0
 11
231.0
 21
220.9666666666669
 31
0.0
  0
LINE
  5
208
330
1E
100
AcDbEntity
  8
0
100
AcDbLine
 10
226.3
 20
219.1999999999999
 30
0.0
 11
230.5
 21
220.9
 31
0.0
  0
LINE
  5
209
330
1E
100
AcDbEntity
  8
0
100
AcDbLine
 10
226.1
 20
219.6
 30
0.0
 11
230.4
 21
221.3
 31
0.0
  0
LINE
  5
20A
330
1E
100
AcDbEntity
  8
0
100
AcDbLine
 10
105.0999999999999
 20
221.0999999999999
 30
0.0
 11
110.5999999999999
 21
228.4
 31
0.0
  0
LINE
  5
20B
330
1E
100
AcDbEntity
  8
0
100
AcDbLine
 10
164.9
 20
221.0999999999999
 30
0.0
 11
168.3
 21
212.9
 31
0.0
  0
LINE
  5
20C
330
1E
100
AcDbEntity
  8
0
100
AcDbLine
 10
117.7
 20
221.3
 30
0.0
 11
122.7999999999999
 21
225.1999999999999
 31
0.0
  0
LINE
  5
20D
330
1E
100
AcDbEntity
  8
0
100
AcDbLine
 10
152.3
 20
221.3
 30
0.0
 11
156.1999999999999
 21
216.1999999999999
 31
0.0
  0
LINE
  5
20E
330
1E
100
AcDbEntity
  8
0
100
AcDbLine
 10
147.4412288750154
 20
225.6070240348603
 30
0.0
 11
152.5999999999999
 21
221.6
 31
0.0
  0
LINE
  5
20F
330
1E
100
AcDbEntity
  8
0
100
AcDbLine
 10
230.4
 20
221.3
 30
0.0
 11
231.0
 21
221.391304347826
 31
0.0
  0
LINE
  5
210
330
1E
100
AcDbEntity
  8
0
100
AcDbLine
 10
205.1
 20
221.0999999999999
 30
0.0
 11
210.5999999999999
 21
228.4
 31
0.0
  0
LINE
  5
211
330
1E
100
AcDbEntity
  8
0
100
AcDbLine
 10
239.0
 20
220.9666666666669
 30
0.0
 11
239.5
 21
220.9
 31
0.0
  0
LINE
  5
212
330
1E
100
AcDbEntity
  8
0
100
AcDbLine
 10
239.5
 20
220.9
 30
0.0
 11
243.6999999999999
 21
219.1999999999999
 31
0.0
  0
LINE
  5
213
330
1E
100
AcDbEntity
  8
0
100
AcDbLine
 10
243.6999999999999
 20
219.1999999999999
 30
0.0
 11
247.4
 21
216.4
 31
0.0
  0
LINE
  5
214
330
1E
100
AcDbEntity
  8
0
100
AcDbLine
 10
104.7
 20
221.3999999999999
 30
0.0
 11
110.2999999999999
 21
228.6999999999999
 31
0.0
  0
LINE
  5
215
330
1E
100
AcDbEntity
  8
0
100
AcDbLine
 10
165.3
 20
221.3999999999999
 30
0.0
 11
168.6999999999999
 21
213.0
 31
0.0
  0
LINE
  5
216
330
1E
100
AcDbEntity
  8
0
100
AcDbLine
 10
117.4
 20
221.6
 30
0.0
 11
122.5448747167767
 21
225.5112488665411
 31
0.0
  0
LINE
  5
218
330
1E
100
AcDbEntity
  8
0
100
AcDbLine
 10
128.6999999999999
 20
227.5999999999999
 30
0.0
 11
135.0
 21
228.5
 31
0.0
  0
LINE
  5
219
330
1E
100
AcDbEntity
  8
0
100
AcDbLine
 10
122.7999999999999
 20
225.1999999999999
 30
0.0
 11
128.6999999999999
 21
227.5999999999999
 31
0.0
  0
LINE
  5
21A
330
1E
100
AcDbEntity
  8
0
100
AcDbLine
 10
128.6
 20
228.1
 30
0.0
 11
135.0
 21
229.0
 31
0.0
  0
LINE
  5
21B
330
1E
100
AcDbEntity
  8
0
100
AcDbLine
 10
128.6
 20
228.1
 30
0.0
 11
122.5448747167767
 21
225.5112488665411
 31
0.0
  0
LINE
  5
21C
330
1E
100
AcDbEntity
  8
0
100
AcDbLine
 10
141.3
 20
227.5999999999999
 30
0.0
 11
147.1999999999999
 21
225.1999999999999
 31
0.0
  0
LINE
  5
21E
330
1E
100
AcDbEntity
  8
0
100
AcDbLine
 10
147.1999999999999
 20
225.1999999999999
 30
0.0
 11
152.3
 21
221.3
 31
0.0
  0
LINE
  5
21F
330
1E
100
AcDbEntity
  8
0
100
AcDbLine
 10
110.5999999999999
 20
228.4
 30
0.0
 11
117.9
 21
233.8999999999999
 31
0.0
  0
LINE
  5
220
330
1E
100
AcDbEntity
  8
0
100
AcDbLine
 10
141.4
 20
228.1
 30
0.0
 11
147.4412288750154
 21
225.6070240348603
 31
0.0
  0
LINE
  5
221
330
1E
100
AcDbEntity
  8
0
100
AcDbLine
 10
159.4
 20
228.4
 30
0.0
 11
164.9
 21
221.0999999999999
 31
0.0
  0
LINE
  5
222
330
1E
100
AcDbEntity
  8
0
100
AcDbLine
 10
152.5999999999999
 20
221.6
 30
0.0
 11
156.6999999999999
 21
216.4
 31
0.0
  0
LINE
  5
223
330
1E
100
AcDbEntity
  8
0
100
AcDbLine
 10
204.6999999999999
 20
221.3999999999999
 30
0.0
 11
210.3
 21
228.6999999999999
 31
0.0
  0
LINE
  5
224
330
1E
100
AcDbEntity
  8
0
100
AcDbLine
 10
110.2999999999999
 20
228.6999999999999
 30
0.0
 11
117.5999999999999
 21
234.2999999999999
 31
0.0
  0
LINE
  5
225
330
1E
100
AcDbEntity
  8
0
100
AcDbLine
 10
159.6999999999999
 20
228.6999999999999
 30
0.0
 11
165.3
 21
221.3999999999999
 31
0.0
  0
LINE
  5
226
330
1E
100
AcDbEntity
  8
0
100
AcDbLine
 10
135.0
 20
228.5
 30
0.0
 11
141.3
 21
227.5999999999999
 31
0.0
  0
LINE
  5
227
330
1E
100
AcDbEntity
  8
0
100
AcDbLine
 10
126.0999999999999
 20
237.3
 30
0.0
 11
135.0
 21
238.5
 31
0.0
  0
LINE
  5
228
330
1E
100
AcDbEntity
  8
0
100
AcDbLine
 10
117.9
 20
233.8999999999999
 30
0.0
 11
126.0999999999999
 21
237.3
 31
0.0
  0
LINE
  5
229
330
1E
100
AcDbEntity
  8
0
100
AcDbLine
 10
117.5999999999999
 20
234.2999999999999
 30
0.0
 11
126.0
 21
237.6999999999999
 31
0.0
  0
LINE
  5
22A
330
1E
100
AcDbEntity
  8
0
100
AcDbLine
 10
126.0
 20
237.6999999999999
 30
0.0
 11
135.0
 21
239.0
 31
0.0
  0
LINE
  5
22B
330
1E
100
AcDbEntity
  8
0
100
AcDbLine
 10
143.9
 20
237.3
 30
0.0
 11
152.0999999999999
 21
233.8999999999999
 31
0.0
  0
LINE
  5
22C
330
1E
100
AcDbEntity
  8
0
100
AcDbLine
 10
152.0999999999999
 20
233.8999999999999
 30
0.0
 11
159.4
 21
228.4
 31
0.0
  0
LINE
  5
22D
330
1E
100
AcDbEntity
  8
0
100
AcDbLine
 10
135.0
 20
238.5
 30
0.0
 11
143.9
 21
237.3
 31
0.0
  0
LINE
  5
22E
330
1E
100
AcDbEntity
  8
0
100
AcDbLine
 10
135.0
 20
239.0
 30
0.0
 11
144.0
 21
237.6999999999999
 31
0.0
  0
LINE
  5
22F
330
1E
100
AcDbEntity
  8
0
100
AcDbLine
 10
144.0
 20
237.6999999999999
 30
0.0
 11
152.4
 21
234.2999999999999
 31
0.0
  0
LINE
  5
230
330
1E
100
AcDbEntity
  8
0
100
AcDbLine
 10
152.4
 20
234.2999999999999
 30
0.0
 11
159.6999999999999
 21
228.6999999999999
 31
0.0
  0
LINE
  5
231
330
1E
100
AcDbEntity
  8
0
100
AcDbLine
 10
135.0
 20
229.0
 30
0.0
 11
141.4
 21
228.1
 31
0.0
  0
LINE
  5
232
330
1E
100
AcDbEntity
  8
0
100
AcDbLine
 10
217.6
 20
234.2999999999999
 30
0.0
 11
226.0
 21
237.6999999999999
 31
0.0
  0
LINE
  5
233
330
1E
100
AcDbEntity
  8
0
100
AcDbLine
 10
210.3
 20
228.6999999999999
 30
0.0
 11
217.6
 21
234.2999999999999
 31
0.0
  0
LINE
  5
234
330
1E
100
AcDbEntity
  8
0
100
AcDbLine
 10
239.0
 20
237.9606741573029
 30
0.0
 11
243.9
 21
237.3
 31
0.0
  0
LINE
  5
235
330
1E
100
AcDbEntity
  8
0
100
AcDbLine
 10
235.0
 20
238.5
 30
0.0
 11
238.5
 21
238.5
 31
0.0
  0
LINE
  5
236
330
1E
100
AcDbEntity
  8
0
100
AcDbLine
 10
238.5
 20
238.5
 30
0.0
 11
239.0
 21
239.0
 31
0.0
  0
LINE
  5
237
330
1E
100
AcDbEntity
  8
0
100
AcDbLine
 10
238.5
 20
238.5
 30
0.0
 11
238.5
 21
207.8
 31
0.0
  0
LINE
  5
238
330
1E
100
AcDbEntity
  8
0
100
AcDbLine
 10
239.0
 20
239.0
 30
0.0
 11
239.0
 21
208.4
 31
0.0
  0
LINE
  5
239
330
1E
100
AcDbEntity
  8
0
100
AcDbLine
 10
235.0
 20
239.0
 30
0.0
 11
239.0
 21
239.0
 31
0.0
  0
LINE
  5
23A
330
1E
100
AcDbEntity
  8
0
100
AcDbLine
 10
231.4999999999999
 20
238.5
 30
0.0
 11
235.0
 21
238.5
 31
0.0
  0
LINE
  5
23B
330
1E
100
AcDbEntity
  8
0
100
AcDbLine
 10
231.4999999999999
 20
238.5
 30
0.0
 11
231.4999999999999
 21
207.8
 31
0.0
  0
LINE
  5
23C
330
1E
100
AcDbEntity
  8
0
100
AcDbLine
 10
231.0
 20
239.0
 30
0.0
 11
235.0
 21
239.0
 31
0.0
  0
LINE
  5
23D
330
1E
100
AcDbEntity
  8
0
100
AcDbLine
 10
231.0
 20
239.0
 30
0.0
 11
231.0
 21
208.4
 31
0.0
  0
LINE
  5
23E
330
1E
100
AcDbEntity
  8
0
100
AcDbLine
 10
231.0
 20
239.0
 30
0.0
 11
231.4999999999999
 21
238.5
 31
0.0
  0
LINE
  5
23F
330
1E
100
AcDbEntity
  8
0
100
AcDbLine
 10
239.0
 20
238.422222222222
 30
0.0
 11
244.0
 21
237.6999999999999
 31
0.0
  0
LINE
  5
240
330
1E
100
AcDbEntity
  8
0
100
AcDbLine
 10
226.0
 20
237.6999999999999
 30
0.0
 11
231.0
 21
238.422222222222
 31
0.0
  0
LINE
  5
241
330
1E
100
AcDbEntity
  8
0
100
AcDbLine
 10
226.1
 20
237.3
 30
0.0
 11
231.0
 21
237.9606741573029
 31
0.0
  0
LINE
  5
242
330
1E
100
AcDbEntity
  8
0
100
AcDbLine
 10
217.9
 20
233.8999999999999
 30
0.0
 11
226.1
 21
237.3
 31
0.0
  0
LINE
  5
243
330
1E
100
AcDbEntity
  8
0
100
AcDbLine
 10
210.5999999999999
 20
228.4
 30
0.0
 11
217.9
 21
233.8999999999999
 31
0.0
  0
LINE
  5
244
330
1E
100
AcDbEntity
  8
0
100
AcDbLine
 10
243.9
 20
237.3
 30
0.0
 11
252.0999999999999
 21
233.8999999999999
 31
0.0
  0
LINE
  5
245
330
1E
100
AcDbEntity
  8
0
100
AcDbLine
 10
239.0
 20
221.391304347826
 30
0.0
 11
239.5999999999999
 21
221.3
 31
0.0
  0
LINE
  5
246
330
1E
100
AcDbEntity
  8
0
100
AcDbLine
 10
239.5999999999999
 20
221.3
 30
0.0
 11
243.9
 21
219.6
 31
0.0
  0
LINE
  5
247
330
1E
100
AcDbEntity
  8
0
100
AcDbLine
 10
244.0
 20
237.6999999999999
 30
0.0
 11
252.4
 21
234.2999999999999
 31
0.0
  0
LINE
  5
248
330
1E
100
AcDbEntity
  8
0
100
AcDbLine
 10
243.9
 20
219.6
 30
0.0
 11
247.6999999999999
 21
216.6999999999999
 31
0.0
  0
LINE
  5
249
330
1E
100
AcDbEntity
  8
0
100
AcDbLine
 10
247.6999999999999
 20
216.6999999999999
 30
0.0
 11
250.5999999999999
 21
212.9
 31
0.0
  0
LINE
  5
24A
330
1E
100
AcDbEntity
  8
0
100
AcDbLine
 10
268.3
 20
212.9
 30
0.0
 11
268.960674157303
 21
208.0
 31
0.0
  0
LINE
  5
24B
330
1E
100
AcDbEntity
  8
0
100
AcDbLine
 10
259.3999999999999
 20
228.4
 30
0.0
 11
264.9
 21
221.0999999999999
 31
0.0
  0
LINE
  5
24C
330
1E
100
AcDbEntity
  8
0
100
AcDbLine
 10
264.9
 20
221.0999999999999
 30
0.0
 11
268.3
 21
212.9
 31
0.0
  0
LINE
  5
24D
330
1E
100
AcDbEntity
  8
0
100
AcDbLine
 10
252.0999999999999
 20
233.8999999999999
 30
0.0
 11
259.3999999999999
 21
228.4
 31
0.0
  0
LINE
  5
24E
330
1E
100
AcDbEntity
  8
0
100
AcDbLine
 10
252.4
 20
234.2999999999999
 30
0.0
 11
259.6999999999999
 21
228.6999999999999
 31
0.0
  0
LINE
  5
24F
330
1E
100
AcDbEntity
  8
0
100
AcDbLine
 10
259.6999999999999
 20
228.6999999999999
 30
0.0
 11
265.3
 21
221.3999999999999
 31
0.0
  0
LINE
  5
250
330
1E
100
AcDbEntity
  8
0
100
AcDbLine
 10
265.3
 20
221.3999999999999
 30
0.0
 11
268.6999999999999
 21
213.0
 31
0.0
  0
LINE
  5
251
330
1E
100
AcDbEntity
  8
0
100
AcDbLine
 10
268.6999999999999
 20
213.0
 30
0.0
 11
269.422222222222
 21
208.0
 31
0.0
  0
LINE
  5
252
330
1E
100
AcDbEntity
  8
0
100
AcDbLine
 10
250.5999999999999
 20
212.9
 30
0.0
 11
252.3
 21
208.5999999999999
 31
0.0
  0
LINE
  5
253
330
1E
100
AcDbEntity
  8
0
100
AcDbLine
 10
252.3
 20
208.5999999999999
 30
0.0
 11
252.3913043478259
 21
208.0
 31
0.0
  0
LINE
  5
254
330
1E
100
AcDbEntity
  8
0
100
AcDbLine
 10
70.0
 20
204.0
 30
0.0
 11
70.0
 21
200.0
 31
0.0
  0
LINE
  5
255
330
1E
100
AcDbEntity
  8
0
100
AcDbLine
 10
70.0
 20
204.0
 30
0.0
 11
70.0
 21
208.0
 31
0.0
  0
LINE
  5
256
330
1E
100
AcDbEntity
  8
0
100
AcDbLine
 10
31.5
 20
200.1999999999999
 30
0.0
 11
31.5
 21
169.5
 31
0.0
  0
LINE
  5
257
330
1E
100
AcDbEntity
  8
0
100
AcDbLine
 10
0.499999999999986
 20
200.4999999999999
 30
0.0
 11
0.499999999999986
 21
204.0
 31
0.0
  0
LINE
  5
258
330
1E
100
AcDbEntity
  8
0
100
AcDbLine
 10
0.499999999999986
 20
200.4999999999999
 30
0.0
 11
31.2
 21
200.4999999999999
 31
0.0
  0
LINE
  5
259
330
1E
100
AcDbEntity
  8
0
100
AcDbLine
 10
30.6
 20
200.0
 30
0.0
 11
30.8
 21
199.8
 31
0.0
  0
LINE
  5
25A
330
1E
100
AcDbEntity
  8
0
100
AcDbLine
 10
30.6
 20
200.0
 30
0.0
 11
31.2
 21
200.4999999999999
 31
0.0
  0
LINE
  5
25B
330
1E
100
AcDbEntity
  8
0
100
AcDbLine
 10
-0.0000000000000075
 20
200.0
 30
0.0
 11
-0.0000000000000075
 21
204.0
 31
0.0
  0
LINE
  5
25C
330
1E
100
AcDbEntity
  8
0
100
AcDbLine
 10
-0.0000000000000075
 20
200.0
 30
0.0
 11
30.6
 21
200.0
 31
0.0
  0
LINE
  5
25D
330
1E
100
AcDbEntity
  8
0
100
AcDbLine
 10
-0.0000000000000075
 20
200.0
 30
0.0
 11
0.499999999999986
 21
200.4999999999999
 31
0.0
  0
ENDSEC
  0
SECTION
  2
OBJECTS
  0
DICTIONARY
  5
C
330
0
100
AcDbDictionary
281
     1
  3
ACAD_GROUP
350
D
  3
ACAD_LAYOUT
350
19
  3
ACAD_MLINESTYLE
350
16
  3
ACAD_PLOTSETTINGS
350
18
  3
ACAD_PLOTSTYLENAME
350
E
  3
AcDbVariableDictionary
350
263
  0
DICTIONARY
  5
D
102
{ACAD_REACTORS
330
C
102
}
330
C
100
AcDbDictionary
281
     1
  0
DICTIONARY
  5
19
102
{ACAD_REACTORS
330
C
102
}
330
C
100
AcDbDictionary
281
     1
  3
Layout1
350
1D
  3
Model
350
21
  0
DICTIONARY
  5
16
102
{ACAD_REACTORS
330
C
102
}
330
C
100
AcDbDictionary
281
     1
  3
Standard
350
17
  0
DICTIONARY
  5
18
102
{ACAD_REACTORS
330
C
102
}
330
C
100
AcDbDictionary
281
     1
  0
ACDBDICTIONARYWDFLT
  5
E
102
{ACAD_REACTORS
330
C
102
}
330
C
100
AcDbDictionary
281
     1
  3
Normal
350
F
100
AcDbDictionaryWithDefault
340
F
  0
DICTIONARY
  5
263
102
{ACAD_REACTORS
330
C
102
}
330
C
100
AcDbDictionary
281
     1
  3
DIMASSOC
350
264
  0
LAYOUT
  5
1D
102
{ACAD_REACTORS
330
19
102
}
330
19
100
AcDbPlotSettings
  1

  2
hp deskjet 980c series
  4

  6

 40
0.0
 41
0.0
 42
0.0
 43
0.0
 44
0.0
 45
0.0
 46
0.0
 47
0.0
 48
0.0
 49
0.0
140
0.0
141
0.0
142
1.0
143
1.0
 70
   688
 72
     0
 73
     0
 74
     5
  7

 75
    16
147
1.0
148
0.0
149
0.0
100
AcDbLayout
  1
Layout1
 70
     1
 71
     1
 10
0.0
 20
0.0
 11
12.0
 21
9.0
 12
0.0
 22
0.0
 32
0.0
 14
1.000000000000000E+20
 24
1.000000000000000E+20
 34
1.000000000000000E+20
 15
-1.000000000000000E+20
 25
-1.000000000000000E+20
 35
-1.000000000000000E+20
146
0.0
 13
0.0
 23
0.0
 33
0.0
 16
1.0
 26
0.0
 36
0.0
 17
0.0
 27
1.0
 37
0.0
 76
     0
330
1A
  0
LAYOUT
  5
21
102
{ACAD_REACTORS
330
19
102
}
330
19
100
AcDbPlotSettings
  1

  2
hp deskjet 980c series
  4

  6

 40
0.0
 41
0.0
 42
0.0
 43
0.0
 44
0.0
 45
0.0
 46
0.0
 47
0.0
 48
0.0
 49
0.0
140
0.0
141
0.0
142
1.0
143
1.0
 70
  1712
 72
     0
 73
     0
 74
     0
  7

 75
     0
147
1.0
148
0.0
149
0.0
100
AcDbLayout
  1
Model
 70
     1
 71
     0
 10
0.0
 20
0.0
 11
12.0
 21
9.0
 12
0.0
 22
0.0
 32
0.0
 14
0.0
 24
0.0
 34
0.0
 15
0.0
 25
0.0
 35
0.0
146
0.0
 13
0.0
 23
0.0
 33
0.0
 16
1.0
 26
0.0
 36
0.0
 17
0.0
 27
1.0
 37
0.0
 76
     0
330
1E
  0
MLINESTYLE
  5
17
102
{ACAD_REACTORS
330
16
102
}
330
16
100
AcDbMlineStyle
  2
STANDARD
 70
     0
  3

 62
   256
 51
90.0
 52
90.0
 71
     2
 49
0.5
 62
   256
  6
BYLAYER
 49
-0.5
 62
   256
  6
BYLAYER
  0
ACDBPLACEHOLDER
  5
F
102
{ACAD_REACTORS
330
E
102
}
330
E
  0
DICTIONARYVAR
  5
264
102
{ACAD_REACTORS
330
263
102
}
330
263
100
DictionaryVariables
280
     0
  1
1
  0
ENDSEC
  0
EOF
