  0
SECTION
  2
HEADER
  9
$ACADVER
  1
AC1015
  9
$ACADMAINTVER
 70
    13
  9
$DWGCODEPAGE
  3
ANSI_1252
  9
$INSBASE
 10
0.0
 20
0.0
 30
0.0
  9
$EXTMIN
 10
0.0
 20
-0.0000000000000034
 30
0.0
  9
$EXTMAX
 10
154.0
 20
59.0
 30
0.0
  9
$LIMMIN
 10
0.0
 20
0.0
  9
$LIMMAX
 10
12.0
 20
9.0
  9
$ORTHOMODE
 70
     0
  9
$REGENMODE
 70
     1
  9
$FILLMODE
 70
     1
  9
$QTEXTMODE
 70
     0
  9
$MIRRTEXT
 70
     1
  9
$LTSCALE
 40
1.0
  9
$ATTMODE
 70
     1
  9
$TEXTSIZE
 40
0.2
  9
$TRACEWID
 40
0.05
  9
$TEXTSTYLE
  7
Standard
  9
$CLAYER
  8
0
  9
$CELTYPE
  6
Continuous
  9
$CECOLOR
 62
   256
  9
$CELTSCALE
 40
1.0
  9
$DISPSILH
 70
     0
  9
$DIMSCALE
 40
1.0
  9
$DIMASZ
 40
0.18
  9
$DIMEXO
 40
0.0625
  9
$DIMDLI
 40
0.38
  9
$DIMRND
 40
0.0
  9
$DIMDLE
 40
0.0
  9
$DIMEXE
 40
0.18
  9
$DIMTP
 40
0.0
  9
$DIMTM
 40
0.0
  9
$DIMTXT
 40
0.18
  9
$DIMCEN
 40
0.09
  9
$DIMTSZ
 40
0.0
  9
$DIMTOL
 70
     0
  9
$DIMLIM
 70
     0
  9
$DIMTIH
 70
     1
  9
$DIMTOH
 70
     1
  9
$DIMSE1
 70
     0
  9
$DIMSE2
 70
     0
  9
$DIMTAD
 70
     0
  9
$DIMZIN
 70
     0
  9
$DIMBLK
  1

  9
$DIMASO
 70
     1
  9
$DIMSHO
 70
     1
  9
$DIMPOST
  1

  9
$DIMAPOST
  1

  9
$DIMALT
 70
     0
  9
$DIMALTD
 70
     2
  9
$DIMALTF
 40
25.4
  9
$DIMLFAC
 40
1.0
  9
$DIMTOFL
 70
     0
  9
$DIMTVP
 40
0.0
  9
$DIMTIX
 70
     0
  9
$DIMSOXD
 70
     0
  9
$DIMSAH
 70
     0
  9
$DIMBLK1
  1

  9
$DIMBLK2
  1

  9
$DIMSTYLE
  2
Standard
  9
$DIMCLRD
 70
     0
  9
$DIMCLRE
 70
     0
  9
$DIMCLRT
 70
     0
  9
$DIMTFAC
 40
1.0
  9
$DIMGAP
 40
0.09
  9
$DIMJUST
 70
     0
  9
$DIMSD1
 70
     0
  9
$DIMSD2
 70
     0
  9
$DIMTOLJ
 70
     1
  9
$DIMTZIN
 70
     0
  9
$DIMALTZ
 70
     0
  9
$DIMALTTZ
 70
     0
  9
$DIMUPT
 70
     0
  9
$DIMDEC
 70
     4
  9
$DIMTDEC
 70
     4
  9
$DIMALTU
 70
     2
  9
$DIMALTTD
 70
     2
  9
$DIMTXSTY
  7
Standard
  9
$DIMAUNIT
 70
     0
  9
$DIMADEC
 70
     0
  9
$DIMALTRND
 40
0.0
  9
$DIMAZIN
 70
     0
  9
$DIMDSEP
 70
    46
  9
$DIMATFIT
 70
     3
  9
$DIMFRAC
 70
     0
  9
$DIMLDRBLK
  1

  9
$DIMLUNIT
 70
     2
  9
$DIMLWD
 70
    -2
  9
$DIMLWE
 70
    -2
  9
$DIMTMOVE
 70
     0
  9
$LUNITS
 70
     2
  9
$LUPREC
 70
     4
  9
$SKETCHINC
 40
0.1
  9
$FILLETRAD
 40
0.0
  9
$AUNITS
 70
     0
  9
$AUPREC
 70
     0
  9
$MENU
  1
.
  9
$ELEVATION
 40
0.0
  9
$PELEVATION
 40
0.0
  9
$THICKNESS
 40
0.0
  9
$LIMCHECK
 70
     0
  9
$CHAMFERA
 40
0.0
  9
$CHAMFERB
 40
0.0
  9
$CHAMFERC
 40
0.0
  9
$CHAMFERD
 40
0.0
  9
$SKPOLY
 70
     0
  9
$TDCREATE
 40
2455335.861965231
  9
$TDUCREATE
 40
2455335.778631898
  9
$TDUPDATE
 40
2455335.863968090
  9
$TDUUPDATE
 40
2455335.780634757
  9
$TDINDWG
 40
0.0020028588
  9
$TDUSRTIMER
 40
0.0020028588
  9
$USRTIMER
 70
     1
  9
$ANGBASE
 50
0.0
  9
$ANGDIR
 70
     0
  9
$PDMODE
 70
     0
  9
$PDSIZE
 40
0.0
  9
$PLINEWID
 40
0.0
  9
$SPLFRAME
 70
     0
  9
$SPLINETYPE
 70
     6
  9
$SPLINESEGS
 70
     8
  9
$HANDSEED
  5
17B
  9
$SURFTAB1
 70
     6
  9
$SURFTAB2
 70
     6
  9
$SURFTYPE
 70
     6
  9
$SURFU
 70
     6
  9
$SURFV
 70
     6
  9
$UCSBASE
  2

  9
$UCSNAME
  2

  9
$UCSORG
 10
0.0
 20
0.0
 30
0.0
  9
$UCSXDIR
 10
1.0
 20
0.0
 30
0.0
  9
$UCSYDIR
 10
0.0
 20
1.0
 30
0.0
  9
$UCSORTHOREF
  2

  9
$UCSORTHOVIEW
 70
     1
  9
$UCSORGTOP
 10
0.0
 20
0.0
 30
0.0
  9
$UCSORGBOTTOM
 10
0.0
 20
0.0
 30
0.0
  9
$UCSORGLEFT
 10
0.0
 20
0.0
 30
0.0
  9
$UCSORGRIGHT
 10
0.0
 20
0.0
 30
0.0
  9
$UCSORGFRONT
 10
0.0
 20
0.0
 30
0.0
  9
$UCSORGBACK
 10
0.0
 20
0.0
 30
0.0
  9
$PUCSBASE
  2

  9
$PUCSNAME
  2

  9
$PUCSORG
 10
0.0
 20
0.0
 30
0.0
  9
$PUCSXDIR
 10
1.0
 20
0.0
 30
0.0
  9
$PUCSYDIR
 10
0.0
 20
1.0
 30
0.0
  9
$PUCSORTHOREF
  2

  9
$PUCSORTHOVIEW
 70
     0
  9
$PUCSORGTOP
 10
0.0
 20
0.0
 30
0.0
  9
$PUCSORGBOTTOM
 10
0.0
 20
0.0
 30
0.0
  9
$PUCSORGLEFT
 10
0.0
 20
0.0
 30
0.0
  9
$PUCSORGRIGHT
 10
0.0
 20
0.0
 30
0.0
  9
$PUCSORGFRONT
 10
0.0
 20
0.0
 30
0.0
  9
$PUCSORGBACK
 10
0.0
 20
0.0
 30
0.0
  9
$USERI1
 70
     0
  9
$USERI2
 70
     0
  9
$USERI3
 70
     0
  9
$USERI4
 70
     0
  9
$USERI5
 70
     0
  9
$USERR1
 40
0.0
  9
$USERR2
 40
0.0
  9
$USERR3
 40
0.0
  9
$USERR4
 40
0.0
  9
$USERR5
 40
0.0
  9
$WORLDVIEW
 70
     1
  9
$SHADEDGE
 70
     3
  9
$SHADEDIF
 70
    70
  9
$TILEMODE
 70
     1
  9
$MAXACTVP
 70
    64
  9
$PINSBASE
 10
0.0
 20
0.0
 30
0.0
  9
$PLIMCHECK
 70
     0
  9
$PEXTMIN
 10
1.000000000000000E+20
 20
1.000000000000000E+20
 30
1.000000000000000E+20
  9
$PEXTMAX
 10
-1.000000000000000E+20
 20
-1.000000000000000E+20
 30
-1.000000000000000E+20
  9
$PLIMMIN
 10
0.0
 20
0.0
  9
$PLIMMAX
 10
12.0
 20
9.0
  9
$UNITMODE
 70
     0
  9
$VISRETAIN
 70
     1
  9
$PLINEGEN
 70
     0
  9
$PSLTSCALE
 70
     1
  9
$TREEDEPTH
 70
  3020
  9
$CMLSTYLE
  2
Standard
  9
$CMLJUST
 70
     0
  9
$CMLSCALE
 40
1.0
  9
$PROXYGRAPHICS
 70
     1
  9
$MEASUREMENT
 70
     0
  9
$CELWEIGHT
370
    -1
  9
$ENDCAPS
280
     0
  9
$JOINSTYLE
280
     0
  9
$LWDISPLAY
290
     0
  9
$INSUNITS
 70
     0
  9
$HYPERLINKBASE
  1

  9
$STYLESHEET
  1

  9
$XEDIT
290
     1
  9
$CEPSNTYPE
380
     0
  9
$PSTYLEMODE
290
     1
  9
$FINGERPRINTGUID
  2
{E9FC1ED2-5140-470B-853A-08301F803A07}
  9
$VERSIONGUID
  2
{E4152D55-2BFC-424D-8978-499BC117B7A4}
  9
$EXTNAMES
290
     1
  9
$PSVPSCALE
 40
0.0
  9
$OLESTARTUP
290
     0
  0
ENDSEC
  0
SECTION
  2
CLASSES
  0
CLASS
  1
ACDBDICTIONARYWDFLT
  2
AcDbDictionaryWithDefault
  3
AutoCAD 2000
 90
        0
280
     0
281
     0
  0
CLASS
  1
ACDBPLACEHOLDER
  2
AcDbPlaceHolder
  3
AutoCAD 2000
 90
        0
280
     0
281
     0
  0
CLASS
  1
LAYOUT
  2
AcDbLayout
  3
AutoCAD 2000
 90
        0
280
     0
281
     0
  0
CLASS
  1
DICTIONARYVAR
  2
AcDbDictionaryVar
  3
AutoCAD 2000
 90
        0
280
     0
281
     0
  0
ENDSEC
  0
SECTION
  2
TABLES
  0
TABLE
  2
VPORT
  5
8
330
0
100
AcDbSymbolTable
 70
     4
  0
VPORT
  5
17A
330
8
100
AcDbSymbolTableRecord
100
AcDbViewportTableRecord
  2
*Active
 70
     0
 10
0.0
 20
0.0
 11
1.0
 21
1.0
 12
77.0
 22
29.49999999999999
 13
0.0
 23
0.0
 14
1.0
 24
1.0
 15
0.0
 25
0.0
 16
0.0
 26
0.0
 36
1.0
 17
0.0
 27
0.0
 37
0.0
 40
75.67292858046923
 41
2.041621029572836
 42
50.0
 43
0.0
 44
0.0
 50
0.0
 51
0.0
 71
     0
 72
   100
 73
     1
 74
     3
 75
     0
 76
     0
 77
     0
 78
     0
281
     0
 65
     1
110
0.0
120
0.0
130
0.0
111
1.0
121
0.0
131
0.0
112
0.0
122
1.0
132
0.0
 79
     1
146
0.0
  0
ENDTAB
  0
TABLE
  2
LTYPE
  5
5
330
0
100
AcDbSymbolTable
 70
     1
  0
LTYPE
  5
13
330
5
100
AcDbSymbolTableRecord
100
AcDbLinetypeTableRecord
  2
ByBlock
 70
     0
  3

 72
    65
 73
     0
 40
0.0
  0
LTYPE
  5
14
330
5
100
AcDbSymbolTableRecord
100
AcDbLinetypeTableRecord
  2
ByLayer
 70
     0
  3

 72
    65
 73
     0
 40
0.0
  0
LTYPE
  5
15
330
5
100
AcDbSymbolTableRecord
100
AcDbLinetypeTableRecord
  2
Continuous
 70
     0
  3
Solid line
 72
    65
 73
     0
 40
0.0
  0
ENDTAB
  0
TABLE
  2
LAYER
  5
2
330
0
100
AcDbSymbolTable
 70
     1
  0
LAYER
  5
10
330
2
100
AcDbSymbolTableRecord
100
AcDbLayerTableRecord
  2
0
 70
     0
 62
     7
  6
Continuous
370
    -3
390
F
  0
ENDTAB
  0
TABLE
  2
STYLE
  5
3
330
0
100
AcDbSymbolTable
 70
     1
  0
STYLE
  5
11
330
3
100
AcDbSymbolTableRecord
100
AcDbTextStyleTableRecord
  2
Standard
 70
     0
 40
0.0
 41
1.0
 50
0.0
 71
     0
 42
0.2
  3
txt
  4

  0
ENDTAB
  0
TABLE
  2
VIEW
  5
6
330
0
100
AcDbSymbolTable
 70
     0
  0
ENDTAB
  0
TABLE
  2
UCS
  5
7
330
0
100
AcDbSymbolTable
 70
     0
  0
ENDTAB
  0
TABLE
  2
APPID
  5
9
330
0
100
AcDbSymbolTable
 70
     1
  0
APPID
  5
12
330
9
100
AcDbSymbolTableRecord
100
AcDbRegAppTableRecord
  2
ACAD
 70
     0
  0
ENDTAB
  0
TABLE
  2
DIMSTYLE
  5
A
330
0
100
AcDbSymbolTable
 70
     1
100
AcDbDimStyleTable
 71
     0
  0
DIMSTYLE
105
171
330
A
100
AcDbSymbolTableRecord
100
AcDbDimStyleTableRecord
  2
Standard
 70
     0
340
11
  0
ENDTAB
  0
TABLE
  2
BLOCK_RECORD
  5
1
330
0
100
AcDbSymbolTable
 70
     0
  0
BLOCK_RECORD
  5
1E
330
1
100
AcDbSymbolTableRecord
100
AcDbBlockTableRecord
  2
*Model_Space
340
21
  0
BLOCK_RECORD
  5
1A
330
1
100
AcDbSymbolTableRecord
100
AcDbBlockTableRecord
  2
*Paper_Space
340
1D
  0
ENDTAB
  0
ENDSEC
  0
SECTION
  2
BLOCKS
  0
BLOCK
  5
1F
330
1E
100
AcDbEntity
  8
0
100
AcDbBlockBegin
  2
*Model_Space
 70
     0
 10
0.0
 20
0.0
 30
0.0
  3
*Model_Space
  1

  0
ENDBLK
  5
20
330
1E
100
AcDbEntity
  8
0
100
AcDbBlockEnd
  0
BLOCK
  5
1B
330
1A
100
AcDbEntity
 67
     1
  8
0
100
AcDbBlockBegin
  2
*Paper_Space
 70
     0
 10
0.0
 20
0.0
 30
0.0
  3
*Paper_Space
  1

  0
ENDBLK
  5
1C
330
1A
100
AcDbEntity
 67
     1
  8
0
100
AcDbBlockEnd
  0
ENDSEC
  0
SECTION
  2
ENTITIES
  0
LINE
  5
22
330
1E
100
AcDbEntity
  8
0
100
AcDbLine
 10
0.0
 20
59.0
 30
0.0
 11
0.5
 21
59.0
 31
0.0
  0
LINE
  5
23
330
1E
100
AcDbEntity
  8
0
100
AcDbLine
 10
0.0
 20
59.0
 30
0.0
 11
0.0
 21
50.0
 31
0.0
  0
LINE
  5
24
330
1E
100
AcDbEntity
  8
0
100
AcDbLine
 10
0.0
 20
50.0
 30
0.0
 11
0.0
 21
59.0
 31
0.0
  0
LINE
  5
26
330
1E
100
AcDbEntity
  8
0
100
AcDbLine
 10
0.0
 20
50.0
 30
0.0
 11
1.0
 21
49.0
 31
0.0
  0
LINE
  5
27
330
1E
100
AcDbEntity
  8
0
100
AcDbLine
 10
4.0
 20
49.0
 30
0.0
 11
51.5
 21
49.0
 31
0.0
  0
LINE
  5
28
330
1E
100
AcDbEntity
  8
0
100
AcDbLine
 10
77.0
 20
-0.0000000000000034
 30
0.0
 11
83.77679999999999
 21
-0.0000000000000034
 31
0.0
  0
LINE
  5
29
330
1E
100
AcDbEntity
  8
0
100
AcDbLine
 10
83.77679999999999
 20
-0.0000000000000034
 30
0.0
 11
89.9643
 21
-0.0000000000000032
 31
0.0
  0
LINE
  5
2A
330
1E
100
AcDbEntity
  8
0
100
AcDbLine
 10
89.9643
 20
-0.0000000000000032
 30
0.0
 11
95.46429999999999
 21
-0.000000000000003
 31
0.0
  0
LINE
  5
2B
330
1E
100
AcDbEntity
  8
0
100
AcDbLine
 10
70.2232
 20
-0.0000000000000034
 30
0.0
 11
77.0
 21
-0.0000000000000034
 31
0.0
  0
LINE
  5
2C
330
1E
100
AcDbEntity
  8
0
100
AcDbLine
 10
95.46429999999999
 20
-0.000000000000003
 30
0.0
 11
99.5893
 21
-0.0000000000000026
 31
0.0
  0
LINE
  5
2D
330
1E
100
AcDbEntity
  8
0
100
AcDbLine
 10
99.5893
 20
-0.0000000000000026
 30
0.0
 11
102.1429999999999
 21
-0.0000000000000023
 31
0.0
  0
LINE
  5
2E
330
1E
100
AcDbEntity
  8
0
100
AcDbLine
 10
64.03570000000001
 20
-0.0000000000000032
 30
0.0
 11
70.2232
 21
-0.0000000000000034
 31
0.0
  0
LINE
  5
2F
330
1E
100
AcDbEntity
  8
0
100
AcDbLine
 10
58.5357
 20
-0.000000000000003
 30
0.0
 11
64.03570000000001
 21
-0.0000000000000032
 31
0.0
  0
LINE
  5
30
330
1E
100
AcDbEntity
  8
0
100
AcDbLine
 10
103.027
 20
-0.0000000000000018
 30
0.0
 11
103.7139999999999
 21
0.239999999999998
 31
0.0
  0
LINE
  5
31
330
1E
100
AcDbEntity
  8
0
100
AcDbLine
 10
103.027
 20
-0.0000000000000018
 30
0.0
 11
103.7139999999999
 21
0.239999999999998
 31
0.0
  0
LINE
  5
32
330
1E
100
AcDbEntity
  8
0
100
AcDbLine
 10
102.1429999999999
 20
-0.0000000000000023
 30
0.0
 11
103.027
 21
-0.0000000000000018
 31
0.0
  0
LINE
  5
33
330
1E
100
AcDbEntity
  8
0
100
AcDbLine
 10
54.41069999999999
 20
-0.0000000000000026
 30
0.0
 11
58.5357
 21
-0.000000000000003
 31
0.0
  0
LINE
  5
34
330
1E
100
AcDbEntity
  8
0
100
AcDbLine
 10
51.8571
 20
-0.0000000000000023
 30
0.0
 11
54.41069999999999
 21
-0.0000000000000026
 31
0.0
  0
LINE
  5
35
330
1E
100
AcDbEntity
  8
0
100
AcDbLine
 10
43.9968
 20
5.667669999999999
 30
0.0
 11
43.9968
 21
5.767669999999999
 31
0.0
  0
LINE
  5
36
330
1E
100
AcDbEntity
  8
0
100
AcDbLine
 10
43.9968
 20
5.667669999999999
 30
0.0
 11
49.5
 21
5.667669999999999
 31
0.0
  0
LINE
  5
37
330
1E
100
AcDbEntity
  8
0
100
AcDbLine
 10
43.9968
 20
5.767669999999999
 30
0.0
 11
43.9968
 21
6.367669999999999
 31
0.0
  0
LINE
  5
38
330
1E
100
AcDbEntity
  8
0
100
AcDbLine
 10
43.9968
 20
5.767669999999999
 30
0.0
 11
43.9968
 21
5.667669999999999
 31
0.0
  0
LINE
  5
39
330
1E
100
AcDbEntity
  8
0
100
AcDbLine
 10
43.9968
 20
10.66769999999999
 30
0.0
 11
49.5
 21
10.66769999999999
 31
0.0
  0
LINE
  5
3A
330
1E
100
AcDbEntity
  8
0
100
AcDbLine
 10
43.9968
 20
10.66769999999999
 30
0.0
 11
43.9968
 21
10.56769999999999
 31
0.0
  0
LINE
  5
3B
330
1E
100
AcDbEntity
  8
0
100
AcDbLine
 10
43.9968
 20
10.56769999999999
 30
0.0
 11
43.9968
 21
10.66769999999999
 31
0.0
  0
LINE
  5
3C
330
1E
100
AcDbEntity
  8
0
100
AcDbLine
 10
43.9968
 20
10.56769999999999
 30
0.0
 11
43.9968
 21
9.96767
 31
0.0
  0
LINE
  5
3D
330
1E
100
AcDbEntity
  8
0
100
AcDbLine
 10
43.9968
 20
9.96767
 30
0.0
 11
43.9968
 21
10.56769999999999
 31
0.0
  0
LINE
  5
3E
330
1E
100
AcDbEntity
  8
0
100
AcDbLine
 10
43.9968
 20
9.96767
 30
0.0
 11
43.9968
 21
9.167669999999999
 31
0.0
  0
LINE
  5
3F
330
1E
100
AcDbEntity
  8
0
100
AcDbLine
 10
43.9968
 20
9.167669999999999
 30
0.0
 11
43.9968
 21
9.96767
 31
0.0
  0
LINE
  5
40
330
1E
100
AcDbEntity
  8
0
100
AcDbLine
 10
43.9968
 20
9.167669999999999
 30
0.0
 11
43.9968
 21
8.167669999999999
 31
0.0
  0
LINE
  5
41
330
1E
100
AcDbEntity
  8
0
100
AcDbLine
 10
43.9968
 20
8.167669999999999
 30
0.0
 11
43.9968
 21
7.167669999999999
 31
0.0
  0
LINE
  5
42
330
1E
100
AcDbEntity
  8
0
100
AcDbLine
 10
43.9968
 20
8.167669999999999
 30
0.0
 11
43.9968
 21
9.167669999999999
 31
0.0
  0
LINE
  5
43
330
1E
100
AcDbEntity
  8
0
100
AcDbLine
 10
43.9968
 20
6.367669999999999
 30
0.0
 11
43.9968
 21
7.167669999999999
 31
0.0
  0
LINE
  5
44
330
1E
100
AcDbEntity
  8
0
100
AcDbLine
 10
43.9968
 20
6.367669999999999
 30
0.0
 11
43.9968
 21
5.767669999999999
 31
0.0
  0
LINE
  5
45
330
1E
100
AcDbEntity
  8
0
100
AcDbLine
 10
43.9968
 20
7.167669999999999
 30
0.0
 11
43.9968
 21
8.167669999999999
 31
0.0
  0
LINE
  5
46
330
1E
100
AcDbEntity
  8
0
100
AcDbLine
 10
43.9968
 20
7.167669999999999
 30
0.0
 11
43.9968
 21
6.367669999999999
 31
0.0
  0
LINE
  5
47
330
1E
100
AcDbEntity
  8
0
100
AcDbLine
 10
49.5
 20
10.66769999999999
 30
0.0
 11
49.5
 21
39.6
 31
0.0
  0
LINE
  5
48
330
1E
100
AcDbEntity
  8
0
100
AcDbLine
 10
49.5
 20
10.66769999999999
 30
0.0
 11
49.5
 21
1.199999999999999
 31
0.0
  0
LINE
  5
49
330
1E
100
AcDbEntity
  8
0
100
AcDbLine
 10
19.8778
 20
49.0
 30
0.0
 11
20.67699999999999
 21
49.0
 31
0.0
  0
LINE
  5
4A
330
1E
100
AcDbEntity
  8
0
100
AcDbLine
 10
19.5781
 20
49.0
 30
0.0
 11
19.8779
 21
49.0
 31
0.0
  0
LINE
  5
4B
330
1E
100
AcDbEntity
  8
0
100
AcDbLine
 10
19.5781
 20
49.0
 30
0.0
 11
19.8778
 21
49.0
 31
0.0
  0
LINE
  5
4C
330
1E
100
AcDbEntity
  8
0
100
AcDbLine
 10
20.17749999999999
 20
49.0
 30
0.0
 11
20.47719999999999
 21
49.0
 31
0.0
  0
LINE
  5
4D
330
1E
100
AcDbEntity
  8
0
100
AcDbLine
 10
20.47719999999999
 20
49.0
 30
0.0
 11
21.27639999999999
 21
49.0
 31
0.0
  0
LINE
  5
4E
330
1E
100
AcDbEntity
  8
0
100
AcDbLine
 10
21.27639999999999
 20
49.0
 30
0.0
 11
22.4752
 21
49.0
 31
0.0
  0
LINE
  5
4F
330
1E
100
AcDbEntity
  8
0
100
AcDbLine
 10
19.8779
 20
49.0
 30
0.0
 11
20.67699999999999
 21
49.0
 31
0.0
  0
LINE
  5
50
330
1E
100
AcDbEntity
  8
0
100
AcDbLine
 10
20.67699999999999
 20
49.0
 30
0.0
 11
22.0756
 21
49.0
 31
0.0
  0
LINE
  5
51
330
1E
100
AcDbEntity
  8
0
100
AcDbLine
 10
20.67699999999999
 20
49.0
 30
0.0
 11
22.0756
 21
49.0
 31
0.0
  0
LINE
  5
52
330
1E
100
AcDbEntity
  8
0
100
AcDbLine
 10
22.4752
 20
49.0
 30
0.0
 11
24.1735
 21
49.0
 31
0.0
  0
LINE
  5
53
330
1E
100
AcDbEntity
  8
0
100
AcDbLine
 10
24.1735
 20
49.0
 30
0.0
 11
26.0716
 21
49.0
 31
0.0
  0
LINE
  5
54
330
1E
100
AcDbEntity
  8
0
100
AcDbLine
 10
22.0756
 20
49.0
 30
0.0
 11
23.87379999999999
 21
49.0
 31
0.0
  0
LINE
  5
55
330
1E
100
AcDbEntity
  8
0
100
AcDbLine
 10
23.87379999999999
 20
49.0
 30
0.0
 11
25.8718
 21
49.0
 31
0.0
  0
LINE
  5
56
330
1E
100
AcDbEntity
  8
0
100
AcDbLine
 10
31.96559999999999
 20
49.0
 30
0.0
 11
33.66389999999999
 21
49.0
 31
0.0
  0
LINE
  5
57
330
1E
100
AcDbEntity
  8
0
100
AcDbLine
 10
30.0675
 20
49.0
 30
0.0
 11
31.96559999999999
 21
49.0
 31
0.0
  0
LINE
  5
58
330
1E
100
AcDbEntity
  8
0
100
AcDbLine
 10
33.66389999999999
 20
49.0
 30
0.0
 11
34.86269999999999
 21
49.0
 31
0.0
  0
LINE
  5
59
330
1E
100
AcDbEntity
  8
0
100
AcDbLine
 10
34.06349999999999
 20
49.0
 30
0.0
 11
35.4621
 21
49.0
 31
0.0
  0
LINE
  5
5A
330
1E
100
AcDbEntity
  8
0
100
AcDbLine
 10
32.2653
 20
49.0
 30
0.0
 11
34.06349999999999
 21
49.0
 31
0.0
  0
LINE
  5
5B
330
1E
100
AcDbEntity
  8
0
100
AcDbLine
 10
30.2673
 20
49.0
 30
0.0
 11
32.2653
 21
49.0
 31
0.0
  0
LINE
  5
5C
330
1E
100
AcDbEntity
  8
0
100
AcDbLine
 10
28.0696
 20
49.0
 30
0.0
 11
30.2673
 21
49.0
 31
0.0
  0
LINE
  5
5D
330
1E
100
AcDbEntity
  8
0
100
AcDbLine
 10
28.0696
 20
49.0
 30
0.0
 11
30.0675
 21
49.0
 31
0.0
  0
LINE
  5
5E
330
1E
100
AcDbEntity
  8
0
100
AcDbLine
 10
34.86269999999999
 20
49.0
 30
0.0
 11
35.6619
 21
49.0
 31
0.0
  0
LINE
  5
5F
330
1E
100
AcDbEntity
  8
0
100
AcDbLine
 10
35.6619
 20
49.0
 30
0.0
 11
35.96159999999999
 21
49.0
 31
0.0
  0
LINE
  5
60
330
1E
100
AcDbEntity
  8
0
100
AcDbLine
 10
36.26129999999999
 20
49.0
 30
0.0
 11
36.561
 21
49.0
 31
0.0
  0
LINE
  5
61
330
1E
100
AcDbEntity
  8
0
100
AcDbLine
 10
35.4621
 20
49.0
 30
0.0
 11
36.26129999999999
 21
49.0
 31
0.0
  0
LINE
  5
62
330
1E
100
AcDbEntity
  8
0
100
AcDbLine
 10
26.0716
 20
49.0
 30
0.0
 11
28.0696
 21
49.0
 31
0.0
  0
LINE
  5
63
330
1E
100
AcDbEntity
  8
0
100
AcDbLine
 10
25.8718
 20
49.0
 30
0.0
 11
28.0696
 21
49.0
 31
0.0
  0
LINE
  5
64
330
1E
100
AcDbEntity
  8
0
100
AcDbLine
 10
49.5
 20
40.3419
 30
0.0
 11
50.97319999999999
 21
40.0
 31
0.0
  0
LINE
  5
65
330
1E
100
AcDbEntity
  8
0
100
AcDbLine
 10
49.5
 20
40.3419
 30
0.0
 11
49.5
 21
48.0
 31
0.0
  0
LINE
  5
66
330
1E
100
AcDbEntity
  8
0
100
AcDbLine
 10
49.5
 20
40.3419
 30
0.0
 11
50.4821
 21
40.3419
 31
0.0
  0
LINE
  5
67
330
1E
100
AcDbEntity
  8
0
100
AcDbLine
 10
49.5
 20
48.0
 30
0.0
 11
49.5
 21
40.3419
 31
0.0
  0
LINE
  5
68
330
1E
100
AcDbEntity
  8
0
100
AcDbLine
 10
49.5
 20
48.0
 30
0.0
 11
50.4821
 21
48.0
 31
0.0
  0
LINE
  5
69
330
1E
100
AcDbEntity
  8
0
100
AcDbLine
 10
49.5
 20
39.6
 30
0.0
 11
49.5
 21
10.66769999999999
 31
0.0
  0
LINE
  5
6A
330
1E
100
AcDbEntity
  8
0
100
AcDbLine
 10
49.5
 20
39.6
 30
0.0
 11
50.97319999999999
 21
40.0
 31
0.0
  0
LINE
  5
6B
330
1E
100
AcDbEntity
  8
0
100
AcDbLine
 10
49.5
 20
39.6
 30
0.0
 11
50.4821
 21
39.6
 31
0.0
  0
LINE
  5
6C
330
1E
100
AcDbEntity
  8
0
100
AcDbLine
 10
49.5
 20
1.199999999999999
 30
0.0
 11
49.7946
 21
0.6399999999999979
 31
0.0
  0
LINE
  5
6D
330
1E
100
AcDbEntity
  8
0
100
AcDbLine
 10
49.5
 20
1.199999999999999
 30
0.0
 11
49.5
 21
10.66769999999999
 31
0.0
  0
LINE
  5
6E
330
1E
100
AcDbEntity
  8
0
100
AcDbLine
 10
49.7946
 20
0.6399999999999979
 30
0.0
 11
50.2857
 21
0.239999999999998
 31
0.0
  0
LINE
  5
6F
330
1E
100
AcDbEntity
  8
0
100
AcDbLine
 10
76.0
 20
5.767669999999999
 30
0.0
 11
77.0
 21
5.667669999999999
 31
0.0
  0
LINE
  5
70
330
1E
100
AcDbEntity
  8
0
100
AcDbLine
 10
77.0
 20
5.667669999999999
 30
0.0
 11
78.0
 21
5.767669999999999
 31
0.0
  0
LINE
  5
71
330
1E
100
AcDbEntity
  8
0
100
AcDbLine
 10
75.2
 20
6.367669999999999
 30
0.0
 11
76.0
 21
5.767669999999999
 31
0.0
  0
LINE
  5
72
330
1E
100
AcDbEntity
  8
0
100
AcDbLine
 10
74.59999999999999
 20
7.167669999999999
 30
0.0
 11
75.2
 21
6.367669999999999
 31
0.0
  0
LINE
  5
73
330
1E
100
AcDbEntity
  8
0
100
AcDbLine
 10
78.0
 20
5.767669999999999
 30
0.0
 11
78.79999999999999
 21
6.367669999999999
 31
0.0
  0
LINE
  5
74
330
1E
100
AcDbEntity
  8
0
100
AcDbLine
 10
78.79999999999999
 20
6.367669999999999
 30
0.0
 11
79.40000000000001
 21
7.167669999999999
 31
0.0
  0
LINE
  5
75
330
1E
100
AcDbEntity
  8
0
100
AcDbLine
 10
75.2
 20
9.96767
 30
0.0
 11
76.0
 21
10.56769999999999
 31
0.0
  0
LINE
  5
76
330
1E
100
AcDbEntity
  8
0
100
AcDbLine
 10
74.59999999999999
 20
9.167669999999999
 30
0.0
 11
75.2
 21
9.96767
 31
0.0
  0
LINE
  5
77
330
1E
100
AcDbEntity
  8
0
100
AcDbLine
 10
74.5
 20
8.167669999999999
 30
0.0
 11
74.59999999999999
 21
7.167669999999999
 31
0.0
  0
LINE
  5
78
330
1E
100
AcDbEntity
  8
0
100
AcDbLine
 10
74.5
 20
8.167669999999999
 30
0.0
 11
74.59999999999999
 21
9.167669999999999
 31
0.0
  0
LINE
  5
79
330
1E
100
AcDbEntity
  8
0
100
AcDbLine
 10
76.0
 20
10.56769999999999
 30
0.0
 11
77.0
 21
10.66769999999999
 31
0.0
  0
LINE
  5
7A
330
1E
100
AcDbEntity
  8
0
100
AcDbLine
 10
77.0
 20
10.66769999999999
 30
0.0
 11
78.0
 21
10.56769999999999
 31
0.0
  0
LINE
  5
7B
330
1E
100
AcDbEntity
  8
0
100
AcDbLine
 10
78.0
 20
10.56769999999999
 30
0.0
 11
78.79999999999999
 21
9.96767
 31
0.0
  0
LINE
  5
7C
330
1E
100
AcDbEntity
  8
0
100
AcDbLine
 10
78.79999999999999
 20
9.96767
 30
0.0
 11
79.40000000000001
 21
9.167669999999999
 31
0.0
  0
LINE
  5
7D
330
1E
100
AcDbEntity
  8
0
100
AcDbLine
 10
79.40000000000001
 20
9.167669999999999
 30
0.0
 11
79.5
 21
8.167669999999999
 31
0.0
  0
LINE
  5
7E
330
1E
100
AcDbEntity
  8
0
100
AcDbLine
 10
79.40000000000001
 20
7.167669999999999
 30
0.0
 11
79.5
 21
8.167669999999999
 31
0.0
  0
LINE
  5
7F
330
1E
100
AcDbEntity
  8
0
100
AcDbLine
 10
104.4999999999999
 20
5.667669999999999
 30
0.0
 11
110.0029999999999
 21
5.667669999999999
 31
0.0
  0
LINE
  5
80
330
1E
100
AcDbEntity
  8
0
100
AcDbLine
 10
104.4999999999999
 20
10.66769999999999
 30
0.0
 11
104.4999999999999
 21
1.199999999999999
 31
0.0
  0
LINE
  5
81
330
1E
100
AcDbEntity
  8
0
100
AcDbLine
 10
104.4999999999999
 20
10.66769999999999
 30
0.0
 11
104.4999999999999
 21
39.6
 31
0.0
  0
LINE
  5
82
330
1E
100
AcDbEntity
  8
0
100
AcDbLine
 10
104.4999999999999
 20
10.66769999999999
 30
0.0
 11
110.0029999999999
 21
10.66769999999999
 31
0.0
  0
LINE
  5
83
330
1E
100
AcDbEntity
  8
0
100
AcDbLine
 10
110.0029999999999
 20
5.667669999999999
 30
0.0
 11
110.0029999999999
 21
5.767669999999999
 31
0.0
  0
LINE
  5
84
330
1E
100
AcDbEntity
  8
0
100
AcDbLine
 10
110.0029999999999
 20
5.767669999999999
 30
0.0
 11
110.0029999999999
 21
6.367669999999999
 31
0.0
  0
LINE
  5
85
330
1E
100
AcDbEntity
  8
0
100
AcDbLine
 10
110.0029999999999
 20
5.767669999999999
 30
0.0
 11
110.0029999999999
 21
5.667669999999999
 31
0.0
  0
LINE
  5
86
330
1E
100
AcDbEntity
  8
0
100
AcDbLine
 10
110.0029999999999
 20
6.367669999999999
 30
0.0
 11
110.0029999999999
 21
7.167669999999999
 31
0.0
  0
LINE
  5
87
330
1E
100
AcDbEntity
  8
0
100
AcDbLine
 10
110.0029999999999
 20
6.367669999999999
 30
0.0
 11
110.0029999999999
 21
5.767669999999999
 31
0.0
  0
LINE
  5
88
330
1E
100
AcDbEntity
  8
0
100
AcDbLine
 10
110.0029999999999
 20
10.66769999999999
 30
0.0
 11
110.0029999999999
 21
10.56769999999999
 31
0.0
  0
LINE
  5
89
330
1E
100
AcDbEntity
  8
0
100
AcDbLine
 10
110.0029999999999
 20
10.56769999999999
 30
0.0
 11
110.0029999999999
 21
10.66769999999999
 31
0.0
  0
LINE
  5
8A
330
1E
100
AcDbEntity
  8
0
100
AcDbLine
 10
110.0029999999999
 20
10.56769999999999
 30
0.0
 11
110.0029999999999
 21
9.96767
 31
0.0
  0
LINE
  5
8B
330
1E
100
AcDbEntity
  8
0
100
AcDbLine
 10
110.0029999999999
 20
9.96767
 30
0.0
 11
110.0029999999999
 21
10.56769999999999
 31
0.0
  0
LINE
  5
8C
330
1E
100
AcDbEntity
  8
0
100
AcDbLine
 10
110.0029999999999
 20
9.96767
 30
0.0
 11
110.0029999999999
 21
9.167669999999999
 31
0.0
  0
LINE
  5
8D
330
1E
100
AcDbEntity
  8
0
100
AcDbLine
 10
110.0029999999999
 20
9.167669999999999
 30
0.0
 11
110.0029999999999
 21
9.96767
 31
0.0
  0
LINE
  5
8E
330
1E
100
AcDbEntity
  8
0
100
AcDbLine
 10
110.0029999999999
 20
9.167669999999999
 30
0.0
 11
110.0029999999999
 21
8.167669999999999
 31
0.0
  0
LINE
  5
8F
330
1E
100
AcDbEntity
  8
0
100
AcDbLine
 10
110.0029999999999
 20
8.167669999999999
 30
0.0
 11
110.0029999999999
 21
7.167669999999999
 31
0.0
  0
LINE
  5
90
330
1E
100
AcDbEntity
  8
0
100
AcDbLine
 10
110.0029999999999
 20
8.167669999999999
 30
0.0
 11
110.0029999999999
 21
9.167669999999999
 31
0.0
  0
LINE
  5
91
330
1E
100
AcDbEntity
  8
0
100
AcDbLine
 10
110.0029999999999
 20
7.167669999999999
 30
0.0
 11
110.0029999999999
 21
8.167669999999999
 31
0.0
  0
LINE
  5
92
330
1E
100
AcDbEntity
  8
0
100
AcDbLine
 10
110.0029999999999
 20
7.167669999999999
 30
0.0
 11
110.0029999999999
 21
6.367669999999999
 31
0.0
  0
LINE
  5
93
330
1E
100
AcDbEntity
  8
0
100
AcDbLine
 10
104.4999999999999
 20
1.199999999999999
 30
0.0
 11
104.4999999999999
 21
10.66769999999999
 31
0.0
  0
LINE
  5
94
330
1E
100
AcDbEntity
  8
0
100
AcDbLine
 10
104.2049999999999
 20
0.6399999999999979
 30
0.0
 11
104.4999999999999
 21
1.199999999999999
 31
0.0
  0
LINE
  5
95
330
1E
100
AcDbEntity
  8
0
100
AcDbLine
 10
103.7139999999999
 20
0.239999999999998
 30
0.0
 11
104.2049999999999
 21
0.6399999999999979
 31
0.0
  0
LINE
  5
96
330
1E
100
AcDbEntity
  8
0
100
AcDbLine
 10
69.9286
 20
39.6
 30
0.0
 11
77.0
 21
39.6
 31
0.0
  0
LINE
  5
98
330
1E
100
AcDbEntity
  8
0
100
AcDbLine
 10
63.3482
 20
39.6
 30
0.0
 11
69.9286
 21
39.6
 31
0.0
  0
LINE
  5
9A
330
1E
100
AcDbEntity
  8
0
100
AcDbLine
 10
57.5536
 20
39.6
 30
0.0
 11
63.3482
 21
39.6
 31
0.0
  0
LINE
  5
9C
330
1E
100
AcDbEntity
  8
0
100
AcDbLine
 10
53.2321
 20
39.6
 30
0.0
 11
57.5536
 21
39.6
 31
0.0
  0
LINE
  5
9E
330
1E
100
AcDbEntity
  8
0
100
AcDbLine
 10
50.4821
 20
39.6
 30
0.0
 11
53.2321
 21
39.6
 31
0.0
  0
LINE
  5
A0
330
1E
100
AcDbEntity
  8
0
100
AcDbLine
 10
77.0
 20
39.6
 30
0.0
 11
84.0714
 21
39.6
 31
0.0
  0
LINE
  5
A2
330
1E
100
AcDbEntity
  8
0
100
AcDbLine
 10
90.65179999999999
 20
39.6
 30
0.0
 11
96.4464
 21
39.6
 31
0.0
  0
LINE
  5
A3
330
1E
100
AcDbEntity
  8
0
100
AcDbLine
 10
96.4464
 20
39.6
 30
0.0
 11
100.7679999999999
 21
39.6
 31
0.0
  0
LINE
  5
A4
330
1E
100
AcDbEntity
  8
0
100
AcDbLine
 10
100.7679999999999
 20
39.6
 30
0.0
 11
103.5179999999999
 21
39.6
 31
0.0
  0
LINE
  5
A5
330
1E
100
AcDbEntity
  8
0
100
AcDbLine
 10
84.0714
 20
39.6
 30
0.0
 11
90.65179999999999
 21
39.6
 31
0.0
  0
LINE
  5
A6
330
1E
100
AcDbEntity
  8
0
100
AcDbLine
 10
70.2232
 20
40.0
 30
0.0
 11
77.0
 21
40.0
 31
0.0
  0
LINE
  5
A7
330
1E
100
AcDbEntity
  8
0
100
AcDbLine
 10
64.03570000000001
 20
40.0
 30
0.0
 11
70.2232
 21
40.0
 31
0.0
  0
LINE
  5
A8
330
1E
100
AcDbEntity
  8
0
100
AcDbLine
 10
58.5357
 20
40.0
 30
0.0
 11
64.03570000000001
 21
40.0
 31
0.0
  0
LINE
  5
A9
330
1E
100
AcDbEntity
  8
0
100
AcDbLine
 10
54.41069999999999
 20
40.0
 30
0.0
 11
58.5357
 21
40.0
 31
0.0
  0
LINE
  5
AA
330
1E
100
AcDbEntity
  8
0
100
AcDbLine
 10
51.8571
 20
40.0
 30
0.0
 11
54.41069999999999
 21
40.0
 31
0.0
  0
LINE
  5
AB
330
1E
100
AcDbEntity
  8
0
100
AcDbLine
 10
50.97319999999999
 20
40.0
 30
0.0
 11
51.8571
 21
40.0
 31
0.0
  0
LINE
  5
AC
330
1E
100
AcDbEntity
  8
0
100
AcDbLine
 10
77.0
 20
40.0
 30
0.0
 11
83.77679999999999
 21
40.0
 31
0.0
  0
LINE
  5
AF
330
1E
100
AcDbEntity
  8
0
100
AcDbLine
 10
83.77679999999999
 20
40.0
 30
0.0
 11
89.9643
 21
40.0
 31
0.0
  0
LINE
  5
B1
330
1E
100
AcDbEntity
  8
0
100
AcDbLine
 10
89.9643
 20
40.0
 30
0.0
 11
95.46429999999999
 21
40.0
 31
0.0
  0
LINE
  5
B3
330
1E
100
AcDbEntity
  8
0
100
AcDbLine
 10
95.46429999999999
 20
40.0
 30
0.0
 11
99.5893
 21
40.0
 31
0.0
  0
LINE
  5
B4
330
1E
100
AcDbEntity
  8
0
100
AcDbLine
 10
50.4821
 20
48.0
 30
0.0
 11
53.2321
 21
48.0
 31
0.0
  0
LINE
  5
B5
330
1E
100
AcDbEntity
  8
0
100
AcDbLine
 10
77.0
 20
40.3419
 30
0.0
 11
84.0714
 21
40.3419
 31
0.0
  0
LINE
  5
B6
330
1E
100
AcDbEntity
  8
0
100
AcDbLine
 10
84.0714
 20
40.3419
 30
0.0
 11
90.65179999999999
 21
40.3419
 31
0.0
  0
LINE
  5
B7
330
1E
100
AcDbEntity
  8
0
100
AcDbLine
 10
90.65179999999999
 20
40.3419
 30
0.0
 11
96.4464
 21
40.3419
 31
0.0
  0
LINE
  5
B8
330
1E
100
AcDbEntity
  8
0
100
AcDbLine
 10
96.4464
 20
40.3419
 30
0.0
 11
100.7679999999999
 21
40.3419
 31
0.0
  0
LINE
  5
B9
330
1E
100
AcDbEntity
  8
0
100
AcDbLine
 10
100.7679999999999
 20
40.3419
 30
0.0
 11
103.5179999999999
 21
40.3419
 31
0.0
  0
LINE
  5
BA
330
1E
100
AcDbEntity
  8
0
100
AcDbLine
 10
69.9286
 20
40.3419
 30
0.0
 11
77.0
 21
40.3419
 31
0.0
  0
LINE
  5
BB
330
1E
100
AcDbEntity
  8
0
100
AcDbLine
 10
63.3482
 20
40.3419
 30
0.0
 11
69.9286
 21
40.3419
 31
0.0
  0
LINE
  5
BC
330
1E
100
AcDbEntity
  8
0
100
AcDbLine
 10
57.5536
 20
40.3419
 30
0.0
 11
63.3482
 21
40.3419
 31
0.0
  0
LINE
  5
BD
330
1E
100
AcDbEntity
  8
0
100
AcDbLine
 10
51.5
 20
48.0
 30
0.0
 11
51.5
 21
49.0
 31
0.0
  0
LINE
  5
BE
330
1E
100
AcDbEntity
  8
0
100
AcDbLine
 10
77.0
 20
48.0
 30
0.0
 11
84.0714
 21
48.0
 31
0.0
  0
LINE
  5
BF
330
1E
100
AcDbEntity
  8
0
100
AcDbLine
 10
84.0714
 20
48.0
 30
0.0
 11
90.65179999999999
 21
48.0
 31
0.0
  0
LINE
  5
C0
330
1E
100
AcDbEntity
  8
0
100
AcDbLine
 10
90.65179999999999
 20
48.0
 30
0.0
 11
96.4464
 21
48.0
 31
0.0
  0
LINE
  5
C1
330
1E
100
AcDbEntity
  8
0
100
AcDbLine
 10
96.4464
 20
48.0
 30
0.0
 11
100.7679999999999
 21
48.0
 31
0.0
  0
LINE
  5
C2
330
1E
100
AcDbEntity
  8
0
100
AcDbLine
 10
100.7679999999999
 20
48.0
 30
0.0
 11
103.5179999999999
 21
48.0
 31
0.0
  0
LINE
  5
C3
330
1E
100
AcDbEntity
  8
0
100
AcDbLine
 10
69.9286
 20
48.0
 30
0.0
 11
77.0
 21
48.0
 31
0.0
  0
LINE
  5
C4
330
1E
100
AcDbEntity
  8
0
100
AcDbLine
 10
63.3482
 20
48.0
 30
0.0
 11
69.9286
 21
48.0
 31
0.0
  0
LINE
  5
C5
330
1E
100
AcDbEntity
  8
0
100
AcDbLine
 10
57.5536
 20
48.0
 30
0.0
 11
63.3482
 21
48.0
 31
0.0
  0
LINE
  5
C6
330
1E
100
AcDbEntity
  8
0
100
AcDbLine
 10
53.2321
 20
48.0
 30
0.0
 11
57.5536
 21
48.0
 31
0.0
  0
LINE
  5
C7
330
1E
100
AcDbEntity
  8
0
100
AcDbLine
 10
53.2321
 20
40.3419
 30
0.0
 11
57.5536
 21
40.3419
 31
0.0
  0
LINE
  5
C8
330
1E
100
AcDbEntity
  8
0
100
AcDbLine
 10
50.4821
 20
40.3419
 30
0.0
 11
53.2321
 21
40.3419
 31
0.0
  0
LINE
  5
CA
330
1E
100
AcDbEntity
  8
0
100
AcDbLine
 10
99.5893
 20
40.0
 30
0.0
 11
102.1429999999999
 21
40.0
 31
0.0
  0
LINE
  5
CB
330
1E
100
AcDbEntity
  8
0
100
AcDbLine
 10
102.4999999999999
 20
49.0
 30
0.0
 11
150.0
 21
49.0
 31
0.0
  0
LINE
  5
CC
330
1E
100
AcDbEntity
  8
0
100
AcDbLine
 10
102.4999999999999
 20
48.0
 30
0.0
 11
102.4999999999999
 21
49.0
 31
0.0
  0
LINE
  5
CE
330
1E
100
AcDbEntity
  8
0
100
AcDbLine
 10
102.1429999999999
 20
40.0
 30
0.0
 11
103.027
 21
40.0
 31
0.0
  0
LINE
  5
CF
330
1E
100
AcDbEntity
  8
0
100
AcDbLine
 10
103.5179999999999
 20
39.6
 30
0.0
 11
104.4999999999999
 21
39.6
 31
0.0
  0
LINE
  5
D0
330
1E
100
AcDbEntity
  8
0
100
AcDbLine
 10
103.5179999999999
 20
48.0
 30
0.0
 11
104.4999999999999
 21
48.0
 31
0.0
  0
LINE
  5
D1
330
1E
100
AcDbEntity
  8
0
100
AcDbLine
 10
104.4999999999999
 20
48.0
 30
0.0
 11
104.4999999999999
 21
40.3419
 31
0.0
  0
LINE
  5
D2
330
1E
100
AcDbEntity
  8
0
100
AcDbLine
 10
103.5179999999999
 20
40.3419
 30
0.0
 11
104.4999999999999
 21
40.3419
 31
0.0
  0
LINE
  5
D3
330
1E
100
AcDbEntity
  8
0
100
AcDbLine
 10
117.439
 20
49.0
 30
0.0
 11
117.7389999999999
 21
49.0
 31
0.0
  0
LINE
  5
D4
330
1E
100
AcDbEntity
  8
0
100
AcDbLine
 10
119.137
 20
49.0
 30
0.0
 11
120.3359999999999
 21
49.0
 31
0.0
  0
LINE
  5
D5
330
1E
100
AcDbEntity
  8
0
100
AcDbLine
 10
120.3359999999999
 20
49.0
 30
0.0
 11
122.0339999999999
 21
49.0
 31
0.0
  0
LINE
  5
D6
330
1E
100
AcDbEntity
  8
0
100
AcDbLine
 10
119.937
 20
49.0
 30
0.0
 11
121.7349999999999
 21
49.0
 31
0.0
  0
LINE
  5
D7
330
1E
100
AcDbEntity
  8
0
100
AcDbLine
 10
122.0339999999999
 20
49.0
 30
0.0
 11
123.9319999999999
 21
49.0
 31
0.0
  0
LINE
  5
D8
330
1E
100
AcDbEntity
  8
0
100
AcDbLine
 10
123.9319999999999
 20
49.0
 30
0.0
 11
125.93
 21
49.0
 31
0.0
  0
LINE
  5
D9
330
1E
100
AcDbEntity
  8
0
100
AcDbLine
 10
121.7349999999999
 20
49.0
 30
0.0
 11
123.7329999999999
 21
49.0
 31
0.0
  0
LINE
  5
DA
330
1E
100
AcDbEntity
  8
0
100
AcDbLine
 10
123.7329999999999
 20
49.0
 30
0.0
 11
125.93
 21
49.0
 31
0.0
  0
LINE
  5
DB
330
1E
100
AcDbEntity
  8
0
100
AcDbLine
 10
118.0379999999999
 20
49.0
 30
0.0
 11
118.3379999999999
 21
49.0
 31
0.0
  0
LINE
  5
DC
330
1E
100
AcDbEntity
  8
0
100
AcDbLine
 10
118.3379999999999
 20
49.0
 30
0.0
 11
119.137
 21
49.0
 31
0.0
  0
LINE
  5
DD
330
1E
100
AcDbEntity
  8
0
100
AcDbLine
 10
117.7389999999999
 20
49.0
 30
0.0
 11
118.538
 21
49.0
 31
0.0
  0
LINE
  5
DE
330
1E
100
AcDbEntity
  8
0
100
AcDbLine
 10
118.538
 20
49.0
 30
0.0
 11
119.936
 21
49.0
 31
0.0
  0
LINE
  5
DF
330
1E
100
AcDbEntity
  8
0
100
AcDbLine
 10
118.538
 20
49.0
 30
0.0
 11
119.937
 21
49.0
 31
0.0
  0
LINE
  5
E0
330
1E
100
AcDbEntity
  8
0
100
AcDbLine
 10
129.8259999999999
 20
49.0
 30
0.0
 11
131.525
 21
49.0
 31
0.0
  0
LINE
  5
E1
330
1E
100
AcDbEntity
  8
0
100
AcDbLine
 10
127.9279999999999
 20
49.0
 30
0.0
 11
129.8259999999999
 21
49.0
 31
0.0
  0
LINE
  5
E2
330
1E
100
AcDbEntity
  8
0
100
AcDbLine
 10
132.7239999999999
 20
49.0
 30
0.0
 11
133.5229999999999
 21
49.0
 31
0.0
  0
LINE
  5
E3
330
1E
100
AcDbEntity
  8
0
100
AcDbLine
 10
131.525
 20
49.0
 30
0.0
 11
132.7239999999999
 21
49.0
 31
0.0
  0
LINE
  5
E4
330
1E
100
AcDbEntity
  8
0
100
AcDbLine
 10
133.5229999999999
 20
49.0
 30
0.0
 11
133.8219999999999
 21
49.0
 31
0.0
  0
LINE
  5
E5
330
1E
100
AcDbEntity
  8
0
100
AcDbLine
 10
134.122
 20
49.0
 30
0.0
 11
134.4219999999999
 21
49.0
 31
0.0
  0
LINE
  5
E6
330
1E
100
AcDbEntity
  8
0
100
AcDbLine
 10
133.3229999999999
 20
49.0
 30
0.0
 11
134.122
 21
49.0
 31
0.0
  0
LINE
  5
E7
330
1E
100
AcDbEntity
  8
0
100
AcDbLine
 10
131.924
 20
49.0
 30
0.0
 11
133.3229999999999
 21
49.0
 31
0.0
  0
LINE
  5
E8
330
1E
100
AcDbEntity
  8
0
100
AcDbLine
 10
130.126
 20
49.0
 30
0.0
 11
131.924
 21
49.0
 31
0.0
  0
LINE
  5
E9
330
1E
100
AcDbEntity
  8
0
100
AcDbLine
 10
128.1279999999999
 20
49.0
 30
0.0
 11
130.126
 21
49.0
 31
0.0
  0
LINE
  5
EA
330
1E
100
AcDbEntity
  8
0
100
AcDbLine
 10
125.93
 20
49.0
 30
0.0
 11
128.1279999999999
 21
49.0
 31
0.0
  0
LINE
  5
EB
330
1E
100
AcDbEntity
  8
0
100
AcDbLine
 10
125.93
 20
49.0
 30
0.0
 11
127.9279999999999
 21
49.0
 31
0.0
  0
LINE
  5
EC
330
1E
100
AcDbEntity
  8
0
100
AcDbLine
 10
150.0
 20
49.0
 30
0.0
 11
151.4
 21
49.0
 31
0.0
  0
LINE
  5
ED
330
1E
100
AcDbEntity
  8
0
100
AcDbLine
 10
151.4
 20
49.0
 30
0.0
 11
152.5
 21
49.0
 31
0.0
  0
LINE
  5
EE
330
1E
100
AcDbEntity
  8
0
100
AcDbLine
 10
152.5
 20
49.0
 30
0.0
 11
153.0
 21
49.0
 31
0.0
  0
LINE
  5
EF
330
1E
100
AcDbEntity
  8
0
100
AcDbLine
 10
104.4999999999999
 20
40.3419
 30
0.0
 11
104.4999999999999
 21
48.0
 31
0.0
  0
LINE
  5
F0
330
1E
100
AcDbEntity
  8
0
100
AcDbLine
 10
104.4999999999999
 20
39.6
 30
0.0
 11
104.4999999999999
 21
10.66769999999999
 31
0.0
  0
LINE
  5
F1
330
1E
100
AcDbEntity
  8
0
100
AcDbLine
 10
103.027
 20
40.0
 30
0.0
 11
104.4999999999999
 21
39.6
 31
0.0
  0
LINE
  5
F2
330
1E
100
AcDbEntity
  8
0
100
AcDbLine
 10
103.027
 20
40.0
 30
0.0
 11
104.4999999999999
 21
40.3419
 31
0.0
  0
LINE
  5
F4
330
1E
100
AcDbEntity
  8
0
100
AcDbLine
 10
50.2857
 20
0.239999999999998
 30
0.0
 11
50.97319999999999
 21
-0.0000000000000018
 31
0.0
  0
LINE
  5
F5
330
1E
100
AcDbEntity
  8
0
100
AcDbLine
 10
50.2857
 20
0.239999999999998
 30
0.0
 11
50.97319999999999
 21
-0.0000000000000018
 31
0.0
  0
LINE
  5
F6
330
1E
100
AcDbEntity
  8
0
100
AcDbLine
 10
50.97319999999999
 20
-0.0000000000000018
 30
0.0
 11
51.8571
 21
-0.0000000000000023
 31
0.0
  0
LINE
  5
F7
330
1E
100
AcDbEntity
  8
0
100
AcDbLine
 10
4.0
 20
49.0
 30
0.0
 11
51.5
 21
49.0
 31
0.0
  0
LINE
  5
F8
330
1E
100
AcDbEntity
  8
0
100
AcDbLine
 10
2.6
 20
49.0
 30
0.0
 11
4.0
 21
49.0
 31
0.0
  0
LINE
  5
F9
330
1E
100
AcDbEntity
  8
0
100
AcDbLine
 10
1.5
 20
49.0
 30
0.0
 11
2.6
 21
49.0
 31
0.0
  0
LINE
  5
FA
330
1E
100
AcDbEntity
  8
0
100
AcDbLine
 10
1.5
 20
49.0
 30
0.0
 11
2.6
 21
49.0
 31
0.0
  0
LINE
  5
FC
330
1E
100
AcDbEntity
  8
0
100
AcDbLine
 10
1.0
 20
49.0
 30
0.0
 11
1.5
 21
49.0
 31
0.0
  0
LINE
  5
FE
330
1E
100
AcDbEntity
  8
0
100
AcDbLine
 10
0.5
 20
59.0
 30
0.0
 11
1.6
 21
59.0
 31
0.0
  0
LINE
  5
100
330
1E
100
AcDbEntity
  8
0
100
AcDbLine
 10
4.0
 20
49.0
 30
0.0
 11
77.0
 21
49.0
 31
0.0
  0
LINE
  5
101
330
1E
100
AcDbEntity
  8
0
100
AcDbLine
 10
2.6
 20
49.0
 30
0.0
 11
4.0
 21
49.0
 31
0.0
  0
LINE
  5
102
330
1E
100
AcDbEntity
  8
0
100
AcDbLine
 10
4.0
 20
49.0
 30
0.0
 11
77.0
 21
49.0
 31
0.0
  0
LINE
  5
103
330
1E
100
AcDbEntity
  8
0
100
AcDbLine
 10
22.4752
 20
49.0
 30
0.0
 11
24.1735
 21
49.0
 31
0.0
  0
LINE
  5
104
330
1E
100
AcDbEntity
  8
0
100
AcDbLine
 10
24.1735
 20
49.0
 30
0.0
 11
26.0716
 21
49.0
 31
0.0
  0
LINE
  5
105
330
1E
100
AcDbEntity
  8
0
100
AcDbLine
 10
22.0756
 20
49.0
 30
0.0
 11
23.87379999999999
 21
49.0
 31
0.0
  0
LINE
  5
106
330
1E
100
AcDbEntity
  8
0
100
AcDbLine
 10
23.87379999999999
 20
49.0
 30
0.0
 11
25.8718
 21
49.0
 31
0.0
  0
LINE
  5
107
330
1E
100
AcDbEntity
  8
0
100
AcDbLine
 10
31.96569999999999
 20
49.0
 30
0.0
 11
33.66389999999999
 21
49.0
 31
0.0
  0
LINE
  5
108
330
1E
100
AcDbEntity
  8
0
100
AcDbLine
 10
30.06759999999999
 20
49.0
 30
0.0
 11
31.96569999999999
 21
49.0
 31
0.0
  0
LINE
  5
109
330
1E
100
AcDbEntity
  8
0
100
AcDbLine
 10
28.0696
 20
49.0
 30
0.0
 11
30.06759999999999
 21
49.0
 31
0.0
  0
LINE
  5
10A
330
1E
100
AcDbEntity
  8
0
100
AcDbLine
 10
34.06349999999999
 20
49.0
 30
0.0
 11
35.4621
 21
49.0
 31
0.0
  0
LINE
  5
10B
330
1E
100
AcDbEntity
  8
0
100
AcDbLine
 10
32.2653
 20
49.0
 30
0.0
 11
34.06349999999999
 21
49.0
 31
0.0
  0
LINE
  5
10C
330
1E
100
AcDbEntity
  8
0
100
AcDbLine
 10
30.2673
 20
49.0
 30
0.0
 11
32.2653
 21
49.0
 31
0.0
  0
LINE
  5
10D
330
1E
100
AcDbEntity
  8
0
100
AcDbLine
 10
28.0695
 20
49.0
 30
0.0
 11
30.2673
 21
49.0
 31
0.0
  0
LINE
  5
10E
330
1E
100
AcDbEntity
  8
0
100
AcDbLine
 10
26.0716
 20
49.0
 30
0.0
 11
28.0696
 21
49.0
 31
0.0
  0
LINE
  5
10F
330
1E
100
AcDbEntity
  8
0
100
AcDbLine
 10
25.8718
 20
49.0
 30
0.0
 11
28.0695
 21
49.0
 31
0.0
  0
LINE
  5
111
330
1E
100
AcDbEntity
  8
0
100
AcDbLine
 10
4.0
 20
59.0
 30
0.0
 11
77.0
 21
59.0
 31
0.0
  0
LINE
  5
113
330
1E
100
AcDbEntity
  8
0
100
AcDbLine
 10
4.0
 20
59.0
 30
0.0
 11
77.0
 21
59.0
 31
0.0
  0
LINE
  5
114
330
1E
100
AcDbEntity
  8
0
100
AcDbLine
 10
1.6
 20
59.0
 30
0.0
 11
4.0
 21
59.0
 31
0.0
  0
LINE
  5
115
330
1E
100
AcDbEntity
  8
0
100
AcDbLine
 10
0.5
 20
59.0
 30
0.0
 11
1.6
 21
59.0
 31
0.0
  0
LINE
  5
116
330
1E
100
AcDbEntity
  8
0
100
AcDbLine
 10
69.358
 20
49.0
 30
0.0
 11
70.22929999999999
 21
49.0
 31
0.0
  0
LINE
  5
117
330
1E
100
AcDbEntity
  8
0
100
AcDbLine
 10
69.16889999999999
 20
49.0
 30
0.0
 11
69.4259
 21
49.0
 31
0.0
  0
LINE
  5
118
330
1E
100
AcDbEntity
  8
0
100
AcDbLine
 10
69.16889999999999
 20
49.0
 30
0.0
 11
69.358
 21
49.0
 31
0.0
  0
LINE
  5
119
330
1E
100
AcDbEntity
  8
0
100
AcDbLine
 10
69.4259
 20
49.0
 30
0.0
 11
70.1653
 21
49.0
 31
0.0
  0
LINE
  5
11A
330
1E
100
AcDbEntity
  8
0
100
AcDbLine
 10
69.67010000000001
 20
49.0
 30
0.0
 11
71.0008
 21
49.0
 31
0.0
  0
LINE
  5
11B
330
1E
100
AcDbEntity
  8
0
100
AcDbLine
 10
68.8121
 20
49.0
 30
0.0
 11
69.67010000000001
 21
49.0
 31
0.0
  0
LINE
  5
11C
330
1E
100
AcDbEntity
  8
0
100
AcDbLine
 10
68.5
 20
49.0
 30
0.0
 11
68.8069
 21
49.0
 31
0.0
  0
LINE
  5
11D
330
1E
100
AcDbEntity
  8
0
100
AcDbLine
 10
68.5
 20
49.0
 30
0.0
 11
68.8121
 21
49.0
 31
0.0
  0
LINE
  5
11E
330
1E
100
AcDbEntity
  8
0
100
AcDbLine
 10
68.8069
 20
49.0
 30
0.0
 11
69.6462
 21
49.0
 31
0.0
  0
LINE
  5
11F
330
1E
100
AcDbEntity
  8
0
100
AcDbLine
 10
70.22929999999999
 20
49.0
 30
0.0
 11
71.4735
 21
49.0
 31
0.0
  0
LINE
  5
120
330
1E
100
AcDbEntity
  8
0
100
AcDbLine
 10
70.1653
 20
49.0
 30
0.0
 11
71.4238
 21
49.0
 31
0.0
  0
LINE
  5
121
330
1E
100
AcDbEntity
  8
0
100
AcDbLine
 10
69.6462
 20
49.0
 30
0.0
 11
71.00459999999999
 21
49.0
 31
0.0
  0
LINE
  5
122
330
1E
100
AcDbEntity
  8
0
100
AcDbLine
 10
71.4735
 20
49.0
 30
0.0
 11
73.054
 21
49.0
 31
0.0
  0
LINE
  5
123
330
1E
100
AcDbEntity
  8
0
100
AcDbLine
 10
71.0008
 20
49.0
 30
0.0
 11
72.7543
 21
49.0
 31
0.0
  0
LINE
  5
124
330
1E
100
AcDbEntity
  8
0
100
AcDbLine
 10
71.4238
 20
49.0
 30
0.0
 11
73.06499999999999
 21
49.0
 31
0.0
  0
LINE
  5
125
330
1E
100
AcDbEntity
  8
0
100
AcDbLine
 10
73.054
 20
49.0
 30
0.0
 11
74.9341
 21
49.0
 31
0.0
  0
LINE
  5
126
330
1E
100
AcDbEntity
  8
0
100
AcDbLine
 10
74.9341
 20
49.0
 30
0.0
 11
76.9775
 21
49.0
 31
0.0
  0
LINE
  5
127
330
1E
100
AcDbEntity
  8
0
100
AcDbLine
 10
72.7543
 20
49.0
 30
0.0
 11
74.8075
 21
49.0
 31
0.0
  0
LINE
  5
128
330
1E
100
AcDbEntity
  8
0
100
AcDbLine
 10
74.8075
 20
49.0
 30
0.0
 11
77.0
 21
49.0
 31
0.0
  0
LINE
  5
129
330
1E
100
AcDbEntity
  8
0
100
AcDbLine
 10
76.9775
 20
49.0
 30
0.0
 11
79.0477
 21
49.0
 31
0.0
  0
LINE
  5
12A
330
1E
100
AcDbEntity
  8
0
100
AcDbLine
 10
79.0477
 20
49.0
 30
0.0
 11
80.935
 21
49.0
 31
0.0
  0
LINE
  5
12B
330
1E
100
AcDbEntity
  8
0
100
AcDbLine
 10
79.0659
 20
49.0
 30
0.0
 11
80.94599999999999
 21
49.0
 31
0.0
  0
LINE
  5
12C
330
1E
100
AcDbEntity
  8
0
100
AcDbLine
 10
77.02249999999999
 20
49.0
 30
0.0
 11
79.0659
 21
49.0
 31
0.0
  0
LINE
  5
12D
330
1E
100
AcDbEntity
  8
0
100
AcDbLine
 10
74.95229999999999
 20
49.0
 30
0.0
 11
77.02249999999999
 21
49.0
 31
0.0
  0
LINE
  5
12E
330
1E
100
AcDbEntity
  8
0
100
AcDbLine
 10
73.06499999999999
 20
49.0
 30
0.0
 11
74.95229999999999
 21
49.0
 31
0.0
  0
LINE
  5
12F
330
1E
100
AcDbEntity
  8
0
100
AcDbLine
 10
80.935
 20
49.0
 30
0.0
 11
82.57620000000001
 21
49.0
 31
0.0
  0
LINE
  5
130
330
1E
100
AcDbEntity
  8
0
100
AcDbLine
 10
79.19389999999999
 20
49.0
 30
0.0
 11
81.2457
 21
49.0
 31
0.0
  0
LINE
  5
131
330
1E
100
AcDbEntity
  8
0
100
AcDbLine
 10
81.2457
 20
49.0
 30
0.0
 11
82.9954
 21
49.0
 31
0.0
  0
LINE
  5
132
330
1E
100
AcDbEntity
  8
0
100
AcDbLine
 10
80.94599999999999
 20
49.0
 30
0.0
 11
82.5265
 21
49.0
 31
0.0
  0
LINE
  5
133
330
1E
100
AcDbEntity
  8
0
100
AcDbLine
 10
82.57620000000001
 20
49.0
 30
0.0
 11
83.8347
 21
49.0
 31
0.0
  0
LINE
  5
134
330
1E
100
AcDbEntity
  8
0
100
AcDbLine
 10
82.5265
 20
49.0
 30
0.0
 11
83.77070000000001
 21
49.0
 31
0.0
  0
LINE
  5
135
330
1E
100
AcDbEntity
  8
0
100
AcDbLine
 10
81.30419999999999
 20
49.0
 30
0.0
 11
82.9954
 21
49.0
 31
0.0
  0
LINE
  5
136
330
1E
100
AcDbEntity
  8
0
100
AcDbLine
 10
82.9954
 20
49.0
 30
0.0
 11
84.3538
 21
49.0
 31
0.0
  0
LINE
  5
137
330
1E
100
AcDbEntity
  8
0
100
AcDbLine
 10
82.9954
 20
49.0
 30
0.0
 11
84.3299
 21
49.0
 31
0.0
  0
LINE
  5
138
330
1E
100
AcDbEntity
  8
0
100
AcDbLine
 10
79.19249999999999
 20
49.0
 30
0.0
 11
81.30419999999999
 21
49.0
 31
0.0
  0
LINE
  5
139
330
1E
100
AcDbEntity
  8
0
100
AcDbLine
 10
74.8061
 20
49.0
 30
0.0
 11
77.0
 21
49.0
 31
0.0
  0
LINE
  5
13A
330
1E
100
AcDbEntity
  8
0
100
AcDbLine
 10
72.69580000000001
 20
49.0
 30
0.0
 11
74.8061
 21
49.0
 31
0.0
  0
LINE
  5
13B
330
1E
100
AcDbEntity
  8
0
100
AcDbLine
 10
71.00459999999999
 20
49.0
 30
0.0
 11
72.69580000000001
 21
49.0
 31
0.0
  0
LINE
  5
13C
330
1E
100
AcDbEntity
  8
0
100
AcDbLine
 10
70.4429
 20
49.0
 30
0.0
 11
77.0
 21
49.0
 31
0.0
  0
LINE
  5
13D
330
1E
100
AcDbEntity
  8
0
100
AcDbLine
 10
64.3411
 20
49.0
 30
0.0
 11
70.4429
 21
49.0
 31
0.0
  0
LINE
  5
13E
330
1E
100
AcDbEntity
  8
0
100
AcDbLine
 10
58.9679
 20
49.0
 30
0.0
 11
64.3411
 21
49.0
 31
0.0
  0
LINE
  5
13F
330
1E
100
AcDbEntity
  8
0
100
AcDbLine
 10
54.9607
 20
49.0
 30
0.0
 11
58.9679
 21
49.0
 31
0.0
  0
LINE
  5
140
330
1E
100
AcDbEntity
  8
0
100
AcDbLine
 10
52.4107
 20
49.0
 30
0.0
 11
54.9607
 21
49.0
 31
0.0
  0
LINE
  5
141
330
1E
100
AcDbEntity
  8
0
100
AcDbLine
 10
77.0
 20
49.0
 30
0.0
 11
83.5571
 21
49.0
 31
0.0
  0
LINE
  5
142
330
1E
100
AcDbEntity
  8
0
100
AcDbLine
 10
77.0
 20
49.0
 30
0.0
 11
150.0
 21
49.0
 31
0.0
  0
LINE
  5
143
330
1E
100
AcDbEntity
  8
0
100
AcDbLine
 10
77.0
 20
49.0
 30
0.0
 11
79.19249999999999
 21
49.0
 31
0.0
  0
LINE
  5
144
330
1E
100
AcDbEntity
  8
0
100
AcDbLine
 10
77.0
 20
49.0
 30
0.0
 11
79.19389999999999
 21
49.0
 31
0.0
  0
LINE
  5
145
330
1E
100
AcDbEntity
  8
0
100
AcDbLine
 10
83.77070000000001
 20
49.0
 30
0.0
 11
84.64200000000001
 21
49.0
 31
0.0
  0
LINE
  5
146
330
1E
100
AcDbEntity
  8
0
100
AcDbLine
 10
84.64200000000001
 20
49.0
 30
0.0
 11
84.83110000000001
 21
49.0
 31
0.0
  0
LINE
  5
147
330
1E
100
AcDbEntity
  8
0
100
AcDbLine
 10
84.57410000000001
 20
49.0
 30
0.0
 11
84.83110000000001
 21
49.0
 31
0.0
  0
LINE
  5
148
330
1E
100
AcDbEntity
  8
0
100
AcDbLine
 10
83.8347
 20
49.0
 30
0.0
 11
84.57410000000001
 21
49.0
 31
0.0
  0
LINE
  5
149
330
1E
100
AcDbEntity
  8
0
100
AcDbLine
 10
84.3538
 20
49.0
 30
0.0
 11
85.1879
 21
49.0
 31
0.0
  0
LINE
  5
14A
330
1E
100
AcDbEntity
  8
0
100
AcDbLine
 10
84.3538
 20
49.0
 30
0.0
 11
85.1931
 21
49.0
 31
0.0
  0
LINE
  5
14B
330
1E
100
AcDbEntity
  8
0
100
AcDbLine
 10
85.1931
 20
49.0
 30
0.0
 11
85.5
 21
49.0
 31
0.0
  0
LINE
  5
14C
330
1E
100
AcDbEntity
  8
0
100
AcDbLine
 10
85.1879
 20
49.0
 30
0.0
 11
85.5
 21
49.0
 31
0.0
  0
LINE
  5
14D
330
1E
100
AcDbEntity
  8
0
100
AcDbLine
 10
84.3299
 20
49.0
 30
0.0
 11
85.1879
 21
49.0
 31
0.0
  0
LINE
  5
14E
330
1E
100
AcDbEntity
  8
0
100
AcDbLine
 10
83.5571
 20
49.0
 30
0.0
 11
89.65889999999999
 21
49.0
 31
0.0
  0
LINE
  5
14F
330
1E
100
AcDbEntity
  8
0
100
AcDbLine
 10
89.65889999999999
 20
49.0
 30
0.0
 11
95.03210000000001
 21
49.0
 31
0.0
  0
LINE
  5
150
330
1E
100
AcDbEntity
  8
0
100
AcDbLine
 10
95.03210000000001
 20
49.0
 30
0.0
 11
99.0393
 21
49.0
 31
0.0
  0
LINE
  5
151
330
1E
100
AcDbEntity
  8
0
100
AcDbLine
 10
99.0393
 20
49.0
 30
0.0
 11
101.5889999999999
 21
49.0
 31
0.0
  0
LINE
  5
152
330
1E
100
AcDbEntity
  8
0
100
AcDbLine
 10
120.3359999999999
 20
49.0
 30
0.0
 11
122.0339999999999
 21
49.0
 31
0.0
  0
LINE
  5
153
330
1E
100
AcDbEntity
  8
0
100
AcDbLine
 10
122.0339999999999
 20
49.0
 30
0.0
 11
123.9319999999999
 21
49.0
 31
0.0
  0
LINE
  5
154
330
1E
100
AcDbEntity
  8
0
100
AcDbLine
 10
119.936
 20
49.0
 30
0.0
 11
121.7349999999999
 21
49.0
 31
0.0
  0
LINE
  5
155
330
1E
100
AcDbEntity
  8
0
100
AcDbLine
 10
121.7349999999999
 20
49.0
 30
0.0
 11
123.7329999999999
 21
49.0
 31
0.0
  0
LINE
  5
156
330
1E
100
AcDbEntity
  8
0
100
AcDbLine
 10
123.9319999999999
 20
49.0
 30
0.0
 11
125.93
 21
49.0
 31
0.0
  0
LINE
  5
157
330
1E
100
AcDbEntity
  8
0
100
AcDbLine
 10
123.7329999999999
 20
49.0
 30
0.0
 11
125.93
 21
49.0
 31
0.0
  0
LINE
  5
158
330
1E
100
AcDbEntity
  8
0
100
AcDbLine
 10
127.9279999999999
 20
49.0
 30
0.0
 11
129.827
 21
49.0
 31
0.0
  0
LINE
  5
159
330
1E
100
AcDbEntity
  8
0
100
AcDbLine
 10
129.827
 20
49.0
 30
0.0
 11
131.525
 21
49.0
 31
0.0
  0
LINE
  5
15A
330
1E
100
AcDbEntity
  8
0
100
AcDbLine
 10
131.924
 20
49.0
 30
0.0
 11
133.3229999999999
 21
49.0
 31
0.0
  0
LINE
  5
15B
330
1E
100
AcDbEntity
  8
0
100
AcDbLine
 10
130.126
 20
49.0
 30
0.0
 11
131.924
 21
49.0
 31
0.0
  0
LINE
  5
15C
330
1E
100
AcDbEntity
  8
0
100
AcDbLine
 10
128.1279999999999
 20
49.0
 30
0.0
 11
130.126
 21
49.0
 31
0.0
  0
LINE
  5
15D
330
1E
100
AcDbEntity
  8
0
100
AcDbLine
 10
125.93
 20
49.0
 30
0.0
 11
128.1279999999999
 21
49.0
 31
0.0
  0
LINE
  5
15E
330
1E
100
AcDbEntity
  8
0
100
AcDbLine
 10
125.93
 20
49.0
 30
0.0
 11
127.9279999999999
 21
49.0
 31
0.0
  0
LINE
  5
15F
330
1E
100
AcDbEntity
  8
0
100
AcDbLine
 10
150.0
 20
49.0
 30
0.0
 11
151.4
 21
49.0
 31
0.0
  0
LINE
  5
160
330
1E
100
AcDbEntity
  8
0
100
AcDbLine
 10
151.4
 20
49.0
 30
0.0
 11
152.5
 21
49.0
 31
0.0
  0
LINE
  5
161
330
1E
100
AcDbEntity
  8
0
100
AcDbLine
 10
152.5
 20
49.0
 30
0.0
 11
153.0
 21
49.0
 31
0.0
  0
LINE
  5
162
330
1E
100
AcDbEntity
  8
0
100
AcDbLine
 10
101.5889999999999
 20
49.0
 30
0.0
 11
102.4999999999999
 21
49.0
 31
0.0
  0
LINE
  5
166
330
1E
100
AcDbEntity
  8
0
100
AcDbLine
 10
77.0
 20
59.0
 30
0.0
 11
150.0
 21
59.0
 31
0.0
  0
LINE
  5
167
330
1E
100
AcDbEntity
  8
0
100
AcDbLine
 10
150.0
 20
59.0
 30
0.0
 11
152.4
 21
59.0
 31
0.0
  0
LINE
  5
168
330
1E
100
AcDbEntity
  8
0
100
AcDbLine
 10
152.4
 20
59.0
 30
0.0
 11
153.5
 21
59.0
 31
0.0
  0
LINE
  5
16A
330
1E
100
AcDbEntity
  8
0
100
AcDbLine
 10
154.0
 20
50.0
 30
0.0
 11
154.0
 21
59.0
 31
0.0
  0
LINE
  5
16B
330
1E
100
AcDbEntity
  8
0
100
AcDbLine
 10
154.0
 20
59.0
 30
0.0
 11
154.0
 21
50.0
 31
0.0
  0
LINE
  5
16C
330
1E
100
AcDbEntity
  8
0
100
AcDbLine
 10
153.5
 20
59.0
 30
0.0
 11
154.0
 21
59.0
 31
0.0
  0
LINE
  5
16D
330
1E
100
AcDbEntity
  8
0
100
AcDbLine
 10
102.4999999999999
 20
49.0
 30
0.0
 11
102.4999999999999
 21
48.0
 31
0.0
  0
LINE
  5
16E
330
1E
100
AcDbEntity
  8
0
100
AcDbLine
 10
51.5
 20
49.0
 30
0.0
 11
51.5
 21
48.0
 31
0.0
  0
LINE
  5
16F
330
1E
100
AcDbEntity
  8
0
100
AcDbLine
 10
51.5
 20
49.0
 30
0.0
 11
52.4107
 21
49.0
 31
0.0
  0
LINE
  5
170
330
1E
100
AcDbEntity
  8
0
100
AcDbLine
 10
1.0
 20
49.0
 30
0.0
 11
1.5
 21
49.0
 31
0.0
  0
LINE
  5
175
330
1E
100
AcDbEntity
  8
0
  6
Continuous
100
AcDbLine
 10
153.0
 20
49.0
 30
0.0
 11
154.0
 21
50.0
 31
0.0
  0
ENDSEC
  0
SECTION
  2
OBJECTS
  0
DICTIONARY
  5
C
330
0
100
AcDbDictionary
281
     1
  3
ACAD_GROUP
350
D
  3
ACAD_LAYOUT
350
19
  3
ACAD_MLINESTYLE
350
16
  3
ACAD_PLOTSETTINGS
350
18
  3
ACAD_PLOTSTYLENAME
350
E
  3
AcDbVariableDictionary
350
177
  0
DICTIONARY
  5
D
102
{ACAD_REACTORS
330
C
102
}
330
C
100
AcDbDictionary
281
     1
  0
DICTIONARY
  5
19
102
{ACAD_REACTORS
330
C
102
}
330
C
100
AcDbDictionary
281
     1
  3
Layout1
350
1D
  3
Model
350
21
  0
DICTIONARY
  5
16
102
{ACAD_REACTORS
330
C
102
}
330
C
100
AcDbDictionary
281
     1
  3
Standard
350
17
  0
DICTIONARY
  5
18
102
{ACAD_REACTORS
330
C
102
}
330
C
100
AcDbDictionary
281
     1
  0
ACDBDICTIONARYWDFLT
  5
E
102
{ACAD_REACTORS
330
C
102
}
330
C
100
AcDbDictionary
281
     1
  3
Normal
350
F
100
AcDbDictionaryWithDefault
340
F
  0
DICTIONARY
  5
177
102
{ACAD_REACTORS
330
C
102
}
330
C
100
AcDbDictionary
281
     1
  3
DIMASSOC
350
178
  0
LAYOUT
  5
1D
102
{ACAD_REACTORS
330
19
102
}
330
19
100
AcDbPlotSettings
  1

  2
hp deskjet 980c series
  4

  6

 40
0.0
 41
0.0
 42
0.0
 43
0.0
 44
0.0
 45
0.0
 46
0.0
 47
0.0
 48
0.0
 49
0.0
140
0.0
141
0.0
142
1.0
143
1.0
 70
   688
 72
     0
 73
     0
 74
     5
  7

 75
    16
147
1.0
148
0.0
149
0.0
100
AcDbLayout
  1
Layout1
 70
     1
 71
     1
 10
0.0
 20
0.0
 11
12.0
 21
9.0
 12
0.0
 22
0.0
 32
0.0
 14
1.000000000000000E+20
 24
1.000000000000000E+20
 34
1.000000000000000E+20
 15
-1.000000000000000E+20
 25
-1.000000000000000E+20
 35
-1.000000000000000E+20
146
0.0
 13
0.0
 23
0.0
 33
0.0
 16
1.0
 26
0.0
 36
0.0
 17
0.0
 27
1.0
 37
0.0
 76
     0
330
1A
  0
LAYOUT
  5
21
102
{ACAD_REACTORS
330
19
102
}
330
19
100
AcDbPlotSettings
  1

  2
hp deskjet 980c series
  4

  6

 40
0.0
 41
0.0
 42
0.0
 43
0.0
 44
0.0
 45
0.0
 46
0.0
 47
0.0
 48
0.0
 49
0.0
140
0.0
141
0.0
142
1.0
143
1.0
 70
  1712
 72
     0
 73
     0
 74
     0
  7

 75
     0
147
1.0
148
0.0
149
0.0
100
AcDbLayout
  1
Model
 70
     1
 71
     0
 10
0.0
 20
0.0
 11
12.0
 21
9.0
 12
0.0
 22
0.0
 32
0.0
 14
0.0
 24
0.0
 34
0.0
 15
0.0
 25
0.0
 35
0.0
146
0.0
 13
0.0
 23
0.0
 33
0.0
 16
1.0
 26
0.0
 36
0.0
 17
0.0
 27
1.0
 37
0.0
 76
     0
330
1E
  0
MLINESTYLE
  5
17
102
{ACAD_REACTORS
330
16
102
}
330
16
100
AcDbMlineStyle
  2
STANDARD
 70
     0
  3

 62
   256
 51
90.0
 52
90.0
 71
     2
 49
0.5
 62
   256
  6
BYLAYER
 49
-0.5
 62
   256
  6
BYLAYER
  0
ACDBPLACEHOLDER
  5
F
102
{ACAD_REACTORS
330
E
102
}
330
E
  0
DICTIONARYVAR
  5
178
102
{ACAD_REACTORS
330
177
102
}
330
177
100
DictionaryVariables
280
     0
  1
1
  0
ENDSEC
  0
EOF
