  0
SECTION
  2
HEADER
  9
$ACADVER
  1
AC1015
  9
$ACADMAINTVER
 70
    13
  9
$DWGCODEPAGE
  3
ANSI_1252
  9
$INSBASE
 10
0.0
 20
0.0
 30
0.0
  9
$EXTMIN
 10
0.0000000000000014
 20
-0.0000000000000071
 30
0.0
  9
$EXTMAX
 10
173.0
 20
170.0
 30
0.0
  9
$LIMMIN
 10
0.0
 20
0.0
  9
$LIMMAX
 10
12.0
 20
9.0
  9
$ORTHOMODE
 70
     0
  9
$REGENMODE
 70
     1
  9
$FILLMODE
 70
     1
  9
$QTEXTMODE
 70
     0
  9
$MIRRTEXT
 70
     1
  9
$LTSCALE
 40
1.0
  9
$ATTMODE
 70
     1
  9
$TEXTSIZE
 40
0.2
  9
$TRACEWID
 40
0.05
  9
$TEXTSTYLE
  7
Standard
  9
$CLAYER
  8
0
  9
$CELTYPE
  6
Continuous
  9
$CECOLOR
 62
   256
  9
$CELTSCALE
 40
1.0
  9
$DISPSILH
 70
     0
  9
$DIMSCALE
 40
1.0
  9
$DIMASZ
 40
0.18
  9
$DIMEXO
 40
0.0625
  9
$DIMDLI
 40
0.38
  9
$DIMRND
 40
0.0
  9
$DIMDLE
 40
0.0
  9
$DIMEXE
 40
0.18
  9
$DIMTP
 40
0.0
  9
$DIMTM
 40
0.0
  9
$DIMTXT
 40
0.18
  9
$DIMCEN
 40
0.09
  9
$DIMTSZ
 40
0.0
  9
$DIMTOL
 70
     0
  9
$DIMLIM
 70
     0
  9
$DIMTIH
 70
     1
  9
$DIMTOH
 70
     1
  9
$DIMSE1
 70
     0
  9
$DIMSE2
 70
     0
  9
$DIMTAD
 70
     0
  9
$DIMZIN
 70
     0
  9
$DIMBLK
  1

  9
$DIMASO
 70
     1
  9
$DIMSHO
 70
     1
  9
$DIMPOST
  1

  9
$DIMAPOST
  1

  9
$DIMALT
 70
     0
  9
$DIMALTD
 70
     2
  9
$DIMALTF
 40
25.4
  9
$DIMLFAC
 40
1.0
  9
$DIMTOFL
 70
     0
  9
$DIMTVP
 40
0.0
  9
$DIMTIX
 70
     0
  9
$DIMSOXD
 70
     0
  9
$DIMSAH
 70
     0
  9
$DIMBLK1
  1

  9
$DIMBLK2
  1

  9
$DIMSTYLE
  2
Standard
  9
$DIMCLRD
 70
     0
  9
$DIMCLRE
 70
     0
  9
$DIMCLRT
 70
     0
  9
$DIMTFAC
 40
1.0
  9
$DIMGAP
 40
0.09
  9
$DIMJUST
 70
     0
  9
$DIMSD1
 70
     0
  9
$DIMSD2
 70
     0
  9
$DIMTOLJ
 70
     1
  9
$DIMTZIN
 70
     0
  9
$DIMALTZ
 70
     0
  9
$DIMALTTZ
 70
     0
  9
$DIMUPT
 70
     0
  9
$DIMDEC
 70
     4
  9
$DIMTDEC
 70
     4
  9
$DIMALTU
 70
     2
  9
$DIMALTTD
 70
     2
  9
$DIMTXSTY
  7
Standard
  9
$DIMAUNIT
 70
     0
  9
$DIMADEC
 70
     0
  9
$DIMALTRND
 40
0.0
  9
$DIMAZIN
 70
     0
  9
$DIMDSEP
 70
    46
  9
$DIMATFIT
 70
     3
  9
$DIMFRAC
 70
     0
  9
$DIMLDRBLK
  1

  9
$DIMLUNIT
 70
     2
  9
$DIMLWD
 70
    -2
  9
$DIMLWE
 70
    -2
  9
$DIMTMOVE
 70
     0
  9
$LUNITS
 70
     2
  9
$LUPREC
 70
     4
  9
$SKETCHINC
 40
0.1
  9
$FILLETRAD
 40
0.0
  9
$AUNITS
 70
     0
  9
$AUPREC
 70
     0
  9
$MENU
  1
.
  9
$ELEVATION
 40
0.0
  9
$PELEVATION
 40
0.0
  9
$THICKNESS
 40
0.0
  9
$LIMCHECK
 70
     0
  9
$CHAMFERA
 40
0.0
  9
$CHAMFERB
 40
0.0
  9
$CHAMFERC
 40
0.0
  9
$CHAMFERD
 40
0.0
  9
$SKPOLY
 70
     0
  9
$TDCREATE
 40
2454874.908175995
  9
$TDUCREATE
 40
2454874.824842662
  9
$TDUPDATE
 40
2454994.924633055
  9
$TDUUPDATE
 40
2454994.841299722
  9
$TDINDWG
 40
0.0031796065
  9
$TDUSRTIMER
 40
0.0031794213
  9
$USRTIMER
 70
     1
  9
$ANGBASE
 50
0.0
  9
$ANGDIR
 70
     0
  9
$PDMODE
 70
     0
  9
$PDSIZE
 40
0.0
  9
$PLINEWID
 40
0.0
  9
$SPLFRAME
 70
     0
  9
$SPLINETYPE
 70
     6
  9
$SPLINESEGS
 70
     8
  9
$HANDSEED
  5
69D
  9
$SURFTAB1
 70
     6
  9
$SURFTAB2
 70
     6
  9
$SURFTYPE
 70
     6
  9
$SURFU
 70
     6
  9
$SURFV
 70
     6
  9
$UCSBASE
  2

  9
$UCSNAME
  2

  9
$UCSORG
 10
0.0
 20
0.0
 30
0.0
  9
$UCSXDIR
 10
1.0
 20
0.0
 30
0.0
  9
$UCSYDIR
 10
0.0
 20
1.0
 30
0.0
  9
$UCSORTHOREF
  2

  9
$UCSORTHOVIEW
 70
     1
  9
$UCSORGTOP
 10
0.0
 20
0.0
 30
0.0
  9
$UCSORGBOTTOM
 10
0.0
 20
0.0
 30
0.0
  9
$UCSORGLEFT
 10
0.0
 20
0.0
 30
0.0
  9
$UCSORGRIGHT
 10
0.0
 20
0.0
 30
0.0
  9
$UCSORGFRONT
 10
0.0
 20
0.0
 30
0.0
  9
$UCSORGBACK
 10
0.0
 20
0.0
 30
0.0
  9
$PUCSBASE
  2

  9
$PUCSNAME
  2

  9
$PUCSORG
 10
0.0
 20
0.0
 30
0.0
  9
$PUCSXDIR
 10
1.0
 20
0.0
 30
0.0
  9
$PUCSYDIR
 10
0.0
 20
1.0
 30
0.0
  9
$PUCSORTHOREF
  2

  9
$PUCSORTHOVIEW
 70
     0
  9
$PUCSORGTOP
 10
0.0
 20
0.0
 30
0.0
  9
$PUCSORGBOTTOM
 10
0.0
 20
0.0
 30
0.0
  9
$PUCSORGLEFT
 10
0.0
 20
0.0
 30
0.0
  9
$PUCSORGRIGHT
 10
0.0
 20
0.0
 30
0.0
  9
$PUCSORGFRONT
 10
0.0
 20
0.0
 30
0.0
  9
$PUCSORGBACK
 10
0.0
 20
0.0
 30
0.0
  9
$USERI1
 70
     0
  9
$USERI2
 70
     0
  9
$USERI3
 70
     0
  9
$USERI4
 70
     0
  9
$USERI5
 70
     0
  9
$USERR1
 40
0.0
  9
$USERR2
 40
0.0
  9
$USERR3
 40
0.0
  9
$USERR4
 40
0.0
  9
$USERR5
 40
0.0
  9
$WORLDVIEW
 70
     1
  9
$SHADEDGE
 70
     3
  9
$SHADEDIF
 70
    70
  9
$TILEMODE
 70
     1
  9
$MAXACTVP
 70
    64
  9
$PINSBASE
 10
0.0
 20
0.0
 30
0.0
  9
$PLIMCHECK
 70
     0
  9
$PEXTMIN
 10
1.000000000000000E+20
 20
1.000000000000000E+20
 30
1.000000000000000E+20
  9
$PEXTMAX
 10
-1.000000000000000E+20
 20
-1.000000000000000E+20
 30
-1.000000000000000E+20
  9
$PLIMMIN
 10
0.0
 20
0.0
  9
$PLIMMAX
 10
12.0
 20
9.0
  9
$UNITMODE
 70
     0
  9
$VISRETAIN
 70
     1
  9
$PLINEGEN
 70
     0
  9
$PSLTSCALE
 70
     1
  9
$TREEDEPTH
 70
  3020
  9
$CMLSTYLE
  2
Standard
  9
$CMLJUST
 70
     0
  9
$CMLSCALE
 40
1.0
  9
$PROXYGRAPHICS
 70
     1
  9
$MEASUREMENT
 70
     0
  9
$CELWEIGHT
370
    -1
  9
$ENDCAPS
280
     0
  9
$JOINSTYLE
280
     0
  9
$LWDISPLAY
290
     0
  9
$INSUNITS
 70
     0
  9
$HYPERLINKBASE
  1

  9
$STYLESHEET
  1

  9
$XEDIT
290
     1
  9
$CEPSNTYPE
380
     0
  9
$PSTYLEMODE
290
     1
  9
$FINGERPRINTGUID
  2
{41327A85-2435-47E3-9FF2-4E7DCDE72052}
  9
$VERSIONGUID
  2
{06E8ECFC-CDDC-4A35-AD06-078D7752E47D}
  9
$EXTNAMES
290
     1
  9
$PSVPSCALE
 40
0.0
  9
$OLESTARTUP
290
     0
  0
ENDSEC
  0
SECTION
  2
CLASSES
  0
CLASS
  1
ACDBDICTIONARYWDFLT
  2
AcDbDictionaryWithDefault
  3
AutoCAD 2000
 90
        0
280
     0
281
     0
  0
CLASS
  1
ACDBPLACEHOLDER
  2
AcDbPlaceHolder
  3
AutoCAD 2000
 90
        0
280
     0
281
     0
  0
CLASS
  1
LAYOUT
  2
AcDbLayout
  3
AutoCAD 2000
 90
        0
280
     0
281
     0
  0
CLASS
  1
DICTIONARYVAR
  2
AcDbDictionaryVar
  3
AutoCAD 2000
 90
        0
280
     0
281
     0
  0
ENDSEC
  0
SECTION
  2
TABLES
  0
TABLE
  2
VPORT
  5
8
330
0
100
AcDbSymbolTable
 70
     3
  0
VPORT
  5
69C
330
8
100
AcDbSymbolTableRecord
100
AcDbViewportTableRecord
  2
*Active
 70
     0
 10
0.0
 20
0.0
 11
1.0
 21
1.0
 12
86.5
 22
85.0
 13
0.0
 23
0.0
 14
1.0
 24
1.0
 15
0.0
 25
0.0
 16
0.0
 26
0.0
 36
1.0
 17
0.0
 27
0.0
 37
0.0
 40
171.0736842105263
 41
1.968387776606954
 42
50.0
 43
0.0
 44
0.0
 50
0.0
 51
0.0
 71
     0
 72
   100
 73
     1
 74
     3
 75
     0
 76
     0
 77
     0
 78
     0
281
     0
 65
     1
110
0.0
120
0.0
130
0.0
111
1.0
121
0.0
131
0.0
112
0.0
122
1.0
132
0.0
 79
     1
146
0.0
  0
ENDTAB
  0
TABLE
  2
LTYPE
  5
5
330
0
100
AcDbSymbolTable
 70
     1
  0
LTYPE
  5
13
330
5
100
AcDbSymbolTableRecord
100
AcDbLinetypeTableRecord
  2
ByBlock
 70
     0
  3

 72
    65
 73
     0
 40
0.0
  0
LTYPE
  5
14
330
5
100
AcDbSymbolTableRecord
100
AcDbLinetypeTableRecord
  2
ByLayer
 70
     0
  3

 72
    65
 73
     0
 40
0.0
  0
LTYPE
  5
15
330
5
100
AcDbSymbolTableRecord
100
AcDbLinetypeTableRecord
  2
Continuous
 70
     0
  3
Solid line
 72
    65
 73
     0
 40
0.0
  0
ENDTAB
  0
TABLE
  2
LAYER
  5
2
330
0
100
AcDbSymbolTable
 70
     1
  0
LAYER
  5
10
330
2
100
AcDbSymbolTableRecord
100
AcDbLayerTableRecord
  2
0
 70
     0
 62
     7
  6
Continuous
370
    -3
390
F
  0
ENDTAB
  0
TABLE
  2
STYLE
  5
3
330
0
100
AcDbSymbolTable
 70
     1
  0
STYLE
  5
11
330
3
100
AcDbSymbolTableRecord
100
AcDbTextStyleTableRecord
  2
Standard
 70
     0
 40
0.0
 41
1.0
 50
0.0
 71
     0
 42
0.2
  3
txt
  4

  0
ENDTAB
  0
TABLE
  2
VIEW
  5
6
330
0
100
AcDbSymbolTable
 70
     0
  0
ENDTAB
  0
TABLE
  2
UCS
  5
7
330
0
100
AcDbSymbolTable
 70
     0
  0
ENDTAB
  0
TABLE
  2
APPID
  5
9
330
0
100
AcDbSymbolTable
 70
     1
  0
APPID
  5
12
330
9
100
AcDbSymbolTableRecord
100
AcDbRegAppTableRecord
  2
ACAD
 70
     0
  0
ENDTAB
  0
TABLE
  2
DIMSTYLE
  5
A
330
0
100
AcDbSymbolTable
 70
     1
100
AcDbDimStyleTable
 71
     0
  0
DIMSTYLE
105
155
330
A
100
AcDbSymbolTableRecord
100
AcDbDimStyleTableRecord
  2
Standard
 70
     0
340
11
  0
ENDTAB
  0
TABLE
  2
BLOCK_RECORD
  5
1
330
0
100
AcDbSymbolTable
 70
     1
  0
BLOCK_RECORD
  5
1E
330
1
100
AcDbSymbolTableRecord
100
AcDbBlockTableRecord
  2
*Model_Space
340
21
  0
BLOCK_RECORD
  5
1A
330
1
100
AcDbSymbolTableRecord
100
AcDbBlockTableRecord
  2
*Paper_Space
340
1D
  0
ENDTAB
  0
ENDSEC
  0
SECTION
  2
BLOCKS
  0
BLOCK
  5
1F
330
1E
100
AcDbEntity
  8
0
100
AcDbBlockBegin
  2
*Model_Space
 70
     0
 10
0.0
 20
0.0
 30
0.0
  3
*Model_Space
  1

  0
ENDBLK
  5
20
330
1E
100
AcDbEntity
  8
0
100
AcDbBlockEnd
  0
BLOCK
  5
1B
330
1A
100
AcDbEntity
 67
     1
  8
0
100
AcDbBlockBegin
  2
*Paper_Space
 70
     0
 10
0.0
 20
0.0
 30
0.0
  3
*Paper_Space
  1

  0
ENDBLK
  5
1C
330
1A
100
AcDbEntity
 67
     1
  8
0
100
AcDbBlockEnd
  0
ENDSEC
  0
SECTION
  2
ENTITIES
  0
LINE
  5
22
330
1E
100
AcDbEntity
  8
0
100
AcDbLine
 10
0.0000000000000014
 20
58.5
 30
0.0
 11
0.3000000000000011
 21
57.8
 31
0.0
  0
LINE
  5
23
330
1E
100
AcDbEntity
  8
0
100
AcDbLine
 10
0.0000000000000014
 20
58.5
 30
0.0
 11
0.0000000000000014
 21
58.6
 31
0.0
  0
LINE
  5
26
330
1E
100
AcDbEntity
  8
0
100
AcDbLine
 10
0.3000000000000011
 20
57.8
 30
0.0
 11
1.0
 21
57.5
 31
0.0
  0
LINE
  5
2A
330
1E
100
AcDbEntity
  8
0
100
AcDbLine
 10
0.0000000000000016
 20
61.55
 30
0.0
 11
0.0000000000000017
 21
62.09099999999999
 31
0.0
  0
LINE
  5
2B
330
1E
100
AcDbEntity
  8
0
100
AcDbLine
 10
0.0000000000000018
 20
63.7346
 30
0.0
 11
0.0000000000000018
 21
64.61489999999999
 31
0.0
  0
LINE
  5
2C
330
1E
100
AcDbEntity
  8
0
100
AcDbLine
 10
0.0000000000000018
 20
64.61489999999999
 30
0.0
 11
0.000000000000002
 21
67.5
 31
0.0
  0
LINE
  5
2D
330
1E
100
AcDbEntity
  8
0
100
AcDbLine
 10
0.0000000000000017
 20
62.8946
 30
0.0
 11
0.0000000000000018
 21
63.7346
 31
0.0
  0
LINE
  5
2E
330
1E
100
AcDbEntity
  8
0
100
AcDbLine
 10
0.0000000000000017
 20
62.09099999999999
 30
0.0
 11
0.0000000000000017
 21
62.8946
 31
0.0
  0
LINE
  5
2F
330
1E
100
AcDbEntity
  8
0
100
AcDbLine
 10
0.0000000000000024
 20
73.5
 30
0.0
 11
0.0000000000000027
 21
79.5
 31
0.0
  0
LINE
  5
30
330
1E
100
AcDbEntity
  8
0
100
AcDbLine
 10
0.0000000000000034
 20
90.5
 30
0.0
 11
0.0000000000000038
 21
96.5
 31
0.0
  0
LINE
  5
31
330
1E
100
AcDbEntity
  8
0
100
AcDbLine
 10
0.0000000000000031
 20
85.0
 30
0.0
 11
0.0000000000000034
 21
90.5
 31
0.0
  0
LINE
  5
32
330
1E
100
AcDbEntity
  8
0
100
AcDbLine
 10
0.0000000000000043
 20
105.3850999999999
 30
0.0
 11
0.0000000000000044
 21
106.2653999999999
 31
0.0
  0
LINE
  5
33
330
1E
100
AcDbEntity
  8
0
100
AcDbLine
 10
0.0000000000000041
 20
102.4999999999999
 30
0.0
 11
0.0000000000000043
 21
105.3850999999999
 31
0.0
  0
LINE
  5
34
330
1E
100
AcDbEntity
  8
0
100
AcDbLine
 10
0.0000000000000044
 20
106.2653999999999
 30
0.0
 11
0.0000000000000044
 21
107.1053999999999
 31
0.0
  0
LINE
  5
35
330
1E
100
AcDbEntity
  8
0
100
AcDbLine
 10
0.0000000000000045
 20
107.9089999999998
 30
0.0
 11
0.0000000000000045
 21
108.45
 31
0.0
  0
LINE
  5
36
330
1E
100
AcDbEntity
  8
0
100
AcDbLine
 10
0.0000000000000044
 20
107.1053999999999
 30
0.0
 11
0.0000000000000045
 21
107.9089999999998
 31
0.0
  0
LINE
  5
37
330
1E
100
AcDbEntity
  8
0
100
AcDbLine
 10
0.0000000000000038
 20
96.5
 30
0.0
 11
0.0000000000000041
 21
102.4999999999999
 31
0.0
  0
LINE
  5
38
330
1E
100
AcDbEntity
  8
0
100
AcDbLine
 10
0.0000000000000045
 20
108.45
 30
0.0
 11
0.0000000000000045
 21
108.9374999999999
 31
0.0
  0
LINE
  5
39
330
1E
100
AcDbEntity
  8
0
100
AcDbLine
 10
0.0000000000000045
 20
108.9374999999999
 30
0.0
 11
0.0000000000000046
 21
109.4575999999999
 31
0.0
  0
LINE
  5
3A
330
1E
100
AcDbEntity
  8
0
100
AcDbLine
 10
0.0000000000000046
 20
109.4575999999999
 30
0.0
 11
0.0000000000000046
 21
109.8408
 31
0.0
  0
LINE
  5
3B
330
1E
100
AcDbEntity
  8
0
100
AcDbLine
 10
0.0000000000000046
 20
109.8408
 30
0.0
 11
0.0000000000000046
 21
110.0892999999999
 31
0.0
  0
LINE
  5
3C
330
1E
100
AcDbEntity
  8
0
100
AcDbLine
 10
0.0000000000000046
 20
110.0892999999999
 30
0.0
 11
0.0000000000000046
 21
110.4999999999999
 31
0.0
  0
LINE
  5
3D
330
1E
100
AcDbEntity
  8
0
100
AcDbLine
 10
0.0000000000000046
 20
110.4999999999999
 30
0.0
 11
0.0000000000000047
 21
111.0999999999999
 31
0.0
  0
LINE
  5
3E
330
1E
100
AcDbEntity
  8
0
100
AcDbLine
 10
0.0000000000000047
 20
111.0999999999999
 30
0.0
 11
0.0000000000000047
 21
111.4
 31
0.0
  0
LINE
  5
3F
330
1E
100
AcDbEntity
  8
0
100
AcDbLine
 10
0.0000000000000047
 20
111.4999999999999
 30
0.0
 11
0.300000000000005
 21
112.2
 31
0.0
  0
LINE
  5
40
330
1E
100
AcDbEntity
  8
0
100
AcDbLine
 10
0.0000000000000047
 20
111.4
 30
0.0
 11
0.0000000000000047
 21
111.4999999999999
 31
0.0
  0
LINE
  5
41
330
1E
100
AcDbEntity
  8
0
100
AcDbLine
 10
0.0000000000000027
 20
79.5
 30
0.0
 11
0.0000000000000031
 21
85.0
 31
0.0
  0
LINE
  5
42
330
1E
100
AcDbEntity
  8
0
100
AcDbLine
 10
0.000000000000002
 20
67.5
 30
0.0
 11
0.0000000000000024
 21
73.5
 31
0.0
  0
LINE
  5
43
330
1E
100
AcDbEntity
  8
0
100
AcDbLine
 10
0.0000000000000016
 20
61.0625
 30
0.0
 11
0.0000000000000016
 21
61.55
 31
0.0
  0
LINE
  5
44
330
1E
100
AcDbEntity
  8
0
100
AcDbLine
 10
0.0000000000000016
 20
60.5424
 30
0.0
 11
0.0000000000000016
 21
61.0625
 31
0.0
  0
LINE
  5
45
330
1E
100
AcDbEntity
  8
0
100
AcDbLine
 10
0.0000000000000015
 20
60.15919999999999
 30
0.0
 11
0.0000000000000016
 21
60.5424
 31
0.0
  0
LINE
  5
46
330
1E
100
AcDbEntity
  8
0
100
AcDbLine
 10
0.0000000000000015
 20
59.9107
 30
0.0
 11
0.0000000000000015
 21
60.15919999999999
 31
0.0
  0
LINE
  5
47
330
1E
100
AcDbEntity
  8
0
100
AcDbLine
 10
0.0000000000000015
 20
59.5
 30
0.0
 11
0.0000000000000015
 21
59.9107
 31
0.0
  0
LINE
  5
48
330
1E
100
AcDbEntity
  8
0
100
AcDbLine
 10
0.0000000000000015
 20
58.9
 30
0.0
 11
0.0000000000000015
 21
59.5
 31
0.0
  0
LINE
  5
49
330
1E
100
AcDbEntity
  8
0
100
AcDbLine
 10
0.0000000000000014
 20
58.6
 30
0.0
 11
0.0000000000000015
 21
58.9
 31
0.0
  0
LINE
  5
4D
330
1E
100
AcDbEntity
  8
0
100
AcDbLine
 10
0.0000000000000047
 20
111.4999999999999
 30
0.0
 11
0.300000000000005
 21
112.2
 31
0.0
  0
LINE
  5
4E
330
1E
100
AcDbEntity
  8
0
100
AcDbLine
 10
0.0000000000000015
 20
58.5
 30
0.0
 11
0.3000000000000011
 21
57.8
 31
0.0
  0
LINE
  5
4F
330
1E
100
AcDbEntity
  8
0
100
AcDbLine
 10
52.0
 20
0.0
 30
0.0
 11
65.0
 21
-0.0000000000000071
 31
0.0
  0
LINE
  5
50
330
1E
100
AcDbEntity
  8
0
100
AcDbLine
 10
51.0
 20
0.6470999999999947
 30
0.0
 11
51.0
 21
0.5882000000000005
 31
0.0
  0
LINE
  5
51
330
1E
100
AcDbEntity
  8
0
100
AcDbLine
 10
51.0
 20
0.6470999999999947
 30
0.0
 11
51.0
 21
0.8823999999999967
 31
0.0
  0
LINE
  5
53
330
1E
100
AcDbEntity
  8
0
100
AcDbLine
 10
51.0
 20
0.5882000000000005
 30
0.0
 11
51.0
 21
0.6470999999999947
 31
0.0
  0
LINE
  5
58
330
1E
100
AcDbEntity
  8
0
100
AcDbLine
 10
51.29999999999999
 20
0.1764999999999972
 30
0.0
 11
52.0
 21
0.0
 31
0.0
  0
LINE
  5
59
330
1E
100
AcDbEntity
  8
0
100
AcDbLine
 10
51.29999999999999
 20
0.1764999999999972
 30
0.0
 11
52.0
 21
0.0
 31
0.0
  0
LINE
  5
5B
330
1E
100
AcDbEntity
  8
0
100
AcDbLine
 10
51.0
 20
1.235300000000001
 30
0.0
 11
51.0
 21
0.8823999999999967
 31
0.0
  0
LINE
  5
5C
330
1E
100
AcDbEntity
  8
0
100
AcDbLine
 10
51.0
 20
0.8823999999999967
 30
0.0
 11
51.0
 21
0.6470999999999947
 31
0.0
  0
LINE
  5
5D
330
1E
100
AcDbEntity
  8
0
100
AcDbLine
 10
51.0
 20
0.8823999999999967
 30
0.0
 11
51.0
 21
1.235300000000001
 31
0.0
  0
LINE
  5
62
330
1E
100
AcDbEntity
  8
0
100
AcDbLine
 10
51.0
 20
1.235300000000001
 30
0.0
 11
51.0
 21
3.0
 31
0.0
  0
LINE
  5
65
330
1E
100
AcDbEntity
  8
0
100
AcDbLine
 10
65.0
 20
1.823499999999995
 30
0.0
 11
65.0
 21
1.176499999999996
 31
0.0
  0
LINE
  5
66
330
1E
100
AcDbEntity
  8
0
100
AcDbLine
 10
65.0
 20
1.823499999999995
 30
0.0
 11
65.0
 21
2.5882
 31
0.0
  0
LINE
  5
67
330
1E
100
AcDbEntity
  8
0
100
AcDbLine
 10
65.0
 20
1.176499999999996
 30
0.0
 11
65.0
 21
0.7058999999999928
 31
0.0
  0
LINE
  5
68
330
1E
100
AcDbEntity
  8
0
100
AcDbLine
 10
65.0
 20
1.176499999999996
 30
0.0
 11
65.0
 21
1.823499999999995
 31
0.0
  0
LINE
  5
69
330
1E
100
AcDbEntity
  8
0
100
AcDbLine
 10
65.0
 20
0.7058999999999928
 30
0.0
 11
65.0
 21
0.2940999999999931
 31
0.0
  0
LINE
  5
6A
330
1E
100
AcDbEntity
  8
0
100
AcDbLine
 10
65.0
 20
0.7058999999999928
 30
0.0
 11
65.0
 21
1.176499999999996
 31
0.0
  0
LINE
  5
6B
330
1E
100
AcDbEntity
  8
0
100
AcDbLine
 10
65.0
 20
0.2940999999999931
 30
0.0
 11
65.0
 21
0.1175999999999959
 31
0.0
  0
LINE
  5
6C
330
1E
100
AcDbEntity
  8
0
100
AcDbLine
 10
65.0
 20
0.2940999999999931
 30
0.0
 11
65.0
 21
0.7058999999999928
 31
0.0
  0
LINE
  5
6D
330
1E
100
AcDbEntity
  8
0
100
AcDbLine
 10
65.0
 20
0.1175999999999959
 30
0.0
 11
65.0
 21
-0.0000000000000071
 31
0.0
  0
LINE
  5
6E
330
1E
100
AcDbEntity
  8
0
100
AcDbLine
 10
65.0
 20
0.1175999999999959
 30
0.0
 11
65.0
 21
0.2940999999999931
 31
0.0
  0
LINE
  5
6F
330
1E
100
AcDbEntity
  8
0
100
AcDbLine
 10
65.0
 20
-0.0000000000000071
 30
0.0
 11
65.0
 21
0.1175999999999959
 31
0.0
  0
LINE
  5
70
330
1E
100
AcDbEntity
  8
0
100
AcDbLine
 10
51.0
 20
3.0
 30
0.0
 11
51.0
 21
3.823500000000001
 31
0.0
  0
LINE
  5
71
330
1E
100
AcDbEntity
  8
0
100
AcDbLine
 10
51.0
 20
3.0
 30
0.0
 11
51.0
 21
1.235300000000001
 31
0.0
  0
LINE
  5
74
330
1E
100
AcDbEntity
  8
0
100
AcDbLine
 10
65.0
 20
2.5882
 30
0.0
 11
65.0
 21
3.470599999999997
 31
0.0
  0
LINE
  5
75
330
1E
100
AcDbEntity
  8
0
100
AcDbLine
 10
65.0
 20
2.5882
 30
0.0
 11
65.0
 21
1.823499999999995
 31
0.0
  0
LINE
  5
76
330
1E
100
AcDbEntity
  8
0
100
AcDbLine
 10
51.0
 20
3.823500000000001
 30
0.0
 11
51.0
 21
3.0
 31
0.0
  0
LINE
  5
77
330
1E
100
AcDbEntity
  8
0
100
AcDbLine
 10
51.0
 20
3.823500000000001
 30
0.0
 11
51.0
 21
4.705899999999998
 31
0.0
  0
LINE
  5
78
330
1E
100
AcDbEntity
  8
0
100
AcDbLine
 10
51.0
 20
4.705899999999998
 30
0.0
 11
51.0
 21
3.823500000000001
 31
0.0
  0
LINE
  5
79
330
1E
100
AcDbEntity
  8
0
100
AcDbLine
 10
51.0
 20
4.705899999999998
 30
0.0
 11
51.0
 21
5.705899999999998
 31
0.0
  0
LINE
  5
7E
330
1E
100
AcDbEntity
  8
0
100
AcDbLine
 10
65.0
 20
3.470599999999997
 30
0.0
 11
65.0
 21
2.5882
 31
0.0
  0
LINE
  5
7F
330
1E
100
AcDbEntity
  8
0
100
AcDbLine
 10
65.0
 20
3.470599999999997
 30
0.0
 11
65.0
 21
4.411799999999998
 31
0.0
  0
LINE
  5
80
330
1E
100
AcDbEntity
  8
0
100
AcDbLine
 10
65.0
 20
4.411799999999998
 30
0.0
 11
65.0
 21
3.470599999999997
 31
0.0
  0
LINE
  5
81
330
1E
100
AcDbEntity
  8
0
100
AcDbLine
 10
65.0
 20
4.411799999999998
 30
0.0
 11
65.0
 21
5.470599999999997
 31
0.0
  0
LINE
  5
82
330
1E
100
AcDbEntity
  8
0
100
AcDbLine
 10
51.0
 20
5.705899999999998
 30
0.0
 11
51.0
 21
4.705899999999998
 31
0.0
  0
LINE
  5
83
330
1E
100
AcDbEntity
  8
0
100
AcDbLine
 10
51.0
 20
5.705899999999998
 30
0.0
 11
51.0
 21
6.705899999999998
 31
0.0
  0
LINE
  5
84
330
1E
100
AcDbEntity
  8
0
100
AcDbLine
 10
51.0
 20
6.705899999999998
 30
0.0
 11
51.0
 21
5.705899999999998
 31
0.0
  0
LINE
  5
85
330
1E
100
AcDbEntity
  8
0
100
AcDbLine
 10
51.0
 20
6.705899999999998
 30
0.0
 11
51.0
 21
7.764699999999997
 31
0.0
  0
LINE
  5
8A
330
1E
100
AcDbEntity
  8
0
100
AcDbLine
 10
65.0
 20
5.470599999999997
 30
0.0
 11
65.0
 21
4.411799999999998
 31
0.0
  0
LINE
  5
8B
330
1E
100
AcDbEntity
  8
0
100
AcDbLine
 10
65.0
 20
5.470599999999997
 30
0.0
 11
65.0
 21
6.529399999999995
 31
0.0
  0
LINE
  5
8C
330
1E
100
AcDbEntity
  8
0
100
AcDbLine
 10
65.0
 20
6.529399999999995
 30
0.0
 11
65.0
 21
5.470599999999997
 31
0.0
  0
LINE
  5
8D
330
1E
100
AcDbEntity
  8
0
100
AcDbLine
 10
65.0
 20
6.529399999999995
 30
0.0
 11
65.0
 21
7.6471
 31
0.0
  0
LINE
  5
8E
330
1E
100
AcDbEntity
  8
0
100
AcDbLine
 10
1.0
 20
57.5
 30
0.0
 11
46.0
 21
57.5
 31
0.0
  0
LINE
  5
8F
330
1E
100
AcDbEntity
  8
0
100
AcDbLine
 10
46.0
 20
57.5
 30
0.0
 11
46.0
 21
57.6
 31
0.0
  0
LINE
  5
90
330
1E
100
AcDbEntity
  8
0
100
AcDbLine
 10
51.0
 20
7.764699999999997
 30
0.0
 11
51.0
 21
6.705899999999998
 31
0.0
  0
LINE
  5
91
330
1E
100
AcDbEntity
  8
0
100
AcDbLine
 10
51.0
 20
7.764699999999997
 30
0.0
 11
51.0
 21
8.823499999999993
 31
0.0
  0
LINE
  5
92
330
1E
100
AcDbEntity
  8
0
100
AcDbLine
 10
51.0
 20
8.823499999999993
 30
0.0
 11
51.0
 21
7.764699999999997
 31
0.0
  0
LINE
  5
93
330
1E
100
AcDbEntity
  8
0
100
AcDbLine
 10
51.0
 20
8.823499999999993
 30
0.0
 11
51.0
 21
61.0
 31
0.0
  0
LINE
  5
94
330
1E
100
AcDbEntity
  8
0
100
AcDbLine
 10
51.0
 20
8.823499999999993
 30
0.0
 11
51.0
 21
26.0
 31
0.0
  0
LINE
  5
99
330
1E
100
AcDbEntity
  8
0
100
AcDbLine
 10
65.0
 20
7.6471
 30
0.0
 11
65.0
 21
6.529399999999995
 31
0.0
  0
LINE
  5
9A
330
1E
100
AcDbEntity
  8
0
100
AcDbLine
 10
65.0
 20
7.6471
 30
0.0
 11
65.0
 21
8.823499999999993
 31
0.0
  0
LINE
  5
9B
330
1E
100
AcDbEntity
  8
0
100
AcDbLine
 10
65.0
 20
8.823499999999993
 30
0.0
 11
65.0
 21
7.6471
 31
0.0
  0
LINE
  5
9C
330
1E
100
AcDbEntity
  8
0
100
AcDbLine
 10
65.0
 20
8.823499999999993
 30
0.0
 11
65.0
 21
85.0
 31
0.0
  0
LINE
  5
BE
330
1E
100
AcDbEntity
  8
0
100
AcDbLine
 10
1.0
 20
112.5
 30
0.0
 11
23.0
 21
112.5
 31
0.0
  0
LINE
  5
BF
330
1E
100
AcDbEntity
  8
0
100
AcDbLine
 10
23.0
 20
112.5
 30
0.0
 11
23.0
 21
115.7
 31
0.0
  0
LINE
  5
C0
330
1E
100
AcDbEntity
  8
0
100
AcDbLine
 10
46.0
 20
57.9
 30
0.0
 11
46.0
 21
58.5
 31
0.0
  0
LINE
  5
C1
330
1E
100
AcDbEntity
  8
0
100
AcDbLine
 10
46.0
 20
58.94149999999999
 30
0.0
 11
46.0
 21
59.2103
 31
0.0
  0
LINE
  5
C2
330
1E
100
AcDbEntity
  8
0
100
AcDbLine
 10
46.0
 20
58.5
 30
0.0
 11
46.0
 21
58.94149999999999
 31
0.0
  0
LINE
  5
C3
330
1E
100
AcDbEntity
  8
0
100
AcDbLine
 10
46.0
 20
59.60259999999999
 30
0.0
 11
46.0
 21
60.1866
 31
0.0
  0
LINE
  5
C4
330
1E
100
AcDbEntity
  8
0
100
AcDbLine
 10
46.0
 20
60.85
 30
0.0
 11
46.0
 21
61.60709999999999
 31
0.0
  0
LINE
  5
C5
330
1E
100
AcDbEntity
  8
0
100
AcDbLine
 10
46.0
 20
60.1866
 30
0.0
 11
46.0
 21
60.85
 31
0.0
  0
LINE
  5
C6
330
1E
100
AcDbEntity
  8
0
100
AcDbLine
 10
46.0
 20
59.2103
 30
0.0
 11
46.0
 21
59.60259999999999
 31
0.0
  0
LINE
  5
C7
330
1E
100
AcDbEntity
  8
0
100
AcDbLine
 10
46.0
 20
57.6
 30
0.0
 11
46.0
 21
57.9
 31
0.0
  0
LINE
  5
C8
330
1E
100
AcDbEntity
  8
0
100
AcDbLine
 10
51.0
 20
26.0
 30
0.0
 11
51.0
 21
8.823499999999993
 31
0.0
  0
LINE
  5
C9
330
1E
100
AcDbEntity
  8
0
100
AcDbLine
 10
51.0
 20
61.0
 30
0.0
 11
51.0
 21
61.86399999999999
 31
0.0
  0
LINE
  5
CA
330
1E
100
AcDbEntity
  8
0
100
AcDbLine
 10
46.0
 20
61.60709999999999
 30
0.0
 11
46.0
 21
62.53849999999999
 31
0.0
  0
LINE
  5
CB
330
1E
100
AcDbEntity
  8
0
100
AcDbLine
 10
46.0
 20
62.53849999999999
 30
0.0
 11
46.0
 21
63.4424
 31
0.0
  0
LINE
  5
CC
330
1E
100
AcDbEntity
  8
0
100
AcDbLine
 10
46.0
 20
63.4424
 30
0.0
 11
46.0
 21
64.4966
 31
0.0
  0
LINE
  5
CD
330
1E
100
AcDbEntity
  8
0
100
AcDbLine
 10
46.0
 20
64.4966
 30
0.0
 11
46.0
 21
67.5
 31
0.0
  0
LINE
  5
CE
330
1E
100
AcDbEntity
  8
0
100
AcDbLine
 10
46.0
 20
85.0
 30
0.0
 11
46.0
 21
90.5
 31
0.0
  0
LINE
  5
CF
330
1E
100
AcDbEntity
  8
0
100
AcDbLine
 10
46.0
 20
90.5
 30
0.0
 11
46.0
 21
96.5
 31
0.0
  0
LINE
  5
D0
330
1E
100
AcDbEntity
  8
0
100
AcDbLine
 10
46.0
 20
79.5
 30
0.0
 11
46.0
 21
85.0
 31
0.0
  0
LINE
  5
D1
330
1E
100
AcDbEntity
  8
0
100
AcDbLine
 10
46.0
 20
108.3928999999999
 30
0.0
 11
46.0
 21
109.15
 31
0.0
  0
LINE
  5
D2
330
1E
100
AcDbEntity
  8
0
100
AcDbLine
 10
46.0
 20
107.4615
 30
0.0
 11
46.0
 21
108.3928999999999
 31
0.0
  0
LINE
  5
D3
330
1E
100
AcDbEntity
  8
0
100
AcDbLine
 10
46.0
 20
106.5575999999999
 30
0.0
 11
46.0
 21
107.4615
 31
0.0
  0
LINE
  5
D4
330
1E
100
AcDbEntity
  8
0
100
AcDbLine
 10
46.0
 20
105.5034
 30
0.0
 11
46.0
 21
106.5575999999999
 31
0.0
  0
LINE
  5
D5
330
1E
100
AcDbEntity
  8
0
100
AcDbLine
 10
46.0
 20
102.4999999999999
 30
0.0
 11
46.0
 21
105.5034
 31
0.0
  0
LINE
  5
D6
330
1E
100
AcDbEntity
  8
0
100
AcDbLine
 10
46.0
 20
96.5
 30
0.0
 11
46.0
 21
102.4999999999999
 31
0.0
  0
LINE
  5
D7
330
1E
100
AcDbEntity
  8
0
100
AcDbLine
 10
46.0
 20
109.8133999999999
 30
0.0
 11
46.0
 21
110.3974
 31
0.0
  0
LINE
  5
D8
330
1E
100
AcDbEntity
  8
0
100
AcDbLine
 10
46.0
 20
109.15
 30
0.0
 11
46.0
 21
109.8133999999999
 31
0.0
  0
LINE
  5
D9
330
1E
100
AcDbEntity
  8
0
100
AcDbLine
 10
46.0
 20
111.4999999999999
 30
0.0
 11
46.0
 21
112.0999999999999
 31
0.0
  0
LINE
  5
DA
330
1E
100
AcDbEntity
  8
0
100
AcDbLine
 10
46.0
 20
110.7896999999999
 30
0.0
 11
46.0
 21
111.0584999999999
 31
0.0
  0
LINE
  5
DB
330
1E
100
AcDbEntity
  8
0
100
AcDbLine
 10
46.0
 20
111.0584999999999
 30
0.0
 11
46.0
 21
111.4999999999999
 31
0.0
  0
LINE
  5
DC
330
1E
100
AcDbEntity
  8
0
100
AcDbLine
 10
46.0
 20
110.3974
 30
0.0
 11
46.0
 21
110.7896999999999
 31
0.0
  0
LINE
  5
DD
330
1E
100
AcDbEntity
  8
0
100
AcDbLine
 10
46.0
 20
112.0999999999999
 30
0.0
 11
46.0
 21
112.4
 31
0.0
  0
LINE
  5
DE
330
1E
100
AcDbEntity
  8
0
100
AcDbLine
 10
46.0
 20
112.4
 30
0.0
 11
46.0
 21
112.5
 31
0.0
  0
LINE
  5
DF
330
1E
100
AcDbEntity
  8
0
100
AcDbLine
 10
46.0
 20
73.5
 30
0.0
 11
46.0
 21
79.5
 31
0.0
  0
LINE
  5
E0
330
1E
100
AcDbEntity
  8
0
100
AcDbLine
 10
46.0
 20
67.5
 30
0.0
 11
46.0
 21
73.5
 31
0.0
  0
LINE
  5
E1
330
1E
100
AcDbEntity
  8
0
100
AcDbLine
 10
51.0
 20
78.85600000000001
 30
0.0
 11
51.0
 21
85.0
 31
0.0
  0
LINE
  5
E2
330
1E
100
AcDbEntity
  8
0
100
AcDbLine
 10
51.0
 20
73.09599999999997
 30
0.0
 11
51.0
 21
78.85600000000001
 31
0.0
  0
LINE
  5
E3
330
1E
100
AcDbEntity
  8
0
100
AcDbLine
 10
51.0
 20
68.00800000000001
 30
0.0
 11
51.0
 21
73.09599999999997
 31
0.0
  0
LINE
  5
E4
330
1E
100
AcDbEntity
  8
0
100
AcDbLine
 10
51.0
 20
64.16800000000001
 30
0.0
 11
51.0
 21
68.00800000000001
 31
0.0
  0
LINE
  5
E5
330
1E
100
AcDbEntity
  8
0
100
AcDbLine
 10
51.0
 20
61.86399999999999
 30
0.0
 11
51.0
 21
64.16800000000001
 31
0.0
  0
LINE
  5
E6
330
1E
100
AcDbEntity
  8
0
100
AcDbLine
 10
51.0
 20
85.0
 30
0.0
 11
51.0
 21
161.1765
 31
0.0
  0
LINE
  5
E7
330
1E
100
AcDbEntity
  8
0
100
AcDbLine
 10
51.0
 20
61.0
 30
0.0
 11
51.0
 21
8.823499999999993
 31
0.0
  0
LINE
  5
E8
330
1E
100
AcDbEntity
  8
0
100
AcDbLine
 10
51.0
 20
85.0
 30
0.0
 11
51.0
 21
91.14400000000001
 31
0.0
  0
LINE
  5
EB
330
1E
100
AcDbEntity
  8
0
100
AcDbLine
 10
65.0
 20
85.0
 30
0.0
 11
65.0
 21
126.1765
 31
0.0
  0
LINE
  5
EC
330
1E
100
AcDbEntity
  8
0
100
AcDbLine
 10
65.0
 20
85.0
 30
0.0
 11
65.0
 21
8.823499999999993
 31
0.0
  0
LINE
  5
ED
330
1E
100
AcDbEntity
  8
0
100
AcDbLine
 10
51.0
 20
105.8319999999999
 30
0.0
 11
51.0
 21
108.136
 31
0.0
  0
LINE
  5
EE
330
1E
100
AcDbEntity
  8
0
100
AcDbLine
 10
51.0
 20
108.136
 30
0.0
 11
51.0
 21
109.0
 31
0.0
  0
LINE
  5
EF
330
1E
100
AcDbEntity
  8
0
100
AcDbLine
 10
51.0
 20
109.0
 30
0.0
 11
51.0
 21
161.1765
 31
0.0
  0
LINE
  5
F0
330
1E
100
AcDbEntity
  8
0
100
AcDbLine
 10
51.0
 20
91.14400000000001
 30
0.0
 11
51.0
 21
96.904
 31
0.0
  0
LINE
  5
F1
330
1E
100
AcDbEntity
  8
0
100
AcDbLine
 10
46.0
 20
109.0
 30
0.0
 11
51.0
 21
109.0
 31
0.0
  0
LINE
  5
F2
330
1E
100
AcDbEntity
  8
0
100
AcDbLine
 10
46.0
 20
61.0
 30
0.0
 11
51.0
 21
61.0
 31
0.0
  0
LINE
  5
F3
330
1E
100
AcDbEntity
  8
0
100
AcDbLine
 10
31.0
 20
112.5
 30
0.0
 11
46.0
 21
112.5
 31
0.0
  0
LINE
  5
F4
330
1E
100
AcDbEntity
  8
0
100
AcDbLine
 10
31.0
 20
112.5
 30
0.0
 11
31.0
 21
115.7
 31
0.0
  0
LINE
  5
F5
330
1E
100
AcDbEntity
  8
0
100
AcDbLine
 10
27.0
 20
116.0
 30
0.0
 11
28.008
 21
116.0
 31
0.0
  0
LINE
  5
F6
330
1E
100
AcDbEntity
  8
0
100
AcDbLine
 10
28.008
 20
116.0
 30
0.0
 11
28.936
 21
116.0
 31
0.0
  0
LINE
  5
F7
330
1E
100
AcDbEntity
  8
0
100
AcDbLine
 10
28.936
 20
116.0
 30
0.0
 11
29.752
 21
116.0
 31
0.0
  0
LINE
  5
F8
330
1E
100
AcDbEntity
  8
0
100
AcDbLine
 10
29.752
 20
116.0
 30
0.0
 11
30.37599999999999
 21
116.0
 31
0.0
  0
LINE
  5
F9
330
1E
100
AcDbEntity
  8
0
100
AcDbLine
 10
30.37599999999999
 20
116.0
 30
0.0
 11
30.76
 21
116.0
 31
0.0
  0
LINE
  5
FA
330
1E
100
AcDbEntity
  8
0
100
AcDbLine
 10
30.76
 20
116.0
 30
0.0
 11
30.904
 21
116.0
 31
0.0
  0
LINE
  5
FB
330
1E
100
AcDbEntity
  8
0
100
AcDbLine
 10
25.99199999999999
 20
116.0
 30
0.0
 11
27.0
 21
116.0
 31
0.0
  0
LINE
  5
FC
330
1E
100
AcDbEntity
  8
0
100
AcDbLine
 10
25.064
 20
116.0
 30
0.0
 11
25.99199999999999
 21
116.0
 31
0.0
  0
LINE
  5
FD
330
1E
100
AcDbEntity
  8
0
100
AcDbLine
 10
24.248
 20
116.0
 30
0.0
 11
25.064
 21
116.0
 31
0.0
  0
LINE
  5
FE
330
1E
100
AcDbEntity
  8
0
100
AcDbLine
 10
23.624
 20
116.0
 30
0.0
 11
24.248
 21
116.0
 31
0.0
  0
LINE
  5
FF
330
1E
100
AcDbEntity
  8
0
100
AcDbLine
 10
23.23999999999999
 20
116.0
 30
0.0
 11
23.624
 21
116.0
 31
0.0
  0
LINE
  5
100
330
1E
100
AcDbEntity
  8
0
100
AcDbLine
 10
23.096
 20
116.0
 30
0.0
 11
23.23999999999999
 21
116.0
 31
0.0
  0
LINE
  5
101
330
1E
100
AcDbEntity
  8
0
100
AcDbLine
 10
23.0
 20
115.7
 30
0.0
 11
23.096
 21
116.0
 31
0.0
  0
LINE
  5
102
330
1E
100
AcDbEntity
  8
0
100
AcDbLine
 10
23.0
 20
115.7
 30
0.0
 11
23.0
 21
112.5
 31
0.0
  0
LINE
  5
103
330
1E
100
AcDbEntity
  8
0
100
AcDbLine
 10
30.904
 20
116.0
 30
0.0
 11
31.0
 21
115.7
 31
0.0
  0
LINE
  5
104
330
1E
100
AcDbEntity
  8
0
100
AcDbLine
 10
31.0
 20
115.7
 30
0.0
 11
31.0
 21
112.5
 31
0.0
  0
LINE
  5
10E
330
1E
100
AcDbEntity
  8
0
100
AcDbLine
 10
51.0
 20
161.1765
 30
0.0
 11
51.0
 21
169.3529
 31
0.0
  0
LINE
  5
110
330
1E
100
AcDbEntity
  8
0
100
AcDbLine
 10
51.0
 20
169.3529
 30
0.0
 11
51.0
 21
169.4118
 31
0.0
  0
LINE
  5
111
330
1E
100
AcDbEntity
  8
0
100
AcDbLine
 10
51.0
 20
169.3529
 30
0.0
 11
51.0
 21
161.1765
 31
0.0
  0
LINE
  5
112
330
1E
100
AcDbEntity
  8
0
100
AcDbLine
 10
51.0
 20
169.4118
 30
0.0
 11
51.0
 21
169.3529
 31
0.0
  0
LINE
  5
113
330
1E
100
AcDbEntity
  8
0
100
AcDbLine
 10
51.0
 20
169.4118
 30
0.0
 11
51.29999999999999
 21
169.8234999999999
 31
0.0
  0
LINE
  5
12C
330
1E
100
AcDbEntity
  8
0
100
AcDbLine
 10
65.0
 20
168.1765
 30
0.0
 11
65.0
 21
167.4117999999999
 31
0.0
  0
LINE
  5
12D
330
1E
100
AcDbEntity
  8
0
100
AcDbLine
 10
65.0
 20
168.1765
 30
0.0
 11
65.0
 21
168.8234999999998
 31
0.0
  0
LINE
  5
12E
330
1E
100
AcDbEntity
  8
0
100
AcDbLine
 10
65.0
 20
168.8234999999998
 30
0.0
 11
65.0
 21
168.1765
 31
0.0
  0
LINE
  5
12F
330
1E
100
AcDbEntity
  8
0
100
AcDbLine
 10
65.0
 20
168.8234999999998
 30
0.0
 11
65.0
 21
169.2940999999999
 31
0.0
  0
LINE
  5
134
330
1E
100
AcDbEntity
  8
0
100
AcDbLine
 10
65.0
 20
169.2940999999999
 30
0.0
 11
65.0
 21
168.8234999999998
 31
0.0
  0
LINE
  5
135
330
1E
100
AcDbEntity
  8
0
100
AcDbLine
 10
65.0
 20
169.2940999999999
 30
0.0
 11
65.0
 21
169.7058999999998
 31
0.0
  0
LINE
  5
136
330
1E
100
AcDbEntity
  8
0
100
AcDbLine
 10
65.0
 20
169.7058999999998
 30
0.0
 11
65.0
 21
169.2940999999999
 31
0.0
  0
LINE
  5
137
330
1E
100
AcDbEntity
  8
0
100
AcDbLine
 10
65.0
 20
169.7058999999998
 30
0.0
 11
65.0
 21
169.8823999999999
 31
0.0
  0
LINE
  5
13A
330
1E
100
AcDbEntity
  8
0
100
AcDbLine
 10
65.0
 20
167.4117999999999
 30
0.0
 11
65.0
 21
166.5294
 31
0.0
  0
LINE
  5
13B
330
1E
100
AcDbEntity
  8
0
100
AcDbLine
 10
65.0
 20
167.4117999999999
 30
0.0
 11
65.0
 21
168.1765
 31
0.0
  0
LINE
  5
13C
330
1E
100
AcDbEntity
  8
0
100
AcDbLine
 10
65.0
 20
166.5294
 30
0.0
 11
65.0
 21
165.5882
 31
0.0
  0
LINE
  5
13D
330
1E
100
AcDbEntity
  8
0
100
AcDbLine
 10
65.0
 20
166.5294
 30
0.0
 11
65.0
 21
167.4117999999999
 31
0.0
  0
LINE
  5
13E
330
1E
100
AcDbEntity
  8
0
100
AcDbLine
 10
65.0
 20
165.5882
 30
0.0
 11
65.0
 21
164.5293999999998
 31
0.0
  0
LINE
  5
13F
330
1E
100
AcDbEntity
  8
0
100
AcDbLine
 10
65.0
 20
165.5882
 30
0.0
 11
65.0
 21
166.5294
 31
0.0
  0
LINE
  5
140
330
1E
100
AcDbEntity
  8
0
100
AcDbLine
 10
65.0
 20
164.5293999999998
 30
0.0
 11
65.0
 21
128.4705999999999
 31
0.0
  0
LINE
  5
141
330
1E
100
AcDbEntity
  8
0
100
AcDbLine
 10
65.0
 20
164.5293999999998
 30
0.0
 11
65.0
 21
165.5882
 31
0.0
  0
LINE
  5
142
330
1E
100
AcDbEntity
  8
0
100
AcDbLine
 10
65.0
 20
128.4705999999999
 30
0.0
 11
65.0
 21
127.3529
 31
0.0
  0
LINE
  5
143
330
1E
100
AcDbEntity
  8
0
100
AcDbLine
 10
65.0
 20
128.4705999999999
 30
0.0
 11
65.0
 21
164.5293999999998
 31
0.0
  0
LINE
  5
144
330
1E
100
AcDbEntity
  8
0
100
AcDbLine
 10
65.0
 20
127.3529
 30
0.0
 11
65.0
 21
126.1765
 31
0.0
  0
LINE
  5
145
330
1E
100
AcDbEntity
  8
0
100
AcDbLine
 10
65.0
 20
127.3529
 30
0.0
 11
65.0
 21
128.4705999999999
 31
0.0
  0
LINE
  5
146
330
1E
100
AcDbEntity
  8
0
100
AcDbLine
 10
65.0
 20
126.1765
 30
0.0
 11
65.0
 21
85.0
 31
0.0
  0
LINE
  5
147
330
1E
100
AcDbEntity
  8
0
100
AcDbLine
 10
65.0
 20
126.1765
 30
0.0
 11
65.0
 21
127.3529
 31
0.0
  0
LINE
  5
148
330
1E
100
AcDbEntity
  8
0
100
AcDbLine
 10
52.0
 20
170.0
 30
0.0
 11
65.0
 21
170.0
 31
0.0
  0
LINE
  5
149
330
1E
100
AcDbEntity
  8
0
100
AcDbLine
 10
65.0
 20
169.8823999999999
 30
0.0
 11
65.0
 21
169.7058999999998
 31
0.0
  0
LINE
  5
14A
330
1E
100
AcDbEntity
  8
0
100
AcDbLine
 10
65.0
 20
169.8823999999999
 30
0.0
 11
65.0
 21
170.0
 31
0.0
  0
LINE
  5
14B
330
1E
100
AcDbEntity
  8
0
100
AcDbLine
 10
65.0
 20
170.0
 30
0.0
 11
65.0
 21
169.8823999999999
 31
0.0
  0
LINE
  5
14C
330
1E
100
AcDbEntity
  8
0
100
AcDbLine
 10
51.29999999999999
 20
169.8234999999999
 30
0.0
 11
52.0
 21
170.0
 31
0.0
  0
LINE
  5
14F
330
1E
100
AcDbEntity
  8
0
100
AcDbLine
 10
51.0
 20
161.1765
 30
0.0
 11
51.0
 21
109.0
 31
0.0
  0
LINE
  5
150
330
1E
100
AcDbEntity
  8
0
100
AcDbLine
 10
1.0
 20
112.5
 30
0.0
 11
23.0
 21
112.5
 31
0.0
  0
LINE
  5
151
330
1E
100
AcDbEntity
  8
0
100
AcDbLine
 10
0.300000000000005
 20
112.2
 30
0.0
 11
1.0
 21
112.5
 31
0.0
  0
LINE
  5
153
330
1E
100
AcDbEntity
  8
0
100
AcDbLine
 10
1.0
 20
57.5
 30
0.0
 11
46.0
 21
57.5
 31
0.0
  0
LINE
  5
154
330
1E
100
AcDbEntity
  8
0
100
AcDbLine
 10
0.300000000000002
 20
57.8
 30
0.0
 11
1.0
 21
57.5
 31
0.0
  0
LINE
  5
159
330
1E
100
AcDbEntity
  8
0
100
AcDbLine
 10
31.0
 20
112.5
 30
0.0
 11
23.0
 21
112.5
 31
0.0
  0
LINE
  5
15A
330
1E
100
AcDbEntity
  8
0
100
AcDbLine
 10
51.0
 20
0.5882000000000005
 30
0.0
 11
51.29999999999999
 21
0.1764999999999972
 31
0.0
  0
LINE
  5
404
330
1E
100
AcDbEntity
  8
0
100
AcDbLine
 10
65.0
 20
77.03789999999999
 30
0.0
 11
65.0
 21
77.29890000000001
 31
0.0
  0
LINE
  5
405
330
1E
100
AcDbEntity
  8
0
100
AcDbLine
 10
104.0
 20
24.0
 30
0.0
 11
131.0
 21
24.0
 31
0.0
  0
LINE
  5
406
330
1E
100
AcDbEntity
  8
0
100
AcDbLine
 10
65.0
 20
143.3789999999999
 30
0.0
 11
65.0
 21
143.9999999999999
 31
0.0
  0
LINE
  5
407
330
1E
100
AcDbEntity
  8
0
100
AcDbLine
 10
65.0
 20
145.358
 30
0.0
 11
65.0
 21
145.9999999999999
 31
0.0
  0
LINE
  5
408
330
1E
100
AcDbEntity
  8
0
100
AcDbLine
 10
65.0
 20
145.9999999999999
 30
0.0
 11
100.0
 21
145.9999999999999
 31
0.0
  0
LINE
  5
409
330
1E
100
AcDbEntity
  8
0
100
AcDbLine
 10
104.0
 20
145.9999999999999
 30
0.0
 11
131.0
 21
145.9999999999999
 31
0.0
  0
LINE
  5
40A
330
1E
100
AcDbEntity
  8
0
100
AcDbLine
 10
100.0
 20
160.4999999999999
 30
0.0
 11
104.0
 21
160.4999999999999
 31
0.0
  0
LINE
  5
40B
330
1E
100
AcDbEntity
  8
0
100
AcDbLine
 10
104.0
 20
159.972
 30
0.0
 11
104.0
 21
160.3559999999999
 31
0.0
  0
LINE
  5
40C
330
1E
100
AcDbEntity
  8
0
100
AcDbLine
 10
104.0
 20
159.972
 30
0.0
 11
104.0
 21
159.3319999999999
 31
0.0
  0
LINE
  5
40D
330
1E
100
AcDbEntity
  8
0
100
AcDbLine
 10
104.0
 20
159.972
 30
0.0
 11
104.0
 21
160.4999999999999
 31
0.0
  0
LINE
  5
40E
330
1E
100
AcDbEntity
  8
0
100
AcDbLine
 10
104.0
 20
160.4999999999999
 30
0.0
 11
104.0
 21
159.972
 31
0.0
  0
LINE
  5
40F
330
1E
100
AcDbEntity
  8
0
100
AcDbLine
 10
104.0
 20
160.3559999999999
 30
0.0
 11
104.0
 21
159.972
 31
0.0
  0
LINE
  5
410
330
1E
100
AcDbEntity
  8
0
100
AcDbLine
 10
104.0
 20
157.5239999999999
 30
0.0
 11
104.0
 21
158.4839999999999
 31
0.0
  0
LINE
  5
411
330
1E
100
AcDbEntity
  8
0
100
AcDbLine
 10
104.0
 20
157.5239999999999
 30
0.0
 11
104.0
 21
156.4999999999999
 31
0.0
  0
LINE
  5
412
330
1E
100
AcDbEntity
  8
0
100
AcDbLine
 10
131.0
 20
148.0
 30
0.0
 11
131.7199999999999
 21
148.0
 31
0.0
  0
LINE
  5
413
330
1E
100
AcDbEntity
  8
0
100
AcDbLine
 10
131.0
 20
148.0
 30
0.0
 11
131.0
 21
145.9999999999999
 31
0.0
  0
LINE
  5
414
330
1E
100
AcDbEntity
  8
0
100
AcDbLine
 10
131.7199999999999
 20
148.0
 30
0.0
 11
133.6399999999999
 21
148.0
 31
0.0
  0
LINE
  5
415
330
1E
100
AcDbEntity
  8
0
100
AcDbLine
 10
133.6399999999999
 20
148.0
 30
0.0
 11
136.84
 21
148.0
 31
0.0
  0
LINE
  5
416
330
1E
100
AcDbEntity
  8
0
100
AcDbLine
 10
136.84
 20
148.0
 30
0.0
 11
141.0799999999999
 21
148.0
 31
0.0
  0
LINE
  5
417
330
1E
100
AcDbEntity
  8
0
100
AcDbLine
 10
141.0799999999999
 20
148.0
 30
0.0
 11
145.8799999999999
 21
148.0
 31
0.0
  0
LINE
  5
418
330
1E
100
AcDbEntity
  8
0
100
AcDbLine
 10
145.8799999999999
 20
148.0
 30
0.0
 11
146.6479999999999
 21
148.0
 31
0.0
  0
LINE
  5
419
330
1E
100
AcDbEntity
  8
0
100
AcDbLine
 10
145.8799999999999
 20
148.0
 30
0.0
 11
151.0
 21
148.0
 31
0.0
  0
LINE
  5
41A
330
1E
100
AcDbEntity
  8
0
100
AcDbLine
 10
170.2799999999999
 20
148.0
 30
0.0
 11
171.0
 21
148.0
 31
0.0
  0
LINE
  5
41B
330
1E
100
AcDbEntity
  8
0
100
AcDbLine
 10
168.36
 20
148.0
 30
0.0
 11
170.2799999999999
 21
148.0
 31
0.0
  0
LINE
  5
41C
330
1E
100
AcDbEntity
  8
0
100
AcDbLine
 10
171.0
 20
148.0
 30
0.0
 11
171.0
 21
145.9999999999999
 31
0.0
  0
LINE
  5
41D
330
1E
100
AcDbEntity
  8
0
100
AcDbLine
 10
165.1599999999999
 20
148.0
 30
0.0
 11
168.36
 21
148.0
 31
0.0
  0
LINE
  5
41E
330
1E
100
AcDbEntity
  8
0
100
AcDbLine
 10
160.92
 20
148.0
 30
0.0
 11
165.1599999999999
 21
148.0
 31
0.0
  0
LINE
  5
41F
330
1E
100
AcDbEntity
  8
0
100
AcDbLine
 10
156.12
 20
148.0
 30
0.0
 11
160.92
 21
148.0
 31
0.0
  0
LINE
  5
420
330
1E
100
AcDbEntity
  8
0
100
AcDbLine
 10
151.0
 20
148.0
 30
0.0
 11
156.12
 21
148.0
 31
0.0
  0
LINE
  5
421
330
1E
100
AcDbEntity
  8
0
100
AcDbLine
 10
104.0
 20
158.4839999999999
 30
0.0
 11
104.0
 21
159.3319999999999
 31
0.0
  0
LINE
  5
422
330
1E
100
AcDbEntity
  8
0
100
AcDbLine
 10
104.0
 20
158.4839999999999
 30
0.0
 11
104.0
 21
157.5239999999999
 31
0.0
  0
LINE
  5
423
330
1E
100
AcDbEntity
  8
0
100
AcDbLine
 10
104.0
 20
159.3319999999999
 30
0.0
 11
104.0
 21
159.972
 31
0.0
  0
LINE
  5
424
330
1E
100
AcDbEntity
  8
0
100
AcDbLine
 10
104.0
 20
159.3319999999999
 30
0.0
 11
104.0
 21
158.4839999999999
 31
0.0
  0
LINE
  5
425
330
1E
100
AcDbEntity
  8
0
100
AcDbLine
 10
104.0
 20
156.4999999999999
 30
0.0
 11
104.0
 21
135.4789999999999
 31
0.0
  0
LINE
  5
426
330
1E
100
AcDbEntity
  8
0
100
AcDbLine
 10
104.0
 20
156.4999999999999
 30
0.0
 11
104.0
 21
157.5239999999999
 31
0.0
  0
LINE
  5
427
330
1E
100
AcDbEntity
  8
0
100
AcDbLine
 10
171.0
 20
145.9999999999999
 30
0.0
 11
171.0
 21
148.0
 31
0.0
  0
LINE
  5
428
330
1E
100
AcDbEntity
  8
0
100
AcDbLine
 10
171.0
 20
145.9999999999999
 30
0.0
 11
173.0
 21
145.9999999999999
 31
0.0
  0
LINE
  5
429
330
1E
100
AcDbEntity
  8
0
100
AcDbLine
 10
173.0
 20
145.9999999999999
 30
0.0
 11
173.0
 21
145.358
 31
0.0
  0
LINE
  5
42A
330
1E
100
AcDbEntity
  8
0
100
AcDbLine
 10
131.0
 20
145.9999999999999
 30
0.0
 11
131.0
 21
148.0
 31
0.0
  0
LINE
  5
42B
330
1E
100
AcDbEntity
  8
0
100
AcDbLine
 10
131.0
 20
145.9999999999999
 30
0.0
 11
131.7199999999999
 21
145.9999999999999
 31
0.0
  0
LINE
  5
42C
330
1E
100
AcDbEntity
  8
0
100
AcDbLine
 10
131.0
 20
145.9999999999999
 30
0.0
 11
131.7199999999999
 21
145.5929999999999
 31
0.0
  0
LINE
  5
42D
330
1E
100
AcDbEntity
  8
0
100
AcDbLine
 10
131.7199999999999
 20
145.5929999999999
 30
0.0
 11
133.6399999999999
 21
144.9119999999998
 31
0.0
  0
LINE
  5
42E
330
1E
100
AcDbEntity
  8
0
100
AcDbLine
 10
170.2799999999999
 20
145.5929999999999
 30
0.0
 11
171.0
 21
145.9999999999999
 31
0.0
  0
LINE
  5
42F
330
1E
100
AcDbEntity
  8
0
100
AcDbLine
 10
170.2799999999999
 20
145.9999999999999
 30
0.0
 11
171.0
 21
145.9999999999999
 31
0.0
  0
LINE
  5
430
330
1E
100
AcDbEntity
  8
0
100
AcDbLine
 10
168.36
 20
145.9999999999999
 30
0.0
 11
170.2799999999999
 21
145.9999999999999
 31
0.0
  0
LINE
  5
431
330
1E
100
AcDbEntity
  8
0
100
AcDbLine
 10
165.1599999999999
 20
145.9999999999999
 30
0.0
 11
168.36
 21
145.9999999999999
 31
0.0
  0
LINE
  5
432
330
1E
100
AcDbEntity
  8
0
100
AcDbLine
 10
160.92
 20
145.9999999999999
 30
0.0
 11
165.1599999999999
 21
145.9999999999999
 31
0.0
  0
LINE
  5
433
330
1E
100
AcDbEntity
  8
0
100
AcDbLine
 10
156.12
 20
145.9999999999999
 30
0.0
 11
160.92
 21
145.9999999999999
 31
0.0
  0
LINE
  5
434
330
1E
100
AcDbEntity
  8
0
100
AcDbLine
 10
151.0
 20
145.9999999999999
 30
0.0
 11
156.12
 21
145.9999999999999
 31
0.0
  0
LINE
  5
435
330
1E
100
AcDbEntity
  8
0
100
AcDbLine
 10
133.6399999999999
 20
145.9999999999999
 30
0.0
 11
136.84
 21
145.9999999999999
 31
0.0
  0
LINE
  5
436
330
1E
100
AcDbEntity
  8
0
100
AcDbLine
 10
136.84
 20
145.9999999999999
 30
0.0
 11
141.0799999999999
 21
145.9999999999999
 31
0.0
  0
LINE
  5
437
330
1E
100
AcDbEntity
  8
0
100
AcDbLine
 10
141.0799999999999
 20
145.9999999999999
 30
0.0
 11
145.8799999999999
 21
145.9999999999999
 31
0.0
  0
LINE
  5
438
330
1E
100
AcDbEntity
  8
0
100
AcDbLine
 10
145.8799999999999
 20
145.9999999999999
 30
0.0
 11
151.0
 21
145.9999999999999
 31
0.0
  0
LINE
  5
439
330
1E
100
AcDbEntity
  8
0
100
AcDbLine
 10
131.7199999999999
 20
145.9999999999999
 30
0.0
 11
133.6399999999999
 21
145.9999999999999
 31
0.0
  0
LINE
  5
43A
330
1E
100
AcDbEntity
  8
0
100
AcDbLine
 10
65.0
 20
143.817
 30
0.0
 11
65.0
 21
145.358
 31
0.0
  0
LINE
  5
43B
330
1E
100
AcDbEntity
  8
0
100
AcDbLine
 10
65.0
 20
143.9999999999999
 30
0.0
 11
65.0
 21
145.358
 31
0.0
  0
LINE
  5
43C
330
1E
100
AcDbEntity
  8
0
100
AcDbLine
 10
133.6399999999999
 20
144.9119999999998
 30
0.0
 11
136.84
 21
144.11
 31
0.0
  0
LINE
  5
43D
330
1E
100
AcDbEntity
  8
0
100
AcDbLine
 10
136.84
 20
144.11
 30
0.0
 11
141.0799999999999
 21
143.2599999999998
 31
0.0
  0
LINE
  5
43E
330
1E
100
AcDbEntity
  8
0
100
AcDbLine
 10
168.36
 20
144.9119999999998
 30
0.0
 11
170.2799999999999
 21
145.5929999999999
 31
0.0
  0
LINE
  5
43F
330
1E
100
AcDbEntity
  8
0
100
AcDbLine
 10
173.0
 20
145.358
 30
0.0
 11
173.0
 21
144.601
 31
0.0
  0
LINE
  5
440
330
1E
100
AcDbEntity
  8
0
100
AcDbLine
 10
173.0
 20
145.358
 30
0.0
 11
173.0
 21
145.9999999999999
 31
0.0
  0
LINE
  5
441
330
1E
100
AcDbEntity
  8
0
100
AcDbLine
 10
173.0
 20
144.601
 30
0.0
 11
173.0
 21
144.3489999999999
 31
0.0
  0
LINE
  5
442
330
1E
100
AcDbEntity
  8
0
100
AcDbLine
 10
173.0
 20
144.601
 30
0.0
 11
173.0
 21
145.358
 31
0.0
  0
LINE
  5
443
330
1E
100
AcDbEntity
  8
0
100
AcDbLine
 10
173.0
 20
144.3489999999999
 30
0.0
 11
173.0
 21
144.601
 31
0.0
  0
LINE
  5
444
330
1E
100
AcDbEntity
  8
0
100
AcDbLine
 10
173.0
 20
144.3489999999999
 30
0.0
 11
173.0
 21
143.677
 31
0.0
  0
LINE
  5
445
330
1E
100
AcDbEntity
  8
0
100
AcDbLine
 10
167.119102244389
 20
144.601
 30
0.0
 11
168.36
 21
144.9119999999998
 31
0.0
  0
LINE
  5
446
330
1E
100
AcDbEntity
  8
0
100
AcDbLine
 10
165.1599999999999
 20
144.11
 30
0.0
 11
167.119102244389
 21
144.601
 31
0.0
  0
LINE
  5
447
330
1E
100
AcDbEntity
  8
0
100
AcDbLine
 10
173.0
 20
115.372
 30
0.0
 11
173.0
 21
115.5899999999999
 31
0.0
  0
LINE
  5
448
330
1E
100
AcDbEntity
  8
0
100
AcDbLine
 10
173.0
 20
115.372
 30
0.0
 11
173.0
 21
108.3084
 31
0.0
  0
LINE
  5
449
330
1E
100
AcDbEntity
  8
0
100
AcDbLine
 10
173.0
 20
115.5899999999999
 30
0.0
 11
173.0
 21
131.525
 31
0.0
  0
LINE
  5
44A
330
1E
100
AcDbEntity
  8
0
100
AcDbLine
 10
173.0
 20
115.5899999999999
 30
0.0
 11
173.0
 21
115.372
 31
0.0
  0
LINE
  5
44B
330
1E
100
AcDbEntity
  8
0
100
AcDbLine
 10
141.0799999999999
 20
143.2599999999998
 30
0.0
 11
145.8799999999999
 21
142.6039999999999
 31
0.0
  0
LINE
  5
44C
330
1E
100
AcDbEntity
  8
0
100
AcDbLine
 10
145.8799999999999
 20
142.6039999999999
 30
0.0
 11
151.0
 21
142.3499999999999
 31
0.0
  0
LINE
  5
44D
330
1E
100
AcDbEntity
  8
0
100
AcDbLine
 10
160.92
 20
143.2599999999998
 30
0.0
 11
165.1599999999999
 21
144.11
 31
0.0
  0
LINE
  5
44E
330
1E
100
AcDbEntity
  8
0
100
AcDbLine
 10
173.0
 20
143.677
 30
0.0
 11
173.0
 21
144.3489999999999
 31
0.0
  0
LINE
  5
44F
330
1E
100
AcDbEntity
  8
0
100
AcDbLine
 10
173.0
 20
143.677
 30
0.0
 11
173.0
 21
142.557
 31
0.0
  0
LINE
  5
450
330
1E
100
AcDbEntity
  8
0
100
AcDbLine
 10
156.12
 20
142.6039999999999
 30
0.0
 11
160.92
 21
143.2599999999998
 31
0.0
  0
LINE
  5
451
330
1E
100
AcDbEntity
  8
0
100
AcDbLine
 10
173.0
 20
139.393
 30
0.0
 11
173.0
 21
141.0729999999998
 31
0.0
  0
LINE
  5
452
330
1E
100
AcDbEntity
  8
0
100
AcDbLine
 10
173.0
 20
139.393
 30
0.0
 11
173.0
 21
137.6009999999999
 31
0.0
  0
LINE
  5
453
330
1E
100
AcDbEntity
  8
0
100
AcDbLine
 10
173.0
 20
141.0729999999998
 30
0.0
 11
173.0
 21
142.557
 31
0.0
  0
LINE
  5
454
330
1E
100
AcDbEntity
  8
0
100
AcDbLine
 10
173.0
 20
141.0729999999998
 30
0.0
 11
173.0
 21
139.393
 31
0.0
  0
LINE
  5
455
330
1E
100
AcDbEntity
  8
0
100
AcDbLine
 10
173.0
 20
142.557
 30
0.0
 11
173.0
 21
143.677
 31
0.0
  0
LINE
  5
456
330
1E
100
AcDbEntity
  8
0
100
AcDbLine
 10
173.0
 20
142.557
 30
0.0
 11
173.0
 21
141.0729999999998
 31
0.0
  0
LINE
  5
457
330
1E
100
AcDbEntity
  8
0
100
AcDbLine
 10
173.0
 20
137.6009999999999
 30
0.0
 11
173.0
 21
135.809
 31
0.0
  0
LINE
  5
458
330
1E
100
AcDbEntity
  8
0
100
AcDbLine
 10
173.0
 20
137.6009999999999
 30
0.0
 11
173.0
 21
139.393
 31
0.0
  0
LINE
  5
459
330
1E
100
AcDbEntity
  8
0
100
AcDbLine
 10
173.0
 20
135.809
 30
0.0
 11
173.0
 21
134.1289999999998
 31
0.0
  0
LINE
  5
45A
330
1E
100
AcDbEntity
  8
0
100
AcDbLine
 10
173.0
 20
135.809
 30
0.0
 11
173.0
 21
137.6009999999999
 31
0.0
  0
LINE
  5
45B
330
1E
100
AcDbEntity
  8
0
100
AcDbLine
 10
173.0
 20
134.1289999999998
 30
0.0
 11
173.0
 21
132.6449999999999
 31
0.0
  0
LINE
  5
45C
330
1E
100
AcDbEntity
  8
0
100
AcDbLine
 10
173.0
 20
134.1289999999998
 30
0.0
 11
173.0
 21
135.809
 31
0.0
  0
LINE
  5
45D
330
1E
100
AcDbEntity
  8
0
100
AcDbLine
 10
173.0
 20
132.6449999999999
 30
0.0
 11
173.0
 21
131.525
 31
0.0
  0
LINE
  5
45E
330
1E
100
AcDbEntity
  8
0
100
AcDbLine
 10
173.0
 20
132.6449999999999
 30
0.0
 11
173.0
 21
134.1289999999998
 31
0.0
  0
LINE
  5
45F
330
1E
100
AcDbEntity
  8
0
100
AcDbLine
 10
173.0
 20
131.525
 30
0.0
 11
173.0
 21
115.5899999999999
 31
0.0
  0
LINE
  5
460
330
1E
100
AcDbEntity
  8
0
100
AcDbLine
 10
173.0
 20
131.525
 30
0.0
 11
173.0
 21
132.6449999999999
 31
0.0
  0
LINE
  5
461
330
1E
100
AcDbEntity
  8
0
100
AcDbLine
 10
151.0
 20
142.3499999999999
 30
0.0
 11
156.12
 21
142.6039999999999
 31
0.0
  0
LINE
  5
462
330
1E
100
AcDbEntity
  8
0
100
AcDbLine
 10
100.0
 20
116.2479999999999
 30
0.0
 11
100.0
 21
123.3039999999999
 31
0.0
  0
LINE
  5
463
330
1E
100
AcDbEntity
  8
0
100
AcDbLine
 10
100.0
 20
116.2479999999999
 30
0.0
 11
100.0
 21
108.9399999999999
 31
0.0
  0
LINE
  5
464
330
1E
100
AcDbEntity
  8
0
100
AcDbLine
 10
100.0
 20
123.3039999999999
 30
0.0
 11
100.0
 21
129.352
 31
0.0
  0
LINE
  5
465
330
1E
100
AcDbEntity
  8
0
100
AcDbLine
 10
100.0
 20
123.3039999999999
 30
0.0
 11
100.0
 21
116.2479999999999
 31
0.0
  0
LINE
  5
466
330
1E
100
AcDbEntity
  8
0
100
AcDbLine
 10
104.0
 20
135.3349999999999
 30
0.0
 11
104.0
 21
135.4789999999999
 31
0.0
  0
LINE
  5
467
330
1E
100
AcDbEntity
  8
0
100
AcDbLine
 10
104.0
 20
135.3349999999999
 30
0.0
 11
104.0
 21
134.951
 31
0.0
  0
LINE
  5
468
330
1E
100
AcDbEntity
  8
0
100
AcDbLine
 10
104.0
 20
135.3349999999999
 30
0.0
 11
104.0
 21
155.4759999999999
 31
0.0
  0
LINE
  5
469
330
1E
100
AcDbEntity
  8
0
100
AcDbLine
 10
104.0
 20
135.4789999999999
 30
0.0
 11
104.0
 21
135.3349999999999
 31
0.0
  0
LINE
  5
46A
330
1E
100
AcDbEntity
  8
0
100
AcDbLine
 10
104.0
 20
135.4789999999999
 30
0.0
 11
104.0
 21
156.4999999999999
 31
0.0
  0
LINE
  5
46B
330
1E
100
AcDbEntity
  8
0
100
AcDbLine
 10
104.0
 20
129.352
 30
0.0
 11
104.0
 21
129.495
 31
0.0
  0
LINE
  5
46C
330
1E
100
AcDbEntity
  8
0
100
AcDbLine
 10
104.0
 20
129.495
 30
0.0
 11
104.0
 21
130.4549999999998
 31
0.0
  0
LINE
  5
46D
330
1E
100
AcDbEntity
  8
0
100
AcDbLine
 10
104.0
 20
129.495
 30
0.0
 11
104.0
 21
129.352
 31
0.0
  0
LINE
  5
46E
330
1E
100
AcDbEntity
  8
0
100
AcDbLine
 10
104.0
 20
132.5029999999999
 30
0.0
 11
104.0
 21
133.4629999999999
 31
0.0
  0
LINE
  5
46F
330
1E
100
AcDbEntity
  8
0
100
AcDbLine
 10
104.0
 20
132.5029999999999
 30
0.0
 11
104.0
 21
131.4789999999999
 31
0.0
  0
LINE
  5
470
330
1E
100
AcDbEntity
  8
0
100
AcDbLine
 10
104.0
 20
133.4629999999999
 30
0.0
 11
104.0
 21
134.311
 31
0.0
  0
LINE
  5
471
330
1E
100
AcDbEntity
  8
0
100
AcDbLine
 10
104.0
 20
133.4629999999999
 30
0.0
 11
104.0
 21
132.5029999999999
 31
0.0
  0
LINE
  5
472
330
1E
100
AcDbEntity
  8
0
100
AcDbLine
 10
104.0
 20
134.311
 30
0.0
 11
104.0
 21
134.951
 31
0.0
  0
LINE
  5
473
330
1E
100
AcDbEntity
  8
0
100
AcDbLine
 10
104.0
 20
134.311
 30
0.0
 11
104.0
 21
133.4629999999999
 31
0.0
  0
LINE
  5
474
330
1E
100
AcDbEntity
  8
0
100
AcDbLine
 10
104.0
 20
134.951
 30
0.0
 11
104.0
 21
135.3349999999999
 31
0.0
  0
LINE
  5
475
330
1E
100
AcDbEntity
  8
0
100
AcDbLine
 10
104.0
 20
134.951
 30
0.0
 11
104.0
 21
134.311
 31
0.0
  0
LINE
  5
476
330
1E
100
AcDbEntity
  8
0
100
AcDbLine
 10
104.0
 20
131.4789999999999
 30
0.0
 11
104.0
 21
130.4549999999998
 31
0.0
  0
LINE
  5
477
330
1E
100
AcDbEntity
  8
0
100
AcDbLine
 10
104.0
 20
131.4789999999999
 30
0.0
 11
104.0
 21
132.5029999999999
 31
0.0
  0
LINE
  5
478
330
1E
100
AcDbEntity
  8
0
100
AcDbLine
 10
104.0
 20
130.4549999999998
 30
0.0
 11
104.0
 21
131.4789999999999
 31
0.0
  0
LINE
  5
479
330
1E
100
AcDbEntity
  8
0
100
AcDbLine
 10
104.0
 20
130.4549999999998
 30
0.0
 11
104.0
 21
129.495
 31
0.0
  0
LINE
  5
47A
330
1E
100
AcDbEntity
  8
0
100
AcDbLine
 10
100.0
 20
129.352
 30
0.0
 11
100.0
 21
134.8959999999999
 31
0.0
  0
LINE
  5
47B
330
1E
100
AcDbEntity
  8
0
100
AcDbLine
 10
100.0
 20
129.352
 30
0.0
 11
100.0
 21
123.3039999999999
 31
0.0
  0
LINE
  5
47C
330
1E
100
AcDbEntity
  8
0
100
AcDbLine
 10
100.0
 20
139.684
 30
0.0
 11
100.0
 21
134.8959999999999
 31
0.0
  0
LINE
  5
47D
330
1E
100
AcDbEntity
  8
0
100
AcDbLine
 10
100.0
 20
134.8959999999999
 30
0.0
 11
100.0
 21
139.684
 31
0.0
  0
LINE
  5
47E
330
1E
100
AcDbEntity
  8
0
100
AcDbLine
 10
100.0
 20
134.8959999999999
 30
0.0
 11
100.0
 21
129.352
 31
0.0
  0
LINE
  5
47F
330
1E
100
AcDbEntity
  8
0
100
AcDbLine
 10
100.0
 20
135.186
 30
0.0
 11
100.0
 21
133.8379999999999
 31
0.0
  0
LINE
  5
480
330
1E
100
AcDbEntity
  8
0
100
AcDbLine
 10
100.0
 20
134.951
 30
0.0
 11
100.0
 21
135.3349999999999
 31
0.0
  0
LINE
  5
481
330
1E
100
AcDbEntity
  8
0
100
AcDbLine
 10
100.0
 20
134.951
 30
0.0
 11
100.0
 21
134.311
 31
0.0
  0
LINE
  5
482
330
1E
100
AcDbEntity
  8
0
100
AcDbLine
 10
100.0
 20
135.3349999999999
 30
0.0
 11
100.0
 21
135.4789999999999
 31
0.0
  0
LINE
  5
483
330
1E
100
AcDbEntity
  8
0
100
AcDbLine
 10
100.0
 20
135.3349999999999
 30
0.0
 11
100.0
 21
134.951
 31
0.0
  0
LINE
  5
484
330
1E
100
AcDbEntity
  8
0
100
AcDbLine
 10
100.0
 20
135.4789999999999
 30
0.0
 11
100.0
 21
135.3349999999999
 31
0.0
  0
LINE
  5
485
330
1E
100
AcDbEntity
  8
0
100
AcDbLine
 10
100.0
 20
133.8379999999999
 30
0.0
 11
100.0
 21
135.186
 31
0.0
  0
LINE
  5
486
330
1E
100
AcDbEntity
  8
0
100
AcDbLine
 10
100.0
 20
132.5029999999999
 30
0.0
 11
100.0
 21
133.4629999999999
 31
0.0
  0
LINE
  5
487
330
1E
100
AcDbEntity
  8
0
100
AcDbLine
 10
100.0
 20
132.5029999999999
 30
0.0
 11
100.0
 21
131.4789999999999
 31
0.0
  0
LINE
  5
488
330
1E
100
AcDbEntity
  8
0
100
AcDbLine
 10
100.0
 20
133.4629999999999
 30
0.0
 11
100.0
 21
134.311
 31
0.0
  0
LINE
  5
489
330
1E
100
AcDbEntity
  8
0
100
AcDbLine
 10
100.0
 20
133.4629999999999
 30
0.0
 11
100.0
 21
132.5029999999999
 31
0.0
  0
LINE
  5
48A
330
1E
100
AcDbEntity
  8
0
100
AcDbLine
 10
100.0
 20
134.311
 30
0.0
 11
100.0
 21
134.951
 31
0.0
  0
LINE
  5
48B
330
1E
100
AcDbEntity
  8
0
100
AcDbLine
 10
100.0
 20
134.311
 30
0.0
 11
100.0
 21
133.4629999999999
 31
0.0
  0
LINE
  5
48C
330
1E
100
AcDbEntity
  8
0
100
AcDbLine
 10
100.0
 20
131.4789999999999
 30
0.0
 11
100.0
 21
130.4549999999998
 31
0.0
  0
LINE
  5
48D
330
1E
100
AcDbEntity
  8
0
100
AcDbLine
 10
100.0
 20
131.4789999999999
 30
0.0
 11
100.0
 21
132.5029999999999
 31
0.0
  0
LINE
  5
48E
330
1E
100
AcDbEntity
  8
0
100
AcDbLine
 10
100.0
 20
130.4549999999998
 30
0.0
 11
100.0
 21
129.495
 31
0.0
  0
LINE
  5
48F
330
1E
100
AcDbEntity
  8
0
100
AcDbLine
 10
100.0
 20
130.4549999999998
 30
0.0
 11
100.0
 21
131.4789999999999
 31
0.0
  0
LINE
  5
490
330
1E
100
AcDbEntity
  8
0
100
AcDbLine
 10
100.0
 20
129.495
 30
0.0
 11
100.0
 21
128.647
 31
0.0
  0
LINE
  5
491
330
1E
100
AcDbEntity
  8
0
100
AcDbLine
 10
100.0
 20
129.495
 30
0.0
 11
100.0
 21
130.4549999999998
 31
0.0
  0
LINE
  5
492
330
1E
100
AcDbEntity
  8
0
100
AcDbLine
 10
100.0
 20
128.647
 30
0.0
 11
100.0
 21
128.007
 31
0.0
  0
LINE
  5
493
330
1E
100
AcDbEntity
  8
0
100
AcDbLine
 10
100.0
 20
128.647
 30
0.0
 11
100.0
 21
129.495
 31
0.0
  0
LINE
  5
494
330
1E
100
AcDbEntity
  8
0
100
AcDbLine
 10
100.0
 20
128.007
 30
0.0
 11
100.0
 21
127.6229999999999
 31
0.0
  0
LINE
  5
495
330
1E
100
AcDbEntity
  8
0
100
AcDbLine
 10
100.0
 20
128.007
 30
0.0
 11
100.0
 21
128.647
 31
0.0
  0
LINE
  5
496
330
1E
100
AcDbEntity
  8
0
100
AcDbLine
 10
100.0
 20
127.6229999999999
 30
0.0
 11
100.0
 21
127.479
 31
0.0
  0
LINE
  5
497
330
1E
100
AcDbEntity
  8
0
100
AcDbLine
 10
100.0
 20
127.6229999999999
 30
0.0
 11
100.0
 21
128.007
 31
0.0
  0
LINE
  5
498
330
1E
100
AcDbEntity
  8
0
100
AcDbLine
 10
100.0
 20
127.479
 30
0.0
 11
100.0
 21
127.6229999999999
 31
0.0
  0
LINE
  5
499
330
1E
100
AcDbEntity
  8
0
100
AcDbLine
 10
100.0
 20
122.858
 30
0.0
 11
100.0
 21
112.4279999999999
 31
0.0
  0
LINE
  5
49A
330
1E
100
AcDbEntity
  8
0
100
AcDbLine
 10
100.0
 20
122.858
 30
0.0
 11
100.0
 21
120.161
 31
0.0
  0
LINE
  5
49B
330
1E
100
AcDbEntity
  8
0
100
AcDbLine
 10
100.0
 20
120.161
 30
0.0
 11
100.0
 21
122.858
 31
0.0
  0
LINE
  5
49C
330
1E
100
AcDbEntity
  8
0
100
AcDbLine
 10
100.0
 20
120.161
 30
0.0
 11
100.0
 21
111.1699999999999
 31
0.0
  0
LINE
  5
49D
330
1E
100
AcDbEntity
  8
0
100
AcDbLine
 10
173.0
 20
108.3084
 30
0.0
 11
173.0
 21
100.7316
 31
0.0
  0
LINE
  5
49E
330
1E
100
AcDbEntity
  8
0
100
AcDbLine
 10
173.0
 20
108.3084
 30
0.0
 11
173.0
 21
115.372
 31
0.0
  0
LINE
  5
49F
330
1E
100
AcDbEntity
  8
0
100
AcDbLine
 10
173.0
 20
61.6916
 30
0.0
 11
173.0
 21
69.2684
 31
0.0
  0
LINE
  5
4A0
330
1E
100
AcDbEntity
  8
0
100
AcDbLine
 10
173.0
 20
61.6916
 30
0.0
 11
173.0
 21
54.62839999999999
 31
0.0
  0
LINE
  5
4A1
330
1E
100
AcDbEntity
  8
0
100
AcDbLine
 10
131.0
 20
85.0
 30
0.0
 11
131.7199999999999
 21
90.12000000000002
 31
0.0
  0
LINE
  5
4A2
330
1E
100
AcDbEntity
  8
0
100
AcDbLine
 10
131.0
 20
85.0
 30
0.0
 11
131.7199999999999
 21
79.87999999999999
 31
0.0
  0
LINE
  5
4A3
330
1E
100
AcDbEntity
  8
0
100
AcDbLine
 10
131.0
 20
85.0
 30
0.0
 11
131.7199999999999
 21
79.8561
 31
0.0
  0
LINE
  5
4A4
330
1E
100
AcDbEntity
  8
0
100
AcDbLine
 10
131.0
 20
85.0
 30
0.0
 11
131.7199999999999
 21
90.14390000000002
 31
0.0
  0
LINE
  5
4A5
330
1E
100
AcDbEntity
  8
0
100
AcDbLine
 10
131.7199999999999
 20
90.14390000000002
 30
0.0
 11
133.6399999999999
 21
94.92870000000001
 31
0.0
  0
LINE
  5
4A6
330
1E
100
AcDbEntity
  8
0
100
AcDbLine
 10
133.6399999999999
 20
94.92870000000001
 30
0.0
 11
136.84
 21
99.1793
 31
0.0
  0
LINE
  5
4A7
330
1E
100
AcDbEntity
  8
0
100
AcDbLine
 10
136.84
 20
99.1793
 30
0.0
 11
141.0799999999999
 21
102.3610999999999
 31
0.0
  0
LINE
  5
4A8
330
1E
100
AcDbEntity
  8
0
100
AcDbLine
 10
141.0799999999999
 20
102.3610999999999
 30
0.0
 11
145.8799999999999
 21
104.3042
 31
0.0
  0
LINE
  5
4A9
330
1E
100
AcDbEntity
  8
0
100
AcDbLine
 10
145.8799999999999
 20
104.3042
 30
0.0
 11
151.0
 21
105.0
 31
0.0
  0
LINE
  5
4AA
330
1E
100
AcDbEntity
  8
0
100
AcDbLine
 10
151.0
 20
105.0
 30
0.0
 11
156.12
 21
104.3042
 31
0.0
  0
LINE
  5
4AB
330
1E
100
AcDbEntity
  8
0
100
AcDbLine
 10
160.92
 20
102.3610999999999
 30
0.0
 11
165.1599999999999
 21
99.1793
 31
0.0
  0
LINE
  5
4AC
330
1E
100
AcDbEntity
  8
0
100
AcDbLine
 10
173.0
 20
100.7316
 30
0.0
 11
173.0
 21
92.96210000000002
 31
0.0
  0
LINE
  5
4AD
330
1E
100
AcDbEntity
  8
0
100
AcDbLine
 10
173.0
 20
100.7316
 30
0.0
 11
173.0
 21
108.3084
 31
0.0
  0
LINE
  5
4AE
330
1E
100
AcDbEntity
  8
0
100
AcDbLine
 10
156.12
 20
104.3042
 30
0.0
 11
160.92
 21
102.3610999999999
 31
0.0
  0
LINE
  5
4AF
330
1E
100
AcDbEntity
  8
0
100
AcDbLine
 10
151.0
 20
99.57139999999998
 30
0.0
 11
154.7303
 21
99.04689999999998
 31
0.0
  0
LINE
  5
4B0
330
1E
100
AcDbEntity
  8
0
100
AcDbLine
 10
142.5679999999999
 20
99.756
 30
0.0
 11
146.6479999999999
 21
101.3879999999999
 31
0.0
  0
LINE
  5
4B1
330
1E
100
AcDbEntity
  8
0
100
AcDbLine
 10
155.3519999999999
 20
101.3879999999999
 30
0.0
 11
159.432
 21
99.756
 31
0.0
  0
LINE
  5
4B2
330
1E
100
AcDbEntity
  8
0
100
AcDbLine
 10
151.0
 20
102.0
 30
0.0
 11
155.3519999999999
 21
101.3879999999999
 31
0.0
  0
LINE
  5
4B3
330
1E
100
AcDbEntity
  8
0
100
AcDbLine
 10
146.6479999999999
 20
101.3879999999999
 30
0.0
 11
151.0
 21
102.0
 31
0.0
  0
LINE
  5
4B4
330
1E
100
AcDbEntity
  8
0
100
AcDbLine
 10
159.432
 20
99.756
 30
0.0
 11
163.036
 21
97.03600000000001
 31
0.0
  0
LINE
  5
4B5
330
1E
100
AcDbEntity
  8
0
100
AcDbLine
 10
168.36
 20
94.92870000000001
 30
0.0
 11
170.2799999999999
 21
90.14390000000002
 31
0.0
  0
LINE
  5
4B6
330
1E
100
AcDbEntity
  8
0
100
AcDbLine
 10
173.0
 20
92.96210000000002
 30
0.0
 11
173.0
 21
85.0
 31
0.0
  0
LINE
  5
4B7
330
1E
100
AcDbEntity
  8
0
100
AcDbLine
 10
173.0
 20
92.96210000000002
 30
0.0
 11
173.0
 21
100.7316
 31
0.0
  0
LINE
  5
4B8
330
1E
100
AcDbEntity
  8
0
100
AcDbLine
 10
165.1599999999999
 20
99.1793
 30
0.0
 11
168.36
 21
94.92870000000001
 31
0.0
  0
LINE
  5
4B9
330
1E
100
AcDbEntity
  8
0
100
AcDbLine
 10
168.36
 20
94.91999999999999
 30
0.0
 11
170.2799999999999
 21
90.12000000000002
 31
0.0
  0
LINE
  5
4BA
330
1E
100
AcDbEntity
  8
0
100
AcDbLine
 10
140.6834
 20
95.31659999999998
 30
0.0
 11
143.7725999999999
 21
97.64799999999999
 31
0.0
  0
LINE
  5
4BB
330
1E
100
AcDbEntity
  8
0
100
AcDbLine
 10
143.7725999999999
 20
97.64799999999999
 30
0.0
 11
147.2696999999999
 21
99.04689999999998
 31
0.0
  0
LINE
  5
4BC
330
1E
100
AcDbEntity
  8
0
100
AcDbLine
 10
147.2696999999999
 20
99.04689999999998
 30
0.0
 11
151.0
 21
99.57139999999998
 31
0.0
  0
LINE
  5
4BD
330
1E
100
AcDbEntity
  8
0
100
AcDbLine
 10
158.2273999999999
 20
97.64799999999999
 30
0.0
 11
161.3165999999999
 21
95.31659999999998
 31
0.0
  0
LINE
  5
4BE
330
1E
100
AcDbEntity
  8
0
100
AcDbLine
 10
163.036
 20
97.03600000000001
 30
0.0
 11
165.7559999999999
 21
93.43200000000001
 31
0.0
  0
LINE
  5
4BF
330
1E
100
AcDbEntity
  8
0
100
AcDbLine
 10
154.7303
 20
99.04689999999998
 30
0.0
 11
158.2273999999999
 21
97.64799999999999
 31
0.0
  0
LINE
  5
4C0
330
1E
100
AcDbEntity
  8
0
100
AcDbLine
 10
138.9639999999999
 20
97.03600000000001
 30
0.0
 11
142.5679999999999
 21
99.756
 31
0.0
  0
LINE
  5
4C1
330
1E
100
AcDbEntity
  8
0
100
AcDbLine
 10
161.3165999999999
 20
95.31659999999998
 30
0.0
 11
163.648
 21
92.22739999999999
 31
0.0
  0
LINE
  5
4C2
330
1E
100
AcDbEntity
  8
0
100
AcDbLine
 10
138.352
 20
92.22739999999999
 30
0.0
 11
140.6834
 21
95.31659999999998
 31
0.0
  0
LINE
  5
4C3
330
1E
100
AcDbEntity
  8
0
100
AcDbLine
 10
163.648
 20
92.22739999999999
 30
0.0
 11
165.047
 21
88.73029999999999
 31
0.0
  0
LINE
  5
4C4
330
1E
100
AcDbEntity
  8
0
100
AcDbLine
 10
165.7559999999999
 20
93.43200000000001
 30
0.0
 11
167.3879999999999
 21
89.352
 31
0.0
  0
LINE
  5
4C5
330
1E
100
AcDbEntity
  8
0
100
AcDbLine
 10
136.244
 20
93.43200000000001
 30
0.0
 11
138.9639999999999
 21
97.03600000000001
 31
0.0
  0
LINE
  5
4C6
330
1E
100
AcDbEntity
  8
0
100
AcDbLine
 10
131.7199999999999
 20
79.8561
 30
0.0
 11
133.6399999999999
 21
75.0713
 31
0.0
  0
LINE
  5
4C7
330
1E
100
AcDbEntity
  8
0
100
AcDbLine
 10
133.6399999999999
 20
75.0713
 30
0.0
 11
136.84
 21
70.8207
 31
0.0
  0
LINE
  5
4C8
330
1E
100
AcDbEntity
  8
0
100
AcDbLine
 10
170.2799999999999
 20
90.14390000000002
 30
0.0
 11
171.0
 21
85.0
 31
0.0
  0
LINE
  5
4C9
330
1E
100
AcDbEntity
  8
0
100
AcDbLine
 10
173.0
 20
85.0
 30
0.0
 11
173.0
 21
77.03789999999999
 31
0.0
  0
LINE
  5
4CA
330
1E
100
AcDbEntity
  8
0
100
AcDbLine
 10
173.0
 20
85.0
 30
0.0
 11
173.0
 21
92.96210000000002
 31
0.0
  0
LINE
  5
4CB
330
1E
100
AcDbEntity
  8
0
100
AcDbLine
 10
173.0
 20
77.03789999999999
 30
0.0
 11
173.0
 21
69.2684
 31
0.0
  0
LINE
  5
4CC
330
1E
100
AcDbEntity
  8
0
100
AcDbLine
 10
173.0
 20
77.03789999999999
 30
0.0
 11
173.0
 21
85.0
 31
0.0
  0
LINE
  5
4CD
330
1E
100
AcDbEntity
  8
0
100
AcDbLine
 10
170.2799999999999
 20
79.8561
 30
0.0
 11
171.0
 21
85.0
 31
0.0
  0
LINE
  5
4CE
330
1E
100
AcDbEntity
  8
0
100
AcDbLine
 10
167.3879999999999
 20
80.64799999999998
 30
0.0
 11
168.0
 21
85.0
 31
0.0
  0
LINE
  5
4CF
330
1E
100
AcDbEntity
  8
0
100
AcDbLine
 10
165.047
 20
81.2697
 30
0.0
 11
165.571
 21
85.0
 31
0.0
  0
LINE
  5
4D0
330
1E
100
AcDbEntity
  8
0
100
AcDbLine
 10
134.0
 20
85.0
 30
0.0
 11
134.6119999999999
 21
89.352
 31
0.0
  0
LINE
  5
4D1
330
1E
100
AcDbEntity
  8
0
100
AcDbLine
 10
134.0
 20
85.0
 30
0.0
 11
134.6119999999999
 21
80.64799999999998
 31
0.0
  0
LINE
  5
4D2
330
1E
100
AcDbEntity
  8
0
100
AcDbLine
 10
136.4286
 20
85.0
 30
0.0
 11
136.9531
 21
88.73029999999999
 31
0.0
  0
LINE
  5
4D3
330
1E
100
AcDbEntity
  8
0
100
AcDbLine
 10
136.4286
 20
85.0
 30
0.0
 11
136.9531
 21
81.2697
 31
0.0
  0
LINE
  5
4D4
330
1E
100
AcDbEntity
  8
0
100
AcDbLine
 10
136.9531
 20
88.73029999999999
 30
0.0
 11
138.352
 21
92.22739999999999
 31
0.0
  0
LINE
  5
4D5
330
1E
100
AcDbEntity
  8
0
100
AcDbLine
 10
165.047
 20
88.73029999999999
 30
0.0
 11
165.571
 21
85.0
 31
0.0
  0
LINE
  5
4D6
330
1E
100
AcDbEntity
  8
0
100
AcDbLine
 10
167.3879999999999
 20
89.352
 30
0.0
 11
168.0
 21
85.0
 31
0.0
  0
LINE
  5
4D7
330
1E
100
AcDbEntity
  8
0
100
AcDbLine
 10
134.6119999999999
 20
89.352
 30
0.0
 11
136.244
 21
93.43200000000001
 31
0.0
  0
LINE
  5
4D8
330
1E
100
AcDbEntity
  8
0
100
AcDbLine
 10
136.9531
 20
81.2697
 30
0.0
 11
138.352
 21
77.7726
 31
0.0
  0
LINE
  5
4D9
330
1E
100
AcDbEntity
  8
0
100
AcDbLine
 10
134.6119999999999
 20
80.64799999999998
 30
0.0
 11
136.244
 21
76.568
 31
0.0
  0
LINE
  5
4DA
330
1E
100
AcDbEntity
  8
0
100
AcDbLine
 10
163.648
 20
77.7726
 30
0.0
 11
165.047
 21
81.2697
 31
0.0
  0
LINE
  5
4DB
330
1E
100
AcDbEntity
  8
0
100
AcDbLine
 10
165.7559999999999
 20
76.568
 30
0.0
 11
167.3879999999999
 21
80.64799999999998
 31
0.0
  0
LINE
  5
4DC
330
1E
100
AcDbEntity
  8
0
100
AcDbLine
 10
138.352
 20
77.7726
 30
0.0
 11
140.6834
 21
74.68340000000001
 31
0.0
  0
LINE
  5
4DD
330
1E
100
AcDbEntity
  8
0
100
AcDbLine
 10
136.244
 20
76.568
 30
0.0
 11
138.9639999999999
 21
72.964
 31
0.0
  0
LINE
  5
4DE
330
1E
100
AcDbEntity
  8
0
100
AcDbLine
 10
136.84
 20
70.8207
 30
0.0
 11
141.0799999999999
 21
67.6389
 31
0.0
  0
LINE
  5
4DF
330
1E
100
AcDbEntity
  8
0
100
AcDbLine
 10
141.0799999999999
 20
67.6389
 30
0.0
 11
145.8799999999999
 21
65.69579999999999
 31
0.0
  0
LINE
  5
4E0
330
1E
100
AcDbEntity
  8
0
100
AcDbLine
 10
168.36
 20
75.0713
 30
0.0
 11
170.2799999999999
 21
79.8561
 31
0.0
  0
LINE
  5
4E1
330
1E
100
AcDbEntity
  8
0
100
AcDbLine
 10
173.0
 20
69.2684
 30
0.0
 11
173.0
 21
61.6916
 31
0.0
  0
LINE
  5
4E2
330
1E
100
AcDbEntity
  8
0
100
AcDbLine
 10
173.0
 20
69.2684
 30
0.0
 11
173.0
 21
77.03789999999999
 31
0.0
  0
LINE
  5
4E3
330
1E
100
AcDbEntity
  8
0
100
AcDbLine
 10
165.1599999999999
 20
70.8207
 30
0.0
 11
168.36
 21
75.0713
 31
0.0
  0
LINE
  5
4E4
330
1E
100
AcDbEntity
  8
0
100
AcDbLine
 10
158.2273999999999
 20
72.35199999999998
 30
0.0
 11
161.3165999999999
 21
74.68340000000001
 31
0.0
  0
LINE
  5
4E5
330
1E
100
AcDbEntity
  8
0
100
AcDbLine
 10
163.036
 20
72.964
 30
0.0
 11
165.7559999999999
 21
76.568
 31
0.0
  0
LINE
  5
4E6
330
1E
100
AcDbEntity
  8
0
100
AcDbLine
 10
161.3165999999999
 20
74.68340000000001
 30
0.0
 11
163.648
 21
77.7726
 31
0.0
  0
LINE
  5
4E7
330
1E
100
AcDbEntity
  8
0
100
AcDbLine
 10
154.7303
 20
70.95310000000001
 30
0.0
 11
158.2273999999999
 21
72.35199999999998
 31
0.0
  0
LINE
  5
4E8
330
1E
100
AcDbEntity
  8
0
100
AcDbLine
 10
140.6834
 20
74.68340000000001
 30
0.0
 11
143.7725999999999
 21
72.35199999999998
 31
0.0
  0
LINE
  5
4E9
330
1E
100
AcDbEntity
  8
0
100
AcDbLine
 10
143.7725999999999
 20
72.35199999999998
 30
0.0
 11
147.2696999999999
 21
70.95310000000001
 31
0.0
  0
LINE
  5
4EA
330
1E
100
AcDbEntity
  8
0
100
AcDbLine
 10
138.9639999999999
 20
72.964
 30
0.0
 11
142.5679999999999
 21
70.24399999999999
 31
0.0
  0
LINE
  5
4EB
330
1E
100
AcDbEntity
  8
0
100
AcDbLine
 10
147.2696999999999
 20
70.95310000000001
 30
0.0
 11
151.0
 21
70.42860000000001
 31
0.0
  0
LINE
  5
4EC
330
1E
100
AcDbEntity
  8
0
100
AcDbLine
 10
151.0
 20
70.42860000000001
 30
0.0
 11
154.7303
 21
70.95310000000001
 31
0.0
  0
LINE
  5
4ED
330
1E
100
AcDbEntity
  8
0
100
AcDbLine
 10
155.3519999999999
 20
68.612
 30
0.0
 11
159.432
 21
70.24399999999999
 31
0.0
  0
LINE
  5
4EE
330
1E
100
AcDbEntity
  8
0
100
AcDbLine
 10
159.432
 20
70.24399999999999
 30
0.0
 11
163.036
 21
72.964
 31
0.0
  0
LINE
  5
4EF
330
1E
100
AcDbEntity
  8
0
100
AcDbLine
 10
151.0
 20
68.0
 30
0.0
 11
155.3519999999999
 21
68.612
 31
0.0
  0
LINE
  5
4F0
330
1E
100
AcDbEntity
  8
0
100
AcDbLine
 10
142.5679999999999
 20
70.24399999999999
 30
0.0
 11
146.6479999999999
 21
68.612
 31
0.0
  0
LINE
  5
4F1
330
1E
100
AcDbEntity
  8
0
100
AcDbLine
 10
146.6479999999999
 20
68.612
 30
0.0
 11
151.0
 21
68.0
 31
0.0
  0
LINE
  5
4F2
330
1E
100
AcDbEntity
  8
0
100
AcDbLine
 10
145.8799999999999
 20
65.69579999999999
 30
0.0
 11
151.0
 21
65.0
 31
0.0
  0
LINE
  5
4F3
330
1E
100
AcDbEntity
  8
0
100
AcDbLine
 10
160.92
 20
67.6389
 30
0.0
 11
165.1599999999999
 21
70.8207
 31
0.0
  0
LINE
  5
4F4
330
1E
100
AcDbEntity
  8
0
100
AcDbLine
 10
156.12
 20
65.69579999999999
 30
0.0
 11
160.92
 21
67.6389
 31
0.0
  0
LINE
  5
4F5
330
1E
100
AcDbEntity
  8
0
100
AcDbLine
 10
151.0
 20
65.0
 30
0.0
 11
156.12
 21
65.69579999999999
 31
0.0
  0
LINE
  5
4F6
330
1E
100
AcDbEntity
  8
0
100
AcDbLine
 10
100.0
 20
85.0
 30
0.0
 11
100.0
 21
93.31599999999999
 31
0.0
  0
LINE
  5
4F7
330
1E
100
AcDbEntity
  8
0
100
AcDbLine
 10
100.0
 20
85.0
 30
0.0
 11
100.0
 21
76.684
 31
0.0
  0
LINE
  5
4F8
330
1E
100
AcDbEntity
  8
0
100
AcDbLine
 10
100.0
 20
93.31599999999999
 30
0.0
 11
100.0
 21
101.1279999999999
 31
0.0
  0
LINE
  5
4F9
330
1E
100
AcDbEntity
  8
0
100
AcDbLine
 10
100.0
 20
93.31599999999999
 30
0.0
 11
100.0
 21
85.0
 31
0.0
  0
LINE
  5
4FA
330
1E
100
AcDbEntity
  8
0
100
AcDbLine
 10
104.0
 20
110.4999999999999
 30
0.0
 11
104.0
 21
59.5
 31
0.0
  0
LINE
  5
4FB
330
1E
100
AcDbEntity
  8
0
100
AcDbLine
 10
104.0
 20
110.4999999999999
 30
0.0
 11
104.0
 21
160.4999999999999
 31
0.0
  0
LINE
  5
4FC
330
1E
100
AcDbEntity
  8
0
100
AcDbLine
 10
104.0
 20
112.8499999999999
 30
0.0
 11
104.0
 21
132.5029999999999
 31
0.0
  0
LINE
  5
4FD
330
1E
100
AcDbEntity
  8
0
100
AcDbLine
 10
100.0
 20
101.1279999999999
 30
0.0
 11
100.0
 21
108.9399999999999
 31
0.0
  0
LINE
  5
4FE
330
1E
100
AcDbEntity
  8
0
100
AcDbLine
 10
100.0
 20
101.1279999999999
 30
0.0
 11
100.0
 21
93.31599999999999
 31
0.0
  0
LINE
  5
4FF
330
1E
100
AcDbEntity
  8
0
100
AcDbLine
 10
100.0
 20
108.9399999999999
 30
0.0
 11
100.0
 21
116.2479999999999
 31
0.0
  0
LINE
  5
500
330
1E
100
AcDbEntity
  8
0
100
AcDbLine
 10
100.0
 20
108.9399999999999
 30
0.0
 11
100.0
 21
101.1279999999999
 31
0.0
  0
LINE
  5
501
330
1E
100
AcDbEntity
  8
0
100
AcDbLine
 10
100.0
 20
110.4999999999999
 30
0.0
 11
100.0
 21
109.6999999999999
 31
0.0
  0
LINE
  5
502
330
1E
100
AcDbEntity
  8
0
100
AcDbLine
 10
100.0
 20
110.4999999999999
 30
0.0
 11
100.0
 21
59.5
 31
0.0
  0
LINE
  5
503
330
1E
100
AcDbEntity
  8
0
100
AcDbLine
 10
100.0
 20
110.4999999999999
 30
0.0
 11
100.0
 21
160.4999999999999
 31
0.0
  0
LINE
  5
504
330
1E
100
AcDbEntity
  8
0
100
AcDbLine
 10
100.0
 20
110.4999999999999
 30
0.0
 11
104.0
 21
110.4999999999999
 31
0.0
  0
LINE
  5
505
330
1E
100
AcDbEntity
  8
0
100
AcDbLine
 10
100.0
 20
112.7059999999999
 30
0.0
 11
100.0
 21
112.322
 31
0.0
  0
LINE
  5
506
330
1E
100
AcDbEntity
  8
0
100
AcDbLine
 10
100.0
 20
112.7059999999999
 30
0.0
 11
100.0
 21
112.8499999999999
 31
0.0
  0
LINE
  5
507
330
1E
100
AcDbEntity
  8
0
100
AcDbLine
 10
100.0
 20
112.322
 30
0.0
 11
100.0
 21
111.6819999999999
 31
0.0
  0
LINE
  5
508
330
1E
100
AcDbEntity
  8
0
100
AcDbLine
 10
100.0
 20
112.322
 30
0.0
 11
100.0
 21
112.7059999999999
 31
0.0
  0
LINE
  5
509
330
1E
100
AcDbEntity
  8
0
100
AcDbLine
 10
100.0
 20
112.8499999999999
 30
0.0
 11
100.0
 21
112.7059999999999
 31
0.0
  0
LINE
  5
50A
330
1E
100
AcDbEntity
  8
0
100
AcDbLine
 10
100.0
 20
112.4279999999999
 30
0.0
 11
100.0
 21
111.1699999999999
 31
0.0
  0
LINE
  5
50B
330
1E
100
AcDbEntity
  8
0
100
AcDbLine
 10
100.0
 20
112.4279999999999
 30
0.0
 11
100.0
 21
122.858
 31
0.0
  0
LINE
  5
50C
330
1E
100
AcDbEntity
  8
0
100
AcDbLine
 10
100.0
 20
111.6819999999999
 30
0.0
 11
100.0
 21
110.834
 31
0.0
  0
LINE
  5
50D
330
1E
100
AcDbEntity
  8
0
100
AcDbLine
 10
100.0
 20
111.6819999999999
 30
0.0
 11
100.0
 21
112.322
 31
0.0
  0
LINE
  5
50E
330
1E
100
AcDbEntity
  8
0
100
AcDbLine
 10
100.0
 20
110.834
 30
0.0
 11
100.0
 21
109.874
 31
0.0
  0
LINE
  5
50F
330
1E
100
AcDbEntity
  8
0
100
AcDbLine
 10
100.0
 20
110.834
 30
0.0
 11
100.0
 21
111.6819999999999
 31
0.0
  0
LINE
  5
510
330
1E
100
AcDbEntity
  8
0
100
AcDbLine
 10
100.0
 20
111.1699999999999
 30
0.0
 11
100.0
 21
120.161
 31
0.0
  0
LINE
  5
511
330
1E
100
AcDbEntity
  8
0
100
AcDbLine
 10
100.0
 20
111.1699999999999
 30
0.0
 11
100.0
 21
112.4279999999999
 31
0.0
  0
LINE
  5
512
330
1E
100
AcDbEntity
  8
0
100
AcDbLine
 10
100.0
 20
109.6999999999999
 30
0.0
 11
100.0
 21
60.3
 31
0.0
  0
LINE
  5
513
330
1E
100
AcDbEntity
  8
0
100
AcDbLine
 10
100.0
 20
109.6999999999999
 30
0.0
 11
100.0
 21
110.4999999999999
 31
0.0
  0
LINE
  5
514
330
1E
100
AcDbEntity
  8
0
100
AcDbLine
 10
100.0
 20
109.874
 30
0.0
 11
100.0
 21
108.85
 31
0.0
  0
LINE
  5
515
330
1E
100
AcDbEntity
  8
0
100
AcDbLine
 10
100.0
 20
109.874
 30
0.0
 11
100.0
 21
110.834
 31
0.0
  0
LINE
  5
516
330
1E
100
AcDbEntity
  8
0
100
AcDbLine
 10
100.0
 20
108.85
 30
0.0
 11
100.0
 21
107.8259999999999
 31
0.0
  0
LINE
  5
517
330
1E
100
AcDbEntity
  8
0
100
AcDbLine
 10
100.0
 20
108.85
 30
0.0
 11
100.0
 21
109.874
 31
0.0
  0
LINE
  5
518
330
1E
100
AcDbEntity
  8
0
100
AcDbLine
 10
100.0
 20
104.8499999999999
 30
0.0
 11
100.0
 21
104.994
 31
0.0
  0
LINE
  5
519
330
1E
100
AcDbEntity
  8
0
100
AcDbLine
 10
100.0
 20
104.994
 30
0.0
 11
100.0
 21
104.8499999999999
 31
0.0
  0
LINE
  5
51A
330
1E
100
AcDbEntity
  8
0
100
AcDbLine
 10
100.0
 20
104.994
 30
0.0
 11
100.0
 21
105.3779999999999
 31
0.0
  0
LINE
  5
51B
330
1E
100
AcDbEntity
  8
0
100
AcDbLine
 10
100.0
 20
105.3779999999999
 30
0.0
 11
100.0
 21
104.994
 31
0.0
  0
LINE
  5
51C
330
1E
100
AcDbEntity
  8
0
100
AcDbLine
 10
100.0
 20
105.3779999999999
 30
0.0
 11
100.0
 21
106.018
 31
0.0
  0
LINE
  5
51D
330
1E
100
AcDbEntity
  8
0
100
AcDbLine
 10
100.0
 20
106.018
 30
0.0
 11
100.0
 21
105.3779999999999
 31
0.0
  0
LINE
  5
51E
330
1E
100
AcDbEntity
  8
0
100
AcDbLine
 10
100.0
 20
106.018
 30
0.0
 11
100.0
 21
106.8659999999999
 31
0.0
  0
LINE
  5
51F
330
1E
100
AcDbEntity
  8
0
100
AcDbLine
 10
100.0
 20
106.8659999999999
 30
0.0
 11
100.0
 21
106.018
 31
0.0
  0
LINE
  5
520
330
1E
100
AcDbEntity
  8
0
100
AcDbLine
 10
100.0
 20
106.8659999999999
 30
0.0
 11
100.0
 21
107.8259999999999
 31
0.0
  0
LINE
  5
521
330
1E
100
AcDbEntity
  8
0
100
AcDbLine
 10
100.0
 20
107.8259999999999
 30
0.0
 11
100.0
 21
106.8659999999999
 31
0.0
  0
LINE
  5
522
330
1E
100
AcDbEntity
  8
0
100
AcDbLine
 10
100.0
 20
107.8259999999999
 30
0.0
 11
100.0
 21
108.85
 31
0.0
  0
LINE
  5
523
330
1E
100
AcDbEntity
  8
0
100
AcDbLine
 10
100.0
 20
108.4461
 30
0.0
 11
100.0
 21
106.4756999999999
 31
0.0
  0
LINE
  5
524
330
1E
100
AcDbEntity
  8
0
100
AcDbLine
 10
100.0
 20
108.4461
 30
0.0
 11
100.0
 21
106.584
 31
0.0
  0
LINE
  5
525
330
1E
100
AcDbEntity
  8
0
100
AcDbLine
 10
100.0
 20
106.4756999999999
 30
0.0
 11
100.0
 21
104.516
 31
0.0
  0
LINE
  5
526
330
1E
100
AcDbEntity
  8
0
100
AcDbLine
 10
100.0
 20
106.4756999999999
 30
0.0
 11
100.0
 21
108.4461
 31
0.0
  0
LINE
  5
527
330
1E
100
AcDbEntity
  8
0
100
AcDbLine
 10
100.0
 20
106.584
 30
0.0
 11
100.0
 21
108.4461
 31
0.0
  0
LINE
  5
528
330
1E
100
AcDbEntity
  8
0
100
AcDbLine
 10
100.0
 20
106.584
 30
0.0
 11
100.0
 21
104.516
 31
0.0
  0
LINE
  5
529
330
1E
100
AcDbEntity
  8
0
100
AcDbLine
 10
100.0
 20
104.516
 30
0.0
 11
100.0
 21
106.584
 31
0.0
  0
LINE
  5
52A
330
1E
100
AcDbEntity
  8
0
100
AcDbLine
 10
100.0
 20
104.516
 30
0.0
 11
100.0
 21
106.4756999999999
 31
0.0
  0
LINE
  5
52B
330
1E
100
AcDbEntity
  8
0
100
AcDbLine
 10
100.0
 20
85.09539999999999
 30
0.0
 11
100.0
 21
86.1194
 31
0.0
  0
LINE
  5
52C
330
1E
100
AcDbEntity
  8
0
100
AcDbLine
 10
100.0
 20
85.09539999999999
 30
0.0
 11
100.0
 21
84.07139999999998
 31
0.0
  0
LINE
  5
52D
330
1E
100
AcDbEntity
  8
0
100
AcDbLine
 10
100.0
 20
89.09539999999999
 30
0.0
 11
100.0
 21
88.95140000000003
 31
0.0
  0
LINE
  5
52E
330
1E
100
AcDbEntity
  8
0
100
AcDbLine
 10
100.0
 20
88.95140000000003
 30
0.0
 11
100.0
 21
89.09539999999999
 31
0.0
  0
LINE
  5
52F
330
1E
100
AcDbEntity
  8
0
100
AcDbLine
 10
100.0
 20
88.95140000000003
 30
0.0
 11
100.0
 21
88.5674
 31
0.0
  0
LINE
  5
530
330
1E
100
AcDbEntity
  8
0
100
AcDbLine
 10
100.0
 20
88.5674
 30
0.0
 11
100.0
 21
88.95140000000003
 31
0.0
  0
LINE
  5
531
330
1E
100
AcDbEntity
  8
0
100
AcDbLine
 10
100.0
 20
88.5674
 30
0.0
 11
100.0
 21
87.9274
 31
0.0
  0
LINE
  5
532
330
1E
100
AcDbEntity
  8
0
100
AcDbLine
 10
100.0
 20
87.9274
 30
0.0
 11
100.0
 21
88.5674
 31
0.0
  0
LINE
  5
533
330
1E
100
AcDbEntity
  8
0
100
AcDbLine
 10
100.0
 20
87.9274
 30
0.0
 11
100.0
 21
87.07940000000002
 31
0.0
  0
LINE
  5
534
330
1E
100
AcDbEntity
  8
0
100
AcDbLine
 10
100.0
 20
87.07940000000002
 30
0.0
 11
100.0
 21
87.9274
 31
0.0
  0
LINE
  5
535
330
1E
100
AcDbEntity
  8
0
100
AcDbLine
 10
100.0
 20
87.07940000000002
 30
0.0
 11
100.0
 21
86.1194
 31
0.0
  0
LINE
  5
536
330
1E
100
AcDbEntity
  8
0
100
AcDbLine
 10
100.0
 20
86.1194
 30
0.0
 11
100.0
 21
87.07940000000002
 31
0.0
  0
LINE
  5
537
330
1E
100
AcDbEntity
  8
0
100
AcDbLine
 10
100.0
 20
86.1194
 30
0.0
 11
100.0
 21
85.09539999999999
 31
0.0
  0
LINE
  5
538
330
1E
100
AcDbEntity
  8
0
100
AcDbLine
 10
100.0
 20
86.0
 30
0.0
 11
100.0
 21
84.0
 31
0.0
  0
LINE
  5
539
330
1E
100
AcDbEntity
  8
0
100
AcDbLine
 10
100.0
 20
76.684
 30
0.0
 11
100.0
 21
85.0
 31
0.0
  0
LINE
  5
53A
330
1E
100
AcDbEntity
  8
0
100
AcDbLine
 10
100.0
 20
76.684
 30
0.0
 11
100.0
 21
68.87199999999999
 31
0.0
  0
LINE
  5
53B
330
1E
100
AcDbEntity
  8
0
100
AcDbLine
 10
100.0
 20
68.87199999999999
 30
0.0
 11
100.0
 21
76.684
 31
0.0
  0
LINE
  5
53C
330
1E
100
AcDbEntity
  8
0
100
AcDbLine
 10
100.0
 20
68.87199999999999
 30
0.0
 11
100.0
 21
61.06
 31
0.0
  0
LINE
  5
53D
330
1E
100
AcDbEntity
  8
0
100
AcDbLine
 10
100.0
 20
81.23940000000001
 30
0.0
 11
100.0
 21
81.62340000000002
 31
0.0
  0
LINE
  5
53E
330
1E
100
AcDbEntity
  8
0
100
AcDbLine
 10
100.0
 20
81.23940000000001
 30
0.0
 11
100.0
 21
81.09539999999999
 31
0.0
  0
LINE
  5
53F
330
1E
100
AcDbEntity
  8
0
100
AcDbLine
 10
100.0
 20
81.62340000000002
 30
0.0
 11
100.0
 21
82.26340000000002
 31
0.0
  0
LINE
  5
540
330
1E
100
AcDbEntity
  8
0
100
AcDbLine
 10
100.0
 20
81.62340000000002
 30
0.0
 11
100.0
 21
81.23940000000001
 31
0.0
  0
LINE
  5
541
330
1E
100
AcDbEntity
  8
0
100
AcDbLine
 10
100.0
 20
82.26340000000002
 30
0.0
 11
100.0
 21
83.11139999999999
 31
0.0
  0
LINE
  5
542
330
1E
100
AcDbEntity
  8
0
100
AcDbLine
 10
100.0
 20
82.26340000000002
 30
0.0
 11
100.0
 21
81.62340000000002
 31
0.0
  0
LINE
  5
543
330
1E
100
AcDbEntity
  8
0
100
AcDbLine
 10
100.0
 20
83.11139999999999
 30
0.0
 11
100.0
 21
84.07139999999998
 31
0.0
  0
LINE
  5
544
330
1E
100
AcDbEntity
  8
0
100
AcDbLine
 10
100.0
 20
83.11139999999999
 30
0.0
 11
100.0
 21
82.26340000000002
 31
0.0
  0
LINE
  5
545
330
1E
100
AcDbEntity
  8
0
100
AcDbLine
 10
100.0
 20
84.07139999999998
 30
0.0
 11
100.0
 21
85.09539999999999
 31
0.0
  0
LINE
  5
546
330
1E
100
AcDbEntity
  8
0
100
AcDbLine
 10
100.0
 20
84.07139999999998
 30
0.0
 11
100.0
 21
83.11139999999999
 31
0.0
  0
LINE
  5
547
330
1E
100
AcDbEntity
  8
0
100
AcDbLine
 10
100.0
 20
84.0
 30
0.0
 11
100.0
 21
86.0
 31
0.0
  0
LINE
  5
548
330
1E
100
AcDbEntity
  8
0
100
AcDbLine
 10
100.0
 20
81.09539999999999
 30
0.0
 11
100.0
 21
81.23940000000001
 31
0.0
  0
LINE
  5
549
330
1E
100
AcDbEntity
  8
0
100
AcDbLine
 10
100.0
 20
65.15
 30
0.0
 11
100.0
 21
65.006
 31
0.0
  0
LINE
  5
54A
330
1E
100
AcDbEntity
  8
0
100
AcDbLine
 10
100.0
 20
65.006
 30
0.0
 11
100.0
 21
65.15
 31
0.0
  0
LINE
  5
54B
330
1E
100
AcDbEntity
  8
0
100
AcDbLine
 10
100.0
 20
65.006
 30
0.0
 11
100.0
 21
64.62199999999999
 31
0.0
  0
LINE
  5
54C
330
1E
100
AcDbEntity
  8
0
100
AcDbLine
 10
100.0
 20
65.48399999999998
 30
0.0
 11
100.0
 21
63.416
 31
0.0
  0
LINE
  5
54D
330
1E
100
AcDbEntity
  8
0
100
AcDbLine
 10
100.0
 20
65.48399999999998
 30
0.0
 11
100.0
 21
63.52429999999999
 31
0.0
  0
LINE
  5
54E
330
1E
100
AcDbEntity
  8
0
100
AcDbLine
 10
100.0
 20
64.62199999999999
 30
0.0
 11
100.0
 21
65.006
 31
0.0
  0
LINE
  5
54F
330
1E
100
AcDbEntity
  8
0
100
AcDbLine
 10
100.0
 20
64.62199999999999
 30
0.0
 11
100.0
 21
63.98199999999999
 31
0.0
  0
LINE
  5
550
330
1E
100
AcDbEntity
  8
0
100
AcDbLine
 10
100.0
 20
63.98199999999999
 30
0.0
 11
100.0
 21
64.62199999999999
 31
0.0
  0
LINE
  5
551
330
1E
100
AcDbEntity
  8
0
100
AcDbLine
 10
100.0
 20
63.98199999999999
 30
0.0
 11
100.0
 21
63.13399999999999
 31
0.0
  0
LINE
  5
552
330
1E
100
AcDbEntity
  8
0
100
AcDbLine
 10
100.0
 20
63.13399999999999
 30
0.0
 11
100.0
 21
63.98199999999999
 31
0.0
  0
LINE
  5
553
330
1E
100
AcDbEntity
  8
0
100
AcDbLine
 10
100.0
 20
63.13399999999999
 30
0.0
 11
100.0
 21
62.174
 31
0.0
  0
LINE
  5
554
330
1E
100
AcDbEntity
  8
0
100
AcDbLine
 10
100.0
 20
62.174
 30
0.0
 11
100.0
 21
63.13399999999999
 31
0.0
  0
LINE
  5
555
330
1E
100
AcDbEntity
  8
0
100
AcDbLine
 10
100.0
 20
62.174
 30
0.0
 11
100.0
 21
61.15
 31
0.0
  0
LINE
  5
556
330
1E
100
AcDbEntity
  8
0
100
AcDbLine
 10
100.0
 20
63.52429999999999
 30
0.0
 11
100.0
 21
65.48399999999998
 31
0.0
  0
LINE
  5
557
330
1E
100
AcDbEntity
  8
0
100
AcDbLine
 10
100.0
 20
63.52429999999999
 30
0.0
 11
100.0
 21
61.5539
 31
0.0
  0
LINE
  5
558
330
1E
100
AcDbEntity
  8
0
100
AcDbLine
 10
100.0
 20
63.416
 30
0.0
 11
100.0
 21
61.5539
 31
0.0
  0
LINE
  5
559
330
1E
100
AcDbEntity
  8
0
100
AcDbLine
 10
100.0
 20
63.416
 30
0.0
 11
100.0
 21
65.48399999999998
 31
0.0
  0
LINE
  5
55A
330
1E
100
AcDbEntity
  8
0
100
AcDbLine
 10
173.0
 20
54.62839999999999
 30
0.0
 11
173.0
 21
61.6916
 31
0.0
  0
LINE
  5
55B
330
1E
100
AcDbEntity
  8
0
100
AcDbLine
 10
173.0
 20
54.62839999999999
 30
0.0
 11
173.0
 21
47.8863
 31
0.0
  0
LINE
  5
55C
330
1E
100
AcDbEntity
  8
0
100
AcDbLine
 10
173.0
 20
47.8863
 30
0.0
 11
173.0
 21
54.62839999999999
 31
0.0
  0
LINE
  5
55D
330
1E
100
AcDbEntity
  8
0
100
AcDbLine
 10
173.0
 20
47.8863
 30
0.0
 11
173.0
 21
41.9147
 31
0.0
  0
LINE
  5
55E
330
1E
100
AcDbEntity
  8
0
100
AcDbLine
 10
100.0
 20
61.06
 30
0.0
 11
100.0
 21
68.87199999999999
 31
0.0
  0
LINE
  5
55F
330
1E
100
AcDbEntity
  8
0
100
AcDbLine
 10
100.0
 20
61.06
 30
0.0
 11
100.0
 21
60.3
 31
0.0
  0
LINE
  5
560
330
1E
100
AcDbEntity
  8
0
100
AcDbLine
 10
104.0
 20
59.5
 30
0.0
 11
104.0
 21
59.166
 31
0.0
  0
LINE
  5
561
330
1E
100
AcDbEntity
  8
0
100
AcDbLine
 10
104.0
 20
59.5
 30
0.0
 11
104.0
 21
110.4999999999999
 31
0.0
  0
LINE
  5
562
330
1E
100
AcDbEntity
  8
0
100
AcDbLine
 10
104.0
 20
57.29399999999999
 30
0.0
 11
104.0
 21
57.67800000000001
 31
0.0
  0
LINE
  5
563
330
1E
100
AcDbEntity
  8
0
100
AcDbLine
 10
104.0
 20
57.29399999999999
 30
0.0
 11
104.0
 21
57.14999999999999
 31
0.0
  0
LINE
  5
564
330
1E
100
AcDbEntity
  8
0
100
AcDbLine
 10
104.0
 20
57.67800000000001
 30
0.0
 11
104.0
 21
58.31800000000001
 31
0.0
  0
LINE
  5
565
330
1E
100
AcDbEntity
  8
0
100
AcDbLine
 10
104.0
 20
57.67800000000001
 30
0.0
 11
104.0
 21
57.29399999999999
 31
0.0
  0
LINE
  5
566
330
1E
100
AcDbEntity
  8
0
100
AcDbLine
 10
104.0
 20
58.31800000000001
 30
0.0
 11
104.0
 21
59.166
 31
0.0
  0
LINE
  5
567
330
1E
100
AcDbEntity
  8
0
100
AcDbLine
 10
104.0
 20
58.31800000000001
 30
0.0
 11
104.0
 21
57.67800000000001
 31
0.0
  0
LINE
  5
568
330
1E
100
AcDbEntity
  8
0
100
AcDbLine
 10
104.0
 20
59.166
 30
0.0
 11
104.0
 21
59.5
 31
0.0
  0
LINE
  5
569
330
1E
100
AcDbEntity
  8
0
100
AcDbLine
 10
104.0
 20
59.166
 30
0.0
 11
104.0
 21
58.31800000000001
 31
0.0
  0
LINE
  5
56A
330
1E
100
AcDbEntity
  8
0
100
AcDbLine
 10
104.0
 20
57.14999999999999
 30
0.0
 11
104.0
 21
47.4115
 31
0.0
  0
LINE
  5
56B
330
1E
100
AcDbEntity
  8
0
100
AcDbLine
 10
104.0
 20
57.14999999999999
 30
0.0
 11
104.0
 21
57.29399999999999
 31
0.0
  0
LINE
  5
56C
330
1E
100
AcDbEntity
  8
0
100
AcDbLine
 10
100.0
 20
60.3
 30
0.0
 11
100.0
 21
61.15
 31
0.0
  0
LINE
  5
56D
330
1E
100
AcDbEntity
  8
0
100
AcDbLine
 10
100.0
 20
60.3
 30
0.0
 11
100.0
 21
59.5
 31
0.0
  0
LINE
  5
56E
330
1E
100
AcDbEntity
  8
0
100
AcDbLine
 10
100.0
 20
60.3
 30
0.0
 11
100.0
 21
61.06
 31
0.0
  0
LINE
  5
56F
330
1E
100
AcDbEntity
  8
0
100
AcDbLine
 10
100.0
 20
61.15
 30
0.0
 11
100.0
 21
60.3
 31
0.0
  0
LINE
  5
570
330
1E
100
AcDbEntity
  8
0
100
AcDbLine
 10
100.0
 20
61.15
 30
0.0
 11
100.0
 21
62.174
 31
0.0
  0
LINE
  5
571
330
1E
100
AcDbEntity
  8
0
100
AcDbLine
 10
100.0
 20
61.15
 30
0.0
 11
100.0
 21
60.126
 31
0.0
  0
LINE
  5
572
330
1E
100
AcDbEntity
  8
0
100
AcDbLine
 10
100.0
 20
61.5539
 30
0.0
 11
100.0
 21
63.52429999999999
 31
0.0
  0
LINE
  5
573
330
1E
100
AcDbEntity
  8
0
100
AcDbLine
 10
100.0
 20
61.5539
 30
0.0
 11
100.0
 21
63.416
 31
0.0
  0
LINE
  5
574
330
1E
100
AcDbEntity
  8
0
100
AcDbLine
 10
100.0
 20
59.5
 30
0.0
 11
100.0
 21
60.126
 31
0.0
  0
LINE
  5
575
330
1E
100
AcDbEntity
  8
0
100
AcDbLine
 10
100.0
 20
59.5
 30
0.0
 11
100.0
 21
110.4999999999999
 31
0.0
  0
LINE
  5
576
330
1E
100
AcDbEntity
  8
0
100
AcDbLine
 10
100.0
 20
59.5
 30
0.0
 11
100.0
 21
60.3
 31
0.0
  0
LINE
  5
577
330
1E
100
AcDbEntity
  8
0
100
AcDbLine
 10
100.0
 20
59.5
 30
0.0
 11
104.0
 21
59.5
 31
0.0
  0
LINE
  5
578
330
1E
100
AcDbEntity
  8
0
100
AcDbLine
 10
100.0
 20
60.126
 30
0.0
 11
100.0
 21
61.15
 31
0.0
  0
LINE
  5
579
330
1E
100
AcDbEntity
  8
0
100
AcDbLine
 10
100.0
 20
60.126
 30
0.0
 11
100.0
 21
59.5
 31
0.0
  0
LINE
  5
57A
330
1E
100
AcDbEntity
  8
0
100
AcDbLine
 10
173.0
 20
41.9147
 30
0.0
 11
173.0
 21
41.49219999999999
 31
0.0
  0
LINE
  5
57B
330
1E
100
AcDbEntity
  8
0
100
AcDbLine
 10
173.0
 20
41.9147
 30
0.0
 11
173.0
 21
47.8863
 31
0.0
  0
LINE
  5
57C
330
1E
100
AcDbEntity
  8
0
100
AcDbLine
 10
131.7199999999999
 20
24.4072
 30
0.0
 11
133.6399999999999
 21
25.0876
 31
0.0
  0
LINE
  5
57D
330
1E
100
AcDbEntity
  8
0
100
AcDbLine
 10
133.6399999999999
 20
25.0876
 30
0.0
 11
136.84
 21
25.8896
 31
0.0
  0
LINE
  5
57E
330
1E
100
AcDbEntity
  8
0
100
AcDbLine
 10
136.84
 20
25.8896
 30
0.0
 11
141.0799999999999
 21
26.74009999999999
 31
0.0
  0
LINE
  5
57F
330
1E
100
AcDbEntity
  8
0
100
AcDbLine
 10
141.0799999999999
 20
26.74009999999999
 30
0.0
 11
145.8799999999999
 21
27.3963
 31
0.0
  0
LINE
  5
580
330
1E
100
AcDbEntity
  8
0
100
AcDbLine
 10
145.8799999999999
 20
27.3963
 30
0.0
 11
151.0
 21
27.64999999999999
 31
0.0
  0
LINE
  5
581
330
1E
100
AcDbEntity
  8
0
100
AcDbLine
 10
151.0
 20
27.64999999999999
 30
0.0
 11
156.12
 21
27.3963
 31
0.0
  0
LINE
  5
582
330
1E
100
AcDbEntity
  8
0
100
AcDbLine
 10
173.0
 20
41.49219999999999
 30
0.0
 11
173.0
 21
41.9147
 31
0.0
  0
LINE
  5
583
330
1E
100
AcDbEntity
  8
0
100
AcDbLine
 10
173.0
 20
34.19129999999999
 30
0.0
 11
173.0
 21
35.8713
 31
0.0
  0
LINE
  5
584
330
1E
100
AcDbEntity
  8
0
100
AcDbLine
 10
173.0
 20
34.19129999999999
 30
0.0
 11
173.0
 21
32.39929999999999
 31
0.0
  0
LINE
  5
585
330
1E
100
AcDbEntity
  8
0
100
AcDbLine
 10
173.0
 20
35.8713
 30
0.0
 11
173.0
 21
37.3553
 31
0.0
  0
LINE
  5
586
330
1E
100
AcDbEntity
  8
0
100
AcDbLine
 10
173.0
 20
35.8713
 30
0.0
 11
173.0
 21
34.19129999999999
 31
0.0
  0
LINE
  5
587
330
1E
100
AcDbEntity
  8
0
100
AcDbLine
 10
173.0
 20
37.3553
 30
0.0
 11
173.0
 21
38.4753
 31
0.0
  0
LINE
  5
588
330
1E
100
AcDbEntity
  8
0
100
AcDbLine
 10
173.0
 20
37.3553
 30
0.0
 11
173.0
 21
35.8713
 31
0.0
  0
LINE
  5
589
330
1E
100
AcDbEntity
  8
0
100
AcDbLine
 10
173.0
 20
38.4753
 30
0.0
 11
173.0
 21
54.4105
 31
0.0
  0
LINE
  5
58A
330
1E
100
AcDbEntity
  8
0
100
AcDbLine
 10
173.0
 20
38.4753
 30
0.0
 11
173.0
 21
37.3553
 31
0.0
  0
LINE
  5
58B
330
1E
100
AcDbEntity
  8
0
100
AcDbLine
 10
173.0
 20
30.60729999999999
 30
0.0
 11
173.0
 21
28.9273
 31
0.0
  0
LINE
  5
58C
330
1E
100
AcDbEntity
  8
0
100
AcDbLine
 10
173.0
 20
30.60729999999999
 30
0.0
 11
173.0
 21
32.39929999999999
 31
0.0
  0
LINE
  5
58D
330
1E
100
AcDbEntity
  8
0
100
AcDbLine
 10
173.0
 20
32.39929999999999
 30
0.0
 11
173.0
 21
34.19129999999999
 31
0.0
  0
LINE
  5
58E
330
1E
100
AcDbEntity
  8
0
100
AcDbLine
 10
173.0
 20
32.39929999999999
 30
0.0
 11
173.0
 21
30.60729999999999
 31
0.0
  0
LINE
  5
58F
330
1E
100
AcDbEntity
  8
0
100
AcDbLine
 10
173.0
 20
28.9273
 30
0.0
 11
173.0
 21
27.4433
 31
0.0
  0
LINE
  5
590
330
1E
100
AcDbEntity
  8
0
100
AcDbLine
 10
173.0
 20
28.9273
 30
0.0
 11
173.0
 21
30.60729999999999
 31
0.0
  0
LINE
  5
591
330
1E
100
AcDbEntity
  8
0
100
AcDbLine
 10
173.0
 20
27.4433
 30
0.0
 11
173.0
 21
26.3233
 31
0.0
  0
LINE
  5
592
330
1E
100
AcDbEntity
  8
0
100
AcDbLine
 10
173.0
 20
27.4433
 30
0.0
 11
173.0
 21
28.9273
 31
0.0
  0
LINE
  5
593
330
1E
100
AcDbEntity
  8
0
100
AcDbLine
 10
160.92
 20
26.74009999999999
 30
0.0
 11
165.1599999999999
 21
25.8896
 31
0.0
  0
LINE
  5
594
330
1E
100
AcDbEntity
  8
0
100
AcDbLine
 10
173.0
 20
26.3233
 30
0.0
 11
173.0
 21
25.65129999999999
 31
0.0
  0
LINE
  5
595
330
1E
100
AcDbEntity
  8
0
100
AcDbLine
 10
173.0
 20
26.3233
 30
0.0
 11
173.0
 21
27.4433
 31
0.0
  0
LINE
  5
596
330
1E
100
AcDbEntity
  8
0
100
AcDbLine
 10
156.12
 20
27.3963
 30
0.0
 11
160.92
 21
26.74009999999999
 31
0.0
  0
LINE
  5
597
330
1E
100
AcDbEntity
  8
0
100
AcDbLine
 10
168.36
 20
25.0876
 30
0.0
 11
170.2799999999999
 21
24.4072
 31
0.0
  0
LINE
  5
598
330
1E
100
AcDbEntity
  8
0
100
AcDbLine
 10
173.0
 20
24.6421
 30
0.0
 11
173.0
 21
24.0
 31
0.0
  0
LINE
  5
599
330
1E
100
AcDbEntity
  8
0
100
AcDbLine
 10
173.0
 20
24.6421
 30
0.0
 11
173.0
 21
25.3993
 31
0.0
  0
LINE
  5
59A
330
1E
100
AcDbEntity
  8
0
100
AcDbLine
 10
173.0
 20
25.65129999999999
 30
0.0
 11
173.0
 21
25.3993
 31
0.0
  0
LINE
  5
59B
330
1E
100
AcDbEntity
  8
0
100
AcDbLine
 10
173.0
 20
25.65129999999999
 30
0.0
 11
173.0
 21
26.3233
 31
0.0
  0
LINE
  5
59C
330
1E
100
AcDbEntity
  8
0
100
AcDbLine
 10
173.0
 20
25.3993
 30
0.0
 11
173.0
 21
24.6421
 31
0.0
  0
LINE
  5
59D
330
1E
100
AcDbEntity
  8
0
100
AcDbLine
 10
173.0
 20
25.3993
 30
0.0
 11
173.0
 21
25.65129999999999
 31
0.0
  0
LINE
  5
59E
330
1E
100
AcDbEntity
  8
0
100
AcDbLine
 10
165.1599999999999
 20
25.8896
 30
0.0
 11
168.36
 21
25.0876
 31
0.0
  0
LINE
  5
59F
330
1E
100
AcDbEntity
  8
0
100
AcDbLine
 10
100.0
 20
27.04
 30
0.0
 11
100.0
 21
30.31599999999999
 31
0.0
  0
LINE
  5
5A0
330
1E
100
AcDbEntity
  8
0
100
AcDbLine
 10
100.0
 20
27.04
 30
0.0
 11
100.0
 21
24.26799999999998
 31
0.0
  0
LINE
  5
5A1
330
1E
100
AcDbEntity
  8
0
100
AcDbLine
 10
100.0
 20
30.31599999999999
 30
0.0
 11
100.0
 21
35.104
 31
0.0
  0
LINE
  5
5A2
330
1E
100
AcDbEntity
  8
0
100
AcDbLine
 10
100.0
 20
30.31599999999999
 30
0.0
 11
100.0
 21
27.04
 31
0.0
  0
LINE
  5
5A3
330
1E
100
AcDbEntity
  8
0
100
AcDbLine
 10
100.0
 20
37.49719999999999
 30
0.0
 11
100.0
 21
60.3
 31
0.0
  0
LINE
  5
5A4
330
1E
100
AcDbEntity
  8
0
100
AcDbLine
 10
104.0
 20
46.69599999999999
 30
0.0
 11
104.0
 21
42.5212
 31
0.0
  0
LINE
  5
5A5
330
1E
100
AcDbEntity
  8
0
100
AcDbLine
 10
104.0
 20
46.69599999999999
 30
0.0
 11
104.0
 21
47.4115
 31
0.0
  0
LINE
  5
5A6
330
1E
100
AcDbEntity
  8
0
100
AcDbLine
 10
104.0
 20
42.5212
 30
0.0
 11
104.0
 21
42.3772
 31
0.0
  0
LINE
  5
5A7
330
1E
100
AcDbEntity
  8
0
100
AcDbLine
 10
104.0
 20
42.5212
 30
0.0
 11
104.0
 21
46.69599999999999
 31
0.0
  0
LINE
  5
5A8
330
1E
100
AcDbEntity
  8
0
100
AcDbLine
 10
104.0
 20
47.4115
 30
0.0
 11
104.0
 21
57.14999999999999
 31
0.0
  0
LINE
  5
5A9
330
1E
100
AcDbEntity
  8
0
100
AcDbLine
 10
104.0
 20
47.4115
 30
0.0
 11
104.0
 21
46.69599999999999
 31
0.0
  0
LINE
  5
5AA
330
1E
100
AcDbEntity
  8
0
100
AcDbLine
 10
104.0
 20
38.5212
 30
0.0
 11
104.0
 21
39.5452
 31
0.0
  0
LINE
  5
5AB
330
1E
100
AcDbEntity
  8
0
100
AcDbLine
 10
104.0
 20
38.5212
 30
0.0
 11
104.0
 21
37.49719999999999
 31
0.0
  0
LINE
  5
5AC
330
1E
100
AcDbEntity
  8
0
100
AcDbLine
 10
104.0
 20
39.5452
 30
0.0
 11
104.0
 21
38.5212
 31
0.0
  0
LINE
  5
5AD
330
1E
100
AcDbEntity
  8
0
100
AcDbLine
 10
104.0
 20
39.5452
 30
0.0
 11
104.0
 21
40.50519999999998
 31
0.0
  0
LINE
  5
5AE
330
1E
100
AcDbEntity
  8
0
100
AcDbLine
 10
104.0
 20
40.50519999999998
 30
0.0
 11
104.0
 21
39.5452
 31
0.0
  0
LINE
  5
5AF
330
1E
100
AcDbEntity
  8
0
100
AcDbLine
 10
104.0
 20
40.50519999999998
 30
0.0
 11
104.0
 21
41.3532
 31
0.0
  0
LINE
  5
5B0
330
1E
100
AcDbEntity
  8
0
100
AcDbLine
 10
104.0
 20
41.3532
 30
0.0
 11
104.0
 21
40.50519999999998
 31
0.0
  0
LINE
  5
5B1
330
1E
100
AcDbEntity
  8
0
100
AcDbLine
 10
104.0
 20
41.3532
 30
0.0
 11
104.0
 21
41.9932
 31
0.0
  0
LINE
  5
5B2
330
1E
100
AcDbEntity
  8
0
100
AcDbLine
 10
104.0
 20
41.9932
 30
0.0
 11
104.0
 21
41.3532
 31
0.0
  0
LINE
  5
5B3
330
1E
100
AcDbEntity
  8
0
100
AcDbLine
 10
104.0
 20
41.9932
 30
0.0
 11
104.0
 21
42.3772
 31
0.0
  0
LINE
  5
5B4
330
1E
100
AcDbEntity
  8
0
100
AcDbLine
 10
104.0
 20
42.3772
 30
0.0
 11
104.0
 21
41.9932
 31
0.0
  0
LINE
  5
5B5
330
1E
100
AcDbEntity
  8
0
100
AcDbLine
 10
104.0
 20
42.3772
 30
0.0
 11
104.0
 21
42.5212
 31
0.0
  0
LINE
  5
5B6
330
1E
100
AcDbEntity
  8
0
100
AcDbLine
 10
104.0
 20
30.31599999999999
 30
0.0
 11
104.0
 21
34.5212
 31
0.0
  0
LINE
  5
5B7
330
1E
100
AcDbEntity
  8
0
100
AcDbLine
 10
104.0
 20
34.18469999999999
 30
0.0
 11
104.0
 21
34.5212
 31
0.0
  0
LINE
  5
5B8
330
1E
100
AcDbEntity
  8
0
100
AcDbLine
 10
104.0
 20
34.5212
 30
0.0
 11
104.0
 21
34.66519999999999
 31
0.0
  0
LINE
  5
5B9
330
1E
100
AcDbEntity
  8
0
100
AcDbLine
 10
104.0
 20
34.5212
 30
0.0
 11
104.0
 21
34.18469999999999
 31
0.0
  0
LINE
  5
5BA
330
1E
100
AcDbEntity
  8
0
100
AcDbLine
 10
104.0
 20
37.49719999999999
 30
0.0
 11
104.0
 21
36.53719999999999
 31
0.0
  0
LINE
  5
5BB
330
1E
100
AcDbEntity
  8
0
100
AcDbLine
 10
104.0
 20
37.49719999999999
 30
0.0
 11
104.0
 21
38.5212
 31
0.0
  0
LINE
  5
5BC
330
1E
100
AcDbEntity
  8
0
100
AcDbLine
 10
104.0
 20
36.53719999999999
 30
0.0
 11
104.0
 21
35.6892
 31
0.0
  0
LINE
  5
5BD
330
1E
100
AcDbEntity
  8
0
100
AcDbLine
 10
104.0
 20
36.53719999999999
 30
0.0
 11
104.0
 21
37.49719999999999
 31
0.0
  0
LINE
  5
5BE
330
1E
100
AcDbEntity
  8
0
100
AcDbLine
 10
104.0
 20
35.6892
 30
0.0
 11
104.0
 21
35.0492
 31
0.0
  0
LINE
  5
5BF
330
1E
100
AcDbEntity
  8
0
100
AcDbLine
 10
104.0
 20
35.6892
 30
0.0
 11
104.0
 21
36.53719999999999
 31
0.0
  0
LINE
  5
5C0
330
1E
100
AcDbEntity
  8
0
100
AcDbLine
 10
104.0
 20
35.0492
 30
0.0
 11
104.0
 21
34.66519999999999
 31
0.0
  0
LINE
  5
5C1
330
1E
100
AcDbEntity
  8
0
100
AcDbLine
 10
104.0
 20
35.0492
 30
0.0
 11
104.0
 21
35.6892
 31
0.0
  0
LINE
  5
5C2
330
1E
100
AcDbEntity
  8
0
100
AcDbLine
 10
104.0
 20
34.66519999999999
 30
0.0
 11
104.0
 21
34.5212
 31
0.0
  0
LINE
  5
5C3
330
1E
100
AcDbEntity
  8
0
100
AcDbLine
 10
104.0
 20
34.66519999999999
 30
0.0
 11
104.0
 21
35.0492
 31
0.0
  0
LINE
  5
5C4
330
1E
100
AcDbEntity
  8
0
100
AcDbLine
 10
100.0
 20
35.104
 30
0.0
 11
100.0
 21
40.648
 31
0.0
  0
LINE
  5
5C5
330
1E
100
AcDbEntity
  8
0
100
AcDbLine
 10
100.0
 20
35.104
 30
0.0
 11
100.0
 21
30.31599999999999
 31
0.0
  0
LINE
  5
5C6
330
1E
100
AcDbEntity
  8
0
100
AcDbLine
 10
100.0
 20
40.648
 30
0.0
 11
100.0
 21
46.69599999999999
 31
0.0
  0
LINE
  5
5C7
330
1E
100
AcDbEntity
  8
0
100
AcDbLine
 10
100.0
 20
40.648
 30
0.0
 11
100.0
 21
35.104
 31
0.0
  0
LINE
  5
5C8
330
1E
100
AcDbEntity
  8
0
100
AcDbLine
 10
100.0
 20
36.16179999999999
 30
0.0
 11
100.0
 21
12.43739999999999
 31
0.0
  0
LINE
  5
5C9
330
1E
100
AcDbEntity
  8
0
100
AcDbLine
 10
100.0
 20
36.16179999999999
 30
0.0
 11
100.0
 21
34.8138
 31
0.0
  0
LINE
  5
5CA
330
1E
100
AcDbEntity
  8
0
100
AcDbLine
 10
100.0
 20
37.49719999999999
 30
0.0
 11
100.0
 21
36.53719999999999
 31
0.0
  0
LINE
  5
5CB
330
1E
100
AcDbEntity
  8
0
100
AcDbLine
 10
100.0
 20
37.49719999999999
 30
0.0
 11
100.0
 21
38.5212
 31
0.0
  0
LINE
  5
5CC
330
1E
100
AcDbEntity
  8
0
100
AcDbLine
 10
100.0
 20
36.53719999999999
 30
0.0
 11
100.0
 21
35.6892
 31
0.0
  0
LINE
  5
5CD
330
1E
100
AcDbEntity
  8
0
100
AcDbLine
 10
100.0
 20
36.53719999999999
 30
0.0
 11
100.0
 21
37.49719999999999
 31
0.0
  0
LINE
  5
5CE
330
1E
100
AcDbEntity
  8
0
100
AcDbLine
 10
100.0
 20
38.5212
 30
0.0
 11
100.0
 21
39.5452
 31
0.0
  0
LINE
  5
5CF
330
1E
100
AcDbEntity
  8
0
100
AcDbLine
 10
100.0
 20
38.5212
 30
0.0
 11
100.0
 21
37.49719999999999
 31
0.0
  0
LINE
  5
5D0
330
1E
100
AcDbEntity
  8
0
100
AcDbLine
 10
100.0
 20
39.5452
 30
0.0
 11
100.0
 21
40.50519999999998
 31
0.0
  0
LINE
  5
5D1
330
1E
100
AcDbEntity
  8
0
100
AcDbLine
 10
100.0
 20
39.5452
 30
0.0
 11
100.0
 21
38.5212
 31
0.0
  0
LINE
  5
5D2
330
1E
100
AcDbEntity
  8
0
100
AcDbLine
 10
100.0
 20
40.50519999999998
 30
0.0
 11
100.0
 21
41.3532
 31
0.0
  0
LINE
  5
5D3
330
1E
100
AcDbEntity
  8
0
100
AcDbLine
 10
100.0
 20
40.50519999999998
 30
0.0
 11
100.0
 21
39.5452
 31
0.0
  0
LINE
  5
5D4
330
1E
100
AcDbEntity
  8
0
100
AcDbLine
 10
100.0
 20
41.3532
 30
0.0
 11
100.0
 21
41.9932
 31
0.0
  0
LINE
  5
5D5
330
1E
100
AcDbEntity
  8
0
100
AcDbLine
 10
100.0
 20
41.3532
 30
0.0
 11
100.0
 21
40.50519999999998
 31
0.0
  0
LINE
  5
5D6
330
1E
100
AcDbEntity
  8
0
100
AcDbLine
 10
100.0
 20
41.9932
 30
0.0
 11
100.0
 21
42.3772
 31
0.0
  0
LINE
  5
5D7
330
1E
100
AcDbEntity
  8
0
100
AcDbLine
 10
100.0
 20
41.9932
 30
0.0
 11
100.0
 21
41.3532
 31
0.0
  0
LINE
  5
5D8
330
1E
100
AcDbEntity
  8
0
100
AcDbLine
 10
100.0
 20
42.3772
 30
0.0
 11
100.0
 21
42.5212
 31
0.0
  0
LINE
  5
5D9
330
1E
100
AcDbEntity
  8
0
100
AcDbLine
 10
100.0
 20
42.3772
 30
0.0
 11
100.0
 21
41.9932
 31
0.0
  0
LINE
  5
5DA
330
1E
100
AcDbEntity
  8
0
100
AcDbLine
 10
100.0
 20
42.5212
 30
0.0
 11
100.0
 21
42.3772
 31
0.0
  0
LINE
  5
5DB
330
1E
100
AcDbEntity
  8
0
100
AcDbLine
 10
100.0
 20
35.6892
 30
0.0
 11
100.0
 21
35.0492
 31
0.0
  0
LINE
  5
5DC
330
1E
100
AcDbEntity
  8
0
100
AcDbLine
 10
100.0
 20
35.6892
 30
0.0
 11
100.0
 21
36.53719999999999
 31
0.0
  0
LINE
  5
5DD
330
1E
100
AcDbEntity
  8
0
100
AcDbLine
 10
100.0
 20
27.355
 30
0.0
 11
100.0
 21
16.18492
 31
0.0
  0
LINE
  5
5DE
330
1E
100
AcDbEntity
  8
0
100
AcDbLine
 10
100.0
 20
27.355
 30
0.0
 11
100.0
 21
26.54619999999999
 31
0.0
  0
LINE
  5
5DF
330
1E
100
AcDbEntity
  8
0
100
AcDbLine
 10
100.0
 20
34.8138
 30
0.0
 11
100.0
 21
36.16179999999999
 31
0.0
  0
LINE
  5
5E0
330
1E
100
AcDbEntity
  8
0
100
AcDbLine
 10
100.0
 20
34.8138
 30
0.0
 11
100.0
 21
13.69550999999999
 31
0.0
  0
LINE
  5
5E1
330
1E
100
AcDbEntity
  8
0
100
AcDbLine
 10
100.0
 20
35.0492
 30
0.0
 11
100.0
 21
34.66519999999999
 31
0.0
  0
LINE
  5
5E2
330
1E
100
AcDbEntity
  8
0
100
AcDbLine
 10
100.0
 20
35.0492
 30
0.0
 11
100.0
 21
35.6892
 31
0.0
  0
LINE
  5
5E3
330
1E
100
AcDbEntity
  8
0
100
AcDbLine
 10
100.0
 20
34.66519999999999
 30
0.0
 11
100.0
 21
34.5212
 31
0.0
  0
LINE
  5
5E4
330
1E
100
AcDbEntity
  8
0
100
AcDbLine
 10
100.0
 20
34.66519999999999
 30
0.0
 11
100.0
 21
35.0492
 31
0.0
  0
LINE
  5
5E5
330
1E
100
AcDbEntity
  8
0
100
AcDbLine
 10
100.0
 20
34.5212
 30
0.0
 11
100.0
 21
34.66519999999999
 31
0.0
  0
LINE
  5
5E6
330
1E
100
AcDbEntity
  8
0
100
AcDbLine
 10
100.0
 20
26.54619999999999
 30
0.0
 11
100.0
 21
27.355
 31
0.0
  0
LINE
  5
5E7
330
1E
100
AcDbEntity
  8
0
100
AcDbLine
 10
100.0
 20
26.54619999999999
 30
0.0
 11
100.0
 21
15.84241
 31
0.0
  0
LINE
  5
5E8
330
1E
100
AcDbEntity
  8
0
100
AcDbLine
 10
170.2799999999999
 20
24.4072
 30
0.0
 11
171.0
 21
24.0
 31
0.0
  0
LINE
  5
5E9
330
1E
100
AcDbEntity
  8
0
100
AcDbLine
 10
100.0
 20
24.26799999999998
 30
0.0
 11
100.0
 21
27.04
 31
0.0
  0
LINE
  5
5EA
330
1E
100
AcDbEntity
  8
0
100
AcDbLine
 10
100.0
 20
24.26799999999998
 30
0.0
 11
100.0
 21
22.75599999999999
 31
0.0
  0
LINE
  5
5EB
330
1E
100
AcDbEntity
  8
0
100
AcDbLine
 10
65.0
 20
136.1129999999998
 30
0.0
 11
65.0
 21
139.4039999999999
 31
0.0
  0
LINE
  5
5EC
330
1E
100
AcDbEntity
  8
0
100
AcDbLine
 10
65.0
 20
141.888
 30
0.0
 11
65.0
 21
143.817
 31
0.0
  0
LINE
  5
5ED
330
1E
100
AcDbEntity
  8
0
100
AcDbLine
 10
65.0
 20
137.8449999999999
 30
0.0
 11
65.0
 21
141.2479999999999
 31
0.0
  0
LINE
  5
5EE
330
1E
100
AcDbEntity
  8
0
100
AcDbLine
 10
65.0
 20
141.888
 30
0.0
 11
65.0
 21
143.3789999999999
 31
0.0
  0
LINE
  5
5EF
330
1E
100
AcDbEntity
  8
0
100
AcDbLine
 10
65.0
 20
139.4039999999999
 30
0.0
 11
65.0
 21
141.888
 31
0.0
  0
LINE
  5
5F0
330
1E
100
AcDbEntity
  8
0
100
AcDbLine
 10
65.0
 20
141.2479999999999
 30
0.0
 11
65.0
 21
143.817
 31
0.0
  0
LINE
  5
5F1
330
1E
100
AcDbEntity
  8
0
100
AcDbLine
 10
65.0
 20
114.376
 30
0.0
 11
65.0
 21
115.372
 31
0.0
  0
LINE
  5
5F2
330
1E
100
AcDbEntity
  8
0
100
AcDbLine
 10
65.0
 20
120.897
 30
0.0
 11
65.0
 21
126.6729999999999
 31
0.0
  0
LINE
  5
5F3
330
1E
100
AcDbEntity
  8
0
100
AcDbLine
 10
65.0
 20
122.1139999999999
 30
0.0
 11
65.0
 21
128.0849999999999
 31
0.0
  0
LINE
  5
5F4
330
1E
100
AcDbEntity
  8
0
100
AcDbLine
 10
65.0
 20
133.2859999999998
 30
0.0
 11
65.0
 21
137.8449999999999
 31
0.0
  0
LINE
  5
5F5
330
1E
100
AcDbEntity
  8
0
100
AcDbLine
 10
65.0
 20
128.0849999999999
 30
0.0
 11
65.0
 21
133.2859999999998
 31
0.0
  0
LINE
  5
5F6
330
1E
100
AcDbEntity
  8
0
100
AcDbLine
 10
65.0
 20
131.7029999999999
 30
0.0
 11
65.0
 21
136.1129999999998
 31
0.0
  0
LINE
  5
5F7
330
1E
100
AcDbEntity
  8
0
100
AcDbLine
 10
65.0
 20
131.7029999999999
 30
0.0
 11
65.0
 21
133.2859999999998
 31
0.0
  0
LINE
  5
5F8
330
1E
100
AcDbEntity
  8
0
100
AcDbLine
 10
65.0
 20
115.372
 30
0.0
 11
65.0
 21
120.897
 31
0.0
  0
LINE
  5
5F9
330
1E
100
AcDbEntity
  8
0
100
AcDbLine
 10
65.0
 20
115.372
 30
0.0
 11
65.0
 21
122.1139999999999
 31
0.0
  0
LINE
  5
5FA
330
1E
100
AcDbEntity
  8
0
100
AcDbLine
 10
65.0
 20
107.5442
 30
0.0
 11
65.0
 21
114.376
 31
0.0
  0
LINE
  5
5FB
330
1E
100
AcDbEntity
  8
0
100
AcDbLine
 10
65.0
 20
108.3084
 30
0.0
 11
65.0
 21
115.372
 31
0.0
  0
LINE
  5
5FC
330
1E
100
AcDbEntity
  8
0
100
AcDbLine
 10
65.0
 20
85.0
 30
0.0
 11
65.0
 21
92.96210000000002
 31
0.0
  0
LINE
  5
5FD
330
1E
100
AcDbEntity
  8
0
100
AcDbLine
 10
65.0
 20
92.96210000000002
 30
0.0
 11
65.0
 21
100.7316
 31
0.0
  0
LINE
  5
5FE
330
1E
100
AcDbEntity
  8
0
100
AcDbLine
 10
65.0
 20
100.7316
 30
0.0
 11
65.0
 21
108.3084
 31
0.0
  0
LINE
  5
5FF
330
1E
100
AcDbEntity
  8
0
100
AcDbLine
 10
65.0
 20
77.03789999999999
 30
0.0
 11
65.0
 21
77.29890000000001
 31
0.0
  0
LINE
  5
600
330
1E
100
AcDbEntity
  8
0
100
AcDbLine
 10
65.0
 20
77.03789999999999
 30
0.0
 11
65.0
 21
85.0
 31
0.0
  0
LINE
  5
601
330
1E
100
AcDbEntity
  8
0
100
AcDbLine
 10
65.0
 20
77.03789999999999
 30
0.0
 11
65.0
 21
85.0
 31
0.0
  0
LINE
  5
602
330
1E
100
AcDbEntity
  8
0
100
AcDbLine
 10
171.0
 20
24.0
 30
0.0
 11
171.0
 21
22.0
 31
0.0
  0
LINE
  5
603
330
1E
100
AcDbEntity
  8
0
100
AcDbLine
 10
171.0
 20
24.0
 30
0.0
 11
173.0
 21
24.0
 31
0.0
  0
LINE
  5
604
330
1E
100
AcDbEntity
  8
0
100
AcDbLine
 10
173.0
 20
24.0
 30
0.0
 11
173.0
 21
24.6421
 31
0.0
  0
LINE
  5
605
330
1E
100
AcDbEntity
  8
0
100
AcDbLine
 10
131.0
 20
24.0
 30
0.0
 11
131.0
 21
22.0
 31
0.0
  0
LINE
  5
606
330
1E
100
AcDbEntity
  8
0
100
AcDbLine
 10
131.0
 20
24.0
 30
0.0
 11
131.7199999999999
 21
24.0
 31
0.0
  0
LINE
  5
607
330
1E
100
AcDbEntity
  8
0
100
AcDbLine
 10
131.0
 20
24.0
 30
0.0
 11
131.7199999999999
 21
24.4072
 31
0.0
  0
LINE
  5
608
330
1E
100
AcDbEntity
  8
0
100
AcDbLine
 10
100.0
 20
24.0
 30
0.0
 11
100.0
 21
16.18492
 31
0.0
  0
LINE
  5
609
330
1E
100
AcDbEntity
  8
0
100
AcDbLine
 10
100.0
 20
24.0
 30
0.0
 11
100.0
 21
15.84241
 31
0.0
  0
LINE
  5
60A
330
1E
100
AcDbEntity
  8
0
100
AcDbLine
 10
100.0
 20
24.0
 30
0.0
 11
100.0
 21
12.43739999999999
 31
0.0
  0
LINE
  5
60B
330
1E
100
AcDbEntity
  8
0
100
AcDbLine
 10
100.0
 20
24.0
 30
0.0
 11
100.0
 21
13.69550999999999
 31
0.0
  0
LINE
  5
60C
330
1E
100
AcDbEntity
  8
0
100
AcDbLine
 10
100.0
 20
24.0
 30
0.0
 11
100.0
 21
22.75599999999999
 31
0.0
  0
LINE
  5
60D
330
1E
100
AcDbEntity
  8
0
100
AcDbLine
 10
131.7199999999999
 20
24.0
 30
0.0
 11
133.6399999999999
 21
24.0
 31
0.0
  0
LINE
  5
60E
330
1E
100
AcDbEntity
  8
0
100
AcDbLine
 10
133.6399999999999
 20
24.0
 30
0.0
 11
136.84
 21
24.0
 31
0.0
  0
LINE
  5
60F
330
1E
100
AcDbEntity
  8
0
100
AcDbLine
 10
136.84
 20
24.0
 30
0.0
 11
141.0799999999999
 21
24.0
 31
0.0
  0
LINE
  5
610
330
1E
100
AcDbEntity
  8
0
100
AcDbLine
 10
141.0799999999999
 20
24.0
 30
0.0
 11
145.8799999999999
 21
24.0
 31
0.0
  0
LINE
  5
611
330
1E
100
AcDbEntity
  8
0
100
AcDbLine
 10
145.8799999999999
 20
24.0
 30
0.0
 11
151.0
 21
24.0
 31
0.0
  0
LINE
  5
612
330
1E
100
AcDbEntity
  8
0
100
AcDbLine
 10
170.2799999999999
 20
24.0
 30
0.0
 11
171.0
 21
24.0
 31
0.0
  0
LINE
  5
613
330
1E
100
AcDbEntity
  8
0
100
AcDbLine
 10
168.36
 20
24.0
 30
0.0
 11
170.2799999999999
 21
24.0
 31
0.0
  0
LINE
  5
614
330
1E
100
AcDbEntity
  8
0
100
AcDbLine
 10
170.2799999999999
 20
22.0
 30
0.0
 11
171.0
 21
22.0
 31
0.0
  0
LINE
  5
615
330
1E
100
AcDbEntity
  8
0
100
AcDbLine
 10
171.0
 20
22.0
 30
0.0
 11
171.0
 21
24.0
 31
0.0
  0
LINE
  5
616
330
1E
100
AcDbEntity
  8
0
100
AcDbLine
 10
165.1599999999999
 20
24.0
 30
0.0
 11
168.36
 21
24.0
 31
0.0
  0
LINE
  5
617
330
1E
100
AcDbEntity
  8
0
100
AcDbLine
 10
160.92
 20
24.0
 30
0.0
 11
165.1599999999999
 21
24.0
 31
0.0
  0
LINE
  5
618
330
1E
100
AcDbEntity
  8
0
100
AcDbLine
 10
168.36
 20
22.0
 30
0.0
 11
170.2799999999999
 21
22.0
 31
0.0
  0
LINE
  5
619
330
1E
100
AcDbEntity
  8
0
100
AcDbLine
 10
165.1599999999999
 20
22.0
 30
0.0
 11
168.36
 21
22.0
 31
0.0
  0
LINE
  5
61A
330
1E
100
AcDbEntity
  8
0
100
AcDbLine
 10
167.3879999999999
 20
22.0
 30
0.0
 11
168.0
 21
22.0
 31
0.0
  0
LINE
  5
61B
330
1E
100
AcDbEntity
  8
0
100
AcDbLine
 10
165.7559999999999
 20
22.0
 30
0.0
 11
167.3879999999999
 21
22.0
 31
0.0
  0
LINE
  5
61C
330
1E
100
AcDbEntity
  8
0
100
AcDbLine
 10
163.036
 20
22.0
 30
0.0
 11
165.7559999999999
 21
22.0
 31
0.0
  0
LINE
  5
61D
330
1E
100
AcDbEntity
  8
0
100
AcDbLine
 10
156.12
 20
24.0
 30
0.0
 11
160.92
 21
24.0
 31
0.0
  0
LINE
  5
61E
330
1E
100
AcDbEntity
  8
0
100
AcDbLine
 10
151.0
 20
24.0
 30
0.0
 11
156.12
 21
24.0
 31
0.0
  0
LINE
  5
61F
330
1E
100
AcDbEntity
  8
0
100
AcDbLine
 10
160.92
 20
22.0
 30
0.0
 11
165.1599999999999
 21
22.0
 31
0.0
  0
LINE
  5
620
330
1E
100
AcDbEntity
  8
0
100
AcDbLine
 10
156.12
 20
22.0
 30
0.0
 11
160.92
 21
22.0
 31
0.0
  0
LINE
  5
621
330
1E
100
AcDbEntity
  8
0
100
AcDbLine
 10
159.432
 20
22.0
 30
0.0
 11
163.036
 21
22.0
 31
0.0
  0
LINE
  5
622
330
1E
100
AcDbEntity
  8
0
100
AcDbLine
 10
155.3519999999999
 20
22.0
 30
0.0
 11
159.432
 21
22.0
 31
0.0
  0
LINE
  5
623
330
1E
100
AcDbEntity
  8
0
100
AcDbLine
 10
151.0
 20
22.0
 30
0.0
 11
155.3519999999999
 21
22.0
 31
0.0
  0
LINE
  5
624
330
1E
100
AcDbEntity
  8
0
100
AcDbLine
 10
151.0
 20
22.0
 30
0.0
 11
156.12
 21
22.0
 31
0.0
  0
LINE
  5
625
330
1E
100
AcDbEntity
  8
0
100
AcDbLine
 10
146.6479999999999
 20
22.0
 30
0.0
 11
151.0
 21
22.0
 31
0.0
  0
LINE
  5
626
330
1E
100
AcDbEntity
  8
0
100
AcDbLine
 10
138.9639999999999
 20
22.0
 30
0.0
 11
142.5679999999999
 21
22.0
 31
0.0
  0
LINE
  5
627
330
1E
100
AcDbEntity
  8
0
100
AcDbLine
 10
142.5679999999999
 20
22.0
 30
0.0
 11
146.6479999999999
 21
22.0
 31
0.0
  0
LINE
  5
628
330
1E
100
AcDbEntity
  8
0
100
AcDbLine
 10
145.8799999999999
 20
22.0
 30
0.0
 11
151.0
 21
22.0
 31
0.0
  0
LINE
  5
629
330
1E
100
AcDbEntity
  8
0
100
AcDbLine
 10
141.0799999999999
 20
22.0
 30
0.0
 11
145.8799999999999
 21
22.0
 31
0.0
  0
LINE
  5
62A
330
1E
100
AcDbEntity
  8
0
100
AcDbLine
 10
136.244
 20
22.0
 30
0.0
 11
138.9639999999999
 21
22.0
 31
0.0
  0
LINE
  5
62B
330
1E
100
AcDbEntity
  8
0
100
AcDbLine
 10
133.6399999999999
 20
22.0
 30
0.0
 11
136.84
 21
22.0
 31
0.0
  0
LINE
  5
62C
330
1E
100
AcDbEntity
  8
0
100
AcDbLine
 10
136.84
 20
22.0
 30
0.0
 11
141.0799999999999
 21
22.0
 31
0.0
  0
LINE
  5
62D
330
1E
100
AcDbEntity
  8
0
100
AcDbLine
 10
100.0
 20
22.0
 30
0.0
 11
100.0
 21
22.75599999999999
 31
0.0
  0
LINE
  5
62E
330
1E
100
AcDbEntity
  8
0
100
AcDbLine
 10
100.0
 20
22.75599999999999
 30
0.0
 11
100.0
 21
24.26799999999998
 31
0.0
  0
LINE
  5
62F
330
1E
100
AcDbEntity
  8
0
100
AcDbLine
 10
100.0
 20
22.75599999999999
 30
0.0
 11
100.0
 21
22.0
 31
0.0
  0
LINE
  5
630
330
1E
100
AcDbEntity
  8
0
100
AcDbLine
 10
100.0
 20
22.75599999999999
 30
0.0
 11
100.0
 21
24.0
 31
0.0
  0
LINE
  5
631
330
1E
100
AcDbEntity
  8
0
100
AcDbLine
 10
100.0
 20
22.5823
 30
0.0
 11
100.0
 21
22.9663
 31
0.0
  0
LINE
  5
632
330
1E
100
AcDbEntity
  8
0
100
AcDbLine
 10
100.0
 20
22.5823
 30
0.0
 11
100.0
 21
21.94229999999998
 31
0.0
  0
LINE
  5
633
330
1E
100
AcDbEntity
  8
0
100
AcDbLine
 10
100.0
 20
22.9663
 30
0.0
 11
100.0
 21
23.1103
 31
0.0
  0
LINE
  5
634
330
1E
100
AcDbEntity
  8
0
100
AcDbLine
 10
100.0
 20
22.9663
 30
0.0
 11
100.0
 21
22.5823
 31
0.0
  0
LINE
  5
635
330
1E
100
AcDbEntity
  8
0
100
AcDbLine
 10
100.0
 20
23.1103
 30
0.0
 11
100.0
 21
22.9663
 31
0.0
  0
LINE
  5
636
330
1E
100
AcDbEntity
  8
0
100
AcDbLine
 10
100.0
 20
9.5
 30
0.0
 11
100.0
 21
59.5
 31
0.0
  0
LINE
  5
637
330
1E
100
AcDbEntity
  8
0
100
AcDbLine
 10
100.0
 20
9.5
 30
0.0
 11
100.0
 21
9.644000000000005
 31
0.0
  0
LINE
  5
638
330
1E
100
AcDbEntity
  8
0
100
AcDbLine
 10
100.0
 20
9.5
 30
0.0
 11
100.0
 21
11.5
 31
0.0
  0
LINE
  5
639
330
1E
100
AcDbEntity
  8
0
100
AcDbLine
 10
100.0
 20
9.5
 30
0.0
 11
104.0
 21
9.5
 31
0.0
  0
LINE
  5
63A
330
1E
100
AcDbEntity
  8
0
100
AcDbLine
 10
104.0
 20
9.5
 30
0.0
 11
104.0
 21
59.5
 31
0.0
  0
LINE
  5
63B
330
1E
100
AcDbEntity
  8
0
100
AcDbLine
 10
104.0
 20
9.5
 30
0.0
 11
104.0
 21
59.5
 31
0.0
  0
LINE
  5
63C
330
1E
100
AcDbEntity
  8
0
100
AcDbLine
 10
131.0
 20
22.0
 30
0.0
 11
131.0
 21
24.0
 31
0.0
  0
LINE
  5
63D
330
1E
100
AcDbEntity
  8
0
100
AcDbLine
 10
131.0
 20
22.0
 30
0.0
 11
131.7199999999999
 21
22.0
 31
0.0
  0
LINE
  5
63E
330
1E
100
AcDbEntity
  8
0
100
AcDbLine
 10
131.7199999999999
 20
22.0
 30
0.0
 11
133.6399999999999
 21
22.0
 31
0.0
  0
LINE
  5
63F
330
1E
100
AcDbEntity
  8
0
100
AcDbLine
 10
104.0
 20
16.27832
 30
0.0
 11
104.0
 21
24.0
 31
0.0
  0
LINE
  5
640
330
1E
100
AcDbEntity
  8
0
100
AcDbLine
 10
104.0
 20
17.35599999999999
 30
0.0
 11
104.0
 21
24.0
 31
0.0
  0
LINE
  5
641
330
1E
100
AcDbEntity
  8
0
100
AcDbLine
 10
104.0
 20
16.27832
 30
0.0
 11
104.0
 21
24.0
 31
0.0
  0
LINE
  5
642
330
1E
100
AcDbEntity
  8
0
100
AcDbLine
 10
104.0
 20
13.5
 30
0.0
 11
104.0
 21
34.5212
 31
0.0
  0
LINE
  5
643
330
1E
100
AcDbEntity
  8
0
100
AcDbLine
 10
104.0
 20
13.5
 30
0.0
 11
104.0
 21
34.5212
 31
0.0
  0
LINE
  5
644
330
1E
100
AcDbEntity
  8
0
100
AcDbLine
 10
104.0
 20
15.484
 30
0.0
 11
104.0
 21
34.18469999999999
 31
0.0
  0
LINE
  5
645
330
1E
100
AcDbEntity
  8
0
100
AcDbLine
 10
104.0
 20
15.484
 30
0.0
 11
104.0
 21
34.18469999999999
 31
0.0
  0
LINE
  5
646
330
1E
100
AcDbEntity
  8
0
100
AcDbLine
 10
100.0
 20
11.5
 30
0.0
 11
100.0
 21
24.0
 31
0.0
  0
LINE
  5
647
330
1E
100
AcDbEntity
  8
0
100
AcDbLine
 10
100.0
 20
11.5
 30
0.0
 11
100.0
 21
9.5
 31
0.0
  0
LINE
  5
648
330
1E
100
AcDbEntity
  8
0
100
AcDbLine
 10
100.0
 20
12.476
 30
0.0
 11
100.0
 21
11.51599999999999
 31
0.0
  0
LINE
  5
649
330
1E
100
AcDbEntity
  8
0
100
AcDbLine
 10
100.0
 20
12.476
 30
0.0
 11
100.0
 21
13.5
 31
0.0
  0
LINE
  5
64A
330
1E
100
AcDbEntity
  8
0
100
AcDbLine
 10
100.0
 20
11.51599999999999
 30
0.0
 11
100.0
 21
10.668
 31
0.0
  0
LINE
  5
64B
330
1E
100
AcDbEntity
  8
0
100
AcDbLine
 10
100.0
 20
11.51599999999999
 30
0.0
 11
100.0
 21
12.476
 31
0.0
  0
LINE
  5
64C
330
1E
100
AcDbEntity
  8
0
100
AcDbLine
 10
100.0
 20
13.5
 30
0.0
 11
100.0
 21
14.524
 31
0.0
  0
LINE
  5
64D
330
1E
100
AcDbEntity
  8
0
100
AcDbLine
 10
100.0
 20
13.5
 30
0.0
 11
100.0
 21
12.476
 31
0.0
  0
LINE
  5
64E
330
1E
100
AcDbEntity
  8
0
100
AcDbLine
 10
100.0
 20
14.524
 30
0.0
 11
100.0
 21
15.484
 31
0.0
  0
LINE
  5
64F
330
1E
100
AcDbEntity
  8
0
100
AcDbLine
 10
100.0
 20
14.524
 30
0.0
 11
100.0
 21
13.5
 31
0.0
  0
LINE
  5
650
330
1E
100
AcDbEntity
  8
0
100
AcDbLine
 10
100.0
 20
15.484
 30
0.0
 11
100.0
 21
16.33199999999999
 31
0.0
  0
LINE
  5
651
330
1E
100
AcDbEntity
  8
0
100
AcDbLine
 10
100.0
 20
15.484
 30
0.0
 11
100.0
 21
14.524
 31
0.0
  0
LINE
  5
652
330
1E
100
AcDbEntity
  8
0
100
AcDbLine
 10
100.0
 20
16.33199999999999
 30
0.0
 11
100.0
 21
16.972
 31
0.0
  0
LINE
  5
653
330
1E
100
AcDbEntity
  8
0
100
AcDbLine
 10
100.0
 20
16.33199999999999
 30
0.0
 11
100.0
 21
15.484
 31
0.0
  0
LINE
  5
654
330
1E
100
AcDbEntity
  8
0
100
AcDbLine
 10
100.0
 20
16.972
 30
0.0
 11
100.0
 21
17.35599999999999
 31
0.0
  0
LINE
  5
655
330
1E
100
AcDbEntity
  8
0
100
AcDbLine
 10
100.0
 20
16.972
 30
0.0
 11
100.0
 21
16.33199999999999
 31
0.0
  0
LINE
  5
656
330
1E
100
AcDbEntity
  8
0
100
AcDbLine
 10
100.0
 20
17.35599999999999
 30
0.0
 11
100.0
 21
17.5
 31
0.0
  0
LINE
  5
657
330
1E
100
AcDbEntity
  8
0
100
AcDbLine
 10
100.0
 20
17.35599999999999
 30
0.0
 11
100.0
 21
16.972
 31
0.0
  0
LINE
  5
658
330
1E
100
AcDbEntity
  8
0
100
AcDbLine
 10
100.0
 20
17.5
 30
0.0
 11
100.0
 21
17.35599999999999
 31
0.0
  0
LINE
  5
659
330
1E
100
AcDbEntity
  8
0
100
AcDbLine
 10
100.0
 20
18.08632
 30
0.0
 11
100.0
 21
17.12631999999999
 31
0.0
  0
LINE
  5
65A
330
1E
100
AcDbEntity
  8
0
100
AcDbLine
 10
100.0
 20
18.08632
 30
0.0
 11
100.0
 21
19.11031999999998
 31
0.0
  0
LINE
  5
65B
330
1E
100
AcDbEntity
  8
0
100
AcDbLine
 10
100.0
 20
19.11031999999998
 30
0.0
 11
100.0
 21
20.13429999999999
 31
0.0
  0
LINE
  5
65C
330
1E
100
AcDbEntity
  8
0
100
AcDbLine
 10
100.0
 20
19.11031999999998
 30
0.0
 11
100.0
 21
18.08632
 31
0.0
  0
LINE
  5
65D
330
1E
100
AcDbEntity
  8
0
100
AcDbLine
 10
100.0
 20
20.13429999999999
 30
0.0
 11
100.0
 21
21.0943
 31
0.0
  0
LINE
  5
65E
330
1E
100
AcDbEntity
  8
0
100
AcDbLine
 10
100.0
 20
20.13429999999999
 30
0.0
 11
100.0
 21
19.11031999999998
 31
0.0
  0
LINE
  5
65F
330
1E
100
AcDbEntity
  8
0
100
AcDbLine
 10
100.0
 20
21.0943
 30
0.0
 11
100.0
 21
21.94229999999998
 31
0.0
  0
LINE
  5
660
330
1E
100
AcDbEntity
  8
0
100
AcDbLine
 10
100.0
 20
21.0943
 30
0.0
 11
100.0
 21
20.13429999999999
 31
0.0
  0
LINE
  5
661
330
1E
100
AcDbEntity
  8
0
100
AcDbLine
 10
100.0
 20
21.94229999999998
 30
0.0
 11
100.0
 21
22.5823
 31
0.0
  0
LINE
  5
662
330
1E
100
AcDbEntity
  8
0
100
AcDbLine
 10
100.0
 20
21.94229999999998
 30
0.0
 11
100.0
 21
21.0943
 31
0.0
  0
LINE
  5
663
330
1E
100
AcDbEntity
  8
0
100
AcDbLine
 10
100.0
 20
17.12631999999999
 30
0.0
 11
100.0
 21
16.27832
 31
0.0
  0
LINE
  5
664
330
1E
100
AcDbEntity
  8
0
100
AcDbLine
 10
100.0
 20
17.12631999999999
 30
0.0
 11
100.0
 21
18.08632
 31
0.0
  0
LINE
  5
665
330
1E
100
AcDbEntity
  8
0
100
AcDbLine
 10
100.0
 20
16.27832
 30
0.0
 11
100.0
 21
15.63831999999999
 31
0.0
  0
LINE
  5
666
330
1E
100
AcDbEntity
  8
0
100
AcDbLine
 10
100.0
 20
16.27832
 30
0.0
 11
100.0
 21
17.12631999999999
 31
0.0
  0
LINE
  5
667
330
1E
100
AcDbEntity
  8
0
100
AcDbLine
 10
100.0
 20
15.63831999999999
 30
0.0
 11
100.0
 21
15.25432
 31
0.0
  0
LINE
  5
668
330
1E
100
AcDbEntity
  8
0
100
AcDbLine
 10
100.0
 20
15.63831999999999
 30
0.0
 11
100.0
 21
16.27832
 31
0.0
  0
LINE
  5
669
330
1E
100
AcDbEntity
  8
0
100
AcDbLine
 10
100.0
 20
15.84241
 30
0.0
 11
100.0
 21
26.54619999999999
 31
0.0
  0
LINE
  5
66A
330
1E
100
AcDbEntity
  8
0
100
AcDbLine
 10
100.0
 20
15.84241
 30
0.0
 11
100.0
 21
24.0
 31
0.0
  0
LINE
  5
66B
330
1E
100
AcDbEntity
  8
0
100
AcDbLine
 10
100.0
 20
15.84241
 30
0.0
 11
100.0
 21
16.18492
 31
0.0
  0
LINE
  5
66C
330
1E
100
AcDbEntity
  8
0
100
AcDbLine
 10
100.0
 20
16.18492
 30
0.0
 11
100.0
 21
27.355
 31
0.0
  0
LINE
  5
66D
330
1E
100
AcDbEntity
  8
0
100
AcDbLine
 10
100.0
 20
16.18492
 30
0.0
 11
100.0
 21
15.84241
 31
0.0
  0
LINE
  5
66E
330
1E
100
AcDbEntity
  8
0
100
AcDbLine
 10
100.0
 20
16.18492
 30
0.0
 11
100.0
 21
24.0
 31
0.0
  0
LINE
  5
66F
330
1E
100
AcDbEntity
  8
0
100
AcDbLine
 10
100.0
 20
15.25432
 30
0.0
 11
100.0
 21
15.11032
 31
0.0
  0
LINE
  5
670
330
1E
100
AcDbEntity
  8
0
100
AcDbLine
 10
100.0
 20
15.25432
 30
0.0
 11
100.0
 21
15.63831999999999
 31
0.0
  0
LINE
  5
671
330
1E
100
AcDbEntity
  8
0
100
AcDbLine
 10
100.0
 20
15.11032
 30
0.0
 11
100.0
 21
15.25432
 31
0.0
  0
LINE
  5
672
330
1E
100
AcDbEntity
  8
0
100
AcDbLine
 10
100.0
 20
15.5
 30
0.0
 11
100.0
 21
10.5
 31
0.0
  0
LINE
  5
673
330
1E
100
AcDbEntity
  8
0
100
AcDbLine
 10
100.0
 20
13.69550999999999
 30
0.0
 11
100.0
 21
34.8138
 31
0.0
  0
LINE
  5
674
330
1E
100
AcDbEntity
  8
0
100
AcDbLine
 10
100.0
 20
13.69550999999999
 30
0.0
 11
100.0
 21
24.0
 31
0.0
  0
LINE
  5
675
330
1E
100
AcDbEntity
  8
0
100
AcDbLine
 10
100.0
 20
13.69550999999999
 30
0.0
 11
100.0
 21
12.43739999999999
 31
0.0
  0
LINE
  5
676
330
1E
100
AcDbEntity
  8
0
100
AcDbLine
 10
100.0
 20
12.43739999999999
 30
0.0
 11
100.0
 21
36.16179999999999
 31
0.0
  0
LINE
  5
677
330
1E
100
AcDbEntity
  8
0
100
AcDbLine
 10
100.0
 20
12.43739999999999
 30
0.0
 11
100.0
 21
13.69550999999999
 31
0.0
  0
LINE
  5
678
330
1E
100
AcDbEntity
  8
0
100
AcDbLine
 10
100.0
 20
12.43739999999999
 30
0.0
 11
100.0
 21
24.0
 31
0.0
  0
LINE
  5
679
330
1E
100
AcDbEntity
  8
0
100
AcDbLine
 10
100.0
 20
11.5
 30
0.0
 11
100.0
 21
35.6892
 31
0.0
  0
LINE
  5
67A
330
1E
100
AcDbEntity
  8
0
100
AcDbLine
 10
100.0
 20
9.5
 30
0.0
 11
100.0
 21
59.5
 31
0.0
  0
LINE
  5
67B
330
1E
100
AcDbEntity
  8
0
100
AcDbLine
 10
100.0
 20
9.5
 30
0.0
 11
100.0
 21
11.5
 31
0.0
  0
LINE
  5
67C
330
1E
100
AcDbEntity
  8
0
100
AcDbLine
 10
100.0
 20
10.668
 30
0.0
 11
100.0
 21
10.02799999999999
 31
0.0
  0
LINE
  5
67D
330
1E
100
AcDbEntity
  8
0
100
AcDbLine
 10
100.0
 20
10.668
 30
0.0
 11
100.0
 21
11.51599999999999
 31
0.0
  0
LINE
  5
67E
330
1E
100
AcDbEntity
  8
0
100
AcDbLine
 10
100.0
 20
10.02799999999999
 30
0.0
 11
100.0
 21
9.644000000000005
 31
0.0
  0
LINE
  5
67F
330
1E
100
AcDbEntity
  8
0
100
AcDbLine
 10
100.0
 20
10.02799999999999
 30
0.0
 11
100.0
 21
10.668
 31
0.0
  0
LINE
  5
680
330
1E
100
AcDbEntity
  8
0
100
AcDbLine
 10
100.0
 20
9.644000000000005
 30
0.0
 11
100.0
 21
9.5
 31
0.0
  0
LINE
  5
681
330
1E
100
AcDbEntity
  8
0
100
AcDbLine
 10
100.0
 20
9.644000000000005
 30
0.0
 11
100.0
 21
10.02799999999999
 31
0.0
  0
LINE
  5
682
330
1E
100
AcDbEntity
  8
0
100
AcDbLine
 10
100.0
 20
10.5
 30
0.0
 11
100.0
 21
15.5
 31
0.0
  0
LINE
  5
683
330
1E
100
AcDbEntity
  8
0
100
AcDbLine
 10
65.0
 20
49.1032
 30
0.0
 11
65.0
 21
54.62839999999999
 31
0.0
  0
LINE
  5
684
330
1E
100
AcDbEntity
  8
0
100
AcDbLine
 10
65.0
 20
49.1032
 30
0.0
 11
65.0
 21
54.62839999999999
 31
0.0
  0
LINE
  5
685
330
1E
100
AcDbEntity
  8
0
100
AcDbLine
 10
65.0
 20
54.62839999999999
 30
0.0
 11
65.0
 21
61.6916
 31
0.0
  0
LINE
  5
686
330
1E
100
AcDbEntity
  8
0
100
AcDbLine
 10
65.0
 20
145.9999999999999
 30
0.0
 11
100.0
 21
145.9999999999999
 31
0.0
  0
LINE
  5
687
330
1E
100
AcDbEntity
  8
0
100
AcDbLine
 10
65.0
 20
69.2684
 30
0.0
 11
65.0
 21
77.03789999999999
 31
0.0
  0
LINE
  5
688
330
1E
100
AcDbEntity
  8
0
100
AcDbLine
 10
65.0
 20
69.2684
 30
0.0
 11
65.0
 21
77.03789999999999
 31
0.0
  0
LINE
  5
689
330
1E
100
AcDbEntity
  8
0
100
AcDbLine
 10
65.0
 20
61.6916
 30
0.0
 11
65.0
 21
69.2684
 31
0.0
  0
LINE
  5
68A
330
1E
100
AcDbEntity
  8
0
100
AcDbLine
 10
65.0
 20
26.0
 30
0.0
 11
65.0
 21
26.1832
 31
0.0
  0
LINE
  5
68B
330
1E
100
AcDbEntity
  8
0
100
AcDbLine
 10
65.0
 20
26.0
 30
0.0
 11
65.0
 21
26.62099999999999
 31
0.0
  0
LINE
  5
68C
330
1E
100
AcDbEntity
  8
0
100
AcDbLine
 10
65.0
 20
30.59579999999999
 30
0.0
 11
65.0
 21
33.8874
 31
0.0
  0
LINE
  5
68D
330
1E
100
AcDbEntity
  8
0
100
AcDbLine
 10
65.0
 20
38.2968
 30
0.0
 11
65.0
 21
43.3274
 31
0.0
  0
LINE
  5
68E
330
1E
100
AcDbEntity
  8
0
100
AcDbLine
 10
65.0
 20
47.8863
 30
0.0
 11
65.0
 21
54.62839999999999
 31
0.0
  0
LINE
  5
68F
330
1E
100
AcDbEntity
  8
0
100
AcDbLine
 10
65.0
 20
41.9147
 30
0.0
 11
65.0
 21
47.8863
 31
0.0
  0
LINE
  5
690
330
1E
100
AcDbEntity
  8
0
100
AcDbLine
 10
65.0
 20
43.3274
 30
0.0
 11
65.0
 21
49.1032
 31
0.0
  0
LINE
  5
691
330
1E
100
AcDbEntity
  8
0
100
AcDbLine
 10
65.0
 20
32.15469999999999
 30
0.0
 11
65.0
 21
36.7137
 31
0.0
  0
LINE
  5
692
330
1E
100
AcDbEntity
  8
0
100
AcDbLine
 10
65.0
 20
33.8874
 30
0.0
 11
65.0
 21
38.2968
 31
0.0
  0
LINE
  5
693
330
1E
100
AcDbEntity
  8
0
100
AcDbLine
 10
65.0
 20
36.7137
 30
0.0
 11
65.0
 21
41.9147
 31
0.0
  0
LINE
  5
694
330
1E
100
AcDbEntity
  8
0
100
AcDbLine
 10
65.0
 20
28.11159999999999
 30
0.0
 11
65.0
 21
28.75159999999999
 31
0.0
  0
LINE
  5
695
330
1E
100
AcDbEntity
  8
0
100
AcDbLine
 10
65.0
 20
24.0
 30
0.0
 11
100.0
 21
24.0
 31
0.0
  0
LINE
  5
696
330
1E
100
AcDbEntity
  8
0
100
AcDbLine
 10
65.0
 20
28.75159999999999
 30
0.0
 11
65.0
 21
32.15469999999999
 31
0.0
  0
LINE
  5
697
330
1E
100
AcDbEntity
  8
0
100
AcDbLine
 10
65.0
 20
26.1832
 30
0.0
 11
65.0
 21
28.75159999999999
 31
0.0
  0
LINE
  5
698
330
1E
100
AcDbEntity
  8
0
100
AcDbLine
 10
65.0
 20
24.0
 30
0.0
 11
100.0
 21
24.0
 31
0.0
  0
LINE
  5
699
330
1E
100
AcDbEntity
  8
0
100
AcDbLine
 10
65.0
 20
24.0
 30
0.0
 11
65.0
 21
24.6421
 31
0.0
  0
LINE
  5
69A
330
1E
100
AcDbEntity
  8
0
100
AcDbLine
 10
65.0
 20
24.6421
 30
0.0
 11
65.0
 21
26.1832
 31
0.0
  0
ENDSEC
  0
SECTION
  2
OBJECTS
  0
DICTIONARY
  5
C
330
0
100
AcDbDictionary
281
     1
  3
ACAD_GROUP
350
D
  3
ACAD_LAYOUT
350
19
  3
ACAD_MLINESTYLE
350
16
  3
ACAD_PLOTSETTINGS
350
18
  3
ACAD_PLOTSTYLENAME
350
E
  3
AcDbVariableDictionary
350
15B
  0
DICTIONARY
  5
D
102
{ACAD_REACTORS
330
C
102
}
330
C
100
AcDbDictionary
281
     1
  0
DICTIONARY
  5
19
102
{ACAD_REACTORS
330
C
102
}
330
C
100
AcDbDictionary
281
     1
  3
Layout1
350
1D
  3
Model
350
21
  0
DICTIONARY
  5
16
102
{ACAD_REACTORS
330
C
102
}
330
C
100
AcDbDictionary
281
     1
  3
Standard
350
17
  0
DICTIONARY
  5
18
102
{ACAD_REACTORS
330
C
102
}
330
C
100
AcDbDictionary
281
     1
  0
ACDBDICTIONARYWDFLT
  5
E
102
{ACAD_REACTORS
330
C
102
}
330
C
100
AcDbDictionary
281
     1
  3
Normal
350
F
100
AcDbDictionaryWithDefault
340
F
  0
DICTIONARY
  5
15B
102
{ACAD_REACTORS
330
C
102
}
330
C
100
AcDbDictionary
281
     1
  3
DIMASSOC
350
15C
  0
LAYOUT
  5
1D
102
{ACAD_REACTORS
330
19
102
}
330
19
100
AcDbPlotSettings
  1

  2
hp deskjet 980c series
  4

  6

 40
0.0
 41
0.0
 42
0.0
 43
0.0
 44
0.0
 45
0.0
 46
0.0
 47
0.0
 48
0.0
 49
0.0
140
0.0
141
0.0
142
1.0
143
1.0
 70
   688
 72
     0
 73
     0
 74
     5
  7

 75
    16
147
1.0
148
0.0
149
0.0
100
AcDbLayout
  1
Layout1
 70
     1
 71
     1
 10
0.0
 20
0.0
 11
12.0
 21
9.0
 12
0.0
 22
0.0
 32
0.0
 14
1.000000000000000E+20
 24
1.000000000000000E+20
 34
1.000000000000000E+20
 15
-1.000000000000000E+20
 25
-1.000000000000000E+20
 35
-1.000000000000000E+20
146
0.0
 13
0.0
 23
0.0
 33
0.0
 16
1.0
 26
0.0
 36
0.0
 17
0.0
 27
1.0
 37
0.0
 76
     0
330
1A
  0
LAYOUT
  5
21
102
{ACAD_REACTORS
330
19
102
}
330
19
100
AcDbPlotSettings
  1

  2
hp deskjet 980c series
  4

  6

 40
0.0
 41
0.0
 42
0.0
 43
0.0
 44
0.0
 45
0.0
 46
0.0
 47
0.0
 48
0.0
 49
0.0
140
0.0
141
0.0
142
1.0
143
1.0
 70
  1712
 72
     0
 73
     0
 74
     0
  7

 75
     0
147
1.0
148
0.0
149
0.0
100
AcDbLayout
  1
Model
 70
     1
 71
     0
 10
0.0
 20
0.0
 11
12.0
 21
9.0
 12
0.0
 22
0.0
 32
0.0
 14
0.0
 24
0.0
 34
0.0
 15
0.0
 25
0.0
 35
0.0
146
0.0
 13
0.0
 23
0.0
 33
0.0
 16
1.0
 26
0.0
 36
0.0
 17
0.0
 27
1.0
 37
0.0
 76
     0
330
1E
  0
MLINESTYLE
  5
17
102
{ACAD_REACTORS
330
16
102
}
330
16
100
AcDbMlineStyle
  2
STANDARD
 70
     0
  3

 62
   256
 51
90.0
 52
90.0
 71
     2
 49
0.5
 62
   256
  6
BYLAYER
 49
-0.5
 62
   256
  6
BYLAYER
  0
ACDBPLACEHOLDER
  5
F
102
{ACAD_REACTORS
330
E
102
}
330
E
  0
DICTIONARYVAR
  5
15C
102
{ACAD_REACTORS
330
15B
102
}
330
15B
100
DictionaryVariables
280
     0
  1
1
  0
ENDSEC
  0
EOF
