  0
SECTION
  2
HEADER
  9
$ACADVER
  1
AC1015
  9
$ACADMAINTVER
 70
    13
  9
$DWGCODEPAGE
  3
ANSI_1252
  9
$INSBASE
 10
0.0
 20
0.0
 30
0.0
  9
$EXTMIN
 10
0.145000000000014
 20
0.0049999999999748
 30
0.0
  9
$EXTMAX
 10
324.855
 20
1088.994999999999
 30
0.0
  9
$LIMMIN
 10
0.0
 20
0.0
  9
$LIMMAX
 10
12.0
 20
9.0
  9
$ORTHOMODE
 70
     0
  9
$REGENMODE
 70
     1
  9
$FILLMODE
 70
     1
  9
$QTEXTMODE
 70
     0
  9
$MIRRTEXT
 70
     1
  9
$LTSCALE
 40
1.0
  9
$ATTMODE
 70
     1
  9
$TEXTSIZE
 40
0.2
  9
$TRACEWID
 40
0.05
  9
$TEXTSTYLE
  7
Standard
  9
$CLAYER
  8
0
  9
$CELTYPE
  6
Continuous
  9
$CECOLOR
 62
   256
  9
$CELTSCALE
 40
1.0
  9
$DISPSILH
 70
     0
  9
$DIMSCALE
 40
1.0
  9
$DIMASZ
 40
0.18
  9
$DIMEXO
 40
0.0625
  9
$DIMDLI
 40
0.38
  9
$DIMRND
 40
0.0
  9
$DIMDLE
 40
0.0
  9
$DIMEXE
 40
0.18
  9
$DIMTP
 40
0.0
  9
$DIMTM
 40
0.0
  9
$DIMTXT
 40
0.18
  9
$DIMCEN
 40
0.09
  9
$DIMTSZ
 40
0.0
  9
$DIMTOL
 70
     0
  9
$DIMLIM
 70
     0
  9
$DIMTIH
 70
     1
  9
$DIMTOH
 70
     1
  9
$DIMSE1
 70
     0
  9
$DIMSE2
 70
     0
  9
$DIMTAD
 70
     0
  9
$DIMZIN
 70
     0
  9
$DIMBLK
  1

  9
$DIMASO
 70
     1
  9
$DIMSHO
 70
     1
  9
$DIMPOST
  1

  9
$DIMAPOST
  1

  9
$DIMALT
 70
     0
  9
$DIMALTD
 70
     2
  9
$DIMALTF
 40
25.4
  9
$DIMLFAC
 40
1.0
  9
$DIMTOFL
 70
     0
  9
$DIMTVP
 40
0.0
  9
$DIMTIX
 70
     0
  9
$DIMSOXD
 70
     0
  9
$DIMSAH
 70
     0
  9
$DIMBLK1
  1

  9
$DIMBLK2
  1

  9
$DIMSTYLE
  2
Standard
  9
$DIMCLRD
 70
     0
  9
$DIMCLRE
 70
     0
  9
$DIMCLRT
 70
     0
  9
$DIMTFAC
 40
1.0
  9
$DIMGAP
 40
0.09
  9
$DIMJUST
 70
     0
  9
$DIMSD1
 70
     0
  9
$DIMSD2
 70
     0
  9
$DIMTOLJ
 70
     1
  9
$DIMTZIN
 70
     0
  9
$DIMALTZ
 70
     0
  9
$DIMALTTZ
 70
     0
  9
$DIMUPT
 70
     0
  9
$DIMDEC
 70
     4
  9
$DIMTDEC
 70
     4
  9
$DIMALTU
 70
     2
  9
$DIMALTTD
 70
     2
  9
$DIMTXSTY
  7
Standard
  9
$DIMAUNIT
 70
     0
  9
$DIMADEC
 70
     0
  9
$DIMALTRND
 40
0.0
  9
$DIMAZIN
 70
     0
  9
$DIMDSEP
 70
    46
  9
$DIMATFIT
 70
     3
  9
$DIMFRAC
 70
     0
  9
$DIMLDRBLK
  1

  9
$DIMLUNIT
 70
     2
  9
$DIMLWD
 70
    -2
  9
$DIMLWE
 70
    -2
  9
$DIMTMOVE
 70
     0
  9
$LUNITS
 70
     2
  9
$LUPREC
 70
     4
  9
$SKETCHINC
 40
0.1
  9
$FILLETRAD
 40
0.0
  9
$AUNITS
 70
     0
  9
$AUPREC
 70
     0
  9
$MENU
  1
.
  9
$ELEVATION
 40
0.0
  9
$PELEVATION
 40
0.0
  9
$THICKNESS
 40
0.0
  9
$LIMCHECK
 70
     0
  9
$CHAMFERA
 40
0.0
  9
$CHAMFERB
 40
0.0
  9
$CHAMFERC
 40
0.0
  9
$CHAMFERD
 40
0.0
  9
$SKPOLY
 70
     0
  9
$TDCREATE
 40
2454874.750843090
  9
$TDUCREATE
 40
2454874.709176423
  9
$TDUPDATE
 40
2454874.752258391
  9
$TDUUPDATE
 40
2454874.710591724
  9
$TDINDWG
 40
0.0014153009
  9
$TDUSRTIMER
 40
0.0014153009
  9
$USRTIMER
 70
     1
  9
$ANGBASE
 50
0.0
  9
$ANGDIR
 70
     0
  9
$PDMODE
 70
     0
  9
$PDSIZE
 40
0.0
  9
$PLINEWID
 40
0.0
  9
$SPLFRAME
 70
     0
  9
$SPLINETYPE
 70
     6
  9
$SPLINESEGS
 70
     8
  9
$HANDSEED
  5
3E7
  9
$SURFTAB1
 70
     6
  9
$SURFTAB2
 70
     6
  9
$SURFTYPE
 70
     6
  9
$SURFU
 70
     6
  9
$SURFV
 70
     6
  9
$UCSBASE
  2

  9
$UCSNAME
  2

  9
$UCSORG
 10
0.0
 20
0.0
 30
0.0
  9
$UCSXDIR
 10
1.0
 20
0.0
 30
0.0
  9
$UCSYDIR
 10
0.0
 20
1.0
 30
0.0
  9
$UCSORTHOREF
  2

  9
$UCSORTHOVIEW
 70
     1
  9
$UCSORGTOP
 10
0.0
 20
0.0
 30
0.0
  9
$UCSORGBOTTOM
 10
0.0
 20
0.0
 30
0.0
  9
$UCSORGLEFT
 10
0.0
 20
0.0
 30
0.0
  9
$UCSORGRIGHT
 10
0.0
 20
0.0
 30
0.0
  9
$UCSORGFRONT
 10
0.0
 20
0.0
 30
0.0
  9
$UCSORGBACK
 10
0.0
 20
0.0
 30
0.0
  9
$PUCSBASE
  2

  9
$PUCSNAME
  2

  9
$PUCSORG
 10
0.0
 20
0.0
 30
0.0
  9
$PUCSXDIR
 10
1.0
 20
0.0
 30
0.0
  9
$PUCSYDIR
 10
0.0
 20
1.0
 30
0.0
  9
$PUCSORTHOREF
  2

  9
$PUCSORTHOVIEW
 70
     0
  9
$PUCSORGTOP
 10
0.0
 20
0.0
 30
0.0
  9
$PUCSORGBOTTOM
 10
0.0
 20
0.0
 30
0.0
  9
$PUCSORGLEFT
 10
0.0
 20
0.0
 30
0.0
  9
$PUCSORGRIGHT
 10
0.0
 20
0.0
 30
0.0
  9
$PUCSORGFRONT
 10
0.0
 20
0.0
 30
0.0
  9
$PUCSORGBACK
 10
0.0
 20
0.0
 30
0.0
  9
$USERI1
 70
     0
  9
$USERI2
 70
     0
  9
$USERI3
 70
     0
  9
$USERI4
 70
     0
  9
$USERI5
 70
     0
  9
$USERR1
 40
0.0
  9
$USERR2
 40
0.0
  9
$USERR3
 40
0.0
  9
$USERR4
 40
0.0
  9
$USERR5
 40
0.0
  9
$WORLDVIEW
 70
     1
  9
$SHADEDGE
 70
     3
  9
$SHADEDIF
 70
    70
  9
$TILEMODE
 70
     1
  9
$MAXACTVP
 70
    64
  9
$PINSBASE
 10
0.0
 20
0.0
 30
0.0
  9
$PLIMCHECK
 70
     0
  9
$PEXTMIN
 10
1.000000000000000E+20
 20
1.000000000000000E+20
 30
1.000000000000000E+20
  9
$PEXTMAX
 10
-1.000000000000000E+20
 20
-1.000000000000000E+20
 30
-1.000000000000000E+20
  9
$PLIMMIN
 10
0.0
 20
0.0
  9
$PLIMMAX
 10
12.0
 20
9.0
  9
$UNITMODE
 70
     0
  9
$VISRETAIN
 70
     1
  9
$PLINEGEN
 70
     0
  9
$PSLTSCALE
 70
     1
  9
$TREEDEPTH
 70
  3020
  9
$CMLSTYLE
  2
Standard
  9
$CMLJUST
 70
     0
  9
$CMLSCALE
 40
1.0
  9
$PROXYGRAPHICS
 70
     1
  9
$MEASUREMENT
 70
     0
  9
$CELWEIGHT
370
    -1
  9
$ENDCAPS
280
     0
  9
$JOINSTYLE
280
     0
  9
$LWDISPLAY
290
     0
  9
$INSUNITS
 70
     0
  9
$HYPERLINKBASE
  1

  9
$STYLESHEET
  1

  9
$XEDIT
290
     1
  9
$CEPSNTYPE
380
     0
  9
$PSTYLEMODE
290
     1
  9
$FINGERPRINTGUID
  2
{32974AAD-7285-4820-A623-84C2FA35E609}
  9
$VERSIONGUID
  2
{5D3DC3BC-B648-4E27-99C5-557F0D80879C}
  9
$EXTNAMES
290
     1
  9
$PSVPSCALE
 40
0.0
  9
$OLESTARTUP
290
     0
  0
ENDSEC
  0
SECTION
  2
CLASSES
  0
CLASS
  1
ACDBDICTIONARYWDFLT
  2
AcDbDictionaryWithDefault
  3
AutoCAD 2000
 90
        0
280
     0
281
     0
  0
CLASS
  1
ACDBPLACEHOLDER
  2
AcDbPlaceHolder
  3
AutoCAD 2000
 90
        0
280
     0
281
     0
  0
CLASS
  1
LAYOUT
  2
AcDbLayout
  3
AutoCAD 2000
 90
        0
280
     0
281
     0
  0
CLASS
  1
DICTIONARYVAR
  2
AcDbDictionaryVar
  3
AutoCAD 2000
 90
        0
280
     0
281
     0
  0
ENDSEC
  0
SECTION
  2
TABLES
  0
TABLE
  2
VPORT
  5
8
330
0
100
AcDbSymbolTable
 70
     2
  0
VPORT
  5
3E6
330
8
100
AcDbSymbolTableRecord
100
AcDbViewportTableRecord
  2
*Active
 70
     0
 10
0.0
 20
0.0
 11
1.0
 21
1.0
 12
162.5
 22
544.5
 13
0.0
 23
0.0
 14
1.0
 24
1.0
 15
0.0
 25
0.0
 16
0.0
 26
0.0
 36
1.0
 17
0.0
 27
0.0
 37
0.0
 40
1095.867831578947
 41
1.968387776606954
 42
50.0
 43
0.0
 44
0.0
 50
0.0
 51
0.0
 71
     0
 72
   100
 73
     1
 74
     3
 75
     0
 76
     0
 77
     0
 78
     0
281
     0
 65
     1
110
0.0
120
0.0
130
0.0
111
1.0
121
0.0
131
0.0
112
0.0
122
1.0
132
0.0
 79
     1
146
0.0
  0
ENDTAB
  0
TABLE
  2
LTYPE
  5
5
330
0
100
AcDbSymbolTable
 70
     1
  0
LTYPE
  5
13
330
5
100
AcDbSymbolTableRecord
100
AcDbLinetypeTableRecord
  2
ByBlock
 70
     0
  3

 72
    65
 73
     0
 40
0.0
  0
LTYPE
  5
14
330
5
100
AcDbSymbolTableRecord
100
AcDbLinetypeTableRecord
  2
ByLayer
 70
     0
  3

 72
    65
 73
     0
 40
0.0
  0
LTYPE
  5
15
330
5
100
AcDbSymbolTableRecord
100
AcDbLinetypeTableRecord
  2
Continuous
 70
     0
  3
Solid line
 72
    65
 73
     0
 40
0.0
  0
ENDTAB
  0
TABLE
  2
LAYER
  5
2
330
0
100
AcDbSymbolTable
 70
     1
  0
LAYER
  5
10
330
2
100
AcDbSymbolTableRecord
100
AcDbLayerTableRecord
  2
0
 70
     0
 62
     7
  6
Continuous
370
    -3
390
F
  0
ENDTAB
  0
TABLE
  2
STYLE
  5
3
330
0
100
AcDbSymbolTable
 70
     1
  0
STYLE
  5
11
330
3
100
AcDbSymbolTableRecord
100
AcDbTextStyleTableRecord
  2
Standard
 70
     0
 40
0.0
 41
1.0
 50
0.0
 71
     0
 42
0.2
  3
txt
  4

  0
ENDTAB
  0
TABLE
  2
VIEW
  5
6
330
0
100
AcDbSymbolTable
 70
     0
  0
ENDTAB
  0
TABLE
  2
UCS
  5
7
330
0
100
AcDbSymbolTable
 70
     0
  0
ENDTAB
  0
TABLE
  2
APPID
  5
9
330
0
100
AcDbSymbolTable
 70
     1
  0
APPID
  5
12
330
9
100
AcDbSymbolTableRecord
100
AcDbRegAppTableRecord
  2
ACAD
 70
     0
  0
ENDTAB
  0
TABLE
  2
DIMSTYLE
  5
A
330
0
100
AcDbSymbolTable
 70
     1
100
AcDbDimStyleTable
 71
     0
  0
DIMSTYLE
105
3E0
330
A
100
AcDbSymbolTableRecord
100
AcDbDimStyleTableRecord
  2
Standard
 70
     0
340
11
  0
ENDTAB
  0
TABLE
  2
BLOCK_RECORD
  5
1
330
0
100
AcDbSymbolTable
 70
     0
  0
BLOCK_RECORD
  5
1E
330
1
100
AcDbSymbolTableRecord
100
AcDbBlockTableRecord
  2
*Model_Space
340
21
  0
BLOCK_RECORD
  5
1A
330
1
100
AcDbSymbolTableRecord
100
AcDbBlockTableRecord
  2
*Paper_Space
340
1D
  0
ENDTAB
  0
ENDSEC
  0
SECTION
  2
BLOCKS
  0
BLOCK
  5
1F
330
1E
100
AcDbEntity
  8
0
100
AcDbBlockBegin
  2
*Model_Space
 70
     0
 10
0.0
 20
0.0
 30
0.0
  3
*Model_Space
  1

  0
ENDBLK
  5
20
330
1E
100
AcDbEntity
  8
0
100
AcDbBlockEnd
  0
BLOCK
  5
1B
330
1A
100
AcDbEntity
 67
     1
  8
0
100
AcDbBlockBegin
  2
*Paper_Space
 70
     0
 10
0.0
 20
0.0
 30
0.0
  3
*Paper_Space
  1

  0
ENDBLK
  5
1C
330
1A
100
AcDbEntity
 67
     1
  8
0
100
AcDbBlockEnd
  0
ENDSEC
  0
SECTION
  2
ENTITIES
  0
LINE
  5
22
330
1E
100
AcDbEntity
  8
0
100
AcDbLine
 10
14.645
 20
968.0049999999999
 30
0.0
 11
25.4292
 21
967.1619999999998
 31
0.0
  0
LINE
  5
23
330
1E
100
AcDbEntity
  8
0
100
AcDbLine
 10
7.056040000000018
 20
968.7689999999999
 30
0.0
 11
9.284230000000018
 21
968.5739999999999
 31
0.0
  0
LINE
  5
24
330
1E
100
AcDbEntity
  8
0
100
AcDbLine
 10
9.284230000000018
 20
968.5739999999999
 30
0.0
 11
11.87759999999999
 21
968.3469999999999
 31
0.0
  0
LINE
  5
25
330
1E
100
AcDbEntity
  8
0
100
AcDbLine
 10
3.878180000000009
 20
969.0470000000001
 30
0.0
 11
4.280040000000009
 21
969.012
 31
0.0
  0
LINE
  5
26
330
1E
100
AcDbEntity
  8
0
100
AcDbLine
 10
3.878180000000009
 20
969.0470000000001
 30
0.0
 11
14.645
 21
968.0049999999999
 31
0.0
  0
LINE
  5
27
330
1E
100
AcDbEntity
  8
0
100
AcDbLine
 10
4.280040000000009
 20
969.012
 30
0.0
 11
5.339290000000019
 21
968.9199999999999
 31
0.0
  0
LINE
  5
28
330
1E
100
AcDbEntity
  8
0
100
AcDbLine
 10
5.339290000000019
 20
968.9199999999999
 30
0.0
 11
7.056040000000018
 21
968.7689999999999
 31
0.0
  0
LINE
  5
29
330
1E
100
AcDbEntity
  8
0
100
AcDbLine
 10
0.6467920000000041
 20
972.5049999999999
 30
0.0
 11
167.905
 21
972.5049999999999
 31
0.0
  0
LINE
  5
2A
330
1E
100
AcDbEntity
  8
0
100
AcDbLine
 10
0.6467920000000041
 20
999.505
 30
0.0
 11
234.643
 21
999.505
 31
0.0
  0
LINE
  5
2B
330
1E
100
AcDbEntity
  8
0
100
AcDbLine
 10
0.145000000000016
 20
999.505
 30
0.0
 11
0.6467920000000161
 21
999.505
 31
0.0
  0
LINE
  5
2C
330
1E
100
AcDbEntity
  8
0
100
AcDbLine
 10
0.145000000000016
 20
999.505
 30
0.0
 11
0.6467920000000161
 21
1000.005
 31
0.0
  0
LINE
  5
2D
330
1E
100
AcDbEntity
  8
0
100
AcDbLine
 10
0.145000000000016
 20
999.505
 30
0.0
 11
0.6467920000000161
 21
1000.005
 31
0.0
  0
LINE
  5
2E
330
1E
100
AcDbEntity
  8
0
100
AcDbLine
 10
0.145000000000016
 20
999.505
 30
0.0
 11
0.6467920000000161
 21
999.505
 31
0.0
  0
LINE
  5
2F
330
1E
100
AcDbEntity
  8
0
100
AcDbLine
 10
0.6467920000000041
 20
1000.005
 30
0.0
 11
234.643
 21
1000.005
 31
0.0
  0
LINE
  5
30
330
1E
100
AcDbEntity
  8
0
100
AcDbLine
 10
0.145000000000014
 20
972.5049999999999
 30
0.0
 11
0.646792000000014
 21
972.005
 31
0.0
  0
LINE
  5
31
330
1E
100
AcDbEntity
  8
0
100
AcDbLine
 10
0.145000000000014
 20
972.5049999999999
 30
0.0
 11
0.145000000000016
 21
999.505
 31
0.0
  0
LINE
  5
32
330
1E
100
AcDbEntity
  8
0
100
AcDbLine
 10
0.145000000000014
 20
972.5049999999999
 30
0.0
 11
0.646792000000014
 21
972.5049999999999
 31
0.0
  0
LINE
  5
33
330
1E
100
AcDbEntity
  8
0
100
AcDbLine
 10
0.646792000000014
 20
972.005
 30
0.0
 11
167.905
 21
972.005
 31
0.0
  0
LINE
  5
34
330
1E
100
AcDbEntity
  8
0
100
AcDbLine
 10
0.646792000000014
 20
972.005
 30
0.0
 11
0.646792000000014
 21
972.5049999999999
 31
0.0
  0
LINE
  5
35
330
1E
100
AcDbEntity
  8
0
100
AcDbLine
 10
0.646792000000014
 20
972.005
 30
0.0
 11
3.952935014029809
 21
972.005
 31
0.0
  0
LINE
  5
36
330
1E
100
AcDbEntity
  8
0
100
AcDbLine
 10
0.646792000000014
 20
972.5049999999999
 30
0.0
 11
167.905
 21
972.5049999999999
 31
0.0
  0
LINE
  5
37
330
1E
100
AcDbEntity
  8
0
100
AcDbLine
 10
0.646792000000014
 20
972.5049999999999
 30
0.0
 11
0.6467920000000161
 21
999.505
 31
0.0
  0
LINE
  5
38
330
1E
100
AcDbEntity
  8
0
100
AcDbLine
 10
0.646792000000014
 20
972.5049999999999
 30
0.0
 11
0.646792000000014
 21
972.005
 31
0.0
  0
LINE
  5
39
330
1E
100
AcDbEntity
  8
0
100
AcDbLine
 10
0.6467920000000161
 20
1000.005
 30
0.0
 11
0.6467920000000161
 21
999.505
 31
0.0
  0
LINE
  5
3A
330
1E
100
AcDbEntity
  8
0
100
AcDbLine
 10
0.6467920000000161
 20
1000.005
 30
0.0
 11
234.643
 21
1000.005
 31
0.0
  0
LINE
  5
3B
330
1E
100
AcDbEntity
  8
0
100
AcDbLine
 10
0.6467920000000161
 20
999.505
 30
0.0
 11
234.643
 21
999.505
 31
0.0
  0
LINE
  5
3C
330
1E
100
AcDbEntity
  8
0
100
AcDbLine
 10
0.6467920000000161
 20
999.505
 30
0.0
 11
0.6467920000000161
 21
1000.005
 31
0.0
  0
LINE
  5
3D
330
1E
100
AcDbEntity
  8
0
100
AcDbLine
 10
0.6467920000000041
 20
972.005
 30
0.0
 11
3.95293501402979
 21
972.005
 31
0.0
  0
LINE
  5
3E
330
1E
100
AcDbEntity
  8
0
100
AcDbLine
 10
0.6467920000000041
 20
972.005
 30
0.0
 11
167.905
 21
972.005
 31
0.0
  0
LINE
  5
3F
330
1E
100
AcDbEntity
  8
0
100
AcDbLine
 10
3.717360000000009
 20
969.312
 30
0.0
 11
4.11913000000002
 21
969.2769999999999
 31
0.0
  0
LINE
  5
40
330
1E
100
AcDbEntity
  8
0
100
AcDbLine
 10
3.717360000000009
 20
969.312
 30
0.0
 11
3.952935014029809
 21
972.005
 31
0.0
  0
LINE
  5
41
330
1E
100
AcDbEntity
  8
0
100
AcDbLine
 10
3.717360000000009
 20
969.312
 30
0.0
 11
3.878180000000009
 21
969.0470000000001
 31
0.0
  0
LINE
  5
42
330
1E
100
AcDbEntity
  8
0
100
AcDbLine
 10
4.11913000000002
 20
969.2769999999999
 30
0.0
 11
5.178480000000009
 21
969.185
 31
0.0
  0
LINE
  5
43
330
1E
100
AcDbEntity
  8
0
100
AcDbLine
 10
5.178480000000009
 20
969.185
 30
0.0
 11
6.931780000000019
 21
969.031
 31
0.0
  0
LINE
  5
44
330
1E
100
AcDbEntity
  8
0
100
AcDbLine
 10
6.931780000000019
 20
969.031
 30
0.0
 11
9.232990000000018
 21
968.8299999999999
 31
0.0
  0
LINE
  5
45
330
1E
100
AcDbEntity
  8
0
100
AcDbLine
 10
9.232990000000018
 20
968.8299999999999
 30
0.0
 11
11.8629
 21
968.5999999999999
 31
0.0
  0
LINE
  5
46
330
1E
100
AcDbEntity
  8
0
100
AcDbLine
 10
11.87759999999999
 20
968.3469999999999
 30
0.0
 11
14.6537
 21
968.105
 31
0.0
  0
LINE
  5
47
330
1E
100
AcDbEntity
  8
0
100
AcDbLine
 10
11.8629
 20
968.5999999999999
 30
0.0
 11
14.6755
 21
968.3539999999998
 31
0.0
  0
LINE
  5
48
330
1E
100
AcDbEntity
  8
0
100
AcDbLine
 10
14.6537
 20
968.105
 30
0.0
 11
17.4298
 21
967.862
 31
0.0
  0
LINE
  5
49
330
1E
100
AcDbEntity
  8
0
100
AcDbLine
 10
20.0232
 20
967.6349999999999
 30
0.0
 11
22.2514
 21
967.44
 31
0.0
  0
LINE
  5
4A
330
1E
100
AcDbEntity
  8
0
100
AcDbLine
 10
17.4298
 20
967.862
 30
0.0
 11
20.0232
 21
967.6349999999999
 31
0.0
  0
LINE
  5
4B
330
1E
100
AcDbEntity
  8
0
100
AcDbLine
 10
23.96809999999999
 20
967.29
 30
0.0
 11
25.0274
 21
967.1969999999999
 31
0.0
  0
LINE
  5
4C
330
1E
100
AcDbEntity
  8
0
100
AcDbLine
 10
22.2514
 20
967.44
 30
0.0
 11
23.96809999999999
 21
967.29
 31
0.0
  0
LINE
  5
4D
330
1E
100
AcDbEntity
  8
0
100
AcDbLine
 10
25.4292
 20
967.1619999999998
 30
0.0
 11
25.6336
 21
967.3949999999999
 31
0.0
  0
LINE
  5
4E
330
1E
100
AcDbEntity
  8
0
100
AcDbLine
 10
25.0274
 20
967.1969999999999
 30
0.0
 11
25.4292
 21
967.1619999999998
 31
0.0
  0
LINE
  5
4F
330
1E
100
AcDbEntity
  8
0
100
AcDbLine
 10
152.145
 20
13.9984
 30
0.0
 11
152.145
 21
0.0049999999999823
 31
0.0
  0
LINE
  5
50
330
1E
100
AcDbEntity
  8
0
100
AcDbLine
 10
152.145
 20
0.0049999999999825
 30
0.0
 11
153.145
 21
0.0049999999999824
 31
0.0
  0
LINE
  5
51
330
1E
100
AcDbEntity
  8
0
100
AcDbLine
 10
152.145
 20
0.0049999999999825
 30
0.0
 11
152.145
 21
13.9984
 31
0.0
  0
LINE
  5
52
330
1E
100
AcDbEntity
  8
0
100
AcDbLine
 10
152.145
 20
0.0049999999999825
 30
0.0
 11
152.145
 21
14.005
 31
0.0
  0
LINE
  5
53
330
1E
100
AcDbEntity
  8
0
100
AcDbLine
 10
153.145
 20
0.0049999999999824
 30
0.0
 11
275.1449999999999
 21
0.004999999999975
 31
0.0
  0
LINE
  5
54
330
1E
100
AcDbEntity
  8
0
100
AcDbLine
 10
153.145
 20
0.0049999999999824
 30
0.0
 11
153.145
 21
14.005
 31
0.0
  0
LINE
  5
55
330
1E
100
AcDbEntity
  8
0
100
AcDbLine
 10
152.145
 20
14.005
 30
0.0
 11
153.145
 21
15.005
 31
0.0
  0
LINE
  5
56
330
1E
100
AcDbEntity
  8
0
100
AcDbLine
 10
152.145
 20
14.005
 30
0.0
 11
153.145
 21
14.005
 31
0.0
  0
LINE
  5
57
330
1E
100
AcDbEntity
  8
0
100
AcDbLine
 10
152.145
 20
14.005
 30
0.0
 11
152.145
 21
0.0049999999999823
 31
0.0
  0
LINE
  5
58
330
1E
100
AcDbEntity
  8
0
100
AcDbLine
 10
153.145
 20
14.005
 30
0.0
 11
153.145
 21
15.005
 31
0.0
  0
LINE
  5
59
330
1E
100
AcDbEntity
  8
0
100
AcDbLine
 10
153.145
 20
14.005
 30
0.0
 11
275.1449999999999
 21
14.005
 31
0.0
  0
LINE
  5
5A
330
1E
100
AcDbEntity
  8
0
100
AcDbLine
 10
153.145
 20
14.005
 30
0.0
 11
153.145
 21
0.0049999999999823
 31
0.0
  0
LINE
  5
5B
330
1E
100
AcDbEntity
  8
0
100
AcDbLine
 10
193.4959999999999
 20
15.005
 30
0.0
 11
193.4959999999999
 21
724.005
 31
0.0
  0
LINE
  5
5C
330
1E
100
AcDbEntity
  8
0
100
AcDbLine
 10
146.091
 20
320.812
 30
0.0
 11
169.0169999999999
 21
314.734
 31
0.0
  0
LINE
  5
5D
330
1E
100
AcDbEntity
  8
0
100
AcDbLine
 10
169.0169999999999
 20
314.734
 30
0.0
 11
188.086
 21
313.694
 31
0.0
  0
LINE
  5
5E
330
1E
100
AcDbEntity
  8
0
100
AcDbLine
 10
125.7549999999999
 20
330.0699999999999
 30
0.0
 11
146.091
 21
320.812
 31
0.0
  0
LINE
  5
5F
330
1E
100
AcDbEntity
  8
0
100
AcDbLine
 10
50.9155
 20
493.224
 30
0.0
 11
53.9996
 21
516.6569999999999
 31
0.0
  0
LINE
  5
60
330
1E
100
AcDbEntity
  8
0
100
AcDbLine
 10
53.9996
 20
516.6569999999999
 30
0.0
 11
59.6682
 21
540.578
 31
0.0
  0
LINE
  5
61
330
1E
100
AcDbEntity
  8
0
100
AcDbLine
 10
59.6682
 20
540.578
 30
0.0
 11
69.5377
 21
564.547
 31
0.0
  0
LINE
  5
62
330
1E
100
AcDbEntity
  8
0
100
AcDbLine
 10
66.9336
 20
492.9859999999999
 30
0.0
 11
69.8873
 21
514.4209999999999
 31
0.0
  0
LINE
  5
63
330
1E
100
AcDbEntity
  8
0
100
AcDbLine
 10
66.40179999999999
 20
473.829
 30
0.0
 11
68.2686
 21
454.755
 31
0.0
  0
LINE
  5
64
330
1E
100
AcDbEntity
  8
0
100
AcDbLine
 10
66.40179999999999
 20
473.829
 30
0.0
 11
66.9336
 21
492.9859999999999
 31
0.0
  0
LINE
  5
65
330
1E
100
AcDbEntity
  8
0
100
AcDbLine
 10
50.4116
 20
473.27
 30
0.0
 11
52.3062
 21
453.3999999999999
 31
0.0
  0
LINE
  5
66
330
1E
100
AcDbEntity
  8
0
100
AcDbLine
 10
50.4116
 20
473.27
 30
0.0
 11
50.9155
 21
493.224
 31
0.0
  0
LINE
  5
67
330
1E
100
AcDbEntity
  8
0
100
AcDbLine
 10
69.8873
 20
514.4209999999999
 30
0.0
 11
74.8503
 21
535.6259999999999
 31
0.0
  0
LINE
  5
68
330
1E
100
AcDbEntity
  8
0
100
AcDbLine
 10
69.5377
 20
564.547
 30
0.0
 11
80.75839999999999
 21
587.073
 31
0.0
  0
LINE
  5
69
330
1E
100
AcDbEntity
  8
0
100
AcDbLine
 10
68.2686
 20
454.755
 30
0.0
 11
72.7103
 21
433.579
 31
0.0
  0
LINE
  5
6A
330
1E
100
AcDbEntity
  8
0
100
AcDbLine
 10
52.3062
 20
453.3999999999999
 30
0.0
 11
57.0173
 21
430.24
 31
0.0
  0
LINE
  5
6B
330
1E
100
AcDbEntity
  8
0
100
AcDbLine
 10
74.8503
 20
535.6259999999999
 30
0.0
 11
83.7073
 21
557.068
 31
0.0
  0
LINE
  5
6C
330
1E
100
AcDbEntity
  8
0
100
AcDbLine
 10
72.7103
 20
433.579
 30
0.0
 11
79.1405
 21
412.7709999999999
 31
0.0
  0
LINE
  5
6D
330
1E
100
AcDbEntity
  8
0
100
AcDbLine
 10
57.0173
 20
430.24
 30
0.0
 11
64.3408
 21
406.7719999999999
 31
0.0
  0
LINE
  5
7A
330
1E
100
AcDbEntity
  8
0
100
AcDbLine
 10
83.7073
 20
557.068
 30
0.0
 11
93.30910000000001
 21
577.244
 31
0.0
  0
LINE
  5
7D
330
1E
100
AcDbEntity
  8
0
100
AcDbLine
 10
80.75839999999999
 20
587.073
 30
0.0
 11
92.3
 21
609.006
 31
0.0
  0
LINE
  5
7F
330
1E
100
AcDbEntity
  8
0
100
AcDbLine
 10
79.1405
 20
412.7709999999999
 30
0.0
 11
89.47169999999999
 21
392.0
 31
0.0
  0
LINE
  5
80
330
1E
100
AcDbEntity
  8
0
100
AcDbLine
 10
64.3408
 20
406.7719999999999
 30
0.0
 11
75.8583
 21
383.55
 31
0.0
  0
LINE
  5
88
330
1E
100
AcDbEntity
  8
0
100
AcDbLine
 10
93.30910000000001
 20
577.244
 30
0.0
 11
105.6189999999999
 21
600.1009999999999
 31
0.0
  0
LINE
  5
89
330
1E
100
AcDbEntity
  8
0
100
AcDbLine
 10
92.3
 20
609.006
 30
0.0
 11
100.6129999999999
 21
628.834
 31
0.0
  0
LINE
  5
8A
330
1E
100
AcDbEntity
  8
0
100
AcDbLine
 10
89.47169999999999
 20
392.0
 30
0.0
 11
100.422
 21
373.543
 31
0.0
  0
LINE
  5
8B
330
1E
100
AcDbEntity
  8
0
100
AcDbLine
 10
75.8583
 20
383.55
 30
0.0
 11
88.588
 21
362.8619999999999
 31
0.0
  0
LINE
  5
8C
330
1E
100
AcDbEntity
  8
0
100
AcDbLine
 10
113.0629999999999
 20
676.318
 30
0.0
 11
116.819
 21
700.571
 31
0.0
  0
LINE
  5
8D
330
1E
100
AcDbEntity
  8
0
100
AcDbLine
 10
107.716
 20
651.8089999999999
 30
0.0
 11
113.0629999999999
 21
676.318
 31
0.0
  0
LINE
  5
8E
330
1E
100
AcDbEntity
  8
0
100
AcDbLine
 10
114.307
 20
620.64
 30
0.0
 11
121.8849999999999
 21
644.3290000000001
 31
0.0
  0
LINE
  5
8F
330
1E
100
AcDbEntity
  8
0
100
AcDbLine
 10
100.6129999999999
 20
628.834
 30
0.0
 11
107.716
 21
651.8089999999999
 31
0.0
  0
LINE
  5
90
330
1E
100
AcDbEntity
  8
0
100
AcDbLine
 10
105.6189999999999
 20
600.1009999999999
 30
0.0
 11
114.307
 21
620.64
 31
0.0
  0
LINE
  5
91
330
1E
100
AcDbEntity
  8
0
100
AcDbLine
 10
100.422
 20
373.543
 30
0.0
 11
114.935
 21
359.098
 31
0.0
  0
LINE
  5
92
330
1E
100
AcDbEntity
  8
0
100
AcDbLine
 10
88.588
 20
362.8619999999999
 30
0.0
 11
105.0589999999999
 21
346.79
 31
0.0
  0
LINE
  5
93
330
1E
100
AcDbEntity
  8
0
100
AcDbLine
 10
118.9629999999999
 20
722.2769999999999
 30
0.0
 11
119.663
 21
753.7999999999999
 31
0.0
  0
LINE
  5
94
330
1E
100
AcDbEntity
  8
0
100
AcDbLine
 10
116.819
 20
700.571
 30
0.0
 11
118.9629999999999
 21
722.2769999999999
 31
0.0
  0
LINE
  5
95
330
1E
100
AcDbEntity
  8
0
100
AcDbLine
 10
132.001
 20
695.6189999999999
 30
0.0
 11
134.851
 21
720.041
 31
0.0
  0
LINE
  5
96
330
1E
100
AcDbEntity
  8
0
100
AcDbLine
 10
127.7879999999999
 20
670.154
 30
0.0
 11
132.001
 21
695.6189999999999
 31
0.0
  0
LINE
  5
97
330
1E
100
AcDbEntity
  8
0
100
AcDbLine
 10
121.8849999999999
 20
644.3290000000001
 30
0.0
 11
127.7879999999999
 21
670.154
 31
0.0
  0
LINE
  5
98
330
1E
100
AcDbEntity
  8
0
100
AcDbLine
 10
114.935
 20
359.098
 30
0.0
 11
133.267
 21
344.1869999999999
 31
0.0
  0
LINE
  5
99
330
1E
100
AcDbEntity
  8
0
100
AcDbLine
 10
105.0589999999999
 20
346.79
 30
0.0
 11
125.7549999999999
 21
330.0699999999999
 31
0.0
  0
LINE
  5
9A
330
1E
100
AcDbEntity
  8
0
100
AcDbLine
 10
134.851
 20
720.041
 30
0.0
 11
135.654
 21
754.358
 31
0.0
  0
LINE
  5
9B
330
1E
100
AcDbEntity
  8
0
100
AcDbLine
 10
133.267
 20
344.1869999999999
 30
0.0
 11
151.066
 21
335.9369999999999
 31
0.0
  0
LINE
  5
9C
330
1E
100
AcDbEntity
  8
0
100
AcDbLine
 10
151.066
 20
335.9369999999999
 30
0.0
 11
171.2659999999999
 21
330.5619999999999
 31
0.0
  0
LINE
  5
9D
330
1E
100
AcDbEntity
  8
0
100
AcDbLine
 10
171.2659999999999
 20
330.5619999999999
 30
0.0
 11
187.8079999999999
 21
329.61
 31
0.0
  0
LINE
  5
9E
330
1E
100
AcDbEntity
  8
0
100
AcDbLine
 10
187.8079999999999
 20
329.61
 30
0.0
 11
192.994
 21
329.588259671817
 31
0.0
  0
LINE
  5
9F
330
1E
100
AcDbEntity
  8
0
100
AcDbLine
 10
188.086
 20
313.694
 30
0.0
 11
192.994
 21
313.672276319949
 31
0.0
  0
LINE
  5
A0
330
1E
100
AcDbEntity
  8
0
100
AcDbLine
 10
153.145
 20
15.005
 30
0.0
 11
275.1449999999999
 21
15.005
 31
0.0
  0
LINE
  5
A1
330
1E
100
AcDbEntity
  8
0
100
AcDbLine
 10
153.145
 20
15.005
 30
0.0
 11
153.145
 21
14.005
 31
0.0
  0
LINE
  5
A2
330
1E
100
AcDbEntity
  8
0
100
AcDbLine
 10
193.4959999999999
 20
15.005
 30
0.0
 11
193.4959999999999
 21
724.005
 31
0.0
  0
LINE
  5
A3
330
1E
100
AcDbEntity
  8
0
100
AcDbLine
 10
192.994
 20
15.005
 30
0.0
 11
192.994
 21
724.005
 31
0.0
  0
LINE
  5
A4
330
1E
100
AcDbEntity
  8
0
100
AcDbLine
 10
192.994
 20
15.005
 30
0.0
 11
192.994
 21
724.005
 31
0.0
  0
LINE
  5
A5
330
1E
100
AcDbEntity
  8
0
100
AcDbLine
 10
192.994
 20
15.005
 30
0.0
 11
193.4959999999999
 21
15.005
 31
0.0
  0
LINE
  5
A6
330
1E
100
AcDbEntity
  8
0
100
AcDbLine
 10
193.4959999999999
 20
724.005
 30
0.0
 11
234.643
 21
724.005
 31
0.0
  0
LINE
  5
A7
330
1E
100
AcDbEntity
  8
0
100
AcDbLine
 10
192.994
 20
724.005
 30
0.0
 11
194.145
 21
724.5049999999999
 31
0.0
  0
LINE
  5
A8
330
1E
100
AcDbEntity
  8
0
100
AcDbLine
 10
192.994
 20
724.005
 30
0.0
 11
193.4959999999999
 21
724.005
 31
0.0
  0
LINE
  5
A9
330
1E
100
AcDbEntity
  8
0
100
AcDbLine
 10
234.643
 20
15.005
 30
0.0
 11
234.643
 21
724.005
 31
0.0
  0
LINE
  5
AA
330
1E
100
AcDbEntity
  8
0
100
AcDbLine
 10
235.145
 20
341.4324094100389
 30
0.0
 11
253.9029999999999
 21
355.124
 31
0.0
  0
LINE
  5
AB
330
1E
100
AcDbEntity
  8
0
100
AcDbLine
 10
235.145
 20
324.170422758753
 30
0.0
 11
241.579
 21
326.702
 31
0.0
  0
LINE
  5
AC
330
1E
100
AcDbEntity
  8
0
100
AcDbLine
 10
235.145
 20
724.005
 30
0.0
 11
235.145
 21
15.005
 31
0.0
  0
LINE
  5
AD
330
1E
100
AcDbEntity
  8
0
100
AcDbLine
 10
235.145
 20
15.005
 30
0.0
 11
235.145
 21
724.005
 31
0.0
  0
LINE
  5
AE
330
1E
100
AcDbEntity
  8
0
100
AcDbLine
 10
234.643
 20
15.005
 30
0.0
 11
234.643
 21
724.005
 31
0.0
  0
LINE
  5
AF
330
1E
100
AcDbEntity
  8
0
100
AcDbLine
 10
234.643
 20
724.005
 30
0.0
 11
235.145
 21
724.005
 31
0.0
  0
LINE
  5
B0
330
1E
100
AcDbEntity
  8
0
100
AcDbLine
 10
234.145
 20
724.5049999999999
 30
0.0
 11
235.145
 21
725.0049999999999
 31
0.0
  0
LINE
  5
B1
330
1E
100
AcDbEntity
  8
0
100
AcDbLine
 10
234.145
 20
724.5049999999999
 30
0.0
 11
235.145
 21
724.005
 31
0.0
  0
LINE
  5
B2
330
1E
100
AcDbEntity
  8
0
100
AcDbLine
 10
194.145
 20
724.5049999999999
 30
0.0
 11
234.145
 21
724.5049999999999
 31
0.0
  0
LINE
  5
B3
330
1E
100
AcDbEntity
  8
0
100
AcDbLine
 10
193.4959999999999
 20
725.0049999999999
 30
0.0
 11
234.643
 21
725.0049999999999
 31
0.0
  0
LINE
  5
B4
330
1E
100
AcDbEntity
  8
0
100
AcDbLine
 10
193.4959999999999
 20
725.0049999999999
 30
0.0
 11
193.4959999999999
 21
947.005
 31
0.0
  0
LINE
  5
B5
330
1E
100
AcDbEntity
  8
0
100
AcDbLine
 10
234.643
 20
725.0049999999999
 30
0.0
 11
235.145
 21
725.0049999999999
 31
0.0
  0
LINE
  5
B6
330
1E
100
AcDbEntity
  8
0
100
AcDbLine
 10
234.643
 20
725.0049999999999
 30
0.0
 11
234.643
 21
999.505
 31
0.0
  0
LINE
  5
B7
330
1E
100
AcDbEntity
  8
0
100
AcDbLine
 10
275.1449999999999
 20
0.004999999999975
 30
0.0
 11
276.1449999999999
 21
0.0049999999999749
 31
0.0
  0
LINE
  5
B8
330
1E
100
AcDbEntity
  8
0
100
AcDbLine
 10
275.1449999999999
 20
0.004999999999975
 30
0.0
 11
275.1449999999999
 21
14.005
 31
0.0
  0
LINE
  5
B9
330
1E
100
AcDbEntity
  8
0
100
AcDbLine
 10
276.1449999999999
 20
0.0049999999999749
 30
0.0
 11
276.1449999999999
 21
14.005
 31
0.0
  0
LINE
  5
BA
330
1E
100
AcDbEntity
  8
0
100
AcDbLine
 10
276.1449999999999
 20
14.005
 30
0.0
 11
276.1449999999999
 21
0.0049999999999748
 31
0.0
  0
LINE
  5
BB
330
1E
100
AcDbEntity
  8
0
100
AcDbLine
 10
275.1449999999999
 20
14.005
 30
0.0
 11
276.1449999999999
 21
14.005
 31
0.0
  0
LINE
  5
BC
330
1E
100
AcDbEntity
  8
0
100
AcDbLine
 10
275.1449999999999
 20
14.005
 30
0.0
 11
275.1449999999999
 21
15.005
 31
0.0
  0
LINE
  5
BD
330
1E
100
AcDbEntity
  8
0
100
AcDbLine
 10
275.1449999999999
 20
14.005
 30
0.0
 11
275.1449999999999
 21
0.0049999999999748
 31
0.0
  0
LINE
  5
BE
330
1E
100
AcDbEntity
  8
0
100
AcDbLine
 10
252.9059999999999
 20
716.6139999999999
 30
0.0
 11
254.4729999999999
 21
692.077
 31
0.0
  0
LINE
  5
BF
330
1E
100
AcDbEntity
  8
0
100
AcDbLine
 10
252.9059999999999
 20
716.6139999999999
 30
0.0
 11
253.9
 21
750.927
 31
0.0
  0
LINE
  5
C0
330
1E
100
AcDbEntity
  8
0
100
AcDbLine
 10
254.4729999999999
 20
692.077
 30
0.0
 11
257.3479999999999
 21
666.426
 31
0.0
  0
LINE
  5
C1
330
1E
100
AcDbEntity
  8
0
100
AcDbLine
 10
257.3479999999999
 20
666.426
 30
0.0
 11
261.8909999999999
 21
640.3279999999999
 31
0.0
  0
LINE
  5
C2
330
1E
100
AcDbEntity
  8
0
100
AcDbLine
 10
268.889
 20
718.0169999999999
 30
0.0
 11
269.8939999999999
 21
696.228
 31
0.0
  0
LINE
  5
C3
330
1E
100
AcDbEntity
  8
0
100
AcDbLine
 10
268.889
 20
718.0169999999999
 30
0.0
 11
269.8389999999999
 21
749.533
 31
0.0
  0
LINE
  5
C4
330
1E
100
AcDbEntity
  8
0
100
AcDbLine
 10
261.8909999999999
 20
640.3279999999999
 30
0.0
 11
268.2189999999999
 21
616.2749999999999
 31
0.0
  0
LINE
  5
C5
330
1E
100
AcDbEntity
  8
0
100
AcDbLine
 10
268.2189999999999
 20
616.2749999999999
 30
0.0
 11
275.8199999999999
 21
595.3099999999999
 31
0.0
  0
LINE
  5
C6
330
1E
100
AcDbEntity
  8
0
100
AcDbLine
 10
269.8939999999999
 20
696.228
 30
0.0
 11
272.3749999999999
 21
671.811
 31
0.0
  0
LINE
  5
C7
330
1E
100
AcDbEntity
  8
0
100
AcDbLine
 10
272.3749999999999
 20
671.811
 30
0.0
 11
276.433
 21
647.056
 31
0.0
  0
LINE
  5
C8
330
1E
100
AcDbEntity
  8
0
100
AcDbLine
 10
276.433
 20
647.056
 30
0.0
 11
282.3229999999999
 21
623.7409999999999
 31
0.0
  0
LINE
  5
C9
330
1E
100
AcDbEntity
  8
0
100
AcDbLine
 10
275.8199999999999
 20
595.3099999999999
 30
0.0
 11
286.917
 21
571.839
 31
0.0
  0
LINE
  5
CB
330
1E
100
AcDbEntity
  8
0
100
AcDbLine
 10
286.917
 20
571.839
 30
0.0
 11
295.4499999999999
 21
551.189
 31
0.0
  0
LINE
  5
D6
330
1E
100
AcDbEntity
  8
0
100
AcDbLine
 10
282.3229999999999
 20
623.7409999999999
 30
0.0
 11
289.587
 21
603.505
 31
0.0
  0
LINE
  5
D7
330
1E
100
AcDbEntity
  8
0
100
AcDbLine
 10
289.587
 20
603.505
 30
0.0
 11
299.9649999999999
 21
580.998
 31
0.0
  0
LINE
  5
DC
330
1E
100
AcDbEntity
  8
0
100
AcDbLine
 10
295.4499999999999
 20
551.189
 30
0.0
 11
303.173
 21
529.3129999999999
 31
0.0
  0
LINE
  5
E3
330
1E
100
AcDbEntity
  8
0
100
AcDbLine
 10
299.9649999999999
 20
580.998
 30
0.0
 11
309.9909999999999
 21
557.9159999999999
 31
0.0
  0
LINE
  5
E5
330
1E
100
AcDbEntity
  8
0
100
AcDbLine
 10
303.173
 20
529.3129999999999
 30
0.0
 11
307.019
 21
507.8769999999999
 31
0.0
  0
LINE
  5
E6
330
1E
100
AcDbEntity
  8
0
100
AcDbLine
 10
308.375
 20
467.158
 30
0.0
 11
308.847
 21
486.3159999999999
 31
0.0
  0
LINE
  5
E7
330
1E
100
AcDbEntity
  8
0
100
AcDbLine
 10
307.019
 20
507.8769999999999
 30
0.0
 11
308.847
 21
486.3159999999999
 31
0.0
  0
LINE
  5
E8
330
1E
100
AcDbEntity
  8
0
100
AcDbLine
 10
324.314
 20
465.763
 30
0.0
 11
324.855
 21
485.716
 31
0.0
  0
LINE
  5
E9
330
1E
100
AcDbEntity
  8
0
100
AcDbLine
 10
323.002
 20
509.278
 30
0.0
 11
324.855
 21
485.716
 31
0.0
  0
LINE
  5
EA
330
1E
100
AcDbEntity
  8
0
100
AcDbLine
 10
318.593
 20
533.463
 30
0.0
 11
323.002
 21
509.278
 31
0.0
  0
LINE
  5
EB
330
1E
100
AcDbEntity
  8
0
100
AcDbLine
 10
309.9909999999999
 20
557.9159999999999
 30
0.0
 11
318.593
 21
533.463
 31
0.0
  0
LINE
  5
EC
330
1E
100
AcDbEntity
  8
0
100
AcDbLine
 10
305.5129999999999
 20
448.208
 30
0.0
 11
308.375
 21
467.158
 31
0.0
  0
LINE
  5
ED
330
1E
100
AcDbEntity
  8
0
100
AcDbLine
 10
321.382
 20
446.0189999999999
 30
0.0
 11
324.314
 21
465.763
 31
0.0
  0
LINE
  5
EE
330
1E
100
AcDbEntity
  8
0
100
AcDbLine
 10
299.969
 20
427.294
 30
0.0
 11
305.5129999999999
 21
448.208
 31
0.0
  0
LINE
  5
EF
330
1E
100
AcDbEntity
  8
0
100
AcDbLine
 10
315.4649999999999
 20
423.1369999999999
 30
0.0
 11
321.382
 21
446.0189999999999
 31
0.0
  0
LINE
  5
F0
330
1E
100
AcDbEntity
  8
0
100
AcDbLine
 10
292.4579999999999
 20
406.85
 30
0.0
 11
299.969
 21
427.294
 31
0.0
  0
LINE
  5
F1
330
1E
100
AcDbEntity
  8
0
100
AcDbLine
 10
306.924
 20
400.0849999999999
 30
0.0
 11
315.4649999999999
 21
423.1369999999999
 31
0.0
  0
LINE
  5
F2
330
1E
100
AcDbEntity
  8
0
100
AcDbLine
 10
281.054
 20
386.648
 30
0.0
 11
292.4579999999999
 21
406.85
 31
0.0
  0
LINE
  5
F3
330
1E
100
AcDbEntity
  8
0
100
AcDbLine
 10
294.207
 20
377.4969999999999
 30
0.0
 11
306.924
 21
400.0849999999999
 31
0.0
  0
LINE
  5
F4
330
1E
100
AcDbEntity
  8
0
100
AcDbLine
 10
269.153
 20
368.79
 30
0.0
 11
281.054
 21
386.648
 31
0.0
  0
LINE
  5
F5
330
1E
100
AcDbEntity
  8
0
100
AcDbLine
 10
280.412
 20
357.504
 30
0.0
 11
294.207
 21
377.4969999999999
 31
0.0
  0
LINE
  5
F6
330
1E
100
AcDbEntity
  8
0
100
AcDbLine
 10
253.9029999999999
 20
355.124
 30
0.0
 11
269.153
 21
368.79
 31
0.0
  0
LINE
  5
F7
330
1E
100
AcDbEntity
  8
0
100
AcDbLine
 10
263.122
 20
342.3169999999999
 30
0.0
 11
280.412
 21
357.504
 31
0.0
  0
LINE
  5
F8
330
1E
100
AcDbEntity
  8
0
100
AcDbLine
 10
241.579
 20
326.702
 30
0.0
 11
263.122
 21
342.3169999999999
 31
0.0
  0
LINE
  5
F9
330
1E
100
AcDbEntity
  8
0
100
AcDbLine
 10
275.1449999999999
 20
15.005
 30
0.0
 11
276.1449999999999
 21
14.005
 31
0.0
  0
LINE
  5
FA
330
1E
100
AcDbEntity
  8
0
100
AcDbLine
 10
275.1449999999999
 20
15.005
 30
0.0
 11
275.1449999999999
 21
14.005
 31
0.0
  0
LINE
  5
FB
330
1E
100
AcDbEntity
  8
0
100
AcDbLine
 10
235.145
 20
725.0049999999999
 30
0.0
 11
235.145
 21
999.505
 31
0.0
  0
LINE
  5
FC
330
1E
100
AcDbEntity
  8
0
100
AcDbLine
 10
113.07853166671
 20
942.3530000000001
 30
0.0
 11
119.663
 21
753.7999999999999
 31
0.0
  0
LINE
  5
FD
330
1E
100
AcDbEntity
  8
0
100
AcDbLine
 10
113.745
 20
942.3530000000001
 30
0.0
 11
115.6449999999999
 21
942.3530000000001
 31
0.0
  0
LINE
  5
FE
330
1E
100
AcDbEntity
  8
0
100
AcDbLine
 10
115.6449999999999
 20
942.3530000000001
 30
0.0
 11
117.8449999999999
 21
942.3530000000001
 31
0.0
  0
LINE
  5
FF
330
1E
100
AcDbEntity
  8
0
100
AcDbLine
 10
117.8449999999999
 20
942.3530000000001
 30
0.0
 11
120.1449999999999
 21
942.3530000000001
 31
0.0
  0
LINE
  5
100
330
1E
100
AcDbEntity
  8
0
100
AcDbLine
 10
126.5449999999999
 20
942.3530000000001
 30
0.0
 11
127.9449999999999
 21
942.3530000000001
 31
0.0
  0
LINE
  5
101
330
1E
100
AcDbEntity
  8
0
100
AcDbLine
 10
127.9449999999999
 20
942.3530000000001
 30
0.0
 11
128.845
 21
942.3530000000001
 31
0.0
  0
LINE
  5
102
330
1E
100
AcDbEntity
  8
0
100
AcDbLine
 10
128.845
 20
942.3530000000001
 30
0.0
 11
129.145
 21
942.3530000000001
 31
0.0
  0
LINE
  5
103
330
1E
100
AcDbEntity
  8
0
100
AcDbLine
 10
124.645
 20
942.3530000000001
 30
0.0
 11
126.5449999999999
 21
942.3530000000001
 31
0.0
  0
LINE
  5
104
330
1E
100
AcDbEntity
  8
0
100
AcDbLine
 10
122.445
 20
942.3530000000001
 30
0.0
 11
124.645
 21
942.3530000000001
 31
0.0
  0
LINE
  5
105
330
1E
100
AcDbEntity
  8
0
100
AcDbLine
 10
120.1449999999999
 20
942.3530000000001
 30
0.0
 11
122.445
 21
942.3530000000001
 31
0.0
  0
LINE
  5
106
330
1E
100
AcDbEntity
  8
0
100
AcDbLine
 10
129.145
 20
942.3530000000001
 30
0.0
 11
131.145
 21
970.353
 31
0.0
  0
LINE
  5
107
330
1E
100
AcDbEntity
  8
0
100
AcDbLine
 10
129.088540926808
 20
942.3530000000001
 30
0.0
 11
129.145
 21
942.3530000000001
 31
0.0
  0
LINE
  5
108
330
1E
100
AcDbEntity
  8
0
100
AcDbLine
 10
129.088540926808
 20
942.3530000000001
 30
0.0
 11
135.654
 21
754.358
 31
0.0
  0
LINE
  5
109
330
1E
100
AcDbEntity
  8
0
100
AcDbLine
 10
112.345
 20
942.3530000000001
 30
0.0
 11
113.07853166671
 21
942.3530000000001
 31
0.0
  0
LINE
  5
10A
330
1E
100
AcDbEntity
  8
0
100
AcDbLine
 10
112.345
 20
942.3530000000001
 30
0.0
 11
113.745
 21
942.3530000000001
 31
0.0
  0
LINE
  5
10B
330
1E
100
AcDbEntity
  8
0
100
AcDbLine
 10
111.4449999999999
 20
942.3530000000001
 30
0.0
 11
112.345
 21
942.3530000000001
 31
0.0
  0
LINE
  5
10C
330
1E
100
AcDbEntity
  8
0
100
AcDbLine
 10
111.145
 20
942.3530000000001
 30
0.0
 11
111.4449999999999
 21
942.3530000000001
 31
0.0
  0
LINE
  5
10D
330
1E
100
AcDbEntity
  8
0
100
AcDbLine
 10
185.5679999999999
 20
964.705
 30
0.0
 11
189.582
 21
959.505
 31
0.0
  0
LINE
  5
10E
330
1E
100
AcDbEntity
  8
0
100
AcDbLine
 10
185.969
 20
965.005
 30
0.0
 11
190.084
 21
959.7050000000001
 31
0.0
  0
LINE
  5
10F
330
1E
100
AcDbEntity
  8
0
100
AcDbLine
 10
190.084
 20
959.7050000000001
 30
0.0
 11
192.5929999999999
 21
953.6050000000001
 31
0.0
  0
LINE
  5
110
330
1E
100
AcDbEntity
  8
0
100
AcDbLine
 10
189.582
 20
959.505
 30
0.0
 11
192.0909999999999
 21
953.505
 31
0.0
  0
LINE
  5
111
330
1E
100
AcDbEntity
  8
0
100
AcDbLine
 10
253.9
 20
750.927
 30
0.0
 11
255.748003070035
 21
772.048
 31
0.0
  0
LINE
  5
112
330
1E
100
AcDbEntity
  8
0
100
AcDbLine
 10
257.545
 20
772.048
 30
0.0
 11
259.945
 21
772.048
 31
0.0
  0
LINE
  5
113
330
1E
100
AcDbEntity
  8
0
100
AcDbLine
 10
256.1449999999999
 20
772.048
 30
0.0
 11
258.9449999999999
 21
772.048
 31
0.0
  0
LINE
  5
114
330
1E
100
AcDbEntity
  8
0
100
AcDbLine
 10
259.945
 20
772.048
 30
0.0
 11
262.6449999999999
 21
772.048
 31
0.0
  0
LINE
  5
115
330
1E
100
AcDbEntity
  8
0
100
AcDbLine
 10
258.9449999999999
 20
772.048
 30
0.0
 11
262.1449999999999
 21
772.048
 31
0.0
  0
LINE
  5
116
330
1E
100
AcDbEntity
  8
0
100
AcDbLine
 10
262.6449999999999
 20
772.048
 30
0.0
 11
265.6449999999999
 21
772.048
 31
0.0
  0
LINE
  5
117
330
1E
100
AcDbEntity
  8
0
100
AcDbLine
 10
262.1449999999999
 20
772.048
 30
0.0
 11
265.6449999999999
 21
772.048
 31
0.0
  0
LINE
  5
118
330
1E
100
AcDbEntity
  8
0
100
AcDbLine
 10
255.645
 20
772.048
 30
0.0
 11
257.545
 21
772.048
 31
0.0
  0
LINE
  5
119
330
1E
100
AcDbEntity
  8
0
100
AcDbLine
 10
255.645
 20
772.048
 30
0.0
 11
255.748003070035
 21
772.048
 31
0.0
  0
LINE
  5
11A
330
1E
100
AcDbEntity
  8
0
100
AcDbLine
 10
253.9449999999999
 20
772.048
 30
0.0
 11
256.1449999999999
 21
772.048
 31
0.0
  0
LINE
  5
11B
330
1E
100
AcDbEntity
  8
0
100
AcDbLine
 10
253.9449999999999
 20
772.048
 30
0.0
 11
255.748003070035
 21
772.048
 31
0.0
  0
LINE
  5
11C
330
1E
100
AcDbEntity
  8
0
100
AcDbLine
 10
254.5449999999999
 20
772.048
 30
0.0
 11
255.645
 21
772.048
 31
0.0
  0
LINE
  5
11D
330
1E
100
AcDbEntity
  8
0
100
AcDbLine
 10
252.645
 20
772.048
 30
0.0
 11
253.9449999999999
 21
772.048
 31
0.0
  0
LINE
  5
11E
330
1E
100
AcDbEntity
  8
0
100
AcDbLine
 10
254.145
 20
772.048
 30
0.0
 11
254.5449999999999
 21
772.048
 31
0.0
  0
LINE
  5
11F
330
1E
100
AcDbEntity
  8
0
100
AcDbLine
 10
252.145
 20
772.048
 30
0.0
 11
252.645
 21
772.048
 31
0.0
  0
LINE
  5
120
330
1E
100
AcDbEntity
  8
0
100
AcDbLine
 10
252.145
 20
772.048
 30
0.0
 11
252.145
 21
783.5587027027029
 31
0.0
  0
LINE
  5
121
330
1E
100
AcDbEntity
  8
0
100
AcDbLine
 10
268.6449999999999
 20
772.048
 30
0.0
 11
271.345
 21
772.048
 31
0.0
  0
LINE
  5
122
330
1E
100
AcDbEntity
  8
0
100
AcDbLine
 10
269.8389999999999
 20
749.533
 30
0.0
 11
271.8089867492079
 21
772.048
 31
0.0
  0
LINE
  5
123
330
1E
100
AcDbEntity
  8
0
100
AcDbLine
 10
271.8089867492079
 20
772.048
 30
0.0
 11
272.345
 21
772.048
 31
0.0
  0
LINE
  5
124
330
1E
100
AcDbEntity
  8
0
100
AcDbLine
 10
271.8089867492079
 20
772.048
 30
0.0
 11
273.7449999999999
 21
772.048
 31
0.0
  0
LINE
  5
125
330
1E
100
AcDbEntity
  8
0
100
AcDbLine
 10
275.1449999999999
 20
772.048
 30
0.0
 11
275.1449999999999
 21
817.0479999999999
 31
0.0
  0
LINE
  5
126
330
1E
100
AcDbEntity
  8
0
100
AcDbLine
 10
273.7449999999999
 20
772.048
 30
0.0
 11
275.1449999999999
 21
772.048
 31
0.0
  0
LINE
  5
127
330
1E
100
AcDbEntity
  8
0
100
AcDbLine
 10
271.345
 20
772.048
 30
0.0
 11
273.7449999999999
 21
772.048
 31
0.0
  0
LINE
  5
128
330
1E
100
AcDbEntity
  8
0
100
AcDbLine
 10
272.345
 20
772.048
 30
0.0
 11
275.1449999999999
 21
772.048
 31
0.0
  0
LINE
  5
129
330
1E
100
AcDbEntity
  8
0
100
AcDbLine
 10
269.1449999999999
 20
772.048
 30
0.0
 11
272.345
 21
772.048
 31
0.0
  0
LINE
  5
12A
330
1E
100
AcDbEntity
  8
0
100
AcDbLine
 10
235.145
 20
783.548
 30
0.0
 11
252.145
 21
783.548
 31
0.0
  0
LINE
  5
12B
330
1E
100
AcDbEntity
  8
0
100
AcDbLine
 10
252.145
 20
783.5587027027029
 30
0.0
 11
252.145
 21
772.048
 31
0.0
  0
LINE
  5
12C
330
1E
100
AcDbEntity
  8
0
100
AcDbLine
 10
235.145
 20
805.5479999999999
 30
0.0
 11
252.145
 21
805.5479999999999
 31
0.0
  0
LINE
  5
12D
330
1E
100
AcDbEntity
  8
0
100
AcDbLine
 10
252.145
 20
805.5372972972971
 30
0.0
 11
252.145
 21
817.0479999999999
 31
0.0
  0
LINE
  5
12E
330
1E
100
AcDbEntity
  8
0
100
AcDbLine
 10
256.1449999999999
 20
817.0479999999999
 30
0.0
 11
258.9449999999999
 21
817.0479999999999
 31
0.0
  0
LINE
  5
12F
330
1E
100
AcDbEntity
  8
0
100
AcDbLine
 10
258.9449999999999
 20
817.0479999999999
 30
0.0
 11
262.1449999999999
 21
817.0479999999999
 31
0.0
  0
LINE
  5
130
330
1E
100
AcDbEntity
  8
0
100
AcDbLine
 10
262.1449999999999
 20
817.0479999999999
 30
0.0
 11
265.6449999999999
 21
817.0479999999999
 31
0.0
  0
LINE
  5
131
330
1E
100
AcDbEntity
  8
0
100
AcDbLine
 10
253.9449999999999
 20
817.0479999999999
 30
0.0
 11
256.1449999999999
 21
817.0479999999999
 31
0.0
  0
LINE
  5
132
330
1E
100
AcDbEntity
  8
0
100
AcDbLine
 10
252.645
 20
817.0479999999999
 30
0.0
 11
253.9449999999999
 21
817.0479999999999
 31
0.0
  0
LINE
  5
133
330
1E
100
AcDbEntity
  8
0
100
AcDbLine
 10
253.845
 20
900.0049999999999
 30
0.0
 11
253.845
 21
900.505
 31
0.0
  0
LINE
  5
134
330
1E
100
AcDbEntity
  8
0
100
AcDbLine
 10
253.845
 20
900.0049999999999
 30
0.0
 11
254.3449999999999
 21
900.0049999999999
 31
0.0
  0
LINE
  5
135
330
1E
100
AcDbEntity
  8
0
100
AcDbLine
 10
253.845
 20
906.8049999999999
 30
0.0
 11
253.845
 21
907.305
 31
0.0
  0
LINE
  5
136
330
1E
100
AcDbEntity
  8
0
100
AcDbLine
 10
253.845
 20
906.8049999999999
 30
0.0
 11
254.5135993485339
 21
906.8049999999999
 31
0.0
  0
LINE
  5
137
330
1E
100
AcDbEntity
  8
0
100
AcDbLine
 10
253.845
 20
906.8049999999999
 30
0.0
 11
254.3449999999999
 21
906.8049999999999
 31
0.0
  0
LINE
  5
138
330
1E
100
AcDbEntity
  8
0
100
AcDbLine
 10
253.845
 20
907.305
 30
0.0
 11
254.4959999999999
 21
907.305
 31
0.0
  0
LINE
  5
139
330
1E
100
AcDbEntity
  8
0
100
AcDbLine
 10
253.845
 20
907.305
 30
0.0
 11
253.845
 21
906.8049999999999
 31
0.0
  0
LINE
  5
13A
330
1E
100
AcDbEntity
  8
0
100
AcDbLine
 10
253.845
 20
907.305
 30
0.0
 11
253.845
 21
908.305
 31
0.0
  0
LINE
  5
13B
330
1E
100
AcDbEntity
  8
0
100
AcDbLine
 10
253.845
 20
913.605
 30
0.0
 11
253.845
 21
914.1049999999999
 31
0.0
  0
LINE
  5
13C
330
1E
100
AcDbEntity
  8
0
100
AcDbLine
 10
253.845
 20
913.605
 30
0.0
 11
254.495879478827
 21
913.605
 31
0.0
  0
LINE
  5
13D
330
1E
100
AcDbEntity
  8
0
100
AcDbLine
 10
253.845
 20
913.605
 30
0.0
 11
254.3449999999999
 21
913.605
 31
0.0
  0
LINE
  5
13E
330
1E
100
AcDbEntity
  8
0
100
AcDbLine
 10
253.845
 20
914.1049999999999
 30
0.0
 11
254.4945765472309
 21
914.1049999999999
 31
0.0
  0
LINE
  5
13F
330
1E
100
AcDbEntity
  8
0
100
AcDbLine
 10
253.845
 20
914.1049999999999
 30
0.0
 11
253.845
 21
913.605
 31
0.0
  0
LINE
  5
140
330
1E
100
AcDbEntity
  8
0
100
AcDbLine
 10
253.845
 20
914.1049999999999
 30
0.0
 11
253.845
 21
915.1049999999999
 31
0.0
  0
LINE
  5
141
330
1E
100
AcDbEntity
  8
0
100
AcDbLine
 10
253.845
 20
920.405
 30
0.0
 11
253.845
 21
920.9049999999999
 31
0.0
  0
LINE
  5
142
330
1E
100
AcDbEntity
  8
0
100
AcDbLine
 10
253.845
 20
920.405
 30
0.0
 11
254.3449999999999
 21
920.405
 31
0.0
  0
LINE
  5
143
330
1E
100
AcDbEntity
  8
0
100
AcDbLine
 10
253.845
 20
920.405
 30
0.0
 11
254.478159609121
 21
920.405
 31
0.0
  0
LINE
  5
144
330
1E
100
AcDbEntity
  8
0
100
AcDbLine
 10
253.845
 20
920.9049999999999
 30
0.0
 11
253.845
 21
921.9049999999999
 31
0.0
  0
LINE
  5
145
330
1E
100
AcDbEntity
  8
0
100
AcDbLine
 10
253.845
 20
920.9049999999999
 30
0.0
 11
254.4768566775239
 21
920.9049999999999
 31
0.0
  0
LINE
  5
146
330
1E
100
AcDbEntity
  8
0
100
AcDbLine
 10
253.845
 20
920.9049999999999
 30
0.0
 11
253.845
 21
920.405
 31
0.0
  0
LINE
  5
147
330
1E
100
AcDbEntity
  8
0
100
AcDbLine
 10
253.845
 20
927.205
 30
0.0
 11
253.845
 21
927.705
 31
0.0
  0
LINE
  5
148
330
1E
100
AcDbEntity
  8
0
100
AcDbLine
 10
253.845
 20
927.205
 30
0.0
 11
254.4604397394139
 21
927.205
 31
0.0
  0
LINE
  5
149
330
1E
100
AcDbEntity
  8
0
100
AcDbLine
 10
253.845
 20
927.205
 30
0.0
 11
254.3449999999999
 21
927.205
 31
0.0
  0
LINE
  5
14A
330
1E
100
AcDbEntity
  8
0
100
AcDbLine
 10
253.845
 20
927.705
 30
0.0
 11
254.4591368078179
 21
927.705
 31
0.0
  0
LINE
  5
14B
330
1E
100
AcDbEntity
  8
0
100
AcDbLine
 10
253.845
 20
927.705
 30
0.0
 11
253.845
 21
927.205
 31
0.0
  0
LINE
  5
14C
330
1E
100
AcDbEntity
  8
0
100
AcDbLine
 10
253.845
 20
927.705
 30
0.0
 11
253.845
 21
928.705
 31
0.0
  0
LINE
  5
14D
330
1E
100
AcDbEntity
  8
0
100
AcDbLine
 10
253.845
 20
934.0049999999999
 30
0.0
 11
253.845
 21
934.505
 31
0.0
  0
LINE
  5
14E
330
1E
100
AcDbEntity
  8
0
100
AcDbLine
 10
253.845
 20
934.0049999999999
 30
0.0
 11
254.3449999999999
 21
934.0049999999999
 31
0.0
  0
LINE
  5
14F
330
1E
100
AcDbEntity
  8
0
100
AcDbLine
 10
253.845
 20
934.0049999999999
 30
0.0
 11
254.442719869707
 21
934.0049999999999
 31
0.0
  0
LINE
  5
150
330
1E
100
AcDbEntity
  8
0
100
AcDbLine
 10
253.845
 20
934.505
 30
0.0
 11
253.845
 21
935.505
 31
0.0
  0
LINE
  5
151
330
1E
100
AcDbEntity
  8
0
100
AcDbLine
 10
253.845
 20
934.505
 30
0.0
 11
254.4414169381109
 21
934.505
 31
0.0
  0
LINE
  5
152
330
1E
100
AcDbEntity
  8
0
100
AcDbLine
 10
253.845
 20
934.505
 30
0.0
 11
253.845
 21
934.0049999999999
 31
0.0
  0
LINE
  5
153
330
1E
100
AcDbEntity
  8
0
100
AcDbLine
 10
253.845
 20
940.8049999999999
 30
0.0
 11
253.845
 21
941.305
 31
0.0
  0
LINE
  5
154
330
1E
100
AcDbEntity
  8
0
100
AcDbLine
 10
253.845
 20
940.8049999999999
 30
0.0
 11
254.3449999999999
 21
940.8049999999999
 31
0.0
  0
LINE
  5
155
330
1E
100
AcDbEntity
  8
0
100
AcDbLine
 10
253.845
 20
940.8049999999999
 30
0.0
 11
254.425
 21
940.8049999999999
 31
0.0
  0
LINE
  5
156
330
1E
100
AcDbEntity
  8
0
100
AcDbLine
 10
253.845
 20
941.305
 30
0.0
 11
253.845
 21
942.3049999999999
 31
0.0
  0
LINE
  5
157
330
1E
100
AcDbEntity
  8
0
100
AcDbLine
 10
253.845
 20
941.305
 30
0.0
 11
254.4236970684039
 21
941.305
 31
0.0
  0
LINE
  5
158
330
1E
100
AcDbEntity
  8
0
100
AcDbLine
 10
253.845
 20
941.305
 30
0.0
 11
253.845
 21
940.8049999999999
 31
0.0
  0
LINE
  5
159
330
1E
100
AcDbEntity
  8
0
100
AcDbLine
 10
253.845
 20
942.8049999999998
 30
0.0
 11
253.845
 21
942.3049999999999
 31
0.0
  0
LINE
  5
15A
330
1E
100
AcDbEntity
  8
0
100
AcDbLine
 10
253.845
 20
942.8049999999998
 30
0.0
 11
254.4197882736159
 21
942.8049999999998
 31
0.0
  0
LINE
  5
15B
330
1E
100
AcDbEntity
  8
0
100
AcDbLine
 10
253.845
 20
942.3049999999999
 30
0.0
 11
253.845
 21
941.305
 31
0.0
  0
LINE
  5
15C
330
1E
100
AcDbEntity
  8
0
100
AcDbLine
 10
253.845
 20
942.3049999999999
 30
0.0
 11
253.845
 21
942.8049999999998
 31
0.0
  0
LINE
  5
15D
330
1E
100
AcDbEntity
  8
0
100
AcDbLine
 10
253.845
 20
942.3049999999999
 30
0.0
 11
254.4210912052119
 21
942.3049999999999
 31
0.0
  0
LINE
  5
15E
330
1E
100
AcDbEntity
  8
0
100
AcDbLine
 10
253.845
 20
936.0049999999999
 30
0.0
 11
253.845
 21
935.505
 31
0.0
  0
LINE
  5
15F
330
1E
100
AcDbEntity
  8
0
100
AcDbLine
 10
253.845
 20
936.0049999999999
 30
0.0
 11
254.4375081433229
 21
936.0049999999999
 31
0.0
  0
LINE
  5
160
330
1E
100
AcDbEntity
  8
0
100
AcDbLine
 10
253.845
 20
935.505
 30
0.0
 11
253.845
 21
934.505
 31
0.0
  0
LINE
  5
161
330
1E
100
AcDbEntity
  8
0
100
AcDbLine
 10
253.845
 20
935.505
 30
0.0
 11
253.845
 21
936.0049999999999
 31
0.0
  0
LINE
  5
162
330
1E
100
AcDbEntity
  8
0
100
AcDbLine
 10
253.845
 20
935.505
 30
0.0
 11
254.438811074919
 21
935.505
 31
0.0
  0
LINE
  5
163
330
1E
100
AcDbEntity
  8
0
100
AcDbLine
 10
253.845
 20
928.705
 30
0.0
 11
253.845
 21
929.2050000000001
 31
0.0
  0
LINE
  5
164
330
1E
100
AcDbEntity
  8
0
100
AcDbLine
 10
253.845
 20
928.705
 30
0.0
 11
254.4565309446249
 21
928.705
 31
0.0
  0
LINE
  5
165
330
1E
100
AcDbEntity
  8
0
100
AcDbLine
 10
253.845
 20
928.705
 30
0.0
 11
253.845
 21
927.705
 31
0.0
  0
LINE
  5
166
330
1E
100
AcDbEntity
  8
0
100
AcDbLine
 10
253.845
 20
929.2050000000001
 30
0.0
 11
253.845
 21
928.705
 31
0.0
  0
LINE
  5
167
330
1E
100
AcDbEntity
  8
0
100
AcDbLine
 10
253.845
 20
929.2050000000001
 30
0.0
 11
254.4552280130289
 21
929.2050000000001
 31
0.0
  0
LINE
  5
168
330
1E
100
AcDbEntity
  8
0
100
AcDbLine
 10
253.845
 20
922.405
 30
0.0
 11
253.845
 21
921.9049999999999
 31
0.0
  0
LINE
  5
169
330
1E
100
AcDbEntity
  8
0
100
AcDbLine
 10
253.845
 20
922.405
 30
0.0
 11
254.472947882736
 21
922.405
 31
0.0
  0
LINE
  5
16A
330
1E
100
AcDbEntity
  8
0
100
AcDbLine
 10
253.845
 20
921.9049999999999
 30
0.0
 11
253.845
 21
920.9049999999999
 31
0.0
  0
LINE
  5
16B
330
1E
100
AcDbEntity
  8
0
100
AcDbLine
 10
253.845
 20
921.9049999999999
 30
0.0
 11
253.845
 21
922.405
 31
0.0
  0
LINE
  5
16C
330
1E
100
AcDbEntity
  8
0
100
AcDbLine
 10
253.845
 20
921.9049999999999
 30
0.0
 11
254.474250814332
 21
921.9049999999999
 31
0.0
  0
LINE
  5
16D
330
1E
100
AcDbEntity
  8
0
100
AcDbLine
 10
253.845
 20
915.1049999999999
 30
0.0
 11
253.845
 21
915.605
 31
0.0
  0
LINE
  5
16E
330
1E
100
AcDbEntity
  8
0
100
AcDbLine
 10
253.845
 20
915.1049999999999
 30
0.0
 11
254.4919706840389
 21
915.1049999999999
 31
0.0
  0
LINE
  5
16F
330
1E
100
AcDbEntity
  8
0
100
AcDbLine
 10
253.845
 20
915.1049999999999
 30
0.0
 11
253.845
 21
914.1049999999999
 31
0.0
  0
LINE
  5
170
330
1E
100
AcDbEntity
  8
0
100
AcDbLine
 10
253.845
 20
915.605
 30
0.0
 11
253.845
 21
915.1049999999999
 31
0.0
  0
LINE
  5
171
330
1E
100
AcDbEntity
  8
0
100
AcDbLine
 10
253.845
 20
915.605
 30
0.0
 11
254.490667752443
 21
915.605
 31
0.0
  0
LINE
  5
172
330
1E
100
AcDbEntity
  8
0
100
AcDbLine
 10
253.845
 20
908.305
 30
0.0
 11
253.845
 21
908.8049999999999
 31
0.0
  0
LINE
  5
173
330
1E
100
AcDbEntity
  8
0
100
AcDbLine
 10
253.845
 20
908.305
 30
0.0
 11
254.4959999999999
 21
908.305
 31
0.0
  0
LINE
  5
174
330
1E
100
AcDbEntity
  8
0
100
AcDbLine
 10
253.845
 20
908.305
 30
0.0
 11
253.845
 21
907.305
 31
0.0
  0
LINE
  5
175
330
1E
100
AcDbEntity
  8
0
100
AcDbLine
 10
253.845
 20
908.8049999999999
 30
0.0
 11
253.845
 21
908.305
 31
0.0
  0
LINE
  5
176
330
1E
100
AcDbEntity
  8
0
100
AcDbLine
 10
253.845
 20
908.8049999999999
 30
0.0
 11
254.50838762215
 21
908.8049999999999
 31
0.0
  0
LINE
  5
177
330
1E
100
AcDbEntity
  8
0
100
AcDbLine
 10
253.845
 20
902.0049999999999
 30
0.0
 11
253.845
 21
901.505
 31
0.0
  0
LINE
  5
178
330
1E
100
AcDbEntity
  8
0
100
AcDbLine
 10
253.845
 20
902.0049999999999
 30
0.0
 11
254.3449999999999
 21
902.0049999999999
 31
0.0
  0
LINE
  5
179
330
1E
100
AcDbEntity
  8
0
100
AcDbLine
 10
253.845
 20
901.505
 30
0.0
 11
253.845
 21
902.0049999999999
 31
0.0
  0
LINE
  5
17A
330
1E
100
AcDbEntity
  8
0
100
AcDbLine
 10
253.845
 20
901.505
 30
0.0
 11
253.845
 21
900.505
 31
0.0
  0
LINE
  5
17B
330
1E
100
AcDbEntity
  8
0
100
AcDbLine
 10
253.845
 20
901.505
 30
0.0
 11
254.4959999999999
 21
901.505
 31
0.0
  0
LINE
  5
17C
330
1E
100
AcDbEntity
  8
0
100
AcDbLine
 10
253.845
 20
900.505
 30
0.0
 11
253.845
 21
900.0049999999999
 31
0.0
  0
LINE
  5
17D
330
1E
100
AcDbEntity
  8
0
100
AcDbLine
 10
253.845
 20
900.505
 30
0.0
 11
253.845
 21
901.505
 31
0.0
  0
LINE
  5
17E
330
1E
100
AcDbEntity
  8
0
100
AcDbLine
 10
253.845
 20
900.505
 30
0.0
 11
254.4959999999999
 21
900.505
 31
0.0
  0
LINE
  5
17F
330
1E
100
AcDbEntity
  8
0
100
AcDbLine
 10
254.4959999999999
 20
901.505
 30
0.0
 11
254.6489999999999
 21
902.0049999999999
 31
0.0
  0
LINE
  5
180
330
1E
100
AcDbEntity
  8
0
100
AcDbLine
 10
254.4959999999999
 20
901.505
 30
0.0
 11
254.4959999999999
 21
900.505
 31
0.0
  0
LINE
  5
181
330
1E
100
AcDbEntity
  8
0
100
AcDbLine
 10
254.6489999999999
 20
902.0049999999999
 30
0.0
 11
254.9549999999999
 21
902.0049999999999
 31
0.0
  0
LINE
  5
182
330
1E
100
AcDbEntity
  8
0
100
AcDbLine
 10
254.6489999999999
 20
900.0049999999999
 30
0.0
 11
254.9549999999999
 21
900.0049999999999
 31
0.0
  0
LINE
  5
183
330
1E
100
AcDbEntity
  8
0
100
AcDbLine
 10
254.6489999999999
 20
900.0049999999999
 30
0.0
 11
255.303957654723
 21
900.0049999999999
 31
0.0
  0
LINE
  5
184
330
1E
100
AcDbEntity
  8
0
100
AcDbLine
 10
254.4959999999999
 20
900.505
 30
0.0
 11
254.6489999999999
 21
900.0049999999999
 31
0.0
  0
LINE
  5
185
330
1E
100
AcDbEntity
  8
0
100
AcDbLine
 10
254.4959999999999
 20
900.505
 30
0.0
 11
254.4959999999999
 21
901.505
 31
0.0
  0
LINE
  5
186
330
1E
100
AcDbEntity
  8
0
100
AcDbLine
 10
254.6489999999999
 20
906.8049999999999
 30
0.0
 11
254.9549999999999
 21
906.8049999999999
 31
0.0
  0
LINE
  5
187
330
1E
100
AcDbEntity
  8
0
100
AcDbLine
 10
254.6489999999999
 20
906.8049999999999
 30
0.0
 11
255.250798045603
 21
906.8049999999999
 31
0.0
  0
LINE
  5
188
330
1E
100
AcDbEntity
  8
0
100
AcDbLine
 10
254.3449999999999
 20
902.0049999999999
 30
0.0
 11
254.3449999999999
 21
906.8049999999999
 31
0.0
  0
LINE
  5
189
330
1E
100
AcDbEntity
  8
0
100
AcDbLine
 10
257.845
 20
818.0049999999999
 30
0.0
 11
260.345
 21
818.0049999999999
 31
0.0
  0
LINE
  5
18A
330
1E
100
AcDbEntity
  8
0
100
AcDbLine
 10
260.345
 20
818.0049999999999
 30
0.0
 11
263.2449999999999
 21
818.0049999999999
 31
0.0
  0
LINE
  5
18B
330
1E
100
AcDbEntity
  8
0
100
AcDbLine
 10
263.2449999999999
 20
818.0049999999999
 30
0.0
 11
266.345
 21
818.0049999999999
 31
0.0
  0
LINE
  5
18C
330
1E
100
AcDbEntity
  8
0
100
AcDbLine
 10
254.9549999999999
 20
906.8049999999999
 30
0.0
 11
255.108
 21
907.305
 31
0.0
  0
LINE
  5
18D
330
1E
100
AcDbEntity
  8
0
100
AcDbLine
 10
254.9549999999999
 20
906.8049999999999
 30
0.0
 11
255.742
 21
906.8049999999999
 31
0.0
  0
LINE
  5
18E
330
1E
100
AcDbEntity
  8
0
100
AcDbLine
 10
254.9549999999999
 20
902.0049999999999
 30
0.0
 11
255.108
 21
901.505
 31
0.0
  0
LINE
  5
18F
330
1E
100
AcDbEntity
  8
0
100
AcDbLine
 10
254.9549999999999
 20
902.0049999999999
 30
0.0
 11
255.742
 21
902.0049999999999
 31
0.0
  0
LINE
  5
190
330
1E
100
AcDbEntity
  8
0
100
AcDbLine
 10
257.546
 20
900.0049999999999
 30
0.0
 11
257.837
 21
900.505
 31
0.0
  0
LINE
  5
191
330
1E
100
AcDbEntity
  8
0
100
AcDbLine
 10
257.546
 20
900.0049999999999
 30
0.0
 11
257.845
 21
900.0049999999999
 31
0.0
  0
LINE
  5
192
330
1E
100
AcDbEntity
  8
0
100
AcDbLine
 10
257.837
 20
900.505
 30
0.0
 11
257.837
 21
901.505
 31
0.0
  0
LINE
  5
193
330
1E
100
AcDbEntity
  8
0
100
AcDbLine
 10
257.837
 20
900.505
 30
0.0
 11
258.4499999999999
 21
900.505
 31
0.0
  0
LINE
  5
194
330
1E
100
AcDbEntity
  8
0
100
AcDbLine
 10
256.9649999999999
 20
900.0049999999999
 30
0.0
 11
257.546
 21
900.0049999999999
 31
0.0
  0
LINE
  5
195
330
1E
100
AcDbEntity
  8
0
100
AcDbLine
 10
256.9649999999999
 20
900.0049999999999
 30
0.0
 11
257.5779999999999
 21
900.0049999999999
 31
0.0
  0
LINE
  5
196
330
1E
100
AcDbEntity
  8
0
100
AcDbLine
 10
256.675
 20
900.505
 30
0.0
 11
256.9649999999999
 21
900.0049999999999
 31
0.0
  0
LINE
  5
197
330
1E
100
AcDbEntity
  8
0
100
AcDbLine
 10
256.675
 20
900.505
 30
0.0
 11
256.675
 21
901.505
 31
0.0
  0
LINE
  5
198
330
1E
100
AcDbEntity
  8
0
100
AcDbLine
 10
256.675
 20
901.505
 30
0.0
 11
256.9649999999999
 21
902.0049999999999
 31
0.0
  0
LINE
  5
199
330
1E
100
AcDbEntity
  8
0
100
AcDbLine
 10
256.675
 20
901.505
 30
0.0
 11
256.675
 21
900.505
 31
0.0
  0
LINE
  5
19A
330
1E
100
AcDbEntity
  8
0
100
AcDbLine
 10
257.837
 20
901.505
 30
0.0
 11
257.837
 21
900.505
 31
0.0
  0
LINE
  5
19B
330
1E
100
AcDbEntity
  8
0
100
AcDbLine
 10
257.837
 20
901.505
 30
0.0
 11
258.4499999999999
 21
901.505
 31
0.0
  0
LINE
  5
19C
330
1E
100
AcDbEntity
  8
0
100
AcDbLine
 10
256.9649999999999
 20
902.0049999999999
 30
0.0
 11
257.546
 21
902.0049999999999
 31
0.0
  0
LINE
  5
19D
330
1E
100
AcDbEntity
  8
0
100
AcDbLine
 10
256.9649999999999
 20
906.8049999999999
 30
0.0
 11
257.546
 21
906.8049999999999
 31
0.0
  0
LINE
  5
19E
330
1E
100
AcDbEntity
  8
0
100
AcDbLine
 10
256.9649999999999
 20
906.8049999999999
 30
0.0
 11
257.5779999999999
 21
906.8049999999999
 31
0.0
  0
LINE
  5
19F
330
1E
100
AcDbEntity
  8
0
100
AcDbLine
 10
257.546
 20
906.8049999999999
 30
0.0
 11
257.845
 21
906.8049999999999
 31
0.0
  0
LINE
  5
1A0
330
1E
100
AcDbEntity
  8
0
100
AcDbLine
 10
257.546
 20
906.8049999999999
 30
0.0
 11
257.837
 21
907.305
 31
0.0
  0
LINE
  5
1A1
330
1E
100
AcDbEntity
  8
0
100
AcDbLine
 10
257.546
 20
902.0049999999999
 30
0.0
 11
257.837
 21
901.505
 31
0.0
  0
LINE
  5
1A2
330
1E
100
AcDbEntity
  8
0
100
AcDbLine
 10
257.546
 20
902.0049999999999
 30
0.0
 11
257.845
 21
902.0049999999999
 31
0.0
  0
LINE
  5
1A3
330
1E
100
AcDbEntity
  8
0
100
AcDbLine
 10
255.108
 20
901.505
 30
0.0
 11
255.108
 21
900.505
 31
0.0
  0
LINE
  5
1A4
330
1E
100
AcDbEntity
  8
0
100
AcDbLine
 10
255.108
 20
901.505
 30
0.0
 11
255.895
 21
901.505
 31
0.0
  0
LINE
  5
1A5
330
1E
100
AcDbEntity
  8
0
100
AcDbLine
 10
255.108
 20
900.505
 30
0.0
 11
255.108
 21
901.505
 31
0.0
  0
LINE
  5
1A6
330
1E
100
AcDbEntity
  8
0
100
AcDbLine
 10
255.108
 20
900.505
 30
0.0
 11
255.895
 21
900.505
 31
0.0
  0
LINE
  5
1A7
330
1E
100
AcDbEntity
  8
0
100
AcDbLine
 10
254.9549999999999
 20
900.0049999999999
 30
0.0
 11
255.108
 21
900.505
 31
0.0
  0
LINE
  5
1A8
330
1E
100
AcDbEntity
  8
0
100
AcDbLine
 10
254.9549999999999
 20
900.0049999999999
 30
0.0
 11
255.742
 21
900.0049999999999
 31
0.0
  0
LINE
  5
1A9
330
1E
100
AcDbEntity
  8
0
100
AcDbLine
 10
255.945
 20
818.0049999999999
 30
0.0
 11
257.845
 21
818.0049999999999
 31
0.0
  0
LINE
  5
1AA
330
1E
100
AcDbEntity
  8
0
100
AcDbLine
 10
254.7449999999999
 20
818.0049999999999
 30
0.0
 11
255.945
 21
818.0049999999999
 31
0.0
  0
LINE
  5
1AB
330
1E
100
AcDbEntity
  8
0
100
AcDbLine
 10
254.3449999999999
 20
915.605
 30
0.0
 11
254.3449999999999
 21
920.405
 31
0.0
  0
LINE
  5
1AC
330
1E
100
AcDbEntity
  8
0
100
AcDbLine
 10
254.3449999999999
 20
908.8049999999999
 30
0.0
 11
254.3449999999999
 21
913.605
 31
0.0
  0
LINE
  5
1AD
330
1E
100
AcDbEntity
  8
0
100
AcDbLine
 10
254.3449999999999
 20
922.405
 30
0.0
 11
254.3449999999999
 21
927.205
 31
0.0
  0
LINE
  5
1AE
330
1E
100
AcDbEntity
  8
0
100
AcDbLine
 10
254.3449999999999
 20
929.2050000000001
 30
0.0
 11
254.3449999999999
 21
934.0049999999999
 31
0.0
  0
LINE
  5
1AF
330
1E
100
AcDbEntity
  8
0
100
AcDbLine
 10
254.3449999999999
 20
927.205
 30
0.0
 11
254.3449999999999
 21
922.405
 31
0.0
  0
LINE
  5
1B0
330
1E
100
AcDbEntity
  8
0
100
AcDbLine
 10
254.3449999999999
 20
920.405
 30
0.0
 11
254.3449999999999
 21
915.605
 31
0.0
  0
LINE
  5
1B1
330
1E
100
AcDbEntity
  8
0
100
AcDbLine
 10
254.4959999999999
 20
907.305
 30
0.0
 11
254.6489999999999
 21
906.8049999999999
 31
0.0
  0
LINE
  5
1B2
330
1E
100
AcDbEntity
  8
0
100
AcDbLine
 10
254.4959999999999
 20
907.305
 30
0.0
 11
254.4959999999999
 21
908.305
 31
0.0
  0
LINE
  5
1B3
330
1E
100
AcDbEntity
  8
0
100
AcDbLine
 10
254.4959999999999
 20
908.305
 30
0.0
 11
254.6489999999999
 21
908.8049999999999
 31
0.0
  0
LINE
  5
1B4
330
1E
100
AcDbEntity
  8
0
100
AcDbLine
 10
254.4959999999999
 20
908.305
 30
0.0
 11
254.4959999999999
 21
907.305
 31
0.0
  0
LINE
  5
1B5
330
1E
100
AcDbEntity
  8
0
100
AcDbLine
 10
255.108
 20
907.305
 30
0.0
 11
255.895
 21
907.305
 31
0.0
  0
LINE
  5
1B6
330
1E
100
AcDbEntity
  8
0
100
AcDbLine
 10
255.108
 20
907.305
 30
0.0
 11
255.108
 21
908.305
 31
0.0
  0
LINE
  5
1B7
330
1E
100
AcDbEntity
  8
0
100
AcDbLine
 10
255.108
 20
908.305
 30
0.0
 11
255.895
 21
908.305
 31
0.0
  0
LINE
  5
1B8
330
1E
100
AcDbEntity
  8
0
100
AcDbLine
 10
255.108
 20
908.305
 30
0.0
 11
255.108
 21
907.305
 31
0.0
  0
LINE
  5
1B9
330
1E
100
AcDbEntity
  8
0
100
AcDbLine
 10
257.837
 20
907.305
 30
0.0
 11
258.4499999999999
 21
907.305
 31
0.0
  0
LINE
  5
1BA
330
1E
100
AcDbEntity
  8
0
100
AcDbLine
 10
257.837
 20
907.305
 30
0.0
 11
257.837
 21
908.305
 31
0.0
  0
LINE
  5
1BB
330
1E
100
AcDbEntity
  8
0
100
AcDbLine
 10
257.837
 20
908.305
 30
0.0
 11
257.837
 21
907.305
 31
0.0
  0
LINE
  5
1BC
330
1E
100
AcDbEntity
  8
0
100
AcDbLine
 10
257.837
 20
908.305
 30
0.0
 11
258.4499999999999
 21
908.305
 31
0.0
  0
LINE
  5
1BD
330
1E
100
AcDbEntity
  8
0
100
AcDbLine
 10
256.675
 20
907.305
 30
0.0
 11
256.9649999999999
 21
906.8049999999999
 31
0.0
  0
LINE
  5
1BE
330
1E
100
AcDbEntity
  8
0
100
AcDbLine
 10
256.675
 20
907.305
 30
0.0
 11
256.675
 21
908.305
 31
0.0
  0
LINE
  5
1BF
330
1E
100
AcDbEntity
  8
0
100
AcDbLine
 10
254.9549999999999
 20
908.8049999999999
 30
0.0
 11
255.742
 21
908.8049999999999
 31
0.0
  0
LINE
  5
1C0
330
1E
100
AcDbEntity
  8
0
100
AcDbLine
 10
254.9549999999999
 20
908.8049999999999
 30
0.0
 11
255.108
 21
908.305
 31
0.0
  0
LINE
  5
1C1
330
1E
100
AcDbEntity
  8
0
100
AcDbLine
 10
254.6489999999999
 20
913.605
 30
0.0
 11
254.9549999999999
 21
913.605
 31
0.0
  0
LINE
  5
1C2
330
1E
100
AcDbEntity
  8
0
100
AcDbLine
 10
254.6489999999999
 20
913.605
 30
0.0
 11
255.197638436482
 21
913.605
 31
0.0
  0
LINE
  5
1C3
330
1E
100
AcDbEntity
  8
0
100
AcDbLine
 10
254.4959999999999
 20
914.1049999999999
 30
0.0
 11
254.6489999999999
 21
913.605
 31
0.0
  0
LINE
  5
1C4
330
1E
100
AcDbEntity
  8
0
100
AcDbLine
 10
254.4959999999999
 20
914.1049999999999
 30
0.0
 11
254.4959999999999
 21
915.1049999999999
 31
0.0
  0
LINE
  5
1C5
330
1E
100
AcDbEntity
  8
0
100
AcDbLine
 10
254.9549999999999
 20
913.605
 30
0.0
 11
255.108
 21
914.1049999999999
 31
0.0
  0
LINE
  5
1C6
330
1E
100
AcDbEntity
  8
0
100
AcDbLine
 10
254.9549999999999
 20
913.605
 30
0.0
 11
255.742
 21
913.605
 31
0.0
  0
LINE
  5
1C7
330
1E
100
AcDbEntity
  8
0
100
AcDbLine
 10
255.108
 20
914.1049999999999
 30
0.0
 11
255.895
 21
914.1049999999999
 31
0.0
  0
LINE
  5
1C8
330
1E
100
AcDbEntity
  8
0
100
AcDbLine
 10
255.108
 20
914.1049999999999
 30
0.0
 11
255.108
 21
915.1049999999999
 31
0.0
  0
LINE
  5
1C9
330
1E
100
AcDbEntity
  8
0
100
AcDbLine
 10
254.4959999999999
 20
934.505
 30
0.0
 11
254.4959999999999
 21
935.505
 31
0.0
  0
LINE
  5
1CA
330
1E
100
AcDbEntity
  8
0
100
AcDbLine
 10
254.4959999999999
 20
934.505
 30
0.0
 11
254.6489999999999
 21
934.0049999999999
 31
0.0
  0
LINE
  5
1CB
330
1E
100
AcDbEntity
  8
0
100
AcDbLine
 10
254.4959999999999
 20
935.505
 30
0.0
 11
254.6489999999999
 21
936.0049999999999
 31
0.0
  0
LINE
  5
1CC
330
1E
100
AcDbEntity
  8
0
100
AcDbLine
 10
254.4959999999999
 20
935.505
 30
0.0
 11
254.4959999999999
 21
934.505
 31
0.0
  0
LINE
  5
1CD
330
1E
100
AcDbEntity
  8
0
100
AcDbLine
 10
254.4959999999999
 20
927.705
 30
0.0
 11
254.6489999999999
 21
927.205
 31
0.0
  0
LINE
  5
1CE
330
1E
100
AcDbEntity
  8
0
100
AcDbLine
 10
254.4959999999999
 20
927.705
 30
0.0
 11
254.4959999999999
 21
928.705
 31
0.0
  0
LINE
  5
1CF
330
1E
100
AcDbEntity
  8
0
100
AcDbLine
 10
254.4959999999999
 20
928.705
 30
0.0
 11
254.6489999999999
 21
929.2050000000001
 31
0.0
  0
LINE
  5
1D0
330
1E
100
AcDbEntity
  8
0
100
AcDbLine
 10
254.4959999999999
 20
928.705
 30
0.0
 11
254.4959999999999
 21
927.705
 31
0.0
  0
LINE
  5
1D1
330
1E
100
AcDbEntity
  8
0
100
AcDbLine
 10
254.4959999999999
 20
920.9049999999999
 30
0.0
 11
254.4959999999999
 21
921.9049999999999
 31
0.0
  0
LINE
  5
1D2
330
1E
100
AcDbEntity
  8
0
100
AcDbLine
 10
254.4959999999999
 20
920.9049999999999
 30
0.0
 11
254.6489999999999
 21
920.405
 31
0.0
  0
LINE
  5
1D3
330
1E
100
AcDbEntity
  8
0
100
AcDbLine
 10
254.6489999999999
 20
927.205
 30
0.0
 11
254.9549999999999
 21
927.205
 31
0.0
  0
LINE
  5
1D4
330
1E
100
AcDbEntity
  8
0
100
AcDbLine
 10
254.6489999999999
 20
927.205
 30
0.0
 11
255.0913192182409
 21
927.205
 31
0.0
  0
LINE
  5
1D5
330
1E
100
AcDbEntity
  8
0
100
AcDbLine
 10
254.6489999999999
 20
940.8049999999999
 30
0.0
 11
254.9549999999999
 21
940.8049999999999
 31
0.0
  0
LINE
  5
1D6
330
1E
100
AcDbEntity
  8
0
100
AcDbLine
 10
254.6489999999999
 20
940.8049999999999
 30
0.0
 11
255.437
 21
940.8049999999999
 31
0.0
  0
LINE
  5
1D7
330
1E
100
AcDbEntity
  8
0
100
AcDbLine
 10
254.6489999999999
 20
934.0049999999999
 30
0.0
 11
254.9549999999999
 21
934.0049999999999
 31
0.0
  0
LINE
  5
1D8
330
1E
100
AcDbEntity
  8
0
100
AcDbLine
 10
254.6489999999999
 20
934.0049999999999
 30
0.0
 11
255.437
 21
934.0049999999999
 31
0.0
  0
LINE
  5
1D9
330
1E
100
AcDbEntity
  8
0
100
AcDbLine
 10
254.6489999999999
 20
936.0049999999999
 30
0.0
 11
254.9549999999999
 21
936.0049999999999
 31
0.0
  0
LINE
  5
1DA
330
1E
100
AcDbEntity
  8
0
100
AcDbLine
 10
254.6489999999999
 20
929.2050000000001
 30
0.0
 11
254.9549999999999
 21
929.2050000000001
 31
0.0
  0
LINE
  5
1DB
330
1E
100
AcDbEntity
  8
0
100
AcDbLine
 10
254.4959999999999
 20
921.9049999999999
 30
0.0
 11
254.6489999999999
 21
922.405
 31
0.0
  0
LINE
  5
1DC
330
1E
100
AcDbEntity
  8
0
100
AcDbLine
 10
254.4959999999999
 20
921.9049999999999
 30
0.0
 11
254.4959999999999
 21
920.9049999999999
 31
0.0
  0
LINE
  5
1DD
330
1E
100
AcDbEntity
  8
0
100
AcDbLine
 10
254.6489999999999
 20
920.405
 30
0.0
 11
254.9549999999999
 21
920.405
 31
0.0
  0
LINE
  5
1DE
330
1E
100
AcDbEntity
  8
0
100
AcDbLine
 10
254.6489999999999
 20
920.405
 30
0.0
 11
255.1444788273619
 21
920.405
 31
0.0
  0
LINE
  5
1DF
330
1E
100
AcDbEntity
  8
0
100
AcDbLine
 10
254.6489999999999
 20
922.405
 30
0.0
 11
254.9549999999999
 21
922.405
 31
0.0
  0
LINE
  5
1E0
330
1E
100
AcDbEntity
  8
0
100
AcDbLine
 10
254.4959999999999
 20
915.1049999999999
 30
0.0
 11
254.6489999999999
 21
915.605
 31
0.0
  0
LINE
  5
1E1
330
1E
100
AcDbEntity
  8
0
100
AcDbLine
 10
254.4959999999999
 20
915.1049999999999
 30
0.0
 11
254.4959999999999
 21
914.1049999999999
 31
0.0
  0
LINE
  5
1E2
330
1E
100
AcDbEntity
  8
0
100
AcDbLine
 10
255.108
 20
915.1049999999999
 30
0.0
 11
255.895
 21
915.1049999999999
 31
0.0
  0
LINE
  5
1E3
330
1E
100
AcDbEntity
  8
0
100
AcDbLine
 10
255.108
 20
915.1049999999999
 30
0.0
 11
255.108
 21
914.1049999999999
 31
0.0
  0
LINE
  5
1E4
330
1E
100
AcDbEntity
  8
0
100
AcDbLine
 10
255.108
 20
920.9049999999999
 30
0.0
 11
255.895
 21
920.9049999999999
 31
0.0
  0
LINE
  5
1E5
330
1E
100
AcDbEntity
  8
0
100
AcDbLine
 10
255.108
 20
920.9049999999999
 30
0.0
 11
255.108
 21
921.9049999999999
 31
0.0
  0
LINE
  5
1E6
330
1E
100
AcDbEntity
  8
0
100
AcDbLine
 10
254.9549999999999
 20
920.405
 30
0.0
 11
255.108
 21
920.9049999999999
 31
0.0
  0
LINE
  5
1E7
330
1E
100
AcDbEntity
  8
0
100
AcDbLine
 10
254.9549999999999
 20
920.405
 30
0.0
 11
255.742
 21
920.405
 31
0.0
  0
LINE
  5
1E8
330
1E
100
AcDbEntity
  8
0
100
AcDbLine
 10
255.108
 20
921.9049999999999
 30
0.0
 11
255.108
 21
920.9049999999999
 31
0.0
  0
LINE
  5
1E9
330
1E
100
AcDbEntity
  8
0
100
AcDbLine
 10
255.108
 20
921.9049999999999
 30
0.0
 11
255.895
 21
921.9049999999999
 31
0.0
  0
LINE
  5
1EA
330
1E
100
AcDbEntity
  8
0
100
AcDbLine
 10
254.9549999999999
 20
927.205
 30
0.0
 11
255.108
 21
927.705
 31
0.0
  0
LINE
  5
1EB
330
1E
100
AcDbEntity
  8
0
100
AcDbLine
 10
254.9549999999999
 20
927.205
 30
0.0
 11
255.742
 21
927.205
 31
0.0
  0
LINE
  5
1EC
330
1E
100
AcDbEntity
  8
0
100
AcDbLine
 10
254.9549999999999
 20
940.8049999999999
 30
0.0
 11
255.108
 21
941.305
 31
0.0
  0
LINE
  5
1ED
330
1E
100
AcDbEntity
  8
0
100
AcDbLine
 10
254.9549999999999
 20
940.8049999999999
 30
0.0
 11
255.742
 21
940.8049999999999
 31
0.0
  0
LINE
  5
1EE
330
1E
100
AcDbEntity
  8
0
100
AcDbLine
 10
254.9549999999999
 20
934.0049999999999
 30
0.0
 11
255.108
 21
934.505
 31
0.0
  0
LINE
  5
1EF
330
1E
100
AcDbEntity
  8
0
100
AcDbLine
 10
254.9549999999999
 20
934.0049999999999
 30
0.0
 11
255.742
 21
934.0049999999999
 31
0.0
  0
LINE
  5
1F0
330
1E
100
AcDbEntity
  8
0
100
AcDbLine
 10
254.9549999999999
 20
936.0049999999999
 30
0.0
 11
255.108
 21
935.505
 31
0.0
  0
LINE
  5
1F1
330
1E
100
AcDbEntity
  8
0
100
AcDbLine
 10
254.9549999999999
 20
936.0049999999999
 30
0.0
 11
255.742
 21
936.0049999999999
 31
0.0
  0
LINE
  5
1F2
330
1E
100
AcDbEntity
  8
0
100
AcDbLine
 10
254.9549999999999
 20
929.2050000000001
 30
0.0
 11
255.742
 21
929.2050000000001
 31
0.0
  0
LINE
  5
1F3
330
1E
100
AcDbEntity
  8
0
100
AcDbLine
 10
254.9549999999999
 20
929.2050000000001
 30
0.0
 11
255.108
 21
928.705
 31
0.0
  0
LINE
  5
1F4
330
1E
100
AcDbEntity
  8
0
100
AcDbLine
 10
255.108
 20
927.705
 30
0.0
 11
255.895
 21
927.705
 31
0.0
  0
LINE
  5
1F5
330
1E
100
AcDbEntity
  8
0
100
AcDbLine
 10
255.108
 20
927.705
 30
0.0
 11
255.108
 21
928.705
 31
0.0
  0
LINE
  5
1F6
330
1E
100
AcDbEntity
  8
0
100
AcDbLine
 10
255.108
 20
928.705
 30
0.0
 11
255.895
 21
928.705
 31
0.0
  0
LINE
  5
1F7
330
1E
100
AcDbEntity
  8
0
100
AcDbLine
 10
255.108
 20
928.705
 30
0.0
 11
255.108
 21
927.705
 31
0.0
  0
LINE
  5
1F8
330
1E
100
AcDbEntity
  8
0
100
AcDbLine
 10
256.675
 20
927.705
 30
0.0
 11
256.9649999999999
 21
927.205
 31
0.0
  0
LINE
  5
1F9
330
1E
100
AcDbEntity
  8
0
100
AcDbLine
 10
256.675
 20
927.705
 30
0.0
 11
256.675
 21
928.705
 31
0.0
  0
LINE
  5
1FA
330
1E
100
AcDbEntity
  8
0
100
AcDbLine
 10
255.108
 20
934.505
 30
0.0
 11
255.895
 21
934.505
 31
0.0
  0
LINE
  5
1FB
330
1E
100
AcDbEntity
  8
0
100
AcDbLine
 10
255.108
 20
934.505
 30
0.0
 11
255.108
 21
935.505
 31
0.0
  0
LINE
  5
1FC
330
1E
100
AcDbEntity
  8
0
100
AcDbLine
 10
255.108
 20
935.505
 30
0.0
 11
255.108
 21
934.505
 31
0.0
  0
LINE
  5
1FD
330
1E
100
AcDbEntity
  8
0
100
AcDbLine
 10
255.108
 20
935.505
 30
0.0
 11
255.895
 21
935.505
 31
0.0
  0
LINE
  5
1FE
330
1E
100
AcDbEntity
  8
0
100
AcDbLine
 10
256.675
 20
935.505
 30
0.0
 11
256.9649999999999
 21
936.0049999999999
 31
0.0
  0
LINE
  5
1FF
330
1E
100
AcDbEntity
  8
0
100
AcDbLine
 10
256.675
 20
935.505
 30
0.0
 11
256.675
 21
934.505
 31
0.0
  0
LINE
  5
200
330
1E
100
AcDbEntity
  8
0
100
AcDbLine
 10
256.675
 20
934.505
 30
0.0
 11
256.9649999999999
 21
934.0049999999999
 31
0.0
  0
LINE
  5
201
330
1E
100
AcDbEntity
  8
0
100
AcDbLine
 10
256.675
 20
934.505
 30
0.0
 11
256.675
 21
935.505
 31
0.0
  0
LINE
  5
202
330
1E
100
AcDbEntity
  8
0
100
AcDbLine
 10
256.675
 20
928.705
 30
0.0
 11
256.9649999999999
 21
929.2050000000001
 31
0.0
  0
LINE
  5
203
330
1E
100
AcDbEntity
  8
0
100
AcDbLine
 10
256.675
 20
928.705
 30
0.0
 11
256.675
 21
927.705
 31
0.0
  0
LINE
  5
204
330
1E
100
AcDbEntity
  8
0
100
AcDbLine
 10
254.9549999999999
 20
922.405
 30
0.0
 11
255.108
 21
921.9049999999999
 31
0.0
  0
LINE
  5
205
330
1E
100
AcDbEntity
  8
0
100
AcDbLine
 10
254.9549999999999
 20
922.405
 30
0.0
 11
255.742
 21
922.405
 31
0.0
  0
LINE
  5
206
330
1E
100
AcDbEntity
  8
0
100
AcDbLine
 10
256.675
 20
921.9049999999999
 30
0.0
 11
256.9649999999999
 21
922.405
 31
0.0
  0
LINE
  5
207
330
1E
100
AcDbEntity
  8
0
100
AcDbLine
 10
256.675
 20
921.9049999999999
 30
0.0
 11
256.675
 21
920.9049999999999
 31
0.0
  0
LINE
  5
208
330
1E
100
AcDbEntity
  8
0
100
AcDbLine
 10
256.675
 20
920.9049999999999
 30
0.0
 11
256.9649999999999
 21
920.405
 31
0.0
  0
LINE
  5
209
330
1E
100
AcDbEntity
  8
0
100
AcDbLine
 10
256.675
 20
920.9049999999999
 30
0.0
 11
256.675
 21
921.9049999999999
 31
0.0
  0
LINE
  5
20A
330
1E
100
AcDbEntity
  8
0
100
AcDbLine
 10
254.9549999999999
 20
915.605
 30
0.0
 11
255.742
 21
915.605
 31
0.0
  0
LINE
  5
20B
330
1E
100
AcDbEntity
  8
0
100
AcDbLine
 10
254.9549999999999
 20
915.605
 30
0.0
 11
255.108
 21
915.1049999999999
 31
0.0
  0
LINE
  5
20C
330
1E
100
AcDbEntity
  8
0
100
AcDbLine
 10
254.6489999999999
 20
915.605
 30
0.0
 11
254.9549999999999
 21
915.605
 31
0.0
  0
LINE
  5
20D
330
1E
100
AcDbEntity
  8
0
100
AcDbLine
 10
256.675
 20
914.1049999999999
 30
0.0
 11
256.9649999999999
 21
913.605
 31
0.0
  0
LINE
  5
20E
330
1E
100
AcDbEntity
  8
0
100
AcDbLine
 10
256.675
 20
914.1049999999999
 30
0.0
 11
256.675
 21
915.1049999999999
 31
0.0
  0
LINE
  5
20F
330
1E
100
AcDbEntity
  8
0
100
AcDbLine
 10
256.9649999999999
 20
913.605
 30
0.0
 11
257.546
 21
913.605
 31
0.0
  0
LINE
  5
210
330
1E
100
AcDbEntity
  8
0
100
AcDbLine
 10
256.9649999999999
 20
913.605
 30
0.0
 11
257.5779999999999
 21
913.605
 31
0.0
  0
LINE
  5
211
330
1E
100
AcDbEntity
  8
0
100
AcDbLine
 10
256.9649999999999
 20
940.8049999999999
 30
0.0
 11
257.546
 21
940.8049999999999
 31
0.0
  0
LINE
  5
212
330
1E
100
AcDbEntity
  8
0
100
AcDbLine
 10
256.9649999999999
 20
940.8049999999999
 30
0.0
 11
257.5779999999999
 21
940.8049999999999
 31
0.0
  0
LINE
  5
213
330
1E
100
AcDbEntity
  8
0
100
AcDbLine
 10
256.9649999999999
 20
936.0049999999999
 30
0.0
 11
257.546
 21
936.0049999999999
 31
0.0
  0
LINE
  5
214
330
1E
100
AcDbEntity
  8
0
100
AcDbLine
 10
256.9649999999999
 20
934.0049999999999
 30
0.0
 11
257.546
 21
934.0049999999999
 31
0.0
  0
LINE
  5
215
330
1E
100
AcDbEntity
  8
0
100
AcDbLine
 10
256.9649999999999
 20
934.0049999999999
 30
0.0
 11
257.5779999999999
 21
934.0049999999999
 31
0.0
  0
LINE
  5
216
330
1E
100
AcDbEntity
  8
0
100
AcDbLine
 10
256.9649999999999
 20
927.205
 30
0.0
 11
257.546
 21
927.205
 31
0.0
  0
LINE
  5
217
330
1E
100
AcDbEntity
  8
0
100
AcDbLine
 10
256.9649999999999
 20
927.205
 30
0.0
 11
257.5779999999999
 21
927.205
 31
0.0
  0
LINE
  5
218
330
1E
100
AcDbEntity
  8
0
100
AcDbLine
 10
256.9649999999999
 20
929.2050000000001
 30
0.0
 11
257.546
 21
929.2050000000001
 31
0.0
  0
LINE
  5
219
330
1E
100
AcDbEntity
  8
0
100
AcDbLine
 10
256.9649999999999
 20
922.405
 30
0.0
 11
257.546
 21
922.405
 31
0.0
  0
LINE
  5
21A
330
1E
100
AcDbEntity
  8
0
100
AcDbLine
 10
256.9649999999999
 20
920.405
 30
0.0
 11
257.546
 21
920.405
 31
0.0
  0
LINE
  5
21B
330
1E
100
AcDbEntity
  8
0
100
AcDbLine
 10
256.9649999999999
 20
920.405
 30
0.0
 11
257.5779999999999
 21
920.405
 31
0.0
  0
LINE
  5
21C
330
1E
100
AcDbEntity
  8
0
100
AcDbLine
 10
256.9649999999999
 20
915.605
 30
0.0
 11
257.546
 21
915.605
 31
0.0
  0
LINE
  5
21D
330
1E
100
AcDbEntity
  8
0
100
AcDbLine
 10
256.675
 20
915.1049999999999
 30
0.0
 11
256.9649999999999
 21
915.605
 31
0.0
  0
LINE
  5
21E
330
1E
100
AcDbEntity
  8
0
100
AcDbLine
 10
256.675
 20
915.1049999999999
 30
0.0
 11
256.675
 21
914.1049999999999
 31
0.0
  0
LINE
  5
21F
330
1E
100
AcDbEntity
  8
0
100
AcDbLine
 10
254.6489999999999
 20
908.8049999999999
 30
0.0
 11
254.9549999999999
 21
908.8049999999999
 31
0.0
  0
LINE
  5
220
330
1E
100
AcDbEntity
  8
0
100
AcDbLine
 10
257.546
 20
940.8049999999999
 30
0.0
 11
257.837
 21
941.305
 31
0.0
  0
LINE
  5
221
330
1E
100
AcDbEntity
  8
0
100
AcDbLine
 10
257.546
 20
940.8049999999999
 30
0.0
 11
257.845
 21
940.8049999999999
 31
0.0
  0
LINE
  5
222
330
1E
100
AcDbEntity
  8
0
100
AcDbLine
 10
257.546
 20
936.0049999999999
 30
0.0
 11
257.837
 21
935.505
 31
0.0
  0
LINE
  5
223
330
1E
100
AcDbEntity
  8
0
100
AcDbLine
 10
257.546
 20
936.0049999999999
 30
0.0
 11
257.845
 21
936.0049999999999
 31
0.0
  0
LINE
  5
224
330
1E
100
AcDbEntity
  8
0
100
AcDbLine
 10
257.546
 20
934.0049999999999
 30
0.0
 11
257.837
 21
934.505
 31
0.0
  0
LINE
  5
225
330
1E
100
AcDbEntity
  8
0
100
AcDbLine
 10
257.546
 20
934.0049999999999
 30
0.0
 11
257.845
 21
934.0049999999999
 31
0.0
  0
LINE
  5
226
330
1E
100
AcDbEntity
  8
0
100
AcDbLine
 10
257.546
 20
927.205
 30
0.0
 11
257.845
 21
927.205
 31
0.0
  0
LINE
  5
227
330
1E
100
AcDbEntity
  8
0
100
AcDbLine
 10
257.546
 20
927.205
 30
0.0
 11
257.837
 21
927.705
 31
0.0
  0
LINE
  5
228
330
1E
100
AcDbEntity
  8
0
100
AcDbLine
 10
257.546
 20
929.2050000000001
 30
0.0
 11
257.845
 21
929.2050000000001
 31
0.0
  0
LINE
  5
229
330
1E
100
AcDbEntity
  8
0
100
AcDbLine
 10
257.546
 20
929.2050000000001
 30
0.0
 11
257.837
 21
928.705
 31
0.0
  0
LINE
  5
22A
330
1E
100
AcDbEntity
  8
0
100
AcDbLine
 10
257.546
 20
922.405
 30
0.0
 11
257.837
 21
921.9049999999999
 31
0.0
  0
LINE
  5
22B
330
1E
100
AcDbEntity
  8
0
100
AcDbLine
 10
257.546
 20
922.405
 30
0.0
 11
257.845
 21
922.405
 31
0.0
  0
LINE
  5
22C
330
1E
100
AcDbEntity
  8
0
100
AcDbLine
 10
257.546
 20
920.405
 30
0.0
 11
257.837
 21
920.9049999999999
 31
0.0
  0
LINE
  5
22D
330
1E
100
AcDbEntity
  8
0
100
AcDbLine
 10
257.546
 20
920.405
 30
0.0
 11
257.845
 21
920.405
 31
0.0
  0
LINE
  5
22E
330
1E
100
AcDbEntity
  8
0
100
AcDbLine
 10
257.546
 20
913.605
 30
0.0
 11
257.845
 21
913.605
 31
0.0
  0
LINE
  5
22F
330
1E
100
AcDbEntity
  8
0
100
AcDbLine
 10
257.546
 20
913.605
 30
0.0
 11
257.837
 21
914.1049999999999
 31
0.0
  0
LINE
  5
230
330
1E
100
AcDbEntity
  8
0
100
AcDbLine
 10
257.837
 20
914.1049999999999
 30
0.0
 11
258.4499999999999
 21
914.1049999999999
 31
0.0
  0
LINE
  5
231
330
1E
100
AcDbEntity
  8
0
100
AcDbLine
 10
257.837
 20
914.1049999999999
 30
0.0
 11
257.837
 21
915.1049999999999
 31
0.0
  0
LINE
  5
232
330
1E
100
AcDbEntity
  8
0
100
AcDbLine
 10
257.837
 20
935.505
 30
0.0
 11
257.837
 21
934.505
 31
0.0
  0
LINE
  5
233
330
1E
100
AcDbEntity
  8
0
100
AcDbLine
 10
257.837
 20
935.505
 30
0.0
 11
258.431319218241
 21
935.505
 31
0.0
  0
LINE
  5
234
330
1E
100
AcDbEntity
  8
0
100
AcDbLine
 10
257.837
 20
934.505
 30
0.0
 11
257.837
 21
935.505
 31
0.0
  0
LINE
  5
235
330
1E
100
AcDbEntity
  8
0
100
AcDbLine
 10
257.837
 20
934.505
 30
0.0
 11
258.447605863192
 21
934.505
 31
0.0
  0
LINE
  5
236
330
1E
100
AcDbEntity
  8
0
100
AcDbLine
 10
257.837
 20
927.705
 30
0.0
 11
258.4499999999999
 21
927.705
 31
0.0
  0
LINE
  5
237
330
1E
100
AcDbEntity
  8
0
100
AcDbLine
 10
257.837
 20
927.705
 30
0.0
 11
257.837
 21
928.705
 31
0.0
  0
LINE
  5
238
330
1E
100
AcDbEntity
  8
0
100
AcDbLine
 10
257.837
 20
928.705
 30
0.0
 11
257.837
 21
927.705
 31
0.0
  0
LINE
  5
239
330
1E
100
AcDbEntity
  8
0
100
AcDbLine
 10
257.837
 20
928.705
 30
0.0
 11
258.4499999999999
 21
928.705
 31
0.0
  0
LINE
  5
23A
330
1E
100
AcDbEntity
  8
0
100
AcDbLine
 10
257.837
 20
921.9049999999999
 30
0.0
 11
257.837
 21
920.9049999999999
 31
0.0
  0
LINE
  5
23B
330
1E
100
AcDbEntity
  8
0
100
AcDbLine
 10
257.837
 20
921.9049999999999
 30
0.0
 11
258.4499999999999
 21
921.9049999999999
 31
0.0
  0
LINE
  5
23C
330
1E
100
AcDbEntity
  8
0
100
AcDbLine
 10
257.837
 20
920.9049999999999
 30
0.0
 11
257.837
 21
921.9049999999999
 31
0.0
  0
LINE
  5
23D
330
1E
100
AcDbEntity
  8
0
100
AcDbLine
 10
257.837
 20
920.9049999999999
 30
0.0
 11
258.4499999999999
 21
920.9049999999999
 31
0.0
  0
LINE
  5
23E
330
1E
100
AcDbEntity
  8
0
100
AcDbLine
 10
257.837
 20
915.1049999999999
 30
0.0
 11
257.837
 21
914.1049999999999
 31
0.0
  0
LINE
  5
23F
330
1E
100
AcDbEntity
  8
0
100
AcDbLine
 10
257.837
 20
915.1049999999999
 30
0.0
 11
258.4499999999999
 21
915.1049999999999
 31
0.0
  0
LINE
  5
240
330
1E
100
AcDbEntity
  8
0
100
AcDbLine
 10
257.546
 20
915.605
 30
0.0
 11
257.845
 21
915.605
 31
0.0
  0
LINE
  5
241
330
1E
100
AcDbEntity
  8
0
100
AcDbLine
 10
257.546
 20
915.605
 30
0.0
 11
257.837
 21
915.1049999999999
 31
0.0
  0
LINE
  5
242
330
1E
100
AcDbEntity
  8
0
100
AcDbLine
 10
257.546
 20
908.8049999999999
 30
0.0
 11
257.845
 21
908.8049999999999
 31
0.0
  0
LINE
  5
243
330
1E
100
AcDbEntity
  8
0
100
AcDbLine
 10
257.546
 20
908.8049999999999
 30
0.0
 11
257.837
 21
908.305
 31
0.0
  0
LINE
  5
244
330
1E
100
AcDbEntity
  8
0
100
AcDbLine
 10
256.9649999999999
 20
908.8049999999999
 30
0.0
 11
257.546
 21
908.8049999999999
 31
0.0
  0
LINE
  5
245
330
1E
100
AcDbEntity
  8
0
100
AcDbLine
 10
256.675
 20
908.305
 30
0.0
 11
256.9649999999999
 21
908.8049999999999
 31
0.0
  0
LINE
  5
246
330
1E
100
AcDbEntity
  8
0
100
AcDbLine
 10
256.675
 20
908.305
 30
0.0
 11
256.675
 21
907.305
 31
0.0
  0
LINE
  5
247
330
1E
100
AcDbEntity
  8
0
100
AcDbLine
 10
254.3449999999999
 20
936.0049999999999
 30
0.0
 11
254.3449999999999
 21
940.8049999999999
 31
0.0
  0
LINE
  5
248
330
1E
100
AcDbEntity
  8
0
100
AcDbLine
 10
254.4959999999999
 20
941.305
 30
0.0
 11
254.4959999999999
 21
942.3049999999999
 31
0.0
  0
LINE
  5
249
330
1E
100
AcDbEntity
  8
0
100
AcDbLine
 10
254.4959999999999
 20
941.305
 30
0.0
 11
254.6489999999999
 21
940.8049999999999
 31
0.0
  0
LINE
  5
24A
330
1E
100
AcDbEntity
  8
0
100
AcDbLine
 10
255.108
 20
941.305
 30
0.0
 11
255.895
 21
941.305
 31
0.0
  0
LINE
  5
24B
330
1E
100
AcDbEntity
  8
0
100
AcDbLine
 10
255.108
 20
941.305
 30
0.0
 11
255.108
 21
942.3049999999999
 31
0.0
  0
LINE
  5
24C
330
1E
100
AcDbEntity
  8
0
100
AcDbLine
 10
256.675
 20
941.305
 30
0.0
 11
256.9649999999999
 21
940.8049999999999
 31
0.0
  0
LINE
  5
24D
330
1E
100
AcDbEntity
  8
0
100
AcDbLine
 10
256.675
 20
941.305
 30
0.0
 11
256.675
 21
942.3049999999999
 31
0.0
  0
LINE
  5
24E
330
1E
100
AcDbEntity
  8
0
100
AcDbLine
 10
254.4959999999999
 20
942.3049999999999
 30
0.0
 11
254.6489999999999
 21
942.8049999999998
 31
0.0
  0
LINE
  5
24F
330
1E
100
AcDbEntity
  8
0
100
AcDbLine
 10
254.4959999999999
 20
942.3049999999999
 30
0.0
 11
254.4959999999999
 21
941.305
 31
0.0
  0
LINE
  5
250
330
1E
100
AcDbEntity
  8
0
100
AcDbLine
 10
254.6489999999999
 20
942.8049999999998
 30
0.0
 11
254.9549999999999
 21
942.8049999999998
 31
0.0
  0
LINE
  5
251
330
1E
100
AcDbEntity
  8
0
100
AcDbLine
 10
254.9549999999999
 20
942.8049999999998
 30
0.0
 11
255.108
 21
942.3049999999999
 31
0.0
  0
LINE
  5
252
330
1E
100
AcDbEntity
  8
0
100
AcDbLine
 10
254.9549999999999
 20
942.8049999999998
 30
0.0
 11
255.742
 21
942.8049999999998
 31
0.0
  0
LINE
  5
253
330
1E
100
AcDbEntity
  8
0
100
AcDbLine
 10
255.108
 20
942.3049999999999
 30
0.0
 11
255.108
 21
941.305
 31
0.0
  0
LINE
  5
254
330
1E
100
AcDbEntity
  8
0
100
AcDbLine
 10
255.108
 20
942.3049999999999
 30
0.0
 11
255.895
 21
942.3049999999999
 31
0.0
  0
LINE
  5
255
330
1E
100
AcDbEntity
  8
0
100
AcDbLine
 10
256.675
 20
942.3049999999999
 30
0.0
 11
256.9649999999999
 21
942.8049999999998
 31
0.0
  0
LINE
  5
256
330
1E
100
AcDbEntity
  8
0
100
AcDbLine
 10
256.675
 20
942.3049999999999
 30
0.0
 11
256.675
 21
941.305
 31
0.0
  0
LINE
  5
257
330
1E
100
AcDbEntity
  8
0
100
AcDbLine
 10
256.9649999999999
 20
942.8049999999998
 30
0.0
 11
257.546
 21
942.8049999999998
 31
0.0
  0
LINE
  5
258
330
1E
100
AcDbEntity
  8
0
100
AcDbLine
 10
257.837
 20
942.3049999999999
 30
0.0
 11
257.837
 21
941.305
 31
0.0
  0
LINE
  5
259
330
1E
100
AcDbEntity
  8
0
100
AcDbLine
 10
257.837
 20
942.3049999999999
 30
0.0
 11
258.320570032573
 21
942.3049999999999
 31
0.0
  0
LINE
  5
25A
330
1E
100
AcDbEntity
  8
0
100
AcDbLine
 10
257.546
 20
942.8049999999998
 30
0.0
 11
257.837
 21
942.3049999999999
 31
0.0
  0
LINE
  5
25B
330
1E
100
AcDbEntity
  8
0
100
AcDbLine
 10
257.546
 20
942.8049999999998
 30
0.0
 11
257.845
 21
942.8049999999998
 31
0.0
  0
LINE
  5
25C
330
1E
100
AcDbEntity
  8
0
100
AcDbLine
 10
257.837
 20
941.305
 30
0.0
 11
257.837
 21
942.3049999999999
 31
0.0
  0
LINE
  5
25D
330
1E
100
AcDbEntity
  8
0
100
AcDbLine
 10
257.837
 20
941.305
 30
0.0
 11
258.336856677524
 21
941.305
 31
0.0
  0
LINE
  5
25E
330
1E
100
AcDbEntity
  8
0
100
AcDbLine
 10
254.3449999999999
 20
942.8049999999998
 30
0.0
 11
254.3449999999999
 21
947.605
 31
0.0
  0
LINE
  5
25F
330
1E
100
AcDbEntity
  8
0
100
AcDbLine
 10
254.3449999999999
 20
940.8049999999999
 30
0.0
 11
254.3449999999999
 21
936.0049999999999
 31
0.0
  0
LINE
  5
260
330
1E
100
AcDbEntity
  8
0
100
AcDbLine
 10
254.3449999999999
 20
913.605
 30
0.0
 11
254.3449999999999
 21
908.8049999999999
 31
0.0
  0
LINE
  5
261
330
1E
100
AcDbEntity
  8
0
100
AcDbLine
 10
254.3449999999999
 20
906.8049999999999
 30
0.0
 11
254.3449999999999
 21
902.0049999999999
 31
0.0
  0
LINE
  5
262
330
1E
100
AcDbEntity
  8
0
100
AcDbLine
 10
254.3449999999999
 20
818.0049999999999
 30
0.0
 11
255.302
 21
817.0479999999999
 31
0.0
  0
LINE
  5
263
330
1E
100
AcDbEntity
  8
0
100
AcDbLine
 10
254.3449999999999
 20
818.0049999999999
 30
0.0
 11
254.3449999999999
 21
900.0049999999999
 31
0.0
  0
LINE
  5
264
330
1E
100
AcDbEntity
  8
0
100
AcDbLine
 10
254.3449999999999
 20
818.0049999999999
 30
0.0
 11
254.7449999999999
 21
818.0049999999999
 31
0.0
  0
LINE
  5
265
330
1E
100
AcDbEntity
  8
0
100
AcDbLine
 10
252.145
 20
817.0479999999999
 30
0.0
 11
252.645
 21
817.0479999999999
 31
0.0
  0
LINE
  5
266
330
1E
100
AcDbEntity
  8
0
100
AcDbLine
 10
252.145
 20
817.0479999999999
 30
0.0
 11
252.145
 21
805.5372972972971
 31
0.0
  0
LINE
  5
267
330
1E
100
AcDbEntity
  8
0
100
AcDbLine
 10
275.1449999999999
 20
817.0049999999999
 30
0.0
 11
275.845
 21
817.0049999999999
 31
0.0
  0
LINE
  5
268
330
1E
100
AcDbEntity
  8
0
100
AcDbLine
 10
275.845
 20
817.0049999999999
 30
0.0
 11
276.9449999999999
 21
817.0049999999999
 31
0.0
  0
LINE
  5
269
330
1E
100
AcDbEntity
  8
0
100
AcDbLine
 10
277.345
 20
817.0049999999999
 30
0.0
 11
278.345
 21
818.0049999999999
 31
0.0
  0
LINE
  5
26A
330
1E
100
AcDbEntity
  8
0
100
AcDbLine
 10
276.9449999999999
 20
817.0049999999999
 30
0.0
 11
277.345
 21
817.0049999999999
 31
0.0
  0
LINE
  5
26B
330
1E
100
AcDbEntity
  8
0
100
AcDbLine
 10
276.487
 20
817.0049999999999
 30
0.0
 11
277.313
 21
815.3529999999999
 31
0.0
  0
LINE
  5
26C
330
1E
100
AcDbEntity
  8
0
100
AcDbLine
 10
276.487
 20
817.0049999999999
 30
0.0
 11
276.9449999999999
 21
817.0049999999999
 31
0.0
  0
LINE
  5
26D
330
1E
100
AcDbEntity
  8
0
100
AcDbLine
 10
275.313
 20
787.353
 30
0.0
 11
277.313
 21
815.3529999999999
 31
0.0
  0
LINE
  5
26E
330
1E
100
AcDbEntity
  8
0
100
AcDbLine
 10
275.1449999999999
 20
787.353
 30
0.0
 11
275.313
 21
787.353
 31
0.0
  0
LINE
  5
26F
330
1E
100
AcDbEntity
  8
0
100
AcDbLine
 10
275.1449999999999
 20
817.0479999999999
 30
0.0
 11
275.1449999999999
 21
772.048
 31
0.0
  0
LINE
  5
270
330
1E
100
AcDbEntity
  8
0
100
AcDbLine
 10
272.345
 20
817.0479999999999
 30
0.0
 11
275.1449999999999
 21
817.0479999999999
 31
0.0
  0
LINE
  5
271
330
1E
100
AcDbEntity
  8
0
100
AcDbLine
 10
274.845
 20
818.0049999999999
 30
0.0
 11
276.745
 21
818.0049999999999
 31
0.0
  0
LINE
  5
272
330
1E
100
AcDbEntity
  8
0
100
AcDbLine
 10
272.345
 20
818.0049999999999
 30
0.0
 11
274.845
 21
818.0049999999999
 31
0.0
  0
LINE
  5
273
330
1E
100
AcDbEntity
  8
0
100
AcDbLine
 10
269.4449999999999
 20
818.0049999999999
 30
0.0
 11
272.345
 21
818.0049999999999
 31
0.0
  0
LINE
  5
274
330
1E
100
AcDbEntity
  8
0
100
AcDbLine
 10
266.345
 20
818.0049999999999
 30
0.0
 11
269.4449999999999
 21
818.0049999999999
 31
0.0
  0
LINE
  5
275
330
1E
100
AcDbEntity
  8
0
100
AcDbLine
 10
278.345
 20
818.0049999999999
 30
0.0
 11
278.345
 21
971.5049999999999
 31
0.0
  0
LINE
  5
276
330
1E
100
AcDbEntity
  8
0
100
AcDbLine
 10
276.745
 20
818.0049999999999
 30
0.0
 11
277.945
 21
818.0049999999999
 31
0.0
  0
LINE
  5
277
330
1E
100
AcDbEntity
  8
0
100
AcDbLine
 10
277.945
 20
818.0049999999999
 30
0.0
 11
278.345
 21
818.0049999999999
 31
0.0
  0
LINE
  5
278
330
1E
100
AcDbEntity
  8
0
100
AcDbLine
 10
269.1449999999999
 20
817.0479999999999
 30
0.0
 11
272.345
 21
817.0479999999999
 31
0.0
  0
LINE
  5
279
330
1E
100
AcDbEntity
  8
0
100
AcDbLine
 10
265.6449999999999
 20
817.0479999999999
 30
0.0
 11
269.1449999999999
 21
817.0479999999999
 31
0.0
  0
LINE
  5
27A
330
1E
100
AcDbEntity
  8
0
100
AcDbLine
 10
265.6449999999999
 20
772.048
 30
0.0
 11
269.1449999999999
 21
772.048
 31
0.0
  0
LINE
  5
27B
330
1E
100
AcDbEntity
  8
0
100
AcDbLine
 10
265.6449999999999
 20
772.048
 30
0.0
 11
268.6449999999999
 21
772.048
 31
0.0
  0
LINE
  5
27C
330
1E
100
AcDbEntity
  8
0
100
AcDbLine
 10
192.994
 20
947.005
 30
0.0
 11
192.994
 21
725.0049999999999
 31
0.0
  0
LINE
  5
27D
330
1E
100
AcDbEntity
  8
0
100
AcDbLine
 10
254.6489999999999
 20
947.605
 30
0.0
 11
254.9549999999999
 21
947.605
 31
0.0
  0
LINE
  5
27E
330
1E
100
AcDbEntity
  8
0
100
AcDbLine
 10
254.6489999999999
 20
947.605
 30
0.0
 11
255.437
 21
947.605
 31
0.0
  0
LINE
  5
27F
330
1E
100
AcDbEntity
  8
0
100
AcDbLine
 10
254.9549999999999
 20
947.605
 30
0.0
 11
255.108
 21
948.1049999999999
 31
0.0
  0
LINE
  5
280
330
1E
100
AcDbEntity
  8
0
100
AcDbLine
 10
254.9549999999999
 20
947.605
 30
0.0
 11
255.742
 21
947.605
 31
0.0
  0
LINE
  5
281
330
1E
100
AcDbEntity
  8
0
100
AcDbLine
 10
256.9649999999999
 20
947.605
 30
0.0
 11
257.546
 21
947.605
 31
0.0
  0
LINE
  5
282
330
1E
100
AcDbEntity
  8
0
100
AcDbLine
 10
256.9649999999999
 20
947.605
 30
0.0
 11
257.5779999999999
 21
947.605
 31
0.0
  0
LINE
  5
283
330
1E
100
AcDbEntity
  8
0
100
AcDbLine
 10
257.546
 20
947.605
 30
0.0
 11
257.845
 21
947.605
 31
0.0
  0
LINE
  5
284
330
1E
100
AcDbEntity
  8
0
100
AcDbLine
 10
257.546
 20
947.605
 30
0.0
 11
257.837
 21
948.1049999999999
 31
0.0
  0
LINE
  5
285
330
1E
100
AcDbEntity
  8
0
100
AcDbLine
 10
253.845
 20
947.605
 30
0.0
 11
253.845
 21
948.1049999999999
 31
0.0
  0
LINE
  5
286
330
1E
100
AcDbEntity
  8
0
100
AcDbLine
 10
253.845
 20
947.605
 30
0.0
 11
254.407280130293
 21
947.605
 31
0.0
  0
LINE
  5
287
330
1E
100
AcDbEntity
  8
0
100
AcDbLine
 10
253.845
 20
947.605
 30
0.0
 11
254.3449999999999
 21
947.605
 31
0.0
  0
LINE
  5
288
330
1E
100
AcDbEntity
  8
0
100
AcDbLine
 10
253.845
 20
948.1049999999999
 30
0.0
 11
254.405977198697
 21
948.1049999999999
 31
0.0
  0
LINE
  5
289
330
1E
100
AcDbEntity
  8
0
100
AcDbLine
 10
253.845
 20
948.1049999999999
 30
0.0
 11
253.845
 21
947.605
 31
0.0
  0
LINE
  5
28A
330
1E
100
AcDbEntity
  8
0
100
AcDbLine
 10
253.845
 20
948.1049999999999
 30
0.0
 11
253.845
 21
949.1049999999999
 31
0.0
  0
LINE
  5
28B
330
1E
100
AcDbEntity
  8
0
100
AcDbLine
 10
253.845
 20
956.4049999999999
 30
0.0
 11
253.845
 21
955.9049999999999
 31
0.0
  0
LINE
  5
28C
330
1E
100
AcDbEntity
  8
0
100
AcDbLine
 10
253.845
 20
956.4049999999999
 30
0.0
 11
254.3843485342019
 21
956.4049999999999
 31
0.0
  0
LINE
  5
28D
330
1E
100
AcDbEntity
  8
0
100
AcDbLine
 10
253.845
 20
955.9049999999999
 30
0.0
 11
253.845
 21
956.4049999999999
 31
0.0
  0
LINE
  5
28E
330
1E
100
AcDbEntity
  8
0
100
AcDbLine
 10
253.845
 20
955.9049999999999
 30
0.0
 11
253.845
 21
954.9049999999999
 31
0.0
  0
LINE
  5
28F
330
1E
100
AcDbEntity
  8
0
100
AcDbLine
 10
253.845
 20
955.9049999999999
 30
0.0
 11
254.385651465798
 21
955.9049999999999
 31
0.0
  0
LINE
  5
290
330
1E
100
AcDbEntity
  8
0
100
AcDbLine
 10
253.845
 20
954.405
 30
0.0
 11
253.845
 21
954.9049999999999
 31
0.0
  0
LINE
  5
291
330
1E
100
AcDbEntity
  8
0
100
AcDbLine
 10
253.845
 20
954.405
 30
0.0
 11
254.3449999999999
 21
954.405
 31
0.0
  0
LINE
  5
292
330
1E
100
AcDbEntity
  8
0
100
AcDbLine
 10
253.845
 20
954.405
 30
0.0
 11
254.389560260586
 21
954.405
 31
0.0
  0
LINE
  5
293
330
1E
100
AcDbEntity
  8
0
100
AcDbLine
 10
253.845
 20
954.9049999999999
 30
0.0
 11
253.845
 21
954.405
 31
0.0
  0
LINE
  5
294
330
1E
100
AcDbEntity
  8
0
100
AcDbLine
 10
253.845
 20
954.9049999999999
 30
0.0
 11
254.3882573289899
 21
954.9049999999999
 31
0.0
  0
LINE
  5
295
330
1E
100
AcDbEntity
  8
0
100
AcDbLine
 10
253.845
 20
954.9049999999999
 30
0.0
 11
253.845
 21
955.9049999999999
 31
0.0
  0
LINE
  5
296
330
1E
100
AcDbEntity
  8
0
100
AcDbLine
 10
253.845
 20
949.1049999999999
 30
0.0
 11
253.845
 21
949.605
 31
0.0
  0
LINE
  5
297
330
1E
100
AcDbEntity
  8
0
100
AcDbLine
 10
253.845
 20
949.1049999999999
 30
0.0
 11
254.4033713355049
 21
949.1049999999999
 31
0.0
  0
LINE
  5
298
330
1E
100
AcDbEntity
  8
0
100
AcDbLine
 10
253.845
 20
949.1049999999999
 30
0.0
 11
253.845
 21
948.1049999999999
 31
0.0
  0
LINE
  5
299
330
1E
100
AcDbEntity
  8
0
100
AcDbLine
 10
253.845
 20
949.605
 30
0.0
 11
253.845
 21
949.1049999999999
 31
0.0
  0
LINE
  5
29A
330
1E
100
AcDbEntity
  8
0
100
AcDbLine
 10
253.845
 20
949.605
 30
0.0
 11
254.4020684039089
 21
949.605
 31
0.0
  0
LINE
  5
29B
330
1E
100
AcDbEntity
  8
0
100
AcDbLine
 10
253.845
 20
961.2049999999999
 30
0.0
 11
253.845
 21
961.705
 31
0.0
  0
LINE
  5
29C
330
1E
100
AcDbEntity
  8
0
100
AcDbLine
 10
253.845
 20
961.2049999999999
 30
0.0
 11
254.3718403908799
 21
961.2049999999999
 31
0.0
  0
LINE
  5
29D
330
1E
100
AcDbEntity
  8
0
100
AcDbLine
 10
253.845
 20
961.2049999999999
 30
0.0
 11
254.3449999999999
 21
961.2049999999999
 31
0.0
  0
LINE
  5
29E
330
1E
100
AcDbEntity
  8
0
100
AcDbLine
 10
254.3449999999999
 20
956.4049999999999
 30
0.0
 11
254.3449999999999
 21
961.2049999999999
 31
0.0
  0
LINE
  5
29F
330
1E
100
AcDbEntity
  8
0
100
AcDbLine
 10
254.3449999999999
 20
949.605
 30
0.0
 11
254.3449999999999
 21
954.405
 31
0.0
  0
LINE
  5
2A0
330
1E
100
AcDbEntity
  8
0
100
AcDbLine
 10
253.845
 20
963.2050000000001
 30
0.0
 11
253.845
 21
962.705
 31
0.0
  0
LINE
  5
2A1
330
1E
100
AcDbEntity
  8
0
100
AcDbLine
 10
253.845
 20
963.2050000000001
 30
0.0
 11
254.3666286644949
 21
963.2050000000001
 31
0.0
  0
LINE
  5
2A2
330
1E
100
AcDbEntity
  8
0
100
AcDbLine
 10
253.845
 20
962.705
 30
0.0
 11
253.845
 21
961.705
 31
0.0
  0
LINE
  5
2A3
330
1E
100
AcDbEntity
  8
0
100
AcDbLine
 10
253.845
 20
962.705
 30
0.0
 11
254.367931596091
 21
962.705
 31
0.0
  0
LINE
  5
2A4
330
1E
100
AcDbEntity
  8
0
100
AcDbLine
 10
253.845
 20
962.705
 30
0.0
 11
253.845
 21
963.2050000000001
 31
0.0
  0
LINE
  5
2A5
330
1E
100
AcDbEntity
  8
0
100
AcDbLine
 10
253.845
 20
961.705
 30
0.0
 11
253.845
 21
961.2049999999999
 31
0.0
  0
LINE
  5
2A6
330
1E
100
AcDbEntity
  8
0
100
AcDbLine
 10
253.845
 20
961.705
 30
0.0
 11
253.845
 21
962.705
 31
0.0
  0
LINE
  5
2A7
330
1E
100
AcDbEntity
  8
0
100
AcDbLine
 10
253.845
 20
961.705
 30
0.0
 11
254.3705374592829
 21
961.705
 31
0.0
  0
LINE
  5
2A8
330
1E
100
AcDbEntity
  8
0
100
AcDbLine
 10
254.3449999999999
 20
963.2050000000001
 30
0.0
 11
254.3449999999999
 21
968.0049999999999
 31
0.0
  0
LINE
  5
2A9
330
1E
100
AcDbEntity
  8
0
100
AcDbLine
 10
254.3449999999999
 20
961.2049999999999
 30
0.0
 11
254.3449999999999
 21
956.4049999999999
 31
0.0
  0
LINE
  5
2AA
330
1E
100
AcDbEntity
  8
0
100
AcDbLine
 10
254.4959999999999
 20
948.1049999999999
 30
0.0
 11
254.6489999999999
 21
947.605
 31
0.0
  0
LINE
  5
2AB
330
1E
100
AcDbEntity
  8
0
100
AcDbLine
 10
254.4959999999999
 20
948.1049999999999
 30
0.0
 11
254.4959999999999
 21
949.1049999999999
 31
0.0
  0
LINE
  5
2AC
330
1E
100
AcDbEntity
  8
0
100
AcDbLine
 10
254.4959999999999
 20
949.1049999999999
 30
0.0
 11
254.6489999999999
 21
949.605
 31
0.0
  0
LINE
  5
2AD
330
1E
100
AcDbEntity
  8
0
100
AcDbLine
 10
254.4959999999999
 20
949.1049999999999
 30
0.0
 11
254.4959999999999
 21
948.1049999999999
 31
0.0
  0
LINE
  5
2AE
330
1E
100
AcDbEntity
  8
0
100
AcDbLine
 10
255.108
 20
948.1049999999999
 30
0.0
 11
255.895
 21
948.1049999999999
 31
0.0
  0
LINE
  5
2AF
330
1E
100
AcDbEntity
  8
0
100
AcDbLine
 10
255.108
 20
948.1049999999999
 30
0.0
 11
255.108
 21
949.1049999999999
 31
0.0
  0
LINE
  5
2B0
330
1E
100
AcDbEntity
  8
0
100
AcDbLine
 10
255.108
 20
949.1049999999999
 30
0.0
 11
255.895
 21
949.1049999999999
 31
0.0
  0
LINE
  5
2B1
330
1E
100
AcDbEntity
  8
0
100
AcDbLine
 10
255.108
 20
949.1049999999999
 30
0.0
 11
255.108
 21
948.1049999999999
 31
0.0
  0
LINE
  5
2B2
330
1E
100
AcDbEntity
  8
0
100
AcDbLine
 10
257.837
 20
948.1049999999999
 30
0.0
 11
258.226107491857
 21
948.1049999999999
 31
0.0
  0
LINE
  5
2B3
330
1E
100
AcDbEntity
  8
0
100
AcDbLine
 10
257.837
 20
948.1049999999999
 30
0.0
 11
257.837
 21
949.1049999999999
 31
0.0
  0
LINE
  5
2B4
330
1E
100
AcDbEntity
  8
0
100
AcDbLine
 10
257.837
 20
949.1049999999999
 30
0.0
 11
257.837
 21
948.1049999999999
 31
0.0
  0
LINE
  5
2B5
330
1E
100
AcDbEntity
  8
0
100
AcDbLine
 10
257.837
 20
949.1049999999999
 30
0.0
 11
258.209820846906
 21
949.1049999999999
 31
0.0
  0
LINE
  5
2B6
330
1E
100
AcDbEntity
  8
0
100
AcDbLine
 10
256.675
 20
948.1049999999999
 30
0.0
 11
256.9649999999999
 21
947.605
 31
0.0
  0
LINE
  5
2B7
330
1E
100
AcDbEntity
  8
0
100
AcDbLine
 10
256.675
 20
948.1049999999999
 30
0.0
 11
256.675
 21
949.1049999999999
 31
0.0
  0
LINE
  5
2B8
330
1E
100
AcDbEntity
  8
0
100
AcDbLine
 10
254.9549999999999
 20
949.605
 30
0.0
 11
255.742
 21
949.605
 31
0.0
  0
LINE
  5
2B9
330
1E
100
AcDbEntity
  8
0
100
AcDbLine
 10
254.9549999999999
 20
949.605
 30
0.0
 11
255.108
 21
949.1049999999999
 31
0.0
  0
LINE
  5
2BA
330
1E
100
AcDbEntity
  8
0
100
AcDbLine
 10
255.108
 20
954.9049999999999
 30
0.0
 11
255.895
 21
954.9049999999999
 31
0.0
  0
LINE
  5
2BB
330
1E
100
AcDbEntity
  8
0
100
AcDbLine
 10
255.108
 20
954.9049999999999
 30
0.0
 11
255.108
 21
955.9049999999999
 31
0.0
  0
LINE
  5
2BC
330
1E
100
AcDbEntity
  8
0
100
AcDbLine
 10
254.9549999999999
 20
954.405
 30
0.0
 11
255.108
 21
954.9049999999999
 31
0.0
  0
LINE
  5
2BD
330
1E
100
AcDbEntity
  8
0
100
AcDbLine
 10
254.9549999999999
 20
954.405
 30
0.0
 11
255.742
 21
954.405
 31
0.0
  0
LINE
  5
2BE
330
1E
100
AcDbEntity
  8
0
100
AcDbLine
 10
254.6489999999999
 20
954.405
 30
0.0
 11
255.437
 21
954.405
 31
0.0
  0
LINE
  5
2BF
330
1E
100
AcDbEntity
  8
0
100
AcDbLine
 10
254.6489999999999
 20
954.405
 30
0.0
 11
254.9549999999999
 21
954.405
 31
0.0
  0
LINE
  5
2C0
330
1E
100
AcDbEntity
  8
0
100
AcDbLine
 10
254.4959999999999
 20
955.9049999999999
 30
0.0
 11
254.6489999999999
 21
956.4049999999999
 31
0.0
  0
LINE
  5
2C1
330
1E
100
AcDbEntity
  8
0
100
AcDbLine
 10
254.4959999999999
 20
955.9049999999999
 30
0.0
 11
254.4959999999999
 21
954.9049999999999
 31
0.0
  0
LINE
  5
2C2
330
1E
100
AcDbEntity
  8
0
100
AcDbLine
 10
254.4959999999999
 20
962.705
 30
0.0
 11
254.4959999999999
 21
961.705
 31
0.0
  0
LINE
  5
2C3
330
1E
100
AcDbEntity
  8
0
100
AcDbLine
 10
254.4959999999999
 20
962.705
 30
0.0
 11
254.6489999999999
 21
963.2050000000001
 31
0.0
  0
LINE
  5
2C4
330
1E
100
AcDbEntity
  8
0
100
AcDbLine
 10
254.6489999999999
 20
956.4049999999999
 30
0.0
 11
254.9549999999999
 21
956.4049999999999
 31
0.0
  0
LINE
  5
2C5
330
1E
100
AcDbEntity
  8
0
100
AcDbLine
 10
255.108
 20
955.9049999999999
 30
0.0
 11
255.895
 21
955.9049999999999
 31
0.0
  0
LINE
  5
2C6
330
1E
100
AcDbEntity
  8
0
100
AcDbLine
 10
255.108
 20
955.9049999999999
 30
0.0
 11
255.108
 21
954.9049999999999
 31
0.0
  0
LINE
  5
2C7
330
1E
100
AcDbEntity
  8
0
100
AcDbLine
 10
254.9549999999999
 20
956.4049999999999
 30
0.0
 11
255.108
 21
955.9049999999999
 31
0.0
  0
LINE
  5
2C8
330
1E
100
AcDbEntity
  8
0
100
AcDbLine
 10
254.9549999999999
 20
956.4049999999999
 30
0.0
 11
255.742
 21
956.4049999999999
 31
0.0
  0
LINE
  5
2C9
330
1E
100
AcDbEntity
  8
0
100
AcDbLine
 10
254.6489999999999
 20
961.2049999999999
 30
0.0
 11
254.9549999999999
 21
961.2049999999999
 31
0.0
  0
LINE
  5
2CA
330
1E
100
AcDbEntity
  8
0
100
AcDbLine
 10
254.6489999999999
 20
961.2049999999999
 30
0.0
 11
255.437
 21
961.2049999999999
 31
0.0
  0
LINE
  5
2CB
330
1E
100
AcDbEntity
  8
0
100
AcDbLine
 10
254.9549999999999
 20
961.2049999999999
 30
0.0
 11
255.108
 21
961.705
 31
0.0
  0
LINE
  5
2CC
330
1E
100
AcDbEntity
  8
0
100
AcDbLine
 10
254.9549999999999
 20
961.2049999999999
 30
0.0
 11
255.742
 21
961.2049999999999
 31
0.0
  0
LINE
  5
2CD
330
1E
100
AcDbEntity
  8
0
100
AcDbLine
 10
254.4959999999999
 20
961.705
 30
0.0
 11
254.6489999999999
 21
961.2049999999999
 31
0.0
  0
LINE
  5
2CE
330
1E
100
AcDbEntity
  8
0
100
AcDbLine
 10
254.4959999999999
 20
961.705
 30
0.0
 11
254.4959999999999
 21
962.705
 31
0.0
  0
LINE
  5
2CF
330
1E
100
AcDbEntity
  8
0
100
AcDbLine
 10
255.108
 20
962.705
 30
0.0
 11
255.895
 21
962.705
 31
0.0
  0
LINE
  5
2D0
330
1E
100
AcDbEntity
  8
0
100
AcDbLine
 10
255.108
 20
962.705
 30
0.0
 11
255.108
 21
961.705
 31
0.0
  0
LINE
  5
2D1
330
1E
100
AcDbEntity
  8
0
100
AcDbLine
 10
256.675
 20
955.9049999999999
 30
0.0
 11
256.9649999999999
 21
956.4049999999999
 31
0.0
  0
LINE
  5
2D2
330
1E
100
AcDbEntity
  8
0
100
AcDbLine
 10
256.675
 20
955.9049999999999
 30
0.0
 11
256.675
 21
954.9049999999999
 31
0.0
  0
LINE
  5
2D3
330
1E
100
AcDbEntity
  8
0
100
AcDbLine
 10
255.108
 20
961.705
 30
0.0
 11
255.108
 21
962.705
 31
0.0
  0
LINE
  5
2D4
330
1E
100
AcDbEntity
  8
0
100
AcDbLine
 10
255.108
 20
961.705
 30
0.0
 11
255.895
 21
961.705
 31
0.0
  0
LINE
  5
2D5
330
1E
100
AcDbEntity
  8
0
100
AcDbLine
 10
254.9549999999999
 20
963.2050000000001
 30
0.0
 11
255.742
 21
963.2050000000001
 31
0.0
  0
LINE
  5
2D6
330
1E
100
AcDbEntity
  8
0
100
AcDbLine
 10
254.9549999999999
 20
963.2050000000001
 30
0.0
 11
255.108
 21
962.705
 31
0.0
  0
LINE
  5
2D7
330
1E
100
AcDbEntity
  8
0
100
AcDbLine
 10
254.6489999999999
 20
963.2050000000001
 30
0.0
 11
254.9549999999999
 21
963.2050000000001
 31
0.0
  0
LINE
  5
2D8
330
1E
100
AcDbEntity
  8
0
100
AcDbLine
 10
256.675
 20
962.705
 30
0.0
 11
256.675
 21
961.705
 31
0.0
  0
LINE
  5
2D9
330
1E
100
AcDbEntity
  8
0
100
AcDbLine
 10
256.675
 20
962.705
 30
0.0
 11
256.9649999999999
 21
963.2050000000001
 31
0.0
  0
LINE
  5
2DA
330
1E
100
AcDbEntity
  8
0
100
AcDbLine
 10
256.675
 20
961.705
 30
0.0
 11
256.9649999999999
 21
961.2049999999999
 31
0.0
  0
LINE
  5
2DB
330
1E
100
AcDbEntity
  8
0
100
AcDbLine
 10
256.675
 20
961.705
 30
0.0
 11
256.675
 21
962.705
 31
0.0
  0
LINE
  5
2DC
330
1E
100
AcDbEntity
  8
0
100
AcDbLine
 10
254.4959999999999
 20
954.9049999999999
 30
0.0
 11
254.6489999999999
 21
954.405
 31
0.0
  0
LINE
  5
2DD
330
1E
100
AcDbEntity
  8
0
100
AcDbLine
 10
254.4959999999999
 20
954.9049999999999
 30
0.0
 11
254.4959999999999
 21
955.9049999999999
 31
0.0
  0
LINE
  5
2DE
330
1E
100
AcDbEntity
  8
0
100
AcDbLine
 10
256.9649999999999
 20
963.2050000000001
 30
0.0
 11
257.546
 21
963.2050000000001
 31
0.0
  0
LINE
  5
2DF
330
1E
100
AcDbEntity
  8
0
100
AcDbLine
 10
256.9649999999999
 20
956.4049999999999
 30
0.0
 11
257.546
 21
956.4049999999999
 31
0.0
  0
LINE
  5
2E0
330
1E
100
AcDbEntity
  8
0
100
AcDbLine
 10
256.9649999999999
 20
961.2049999999999
 30
0.0
 11
257.546
 21
961.2049999999999
 31
0.0
  0
LINE
  5
2E1
330
1E
100
AcDbEntity
  8
0
100
AcDbLine
 10
256.9649999999999
 20
961.2049999999999
 30
0.0
 11
257.5779999999999
 21
961.2049999999999
 31
0.0
  0
LINE
  5
2E2
330
1E
100
AcDbEntity
  8
0
100
AcDbLine
 10
256.9649999999999
 20
954.405
 30
0.0
 11
257.546
 21
954.405
 31
0.0
  0
LINE
  5
2E3
330
1E
100
AcDbEntity
  8
0
100
AcDbLine
 10
256.9649999999999
 20
954.405
 30
0.0
 11
257.5779999999999
 21
954.405
 31
0.0
  0
LINE
  5
2E4
330
1E
100
AcDbEntity
  8
0
100
AcDbLine
 10
256.675
 20
954.9049999999999
 30
0.0
 11
256.9649999999999
 21
954.405
 31
0.0
  0
LINE
  5
2E5
330
1E
100
AcDbEntity
  8
0
100
AcDbLine
 10
256.675
 20
954.9049999999999
 30
0.0
 11
256.675
 21
955.9049999999999
 31
0.0
  0
LINE
  5
2E6
330
1E
100
AcDbEntity
  8
0
100
AcDbLine
 10
254.6489999999999
 20
949.605
 30
0.0
 11
254.9549999999999
 21
949.605
 31
0.0
  0
LINE
  5
2E7
330
1E
100
AcDbEntity
  8
0
100
AcDbLine
 10
257.546
 20
956.4049999999999
 30
0.0
 11
257.837
 21
955.9049999999999
 31
0.0
  0
LINE
  5
2E8
330
1E
100
AcDbEntity
  8
0
100
AcDbLine
 10
257.546
 20
956.4049999999999
 30
0.0
 11
257.845
 21
956.4049999999999
 31
0.0
  0
LINE
  5
2E9
330
1E
100
AcDbEntity
  8
0
100
AcDbLine
 10
257.837
 20
955.9049999999999
 30
0.0
 11
257.837
 21
954.9049999999999
 31
0.0
  0
LINE
  5
2EA
330
1E
100
AcDbEntity
  8
0
100
AcDbLine
 10
257.837
 20
955.9049999999999
 30
0.0
 11
258.0990716612379
 21
955.9049999999999
 31
0.0
  0
LINE
  5
2EB
330
1E
100
AcDbEntity
  8
0
100
AcDbLine
 10
257.546
 20
961.2049999999999
 30
0.0
 11
257.837
 21
961.705
 31
0.0
  0
LINE
  5
2EC
330
1E
100
AcDbEntity
  8
0
100
AcDbLine
 10
257.546
 20
961.2049999999999
 30
0.0
 11
257.845
 21
961.2049999999999
 31
0.0
  0
LINE
  5
2ED
330
1E
100
AcDbEntity
  8
0
100
AcDbLine
 10
257.546
 20
963.2050000000001
 30
0.0
 11
257.980179153094
 21
963.2050000000001
 31
0.0
  0
LINE
  5
2EE
330
1E
100
AcDbEntity
  8
0
100
AcDbLine
 10
257.546
 20
963.2050000000001
 30
0.0
 11
257.837
 21
962.705
 31
0.0
  0
LINE
  5
2EF
330
1E
100
AcDbEntity
  8
0
100
AcDbLine
 10
257.837
 20
962.705
 30
0.0
 11
258.4499999999999
 21
962.705
 31
0.0
  0
LINE
  5
2F0
330
1E
100
AcDbEntity
  8
0
100
AcDbLine
 10
257.837
 20
962.705
 30
0.0
 11
257.837
 21
961.705
 31
0.0
  0
LINE
  5
2F1
330
1E
100
AcDbEntity
  8
0
100
AcDbLine
 10
257.837
 20
961.705
 30
0.0
 11
257.837
 21
962.705
 31
0.0
  0
LINE
  5
2F2
330
1E
100
AcDbEntity
  8
0
100
AcDbLine
 10
257.837
 20
961.705
 30
0.0
 11
258.4499999999999
 21
961.705
 31
0.0
  0
LINE
  5
2F3
330
1E
100
AcDbEntity
  8
0
100
AcDbLine
 10
257.546
 20
954.405
 30
0.0
 11
257.837
 21
954.9049999999999
 31
0.0
  0
LINE
  5
2F4
330
1E
100
AcDbEntity
  8
0
100
AcDbLine
 10
257.546
 20
954.405
 30
0.0
 11
257.845
 21
954.405
 31
0.0
  0
LINE
  5
2F5
330
1E
100
AcDbEntity
  8
0
100
AcDbLine
 10
257.837
 20
954.9049999999999
 30
0.0
 11
258.115358306189
 21
954.9049999999999
 31
0.0
  0
LINE
  5
2F6
330
1E
100
AcDbEntity
  8
0
100
AcDbLine
 10
257.837
 20
954.9049999999999
 30
0.0
 11
257.837
 21
955.9049999999999
 31
0.0
  0
LINE
  5
2F7
330
1E
100
AcDbEntity
  8
0
100
AcDbLine
 10
257.546
 20
949.605
 30
0.0
 11
257.845
 21
949.605
 31
0.0
  0
LINE
  5
2F8
330
1E
100
AcDbEntity
  8
0
100
AcDbLine
 10
257.546
 20
949.605
 30
0.0
 11
257.837
 21
949.1049999999999
 31
0.0
  0
LINE
  5
2F9
330
1E
100
AcDbEntity
  8
0
100
AcDbLine
 10
256.9649999999999
 20
949.605
 30
0.0
 11
257.546
 21
949.605
 31
0.0
  0
LINE
  5
2FA
330
1E
100
AcDbEntity
  8
0
100
AcDbLine
 10
256.675
 20
949.1049999999999
 30
0.0
 11
256.9649999999999
 21
949.605
 31
0.0
  0
LINE
  5
2FB
330
1E
100
AcDbEntity
  8
0
100
AcDbLine
 10
256.675
 20
949.1049999999999
 30
0.0
 11
256.675
 21
948.1049999999999
 31
0.0
  0
LINE
  5
2FC
330
1E
100
AcDbEntity
  8
0
100
AcDbLine
 10
254.3449999999999
 20
954.405
 30
0.0
 11
254.3449999999999
 21
949.605
 31
0.0
  0
LINE
  5
2FD
330
1E
100
AcDbEntity
  8
0
100
AcDbLine
 10
254.3449999999999
 20
947.605
 30
0.0
 11
254.3449999999999
 21
942.8049999999998
 31
0.0
  0
LINE
  5
2FE
330
1E
100
AcDbEntity
  8
0
100
AcDbLine
 10
192.5929999999999
 20
953.6050000000001
 30
0.0
 11
193.4959999999999
 21
947.005
 31
0.0
  0
LINE
  5
2FF
330
1E
100
AcDbEntity
  8
0
100
AcDbLine
 10
193.4959999999999
 20
947.005
 30
0.0
 11
193.4959999999999
 21
725.0049999999999
 31
0.0
  0
LINE
  5
300
330
1E
100
AcDbEntity
  8
0
100
AcDbLine
 10
192.0909999999999
 20
953.505
 30
0.0
 11
192.994
 21
947.005
 31
0.0
  0
LINE
  5
301
330
1E
100
AcDbEntity
  8
0
100
AcDbLine
 10
192.994
 20
725.0049999999999
 30
0.0
 11
192.994
 21
947.005
 31
0.0
  0
LINE
  5
302
330
1E
100
AcDbEntity
  8
0
100
AcDbLine
 10
192.994
 20
725.0049999999999
 30
0.0
 11
193.4959999999999
 21
725.0049999999999
 31
0.0
  0
LINE
  5
303
330
1E
100
AcDbEntity
  8
0
100
AcDbLine
 10
192.994
 20
725.0049999999999
 30
0.0
 11
194.145
 21
724.5049999999999
 31
0.0
  0
LINE
  5
304
330
1E
100
AcDbEntity
  8
0
100
AcDbLine
 10
25.6336
 20
967.3949999999999
 30
0.0
 11
26.036975
 21
972.005
 31
0.0
  0
LINE
  5
305
330
1E
100
AcDbEntity
  8
0
100
AcDbLine
 10
25.23179999999999
 20
967.43
 30
0.0
 11
25.6336
 21
967.3949999999999
 31
0.0
  0
LINE
  5
306
330
1E
100
AcDbEntity
  8
0
100
AcDbLine
 10
24.1726
 20
967.523
 30
0.0
 11
25.23179999999999
 21
967.43
 31
0.0
  0
LINE
  5
307
330
1E
100
AcDbEntity
  8
0
100
AcDbLine
 10
253.845
 20
968.0049999999999
 30
0.0
 11
253.845
 21
968.505
 31
0.0
  0
LINE
  5
308
330
1E
100
AcDbEntity
  8
0
100
AcDbLine
 10
253.845
 20
968.0049999999999
 30
0.0
 11
254.3449999999999
 21
968.0049999999999
 31
0.0
  0
LINE
  5
309
330
1E
100
AcDbEntity
  8
0
100
AcDbLine
 10
253.845
 20
968.0049999999999
 30
0.0
 11
254.3541205211729
 21
968.0049999999999
 31
0.0
  0
LINE
  5
30A
330
1E
100
AcDbEntity
  8
0
100
AcDbLine
 10
254.9549999999999
 20
968.0049999999999
 30
0.0
 11
255.108
 21
968.505
 31
0.0
  0
LINE
  5
30B
330
1E
100
AcDbEntity
  8
0
100
AcDbLine
 10
254.9549999999999
 20
968.0049999999999
 30
0.0
 11
255.742
 21
968.0049999999999
 31
0.0
  0
LINE
  5
30C
330
1E
100
AcDbEntity
  8
0
100
AcDbLine
 10
254.6489999999999
 20
968.0049999999999
 30
0.0
 11
254.9549999999999
 21
968.0049999999999
 31
0.0
  0
LINE
  5
30D
330
1E
100
AcDbEntity
  8
0
100
AcDbLine
 10
254.6489999999999
 20
968.0049999999999
 30
0.0
 11
255.437
 21
968.0049999999999
 31
0.0
  0
LINE
  5
30E
330
1E
100
AcDbEntity
  8
0
100
AcDbLine
 10
257.546
 20
968.0049999999999
 30
0.0
 11
257.837
 21
968.505
 31
0.0
  0
LINE
  5
30F
330
1E
100
AcDbEntity
  8
0
100
AcDbLine
 10
257.546
 20
968.0049999999999
 30
0.0
 11
257.902003257329
 21
968.0049999999999
 31
0.0
  0
LINE
  5
310
330
1E
100
AcDbEntity
  8
0
100
AcDbLine
 10
256.9649999999999
 20
968.0049999999999
 30
0.0
 11
257.546
 21
968.0049999999999
 31
0.0
  0
LINE
  5
311
330
1E
100
AcDbEntity
  8
0
100
AcDbLine
 10
256.9649999999999
 20
968.0049999999999
 30
0.0
 11
257.5779999999999
 21
968.0049999999999
 31
0.0
  0
LINE
  5
312
330
1E
100
AcDbEntity
  8
0
100
AcDbLine
 10
254.3449999999999
 20
968.0049999999999
 30
0.0
 11
254.3449999999999
 21
963.2050000000001
 31
0.0
  0
LINE
  5
313
330
1E
100
AcDbEntity
  8
0
100
AcDbLine
 10
22.41929999999999
 20
967.6759999999999
 30
0.0
 11
24.1726
 21
967.523
 31
0.0
  0
LINE
  5
314
330
1E
100
AcDbEntity
  8
0
100
AcDbLine
 10
20.118
 20
967.877
 30
0.0
 11
22.41929999999999
 21
967.6759999999999
 31
0.0
  0
LINE
  5
315
330
1E
100
AcDbEntity
  8
0
100
AcDbLine
 10
109.145
 20
970.353
 30
0.0
 11
111.145
 21
942.3530000000001
 31
0.0
  0
LINE
  5
316
330
1E
100
AcDbEntity
  8
0
100
AcDbLine
 10
109.145
 20
970.353
 30
0.0
 11
109.9709999999999
 21
972.005
 31
0.0
  0
LINE
  5
317
330
1E
100
AcDbEntity
  8
0
100
AcDbLine
 10
130.3189999999999
 20
972.005
 30
0.0
 11
167.905
 21
972.005
 31
0.0
  0
LINE
  5
318
330
1E
100
AcDbEntity
  8
0
100
AcDbLine
 10
26.036975
 20
972.005
 30
0.0
 11
109.9709999999999
 21
972.005
 31
0.0
  0
LINE
  5
319
330
1E
100
AcDbEntity
  8
0
100
AcDbLine
 10
26.036975
 20
972.005
 30
0.0
 11
109.9709999999999
 21
972.005
 31
0.0
  0
LINE
  5
31A
330
1E
100
AcDbEntity
  8
0
100
AcDbLine
 10
114.01
 20
1000.005
 30
0.0
 11
114.01
 21
1005.155
 31
0.0
  0
LINE
  5
31B
330
1E
100
AcDbEntity
  8
0
100
AcDbLine
 10
128.01
 20
1000.005
 30
0.0
 11
128.01
 21
1005.155
 31
0.0
  0
LINE
  5
31C
330
1E
100
AcDbEntity
  8
0
100
AcDbLine
 10
167.905
 20
972.5049999999999
 30
0.0
 11
174.529
 21
971.605
 31
0.0
  0
LINE
  5
31D
330
1E
100
AcDbEntity
  8
0
100
AcDbLine
 10
130.3189999999999
 20
972.005
 30
0.0
 11
167.905
 21
972.005
 31
0.0
  0
LINE
  5
31E
330
1E
100
AcDbEntity
  8
0
100
AcDbLine
 10
130.3189999999999
 20
972.005
 30
0.0
 11
131.145
 21
970.353
 31
0.0
  0
LINE
  5
31F
330
1E
100
AcDbEntity
  8
0
100
AcDbLine
 10
174.328
 20
971.105
 30
0.0
 11
180.349
 21
968.7050000000001
 31
0.0
  0
LINE
  5
320
330
1E
100
AcDbEntity
  8
0
100
AcDbLine
 10
174.529
 20
971.605
 30
0.0
 11
180.6499999999999
 21
969.105
 31
0.0
  0
LINE
  5
321
330
1E
100
AcDbEntity
  8
0
100
AcDbLine
 10
180.6499999999999
 20
969.105
 30
0.0
 11
185.969
 21
965.005
 31
0.0
  0
LINE
  5
322
330
1E
100
AcDbEntity
  8
0
100
AcDbLine
 10
167.905
 20
972.005
 30
0.0
 11
174.328
 21
971.105
 31
0.0
  0
LINE
  5
323
330
1E
100
AcDbEntity
  8
0
100
AcDbLine
 10
180.349
 20
968.7050000000001
 30
0.0
 11
185.5679999999999
 21
964.705
 31
0.0
  0
LINE
  5
324
330
1E
100
AcDbEntity
  8
0
100
AcDbLine
 10
213.9979999999999
 20
1000.804999999999
 30
0.0
 11
215.198
 21
1000.804999999999
 31
0.0
  0
LINE
  5
325
330
1E
100
AcDbEntity
  8
0
100
AcDbLine
 10
215.198
 20
1000.804999999999
 30
0.0
 11
216.1979999999999
 21
1000.804999999999
 31
0.0
  0
LINE
  5
326
330
1E
100
AcDbEntity
  8
0
100
AcDbLine
 10
216.1979999999999
 20
1000.804999999999
 30
0.0
 11
217.198
 21
1000.804999999999
 31
0.0
  0
LINE
  5
327
330
1E
100
AcDbEntity
  8
0
100
AcDbLine
 10
217.198
 20
1000.804999999999
 30
0.0
 11
217.898
 21
1000.804999999999
 31
0.0
  0
LINE
  5
328
330
1E
100
AcDbEntity
  8
0
100
AcDbLine
 10
217.898
 20
1000.804999999999
 30
0.0
 11
218.298
 21
1000.804999999999
 31
0.0
  0
LINE
  5
329
330
1E
100
AcDbEntity
  8
0
100
AcDbLine
 10
218.298
 20
1000.804999999999
 30
0.0
 11
218.4979999999999
 21
1000.804999999999
 31
0.0
  0
LINE
  5
32A
330
1E
100
AcDbEntity
  8
0
100
AcDbLine
 10
212.7979999999999
 20
1000.804999999999
 30
0.0
 11
213.9979999999999
 21
1000.804999999999
 31
0.0
  0
LINE
  5
32B
330
1E
100
AcDbEntity
  8
0
100
AcDbLine
 10
211.798
 20
1000.804999999999
 30
0.0
 11
212.7979999999999
 21
1000.804999999999
 31
0.0
  0
LINE
  5
32C
330
1E
100
AcDbEntity
  8
0
100
AcDbLine
 10
210.7979999999999
 20
1000.804999999999
 30
0.0
 11
211.798
 21
1000.804999999999
 31
0.0
  0
LINE
  5
32D
330
1E
100
AcDbEntity
  8
0
100
AcDbLine
 10
210.0979999999999
 20
1000.804999999999
 30
0.0
 11
210.7979999999999
 21
1000.804999999999
 31
0.0
  0
LINE
  5
32E
330
1E
100
AcDbEntity
  8
0
100
AcDbLine
 10
209.6979999999999
 20
1000.804999999999
 30
0.0
 11
210.0979999999999
 21
1000.804999999999
 31
0.0
  0
LINE
  5
32F
330
1E
100
AcDbEntity
  8
0
100
AcDbLine
 10
209.498
 20
1000.804999999999
 30
0.0
 11
209.6979999999999
 21
1000.804999999999
 31
0.0
  0
LINE
  5
330
330
1E
100
AcDbEntity
  8
0
100
AcDbLine
 10
207.1979999999999
 20
1000.304999999999
 30
0.0
 11
209.498
 21
1000.804999999999
 31
0.0
  0
LINE
  5
331
330
1E
100
AcDbEntity
  8
0
100
AcDbLine
 10
206.673
 20
1000.005
 30
0.0
 11
207.1979999999999
 21
1000.304999999999
 31
0.0
  0
LINE
  5
332
330
1E
100
AcDbEntity
  8
0
100
AcDbLine
 10
114.01
 20
1005.155
 30
0.0
 11
114.01
 21
1000.005
 31
0.0
  0
LINE
  5
333
330
1E
100
AcDbEntity
  8
0
100
AcDbLine
 10
121.01
 20
1005.155
 30
0.0
 11
123.35
 21
1005.155
 31
0.0
  0
LINE
  5
334
330
1E
100
AcDbEntity
  8
0
100
AcDbLine
 10
123.35
 20
1005.155
 30
0.0
 11
125.51
 21
1005.155
 31
0.0
  0
LINE
  5
335
330
1E
100
AcDbEntity
  8
0
100
AcDbLine
 10
125.51
 20
1005.155
 30
0.0
 11
127.37
 21
1005.155
 31
0.0
  0
LINE
  5
336
330
1E
100
AcDbEntity
  8
0
100
AcDbLine
 10
127.37
 20
1005.155
 30
0.0
 11
128.81
 21
1005.155
 31
0.0
  0
LINE
  5
337
330
1E
100
AcDbEntity
  8
0
100
AcDbLine
 10
118.67
 20
1005.155
 30
0.0
 11
121.01
 21
1005.155
 31
0.0
  0
LINE
  5
338
330
1E
100
AcDbEntity
  8
0
100
AcDbLine
 10
116.51
 20
1005.155
 30
0.0
 11
118.67
 21
1005.155
 31
0.0
  0
LINE
  5
339
330
1E
100
AcDbEntity
  8
0
100
AcDbLine
 10
114.65
 20
1005.155
 30
0.0
 11
116.51
 21
1005.155
 31
0.0
  0
LINE
  5
33A
330
1E
100
AcDbEntity
  8
0
100
AcDbLine
 10
128.01
 20
1005.155
 30
0.0
 11
128.81
 21
1005.155
 31
0.0
  0
LINE
  5
33B
330
1E
100
AcDbEntity
  8
0
100
AcDbLine
 10
128.01
 20
1005.155
 30
0.0
 11
128.01
 21
1000.005
 31
0.0
  0
LINE
  5
33C
330
1E
100
AcDbEntity
  8
0
100
AcDbLine
 10
128.81
 20
1005.155
 30
0.0
 11
129.71
 21
1005.155
 31
0.0
  0
LINE
  5
33D
330
1E
100
AcDbEntity
  8
0
100
AcDbLine
 10
129.71
 20
1005.155
 30
0.0
 11
130.01
 21
1005.155
 31
0.0
  0
LINE
  5
33E
330
1E
100
AcDbEntity
  8
0
100
AcDbLine
 10
130.01
 20
1005.155
 30
0.0
 11
130.01
 21
1022.175
 31
0.0
  0
LINE
  5
33F
330
1E
100
AcDbEntity
  8
0
100
AcDbLine
 10
113.2099999999999
 20
1005.155
 30
0.0
 11
114.01
 21
1005.155
 31
0.0
  0
LINE
  5
340
330
1E
100
AcDbEntity
  8
0
100
AcDbLine
 10
113.2099999999999
 20
1005.155
 30
0.0
 11
114.65
 21
1005.155
 31
0.0
  0
LINE
  5
341
330
1E
100
AcDbEntity
  8
0
100
AcDbLine
 10
112.3099999999999
 20
1005.155
 30
0.0
 11
113.2099999999999
 21
1005.155
 31
0.0
  0
LINE
  5
342
330
1E
100
AcDbEntity
  8
0
100
AcDbLine
 10
112.01
 20
1005.155
 30
0.0
 11
112.3099999999999
 21
1005.155
 31
0.0
  0
LINE
  5
343
330
1E
100
AcDbEntity
  8
0
100
AcDbLine
 10
112.01
 20
1005.155
 30
0.0
 11
112.01
 21
1022.175
 31
0.0
  0
LINE
  5
344
330
1E
100
AcDbEntity
  8
0
100
AcDbLine
 10
121.01
 20
1022.175
 30
0.0
 11
123.35
 21
1022.175
 31
0.0
  0
LINE
  5
345
330
1E
100
AcDbEntity
  8
0
100
AcDbLine
 10
123.35
 20
1022.175
 30
0.0
 11
125.51
 21
1022.175
 31
0.0
  0
LINE
  5
346
330
1E
100
AcDbEntity
  8
0
100
AcDbLine
 10
125.51
 20
1022.175
 30
0.0
 11
127.37
 21
1022.175
 31
0.0
  0
LINE
  5
347
330
1E
100
AcDbEntity
  8
0
100
AcDbLine
 10
127.37
 20
1022.175
 30
0.0
 11
128.81
 21
1022.175
 31
0.0
  0
LINE
  5
348
330
1E
100
AcDbEntity
  8
0
100
AcDbLine
 10
130.01
 20
1022.175
 30
0.0
 11
130.01
 21
1005.155
 31
0.0
  0
LINE
  5
349
330
1E
100
AcDbEntity
  8
0
100
AcDbLine
 10
128.81
 20
1022.175
 30
0.0
 11
129.71
 21
1022.175
 31
0.0
  0
LINE
  5
34A
330
1E
100
AcDbEntity
  8
0
100
AcDbLine
 10
129.71
 20
1022.175
 30
0.0
 11
130.01
 21
1022.175
 31
0.0
  0
LINE
  5
34B
330
1E
100
AcDbEntity
  8
0
100
AcDbLine
 10
118.67
 20
1022.175
 30
0.0
 11
121.01
 21
1022.175
 31
0.0
  0
LINE
  5
34C
330
1E
100
AcDbEntity
  8
0
100
AcDbLine
 10
116.51
 20
1022.175
 30
0.0
 11
118.67
 21
1022.175
 31
0.0
  0
LINE
  5
34D
330
1E
100
AcDbEntity
  8
0
100
AcDbLine
 10
114.65
 20
1022.175
 30
0.0
 11
116.51
 21
1022.175
 31
0.0
  0
LINE
  5
34E
330
1E
100
AcDbEntity
  8
0
100
AcDbLine
 10
113.2099999999999
 20
1022.175
 30
0.0
 11
114.65
 21
1022.175
 31
0.0
  0
LINE
  5
34F
330
1E
100
AcDbEntity
  8
0
100
AcDbLine
 10
112.3099999999999
 20
1022.175
 30
0.0
 11
113.2099999999999
 21
1022.175
 31
0.0
  0
LINE
  5
350
330
1E
100
AcDbEntity
  8
0
100
AcDbLine
 10
128.81
 20
1022.904999999999
 30
0.0
 11
130.01
 21
1022.175
 31
0.0
  0
LINE
  5
351
330
1E
100
AcDbEntity
  8
0
100
AcDbLine
 10
112.01
 20
1022.175
 30
0.0
 11
113.2099999999999
 21
1022.904999999999
 31
0.0
  0
LINE
  5
352
330
1E
100
AcDbEntity
  8
0
100
AcDbLine
 10
112.01
 20
1022.175
 30
0.0
 11
112.01
 21
1005.155
 31
0.0
  0
LINE
  5
353
330
1E
100
AcDbEntity
  8
0
100
AcDbLine
 10
112.01
 20
1022.175
 30
0.0
 11
112.3099999999999
 21
1022.175
 31
0.0
  0
LINE
  5
354
330
1E
100
AcDbEntity
  8
0
100
AcDbLine
 10
121.01
 20
1023.155
 30
0.0
 11
128.81
 21
1022.904999999999
 31
0.0
  0
LINE
  5
355
330
1E
100
AcDbEntity
  8
0
100
AcDbLine
 10
113.2099999999999
 20
1022.904999999999
 30
0.0
 11
121.01
 21
1023.155
 31
0.0
  0
LINE
  5
356
330
1E
100
AcDbEntity
  8
0
100
AcDbLine
 10
192.3249999999999
 20
1086.195
 30
0.0
 11
205.193
 21
1088.465
 31
0.0
  0
LINE
  5
357
330
1E
100
AcDbEntity
  8
0
100
AcDbLine
 10
192.3249999999999
 20
1086.195
 30
0.0
 11
206.377
 21
1006.504999999999
 31
0.0
  0
LINE
  5
358
330
1E
100
AcDbEntity
  8
0
100
AcDbLine
 10
205.193
 20
1088.465
 30
0.0
 11
219.245
 21
1008.774999999999
 31
0.0
  0
LINE
  5
359
330
1E
100
AcDbEntity
  8
0
100
AcDbLine
 10
205.652
 20
1088.545
 30
0.0
 11
219.704
 21
1008.855
 31
0.0
  0
LINE
  5
35A
330
1E
100
AcDbEntity
  8
0
100
AcDbLine
 10
206.377
 20
1006.504999999999
 30
0.0
 11
219.245
 21
1008.774999999999
 31
0.0
  0
LINE
  5
35B
330
1E
100
AcDbEntity
  8
0
100
AcDbLine
 10
206.377
 20
1006.504999999999
 30
0.0
 11
206.47
 21
1005.975
 31
0.0
  0
LINE
  5
35C
330
1E
100
AcDbEntity
  8
0
100
AcDbLine
 10
192.2309999999999
 20
1086.724999999999
 30
0.0
 11
192.3249999999999
 21
1086.195
 31
0.0
  0
LINE
  5
35D
330
1E
100
AcDbEntity
  8
0
100
AcDbLine
 10
192.2309999999999
 20
1086.724999999999
 30
0.0
 11
205.099
 21
1088.994999999999
 31
0.0
  0
LINE
  5
35E
330
1E
100
AcDbEntity
  8
0
100
AcDbLine
 10
205.099
 20
1088.994999999999
 30
0.0
 11
205.652
 21
1088.545
 31
0.0
  0
LINE
  5
35F
330
1E
100
AcDbEntity
  8
0
100
AcDbLine
 10
205.099
 20
1088.994999999999
 30
0.0
 11
205.193
 21
1088.465
 31
0.0
  0
LINE
  5
360
330
1E
100
AcDbEntity
  8
0
100
AcDbLine
 10
191.865
 20
1086.115
 30
0.0
 11
205.9169999999999
 21
1006.424999999999
 31
0.0
  0
LINE
  5
361
330
1E
100
AcDbEntity
  8
0
100
AcDbLine
 10
191.865
 20
1086.115
 30
0.0
 11
192.2309999999999
 21
1086.724999999999
 31
0.0
  0
LINE
  5
362
330
1E
100
AcDbEntity
  8
0
100
AcDbLine
 10
205.9169999999999
 20
1006.424999999999
 30
0.0
 11
206.47
 21
1005.975
 31
0.0
  0
LINE
  5
363
330
1E
100
AcDbEntity
  8
0
100
AcDbLine
 10
211.0224294674179
 20
1006.77807855852
 30
0.0
 11
211.427
 21
1006.844999999999
 31
0.0
  0
LINE
  5
364
330
1E
100
AcDbEntity
  8
0
100
AcDbLine
 10
211.427
 20
1006.844999999999
 30
0.0
 11
212.1659999999999
 21
1006.975
 31
0.0
  0
LINE
  5
365
330
1E
100
AcDbEntity
  8
0
100
AcDbLine
 10
212.904
 20
1007.104999999999
 30
0.0
 11
213.643
 21
1007.235
 31
0.0
  0
LINE
  5
366
330
1E
100
AcDbEntity
  8
0
100
AcDbLine
 10
212.1659999999999
 20
1006.975
 30
0.0
 11
212.904
 21
1007.104999999999
 31
0.0
  0
LINE
  5
367
330
1E
100
AcDbEntity
  8
0
100
AcDbLine
 10
211.0224294674179
 20
1006.77807855852
 30
0.0
 11
211.427
 21
1006.844999999999
 31
0.0
  0
LINE
  5
368
330
1E
100
AcDbEntity
  8
0
100
AcDbLine
 10
209.9499999999999
 20
1006.585
 30
0.0
 11
210.969259796807
 21
1000.804999999999
 31
0.0
  0
LINE
  5
369
330
1E
100
AcDbEntity
  8
0
100
AcDbLine
 10
214.3809999999999
 20
1007.365
 30
0.0
 11
215.0459999999999
 21
1007.484999999999
 31
0.0
  0
LINE
  5
36A
330
1E
100
AcDbEntity
  8
0
100
AcDbLine
 10
213.643
 20
1007.235
 30
0.0
 11
214.3809999999999
 21
1007.365
 31
0.0
  0
LINE
  5
36B
330
1E
100
AcDbEntity
  8
0
100
AcDbLine
 10
215.0459999999999
 20
1007.484999999999
 30
0.0
 11
215.4889999999999
 21
1007.565
 31
0.0
  0
LINE
  5
36C
330
1E
100
AcDbEntity
  8
0
100
AcDbLine
 10
215.4889999999999
 20
1007.565
 30
0.0
 11
215.7849999999999
 21
1007.615
 31
0.0
  0
LINE
  5
36D
330
1E
100
AcDbEntity
  8
0
100
AcDbLine
 10
215.8596350573069
 20
1007.63139350172
 30
0.0
 11
217.061673913044
 21
1000.804999999999
 31
0.0
  0
LINE
  5
36E
330
1E
100
AcDbEntity
  8
0
100
AcDbLine
 10
219.245
 20
1008.774999999999
 30
0.0
 11
219.3379999999999
 21
1008.245
 31
0.0
  0
LINE
  5
36F
330
1E
100
AcDbEntity
  8
0
100
AcDbLine
 10
219.3379999999999
 20
1008.245
 30
0.0
 11
219.704
 21
1008.855
 31
0.0
  0
LINE
  5
370
330
1E
100
AcDbEntity
  8
0
100
AcDbLine
 10
206.47
 20
1005.975
 30
0.0
 11
219.3379999999999
 21
1008.245
 31
0.0
  0
LINE
  5
371
330
1E
100
AcDbEntity
  8
0
100
AcDbLine
 10
218.4979999999999
 20
1000.804999999999
 30
0.0
 11
220.798
 21
1000.304999999999
 31
0.0
  0
LINE
  5
372
330
1E
100
AcDbEntity
  8
0
100
AcDbLine
 10
253.845
 20
968.505
 30
0.0
 11
253.845
 21
969.505
 31
0.0
  0
LINE
  5
373
330
1E
100
AcDbEntity
  8
0
100
AcDbLine
 10
253.845
 20
968.505
 30
0.0
 11
254.352817589577
 21
968.505
 31
0.0
  0
LINE
  5
374
330
1E
100
AcDbEntity
  8
0
100
AcDbLine
 10
253.845
 20
968.505
 30
0.0
 11
253.845
 21
968.0049999999999
 31
0.0
  0
LINE
  5
375
330
1E
100
AcDbEntity
  8
0
100
AcDbLine
 10
253.845
 20
970.005
 30
0.0
 11
253.845
 21
969.505
 31
0.0
  0
LINE
  5
376
330
1E
100
AcDbEntity
  8
0
100
AcDbLine
 10
253.845
 20
970.005
 30
0.0
 11
254.348908794788
 21
970.005
 31
0.0
  0
LINE
  5
377
330
1E
100
AcDbEntity
  8
0
100
AcDbLine
 10
253.845
 20
969.505
 30
0.0
 11
253.845
 21
968.505
 31
0.0
  0
LINE
  5
378
330
1E
100
AcDbEntity
  8
0
100
AcDbLine
 10
253.845
 20
969.505
 30
0.0
 11
253.845
 21
970.005
 31
0.0
  0
LINE
  5
379
330
1E
100
AcDbEntity
  8
0
100
AcDbLine
 10
253.845
 20
969.505
 30
0.0
 11
254.350211726384
 21
969.505
 31
0.0
  0
LINE
  5
37A
330
1E
100
AcDbEntity
  8
0
100
AcDbLine
 10
254.4959999999999
 20
968.505
 30
0.0
 11
254.4959999999999
 21
969.505
 31
0.0
  0
LINE
  5
37B
330
1E
100
AcDbEntity
  8
0
100
AcDbLine
 10
254.4959999999999
 20
968.505
 30
0.0
 11
254.6489999999999
 21
968.0049999999999
 31
0.0
  0
LINE
  5
37C
330
1E
100
AcDbEntity
  8
0
100
AcDbLine
 10
254.6489999999999
 20
970.005
 30
0.0
 11
254.9549999999999
 21
970.005
 31
0.0
  0
LINE
  5
37D
330
1E
100
AcDbEntity
  8
0
100
AcDbLine
 10
254.9549999999999
 20
970.005
 30
0.0
 11
255.108
 21
969.505
 31
0.0
  0
LINE
  5
37E
330
1E
100
AcDbEntity
  8
0
100
AcDbLine
 10
254.9549999999999
 20
970.005
 30
0.0
 11
255.742
 21
970.005
 31
0.0
  0
LINE
  5
37F
330
1E
100
AcDbEntity
  8
0
100
AcDbLine
 10
254.4959999999999
 20
969.505
 30
0.0
 11
254.6489999999999
 21
970.005
 31
0.0
  0
LINE
  5
380
330
1E
100
AcDbEntity
  8
0
100
AcDbLine
 10
254.4959999999999
 20
969.505
 30
0.0
 11
254.4959999999999
 21
968.505
 31
0.0
  0
LINE
  5
381
330
1E
100
AcDbEntity
  8
0
100
AcDbLine
 10
255.108
 20
969.505
 30
0.0
 11
255.895
 21
969.505
 31
0.0
  0
LINE
  5
382
330
1E
100
AcDbEntity
  8
0
100
AcDbLine
 10
255.108
 20
969.505
 30
0.0
 11
255.108
 21
968.505
 31
0.0
  0
LINE
  5
383
330
1E
100
AcDbEntity
  8
0
100
AcDbLine
 10
255.108
 20
968.505
 30
0.0
 11
255.108
 21
969.505
 31
0.0
  0
LINE
  5
384
330
1E
100
AcDbEntity
  8
0
100
AcDbLine
 10
255.108
 20
968.505
 30
0.0
 11
255.895
 21
968.505
 31
0.0
  0
LINE
  5
385
330
1E
100
AcDbEntity
  8
0
100
AcDbLine
 10
256.675
 20
968.505
 30
0.0
 11
256.675
 21
969.505
 31
0.0
  0
LINE
  5
386
330
1E
100
AcDbEntity
  8
0
100
AcDbLine
 10
256.675
 20
968.505
 30
0.0
 11
256.9649999999999
 21
968.0049999999999
 31
0.0
  0
LINE
  5
387
330
1E
100
AcDbEntity
  8
0
100
AcDbLine
 10
256.675
 20
969.505
 30
0.0
 11
256.9649999999999
 21
970.005
 31
0.0
  0
LINE
  5
388
330
1E
100
AcDbEntity
  8
0
100
AcDbLine
 10
256.675
 20
969.505
 30
0.0
 11
256.675
 21
968.505
 31
0.0
  0
LINE
  5
389
330
1E
100
AcDbEntity
  8
0
100
AcDbLine
 10
256.9649999999999
 20
970.005
 30
0.0
 11
257.546
 21
970.005
 31
0.0
  0
LINE
  5
38A
330
1E
100
AcDbEntity
  8
0
100
AcDbLine
 10
257.546
 20
970.005
 30
0.0
 11
257.837
 21
969.505
 31
0.0
  0
LINE
  5
38B
330
1E
100
AcDbEntity
  8
0
100
AcDbLine
 10
257.546
 20
970.005
 30
0.0
 11
257.8694299674269
 21
970.005
 31
0.0
  0
LINE
  5
38C
330
1E
100
AcDbEntity
  8
0
100
AcDbLine
 10
257.837
 20
969.505
 30
0.0
 11
258.4499999999999
 21
969.505
 31
0.0
  0
LINE
  5
38D
330
1E
100
AcDbEntity
  8
0
100
AcDbLine
 10
257.837
 20
969.505
 30
0.0
 11
257.837
 21
968.505
 31
0.0
  0
LINE
  5
38E
330
1E
100
AcDbEntity
  8
0
100
AcDbLine
 10
257.837
 20
968.505
 30
0.0
 11
257.837
 21
969.505
 31
0.0
  0
LINE
  5
38F
330
1E
100
AcDbEntity
  8
0
100
AcDbLine
 10
257.837
 20
968.505
 30
0.0
 11
258.4499999999999
 21
968.505
 31
0.0
  0
LINE
  5
390
330
1E
100
AcDbEntity
  8
0
100
AcDbLine
 10
257.845
 20
971.5049999999999
 30
0.0
 11
260.345
 21
971.5049999999999
 31
0.0
  0
LINE
  5
391
330
1E
100
AcDbEntity
  8
0
100
AcDbLine
 10
274.845
 20
971.5049999999999
 30
0.0
 11
276.745
 21
971.5049999999999
 31
0.0
  0
LINE
  5
392
330
1E
100
AcDbEntity
  8
0
100
AcDbLine
 10
276.745
 20
971.5049999999999
 30
0.0
 11
277.945
 21
971.5049999999999
 31
0.0
  0
LINE
  5
393
330
1E
100
AcDbEntity
  8
0
100
AcDbLine
 10
277.945
 20
971.5049999999999
 30
0.0
 11
278.345
 21
971.5049999999999
 31
0.0
  0
LINE
  5
394
330
1E
100
AcDbEntity
  8
0
100
AcDbLine
 10
272.345
 20
971.5049999999999
 30
0.0
 11
274.845
 21
971.5049999999999
 31
0.0
  0
LINE
  5
395
330
1E
100
AcDbEntity
  8
0
100
AcDbLine
 10
269.4449999999999
 20
971.5049999999999
 30
0.0
 11
272.345
 21
971.5049999999999
 31
0.0
  0
LINE
  5
396
330
1E
100
AcDbEntity
  8
0
100
AcDbLine
 10
266.345
 20
971.5049999999999
 30
0.0
 11
269.4449999999999
 21
971.5049999999999
 31
0.0
  0
LINE
  5
397
330
1E
100
AcDbEntity
  8
0
100
AcDbLine
 10
260.345
 20
971.5049999999999
 30
0.0
 11
263.2449999999999
 21
971.5049999999999
 31
0.0
  0
LINE
  5
398
330
1E
100
AcDbEntity
  8
0
100
AcDbLine
 10
263.2449999999999
 20
971.5049999999999
 30
0.0
 11
266.345
 21
971.5049999999999
 31
0.0
  0
LINE
  5
399
330
1E
100
AcDbEntity
  8
0
100
AcDbLine
 10
255.945
 20
971.5049999999999
 30
0.0
 11
257.845
 21
971.5049999999999
 31
0.0
  0
LINE
  5
39A
330
1E
100
AcDbEntity
  8
0
100
AcDbLine
 10
254.7449999999999
 20
971.5049999999999
 30
0.0
 11
255.945
 21
971.5049999999999
 31
0.0
  0
LINE
  5
39B
330
1E
100
AcDbEntity
  8
0
100
AcDbLine
 10
254.3449999999999
 20
970.005
 30
0.0
 11
254.3449999999999
 21
971.5049999999999
 31
0.0
  0
LINE
  5
39C
330
1E
100
AcDbEntity
  8
0
100
AcDbLine
 10
254.3449999999999
 20
991.505
 30
0.0
 11
254.3449999999999
 21
972.5049999999999
 31
0.0
  0
LINE
  5
39D
330
1E
100
AcDbEntity
  8
0
100
AcDbLine
 10
254.3449999999999
 20
991.505
 30
0.0
 11
254.8449999999999
 21
992.0049999999999
 31
0.0
  0
LINE
  5
39E
330
1E
100
AcDbEntity
  8
0
100
AcDbLine
 10
254.3449999999999
 20
991.505
 30
0.0
 11
254.7449999999999
 21
991.505
 31
0.0
  0
LINE
  5
39F
330
1E
100
AcDbEntity
  8
0
100
AcDbLine
 10
258.545
 20
972.005
 30
0.0
 11
260.845
 21
972.005
 31
0.0
  0
LINE
  5
3A0
330
1E
100
AcDbEntity
  8
0
100
AcDbLine
 10
260.845
 20
972.005
 30
0.0
 11
263.545
 21
972.005
 31
0.0
  0
LINE
  5
3A1
330
1E
100
AcDbEntity
  8
0
100
AcDbLine
 10
274.1449999999999
 20
972.005
 30
0.0
 11
275.845
 21
972.005
 31
0.0
  0
LINE
  5
3A2
330
1E
100
AcDbEntity
  8
0
100
AcDbLine
 10
275.845
 20
972.005
 30
0.0
 11
276.9449999999999
 21
972.005
 31
0.0
  0
LINE
  5
3A3
330
1E
100
AcDbEntity
  8
0
100
AcDbLine
 10
276.9449999999999
 20
972.005
 30
0.0
 11
277.345
 21
972.005
 31
0.0
  0
LINE
  5
3A4
330
1E
100
AcDbEntity
  8
0
100
AcDbLine
 10
277.345
 20
972.005
 30
0.0
 11
278.345
 21
971.5049999999999
 31
0.0
  0
LINE
  5
3A5
330
1E
100
AcDbEntity
  8
0
100
AcDbLine
 10
277.345
 20
972.005
 30
0.0
 11
278.345
 21
972.5049999999999
 31
0.0
  0
LINE
  5
3A6
330
1E
100
AcDbEntity
  8
0
100
AcDbLine
 10
271.845
 20
972.005
 30
0.0
 11
274.1449999999999
 21
972.005
 31
0.0
  0
LINE
  5
3A7
330
1E
100
AcDbEntity
  8
0
100
AcDbLine
 10
269.1449999999999
 20
972.005
 30
0.0
 11
271.845
 21
972.005
 31
0.0
  0
LINE
  5
3A8
330
1E
100
AcDbEntity
  8
0
100
AcDbLine
 10
266.345
 20
972.005
 30
0.0
 11
269.1449999999999
 21
972.005
 31
0.0
  0
LINE
  5
3A9
330
1E
100
AcDbEntity
  8
0
100
AcDbLine
 10
263.545
 20
972.005
 30
0.0
 11
266.345
 21
972.005
 31
0.0
  0
LINE
  5
3AA
330
1E
100
AcDbEntity
  8
0
100
AcDbLine
 10
256.845
 20
972.005
 30
0.0
 11
258.545
 21
972.005
 31
0.0
  0
LINE
  5
3AB
330
1E
100
AcDbEntity
  8
0
100
AcDbLine
 10
255.745
 20
972.005
 30
0.0
 11
256.845
 21
972.005
 31
0.0
  0
LINE
  5
3AC
330
1E
100
AcDbEntity
  8
0
100
AcDbLine
 10
254.7449999999999
 20
991.505
 30
0.0
 11
255.945
 21
991.505
 31
0.0
  0
LINE
  5
3AD
330
1E
100
AcDbEntity
  8
0
100
AcDbLine
 10
257.845
 20
972.5049999999999
 30
0.0
 11
260.345
 21
972.5049999999999
 31
0.0
  0
LINE
  5
3AE
330
1E
100
AcDbEntity
  8
0
100
AcDbLine
 10
260.345
 20
972.5049999999999
 30
0.0
 11
263.2449999999999
 21
972.5049999999999
 31
0.0
  0
LINE
  5
3AF
330
1E
100
AcDbEntity
  8
0
100
AcDbLine
 10
274.845
 20
972.5049999999999
 30
0.0
 11
276.745
 21
972.5049999999999
 31
0.0
  0
LINE
  5
3B0
330
1E
100
AcDbEntity
  8
0
100
AcDbLine
 10
276.745
 20
972.5049999999999
 30
0.0
 11
277.945
 21
972.5049999999999
 31
0.0
  0
LINE
  5
3B1
330
1E
100
AcDbEntity
  8
0
100
AcDbLine
 10
278.345
 20
972.5049999999999
 30
0.0
 11
278.345
 21
991.505
 31
0.0
  0
LINE
  5
3B2
330
1E
100
AcDbEntity
  8
0
100
AcDbLine
 10
277.945
 20
972.5049999999999
 30
0.0
 11
278.345
 21
972.5049999999999
 31
0.0
  0
LINE
  5
3B3
330
1E
100
AcDbEntity
  8
0
100
AcDbLine
 10
272.345
 20
972.5049999999999
 30
0.0
 11
274.845
 21
972.5049999999999
 31
0.0
  0
LINE
  5
3B4
330
1E
100
AcDbEntity
  8
0
100
AcDbLine
 10
269.4449999999999
 20
972.5049999999999
 30
0.0
 11
272.345
 21
972.5049999999999
 31
0.0
  0
LINE
  5
3B5
330
1E
100
AcDbEntity
  8
0
100
AcDbLine
 10
266.345
 20
972.5049999999999
 30
0.0
 11
269.4449999999999
 21
972.5049999999999
 31
0.0
  0
LINE
  5
3B6
330
1E
100
AcDbEntity
  8
0
100
AcDbLine
 10
263.2449999999999
 20
972.5049999999999
 30
0.0
 11
266.345
 21
972.5049999999999
 31
0.0
  0
LINE
  5
3B7
330
1E
100
AcDbEntity
  8
0
100
AcDbLine
 10
255.2449999999999
 20
992.0049999999999
 30
0.0
 11
256.345
 21
992.0049999999999
 31
0.0
  0
LINE
  5
3B8
330
1E
100
AcDbEntity
  8
0
100
AcDbLine
 10
254.8449999999999
 20
992.0049999999999
 30
0.0
 11
255.2449999999999
 21
992.0049999999999
 31
0.0
  0
LINE
  5
3B9
330
1E
100
AcDbEntity
  8
0
100
AcDbLine
 10
257.845
 20
991.505
 30
0.0
 11
260.345
 21
991.505
 31
0.0
  0
LINE
  5
3BA
330
1E
100
AcDbEntity
  8
0
100
AcDbLine
 10
258.245
 20
992.0049999999999
 30
0.0
 11
260.6449999999999
 21
992.0049999999999
 31
0.0
  0
LINE
  5
3BB
330
1E
100
AcDbEntity
  8
0
100
AcDbLine
 10
260.6449999999999
 20
992.0049999999999
 30
0.0
 11
263.345
 21
992.0049999999999
 31
0.0
  0
LINE
  5
3BC
330
1E
100
AcDbEntity
  8
0
100
AcDbLine
 10
260.345
 20
991.505
 30
0.0
 11
263.2449999999999
 21
991.505
 31
0.0
  0
LINE
  5
3BD
330
1E
100
AcDbEntity
  8
0
100
AcDbLine
 10
266.345
 20
992.0049999999999
 30
0.0
 11
269.345
 21
992.0049999999999
 31
0.0
  0
LINE
  5
3BE
330
1E
100
AcDbEntity
  8
0
100
AcDbLine
 10
274.845
 20
991.505
 30
0.0
 11
276.745
 21
991.505
 31
0.0
  0
LINE
  5
3BF
330
1E
100
AcDbEntity
  8
0
100
AcDbLine
 10
276.745
 20
991.505
 30
0.0
 11
277.945
 21
991.505
 31
0.0
  0
LINE
  5
3C0
330
1E
100
AcDbEntity
  8
0
100
AcDbLine
 10
277.945
 20
991.505
 30
0.0
 11
278.345
 21
991.505
 31
0.0
  0
LINE
  5
3C1
330
1E
100
AcDbEntity
  8
0
100
AcDbLine
 10
278.345
 20
991.505
 30
0.0
 11
278.345
 21
972.5049999999999
 31
0.0
  0
LINE
  5
3C2
330
1E
100
AcDbEntity
  8
0
100
AcDbLine
 10
272.345
 20
991.505
 30
0.0
 11
274.845
 21
991.505
 31
0.0
  0
LINE
  5
3C3
330
1E
100
AcDbEntity
  8
0
100
AcDbLine
 10
274.445
 20
992.0049999999999
 30
0.0
 11
276.345
 21
992.0049999999999
 31
0.0
  0
LINE
  5
3C4
330
1E
100
AcDbEntity
  8
0
100
AcDbLine
 10
276.345
 20
992.0049999999999
 30
0.0
 11
277.4449999999999
 21
992.0049999999999
 31
0.0
  0
LINE
  5
3C5
330
1E
100
AcDbEntity
  8
0
100
AcDbLine
 10
277.4449999999999
 20
992.0049999999999
 30
0.0
 11
277.845
 21
992.0049999999999
 31
0.0
  0
LINE
  5
3C6
330
1E
100
AcDbEntity
  8
0
100
AcDbLine
 10
277.845
 20
992.0049999999999
 30
0.0
 11
278.345
 21
991.505
 31
0.0
  0
LINE
  5
3C7
330
1E
100
AcDbEntity
  8
0
100
AcDbLine
 10
272.045
 20
992.0049999999999
 30
0.0
 11
274.445
 21
992.0049999999999
 31
0.0
  0
LINE
  5
3C8
330
1E
100
AcDbEntity
  8
0
100
AcDbLine
 10
269.345
 20
992.0049999999999
 30
0.0
 11
272.045
 21
992.0049999999999
 31
0.0
  0
LINE
  5
3C9
330
1E
100
AcDbEntity
  8
0
100
AcDbLine
 10
269.4449999999999
 20
991.505
 30
0.0
 11
272.345
 21
991.505
 31
0.0
  0
LINE
  5
3CA
330
1E
100
AcDbEntity
  8
0
100
AcDbLine
 10
266.345
 20
991.505
 30
0.0
 11
269.4449999999999
 21
991.505
 31
0.0
  0
LINE
  5
3CB
330
1E
100
AcDbEntity
  8
0
100
AcDbLine
 10
263.345
 20
992.0049999999999
 30
0.0
 11
266.345
 21
992.0049999999999
 31
0.0
  0
LINE
  5
3CC
330
1E
100
AcDbEntity
  8
0
100
AcDbLine
 10
263.2449999999999
 20
991.505
 30
0.0
 11
266.345
 21
991.505
 31
0.0
  0
LINE
  5
3CD
330
1E
100
AcDbEntity
  8
0
100
AcDbLine
 10
256.345
 20
992.0049999999999
 30
0.0
 11
258.245
 21
992.0049999999999
 31
0.0
  0
LINE
  5
3CE
330
1E
100
AcDbEntity
  8
0
100
AcDbLine
 10
255.945
 20
991.505
 30
0.0
 11
257.845
 21
991.505
 31
0.0
  0
LINE
  5
3CF
330
1E
100
AcDbEntity
  8
0
100
AcDbLine
 10
255.945
 20
972.5049999999999
 30
0.0
 11
257.845
 21
972.5049999999999
 31
0.0
  0
LINE
  5
3D0
330
1E
100
AcDbEntity
  8
0
100
AcDbLine
 10
254.7449999999999
 20
972.5049999999999
 30
0.0
 11
255.945
 21
972.5049999999999
 31
0.0
  0
LINE
  5
3D1
330
1E
100
AcDbEntity
  8
0
100
AcDbLine
 10
255.345
 20
972.005
 30
0.0
 11
255.745
 21
972.005
 31
0.0
  0
LINE
  5
3D2
330
1E
100
AcDbEntity
  8
0
100
AcDbLine
 10
254.3449999999999
 20
972.5049999999999
 30
0.0
 11
255.345
 21
972.005
 31
0.0
  0
LINE
  5
3D3
330
1E
100
AcDbEntity
  8
0
100
AcDbLine
 10
254.3449999999999
 20
972.5049999999999
 30
0.0
 11
254.7449999999999
 21
972.5049999999999
 31
0.0
  0
LINE
  5
3D4
330
1E
100
AcDbEntity
  8
0
100
AcDbLine
 10
254.3449999999999
 20
972.5049999999999
 30
0.0
 11
254.3449999999999
 21
991.505
 31
0.0
  0
LINE
  5
3D5
330
1E
100
AcDbEntity
  8
0
100
AcDbLine
 10
254.3449999999999
 20
971.5049999999999
 30
0.0
 11
254.3449999999999
 21
970.005
 31
0.0
  0
LINE
  5
3D6
330
1E
100
AcDbEntity
  8
0
100
AcDbLine
 10
254.3449999999999
 20
971.5049999999999
 30
0.0
 11
255.345
 21
972.005
 31
0.0
  0
LINE
  5
3D7
330
1E
100
AcDbEntity
  8
0
100
AcDbLine
 10
254.3449999999999
 20
971.5049999999999
 30
0.0
 11
254.7449999999999
 21
971.5049999999999
 31
0.0
  0
LINE
  5
3D8
330
1E
100
AcDbEntity
  8
0
100
AcDbLine
 10
234.643
 20
999.505
 30
0.0
 11
234.643
 21
725.0049999999999
 31
0.0
  0
LINE
  5
3D9
330
1E
100
AcDbEntity
  8
0
100
AcDbLine
 10
234.643
 20
999.505
 30
0.0
 11
235.145
 21
999.505
 31
0.0
  0
LINE
  5
3DA
330
1E
100
AcDbEntity
  8
0
100
AcDbLine
 10
234.643
 20
999.505
 30
0.0
 11
234.643
 21
1000.005
 31
0.0
  0
LINE
  5
3DB
330
1E
100
AcDbEntity
  8
0
100
AcDbLine
 10
234.643
 20
1000.005
 30
0.0
 11
235.145
 21
999.505
 31
0.0
  0
LINE
  5
3DC
330
1E
100
AcDbEntity
  8
0
100
AcDbLine
 10
234.643
 20
1000.005
 30
0.0
 11
234.643
 21
999.505
 31
0.0
  0
LINE
  5
3DD
330
1E
100
AcDbEntity
  8
0
100
AcDbLine
 10
220.798
 20
1000.304999999999
 30
0.0
 11
221.3229999999999
 21
1000.005
 31
0.0
  0
LINE
  5
3DE
330
1E
100
AcDbEntity
  8
0
100
AcDbLine
 10
17.48809999999999
 20
968.1080000000001
 30
0.0
 11
20.118
 21
967.877
 31
0.0
  0
LINE
  5
3DF
330
1E
100
AcDbEntity
  8
0
100
AcDbLine
 10
14.6755
 20
968.3539999999998
 30
0.0
 11
17.48809999999999
 21
968.1080000000001
 31
0.0
  0
ENDSEC
  0
SECTION
  2
OBJECTS
  0
DICTIONARY
  5
C
330
0
100
AcDbDictionary
281
     1
  3
ACAD_GROUP
350
D
  3
ACAD_LAYOUT
350
19
  3
ACAD_MLINESTYLE
350
16
  3
ACAD_PLOTSETTINGS
350
18
  3
ACAD_PLOTSTYLENAME
350
E
  3
AcDbVariableDictionary
350
3E4
  0
DICTIONARY
  5
D
102
{ACAD_REACTORS
330
C
102
}
330
C
100
AcDbDictionary
281
     1
  0
DICTIONARY
  5
19
102
{ACAD_REACTORS
330
C
102
}
330
C
100
AcDbDictionary
281
     1
  3
Layout1
350
1D
  3
Model
350
21
  0
DICTIONARY
  5
16
102
{ACAD_REACTORS
330
C
102
}
330
C
100
AcDbDictionary
281
     1
  3
Standard
350
17
  0
DICTIONARY
  5
18
102
{ACAD_REACTORS
330
C
102
}
330
C
100
AcDbDictionary
281
     1
  0
ACDBDICTIONARYWDFLT
  5
E
102
{ACAD_REACTORS
330
C
102
}
330
C
100
AcDbDictionary
281
     1
  3
Normal
350
F
100
AcDbDictionaryWithDefault
340
F
  0
DICTIONARY
  5
3E4
102
{ACAD_REACTORS
330
C
102
}
330
C
100
AcDbDictionary
281
     1
  3
DIMASSOC
350
3E5
  0
LAYOUT
  5
1D
102
{ACAD_REACTORS
330
19
102
}
330
19
100
AcDbPlotSettings
  1

  2
hp deskjet 980c series
  4

  6

 40
0.0
 41
0.0
 42
0.0
 43
0.0
 44
0.0
 45
0.0
 46
0.0
 47
0.0
 48
0.0
 49
0.0
140
0.0
141
0.0
142
1.0
143
1.0
 70
   688
 72
     0
 73
     0
 74
     5
  7

 75
    16
147
1.0
148
0.0
149
0.0
100
AcDbLayout
  1
Layout1
 70
     1
 71
     1
 10
0.0
 20
0.0
 11
12.0
 21
9.0
 12
0.0
 22
0.0
 32
0.0
 14
1.000000000000000E+20
 24
1.000000000000000E+20
 34
1.000000000000000E+20
 15
-1.000000000000000E+20
 25
-1.000000000000000E+20
 35
-1.000000000000000E+20
146
0.0
 13
0.0
 23
0.0
 33
0.0
 16
1.0
 26
0.0
 36
0.0
 17
0.0
 27
1.0
 37
0.0
 76
     0
330
1A
  0
LAYOUT
  5
21
102
{ACAD_REACTORS
330
19
102
}
330
19
100
AcDbPlotSettings
  1

  2
hp deskjet 980c series
  4

  6

 40
0.0
 41
0.0
 42
0.0
 43
0.0
 44
0.0
 45
0.0
 46
0.0
 47
0.0
 48
0.0
 49
0.0
140
0.0
141
0.0
142
1.0
143
1.0
 70
  1712
 72
     0
 73
     0
 74
     0
  7

 75
     0
147
1.0
148
0.0
149
0.0
100
AcDbLayout
  1
Model
 70
     1
 71
     0
 10
0.0
 20
0.0
 11
12.0
 21
9.0
 12
0.0
 22
0.0
 32
0.0
 14
0.0
 24
0.0
 34
0.0
 15
0.0
 25
0.0
 35
0.0
146
0.0
 13
0.0
 23
0.0
 33
0.0
 16
1.0
 26
0.0
 36
0.0
 17
0.0
 27
1.0
 37
0.0
 76
     0
330
1E
  0
MLINESTYLE
  5
17
102
{ACAD_REACTORS
330
16
102
}
330
16
100
AcDbMlineStyle
  2
STANDARD
 70
     0
  3

 62
   256
 51
90.0
 52
90.0
 71
     2
 49
0.5
 62
   256
  6
BYLAYER
 49
-0.5
 62
   256
  6
BYLAYER
  0
ACDBPLACEHOLDER
  5
F
102
{ACAD_REACTORS
330
E
102
}
330
E
  0
DICTIONARYVAR
  5
3E5
102
{ACAD_REACTORS
330
3E4
102
}
330
3E4
100
DictionaryVariables
280
     0
  1
1
  0
ENDSEC
  0
EOF
