  0
SECTION
  2
HEADER
  9
$ACADVER
  1
AC1015
  9
$ACADMAINTVER
 70
    13
  9
$DWGCODEPAGE
  3
ANSI_1252
  9
$INSBASE
 10
0.0
 20
0.0
 30
0.0
  9
$EXTMIN
 10
0.0
 20
0.244439999999975
 30
0.0
  9
$EXTMAX
 10
34.0
 20
81.75556
 30
0.0
  9
$LIMMIN
 10
0.0
 20
0.0
  9
$LIMMAX
 10
12.0
 20
9.0
  9
$ORTHOMODE
 70
     0
  9
$REGENMODE
 70
     1
  9
$FILLMODE
 70
     1
  9
$QTEXTMODE
 70
     0
  9
$MIRRTEXT
 70
     1
  9
$LTSCALE
 40
1.0
  9
$ATTMODE
 70
     1
  9
$TEXTSIZE
 40
0.2
  9
$TRACEWID
 40
0.05
  9
$TEXTSTYLE
  7
Standard
  9
$CLAYER
  8
0
  9
$CELTYPE
  6
Continuous
  9
$CECOLOR
 62
   256
  9
$CELTSCALE
 40
1.0
  9
$DISPSILH
 70
     0
  9
$DIMSCALE
 40
1.0
  9
$DIMASZ
 40
0.18
  9
$DIMEXO
 40
0.0625
  9
$DIMDLI
 40
0.38
  9
$DIMRND
 40
0.0
  9
$DIMDLE
 40
0.0
  9
$DIMEXE
 40
0.18
  9
$DIMTP
 40
0.0
  9
$DIMTM
 40
0.0
  9
$DIMTXT
 40
0.18
  9
$DIMCEN
 40
0.09
  9
$DIMTSZ
 40
0.0
  9
$DIMTOL
 70
     0
  9
$DIMLIM
 70
     0
  9
$DIMTIH
 70
     1
  9
$DIMTOH
 70
     1
  9
$DIMSE1
 70
     0
  9
$DIMSE2
 70
     0
  9
$DIMTAD
 70
     0
  9
$DIMZIN
 70
     0
  9
$DIMBLK
  1

  9
$DIMASO
 70
     1
  9
$DIMSHO
 70
     1
  9
$DIMPOST
  1

  9
$DIMAPOST
  1

  9
$DIMALT
 70
     0
  9
$DIMALTD
 70
     2
  9
$DIMALTF
 40
25.4
  9
$DIMLFAC
 40
1.0
  9
$DIMTOFL
 70
     0
  9
$DIMTVP
 40
0.0
  9
$DIMTIX
 70
     0
  9
$DIMSOXD
 70
     0
  9
$DIMSAH
 70
     0
  9
$DIMBLK1
  1

  9
$DIMBLK2
  1

  9
$DIMSTYLE
  2
Standard
  9
$DIMCLRD
 70
     0
  9
$DIMCLRE
 70
     0
  9
$DIMCLRT
 70
     0
  9
$DIMTFAC
 40
1.0
  9
$DIMGAP
 40
0.09
  9
$DIMJUST
 70
     0
  9
$DIMSD1
 70
     0
  9
$DIMSD2
 70
     0
  9
$DIMTOLJ
 70
     1
  9
$DIMTZIN
 70
     0
  9
$DIMALTZ
 70
     0
  9
$DIMALTTZ
 70
     0
  9
$DIMUPT
 70
     0
  9
$DIMDEC
 70
     4
  9
$DIMTDEC
 70
     4
  9
$DIMALTU
 70
     2
  9
$DIMALTTD
 70
     2
  9
$DIMTXSTY
  7
Standard
  9
$DIMAUNIT
 70
     0
  9
$DIMADEC
 70
     0
  9
$DIMALTRND
 40
0.0
  9
$DIMAZIN
 70
     0
  9
$DIMDSEP
 70
    46
  9
$DIMATFIT
 70
     3
  9
$DIMFRAC
 70
     0
  9
$DIMLDRBLK
  1

  9
$DIMLUNIT
 70
     2
  9
$DIMLWD
 70
    -2
  9
$DIMLWE
 70
    -2
  9
$DIMTMOVE
 70
     0
  9
$LUNITS
 70
     2
  9
$LUPREC
 70
     4
  9
$SKETCHINC
 40
0.1
  9
$FILLETRAD
 40
0.0
  9
$AUNITS
 70
     0
  9
$AUPREC
 70
     0
  9
$MENU
  1
.
  9
$ELEVATION
 40
0.0
  9
$PELEVATION
 40
0.0
  9
$THICKNESS
 40
0.0
  9
$LIMCHECK
 70
     0
  9
$CHAMFERA
 40
0.0
  9
$CHAMFERB
 40
0.0
  9
$CHAMFERC
 40
0.0
  9
$CHAMFERD
 40
0.0
  9
$SKPOLY
 70
     0
  9
$TDCREATE
 40
2454874.796047812
  9
$TDUCREATE
 40
2454874.754381145
  9
$TDUPDATE
 40
2454874.796339699
  9
$TDUUPDATE
 40
2454874.754673032
  9
$TDINDWG
 40
0.0002920602
  9
$TDUSRTIMER
 40
0.0002920602
  9
$USRTIMER
 70
     1
  9
$ANGBASE
 50
0.0
  9
$ANGDIR
 70
     0
  9
$PDMODE
 70
     0
  9
$PDSIZE
 40
0.0
  9
$PLINEWID
 40
0.0
  9
$SPLFRAME
 70
     0
  9
$SPLINETYPE
 70
     6
  9
$SPLINESEGS
 70
     8
  9
$HANDSEED
  5
3BD
  9
$SURFTAB1
 70
     6
  9
$SURFTAB2
 70
     6
  9
$SURFTYPE
 70
     6
  9
$SURFU
 70
     6
  9
$SURFV
 70
     6
  9
$UCSBASE
  2

  9
$UCSNAME
  2

  9
$UCSORG
 10
0.0
 20
0.0
 30
0.0
  9
$UCSXDIR
 10
1.0
 20
0.0
 30
0.0
  9
$UCSYDIR
 10
0.0
 20
1.0
 30
0.0
  9
$UCSORTHOREF
  2

  9
$UCSORTHOVIEW
 70
     1
  9
$UCSORGTOP
 10
0.0
 20
0.0
 30
0.0
  9
$UCSORGBOTTOM
 10
0.0
 20
0.0
 30
0.0
  9
$UCSORGLEFT
 10
0.0
 20
0.0
 30
0.0
  9
$UCSORGRIGHT
 10
0.0
 20
0.0
 30
0.0
  9
$UCSORGFRONT
 10
0.0
 20
0.0
 30
0.0
  9
$UCSORGBACK
 10
0.0
 20
0.0
 30
0.0
  9
$PUCSBASE
  2

  9
$PUCSNAME
  2

  9
$PUCSORG
 10
0.0
 20
0.0
 30
0.0
  9
$PUCSXDIR
 10
1.0
 20
0.0
 30
0.0
  9
$PUCSYDIR
 10
0.0
 20
1.0
 30
0.0
  9
$PUCSORTHOREF
  2

  9
$PUCSORTHOVIEW
 70
     0
  9
$PUCSORGTOP
 10
0.0
 20
0.0
 30
0.0
  9
$PUCSORGBOTTOM
 10
0.0
 20
0.0
 30
0.0
  9
$PUCSORGLEFT
 10
0.0
 20
0.0
 30
0.0
  9
$PUCSORGRIGHT
 10
0.0
 20
0.0
 30
0.0
  9
$PUCSORGFRONT
 10
0.0
 20
0.0
 30
0.0
  9
$PUCSORGBACK
 10
0.0
 20
0.0
 30
0.0
  9
$USERI1
 70
     0
  9
$USERI2
 70
     0
  9
$USERI3
 70
     0
  9
$USERI4
 70
     0
  9
$USERI5
 70
     0
  9
$USERR1
 40
0.0
  9
$USERR2
 40
0.0
  9
$USERR3
 40
0.0
  9
$USERR4
 40
0.0
  9
$USERR5
 40
0.0
  9
$WORLDVIEW
 70
     1
  9
$SHADEDGE
 70
     3
  9
$SHADEDIF
 70
    70
  9
$TILEMODE
 70
     1
  9
$MAXACTVP
 70
    64
  9
$PINSBASE
 10
0.0
 20
0.0
 30
0.0
  9
$PLIMCHECK
 70
     0
  9
$PEXTMIN
 10
1.000000000000000E+20
 20
1.000000000000000E+20
 30
1.000000000000000E+20
  9
$PEXTMAX
 10
-1.000000000000000E+20
 20
-1.000000000000000E+20
 30
-1.000000000000000E+20
  9
$PLIMMIN
 10
0.0
 20
0.0
  9
$PLIMMAX
 10
12.0
 20
9.0
  9
$UNITMODE
 70
     0
  9
$VISRETAIN
 70
     1
  9
$PLINEGEN
 70
     0
  9
$PSLTSCALE
 70
     1
  9
$TREEDEPTH
 70
  3020
  9
$CMLSTYLE
  2
Standard
  9
$CMLJUST
 70
     0
  9
$CMLSCALE
 40
1.0
  9
$PROXYGRAPHICS
 70
     1
  9
$MEASUREMENT
 70
     0
  9
$CELWEIGHT
370
    -1
  9
$ENDCAPS
280
     0
  9
$JOINSTYLE
280
     0
  9
$LWDISPLAY
290
     0
  9
$INSUNITS
 70
     0
  9
$HYPERLINKBASE
  1

  9
$STYLESHEET
  1

  9
$XEDIT
290
     1
  9
$CEPSNTYPE
380
     0
  9
$PSTYLEMODE
290
     1
  9
$FINGERPRINTGUID
  2
{CA49F114-E81C-4712-A4B1-9939AC3CEFAD}
  9
$VERSIONGUID
  2
{E70FDE2E-A5F6-4ED8-8FB4-1A75E74F6B06}
  9
$EXTNAMES
290
     1
  9
$PSVPSCALE
 40
0.0
  9
$OLESTARTUP
290
     0
  0
ENDSEC
  0
SECTION
  2
CLASSES
  0
CLASS
  1
ACDBDICTIONARYWDFLT
  2
AcDbDictionaryWithDefault
  3
AutoCAD 2000
 90
        0
280
     0
281
     0
  0
CLASS
  1
ACDBPLACEHOLDER
  2
AcDbPlaceHolder
  3
AutoCAD 2000
 90
        0
280
     0
281
     0
  0
CLASS
  1
LAYOUT
  2
AcDbLayout
  3
AutoCAD 2000
 90
        0
280
     0
281
     0
  0
CLASS
  1
DICTIONARYVAR
  2
AcDbDictionaryVar
  3
AutoCAD 2000
 90
        0
280
     0
281
     0
  0
ENDSEC
  0
SECTION
  2
TABLES
  0
TABLE
  2
VPORT
  5
8
330
0
100
AcDbSymbolTable
 70
     2
  0
VPORT
  5
3BC
330
8
100
AcDbSymbolTableRecord
100
AcDbViewportTableRecord
  2
*Active
 70
     0
 10
0.0
 20
0.0
 11
1.0
 21
1.0
 12
17.0
 22
40.99999999999999
 13
0.0
 23
0.0
 14
1.0
 24
1.0
 15
0.0
 25
0.0
 16
0.0
 26
0.0
 36
1.0
 17
0.0
 27
0.0
 37
0.0
 40
82.02592707368424
 41
1.968387776606954
 42
50.0
 43
0.0
 44
0.0
 50
0.0
 51
0.0
 71
     0
 72
   100
 73
     1
 74
     3
 75
     0
 76
     0
 77
     0
 78
     0
281
     0
 65
     1
110
0.0
120
0.0
130
0.0
111
1.0
121
0.0
131
0.0
112
0.0
122
1.0
132
0.0
 79
     1
146
0.0
  0
ENDTAB
  0
TABLE
  2
LTYPE
  5
5
330
0
100
AcDbSymbolTable
 70
     1
  0
LTYPE
  5
13
330
5
100
AcDbSymbolTableRecord
100
AcDbLinetypeTableRecord
  2
ByBlock
 70
     0
  3

 72
    65
 73
     0
 40
0.0
  0
LTYPE
  5
14
330
5
100
AcDbSymbolTableRecord
100
AcDbLinetypeTableRecord
  2
ByLayer
 70
     0
  3

 72
    65
 73
     0
 40
0.0
  0
LTYPE
  5
15
330
5
100
AcDbSymbolTableRecord
100
AcDbLinetypeTableRecord
  2
Continuous
 70
     0
  3
Solid line
 72
    65
 73
     0
 40
0.0
  0
ENDTAB
  0
TABLE
  2
LAYER
  5
2
330
0
100
AcDbSymbolTable
 70
     1
  0
LAYER
  5
10
330
2
100
AcDbSymbolTableRecord
100
AcDbLayerTableRecord
  2
0
 70
     0
 62
     7
  6
Continuous
370
    -3
390
F
  0
ENDTAB
  0
TABLE
  2
STYLE
  5
3
330
0
100
AcDbSymbolTable
 70
     1
  0
STYLE
  5
11
330
3
100
AcDbSymbolTableRecord
100
AcDbTextStyleTableRecord
  2
Standard
 70
     0
 40
0.0
 41
1.0
 50
0.0
 71
     0
 42
0.2
  3
txt
  4

  0
ENDTAB
  0
TABLE
  2
VIEW
  5
6
330
0
100
AcDbSymbolTable
 70
     0
  0
ENDTAB
  0
TABLE
  2
UCS
  5
7
330
0
100
AcDbSymbolTable
 70
     0
  0
ENDTAB
  0
TABLE
  2
APPID
  5
9
330
0
100
AcDbSymbolTable
 70
     1
  0
APPID
  5
12
330
9
100
AcDbSymbolTableRecord
100
AcDbRegAppTableRecord
  2
ACAD
 70
     0
  0
ENDTAB
  0
TABLE
  2
DIMSTYLE
  5
A
330
0
100
AcDbSymbolTable
 70
     1
100
AcDbDimStyleTable
 71
     0
  0
DIMSTYLE
105
3B4
330
A
100
AcDbSymbolTableRecord
100
AcDbDimStyleTableRecord
  2
Standard
 70
     0
340
11
  0
ENDTAB
  0
TABLE
  2
BLOCK_RECORD
  5
1
330
0
100
AcDbSymbolTable
 70
     0
  0
BLOCK_RECORD
  5
1E
330
1
100
AcDbSymbolTableRecord
100
AcDbBlockTableRecord
  2
*Model_Space
340
21
  0
BLOCK_RECORD
  5
1A
330
1
100
AcDbSymbolTableRecord
100
AcDbBlockTableRecord
  2
*Paper_Space
340
1D
  0
ENDTAB
  0
ENDSEC
  0
SECTION
  2
BLOCKS
  0
BLOCK
  5
1F
330
1E
100
AcDbEntity
  8
0
100
AcDbBlockBegin
  2
*Model_Space
 70
     0
 10
0.0
 20
0.0
 30
0.0
  3
*Model_Space
  1

  0
ENDBLK
  5
20
330
1E
100
AcDbEntity
  8
0
100
AcDbBlockEnd
  0
BLOCK
  5
1B
330
1A
100
AcDbEntity
 67
     1
  8
0
100
AcDbBlockBegin
  2
*Paper_Space
 70
     0
 10
0.0
 20
0.0
 30
0.0
  3
*Paper_Space
  1

  0
ENDBLK
  5
1C
330
1A
100
AcDbEntity
 67
     1
  8
0
100
AcDbBlockEnd
  0
ENDSEC
  0
SECTION
  2
ENTITIES
  0
LINE
  5
22
330
1E
100
AcDbEntity
  8
0
100
AcDbLine
 10
0.0
 20
12.75556
 30
0.0
 11
0.6
 21
8.35555999999997
 31
0.0
  0
LINE
  5
23
330
1E
100
AcDbEntity
  8
0
100
AcDbLine
 10
0.0
 20
12.75556
 30
0.0
 11
0.6
 21
17.15556
 31
0.0
  0
LINE
  5
24
330
1E
100
AcDbEntity
  8
0
100
AcDbLine
 10
0.0
 20
12.75556
 30
0.0
 11
0.6
 21
8.35555999999997
 31
0.0
  0
LINE
  5
25
330
1E
100
AcDbEntity
  8
0
100
AcDbLine
 10
0.6
 20
8.35555999999997
 30
0.0
 11
2.299999999999999
 21
4.255559999999969
 31
0.0
  0
LINE
  5
26
330
1E
100
AcDbEntity
  8
0
100
AcDbLine
 10
0.6
 20
8.35555999999997
 30
0.0
 11
2.299999999999999
 21
4.255559999999969
 31
0.0
  0
LINE
  5
27
330
1E
100
AcDbEntity
  8
0
100
AcDbLine
 10
0.6
 20
8.35555999999997
 30
0.0
 11
2.299999999999999
 21
4.255559999999969
 31
0.0
  0
LINE
  5
28
330
1E
100
AcDbEntity
  8
0
100
AcDbLine
 10
2.299999999999999
 20
4.255559999999969
 30
0.0
 11
5.0
 21
0.7555599999999691
 31
0.0
  0
LINE
  5
29
330
1E
100
AcDbEntity
  8
0
100
AcDbLine
 10
0.6
 20
17.15556
 30
0.0
 11
2.299999999999999
 21
21.25556
 31
0.0
  0
LINE
  5
2A
330
1E
100
AcDbEntity
  8
0
100
AcDbLine
 10
2.299999999999999
 20
21.25556
 30
0.0
 11
5.0
 21
24.75556
 31
0.0
  0
LINE
  5
2B
330
1E
100
AcDbEntity
  8
0
100
AcDbLine
 10
0.6
 20
17.15556
 30
0.0
 11
2.299999999999999
 21
21.25556
 31
0.0
  0
LINE
  5
2C
330
1E
100
AcDbEntity
  8
0
100
AcDbLine
 10
0.6
 20
8.35555999999997
 30
0.0
 11
2.299999999999999
 21
4.255559999999969
 31
0.0
  0
LINE
  5
2D
330
1E
100
AcDbEntity
  8
0
100
AcDbLine
 10
2.299999999999999
 20
4.255559999999969
 30
0.0
 11
5.0
 21
0.7555599999999699
 31
0.0
  0
LINE
  5
2E
330
1E
100
AcDbEntity
  8
0
100
AcDbLine
 10
0.6
 20
41.35556
 30
0.0
 11
2.299999999999999
 21
37.25555999999999
 31
0.0
  0
LINE
  5
2F
330
1E
100
AcDbEntity
  8
0
100
AcDbLine
 10
3.0
 20
12.75556
 30
0.0
 11
3.5
 21
9.155559999999971
 31
0.0
  0
LINE
  5
30
330
1E
100
AcDbEntity
  8
0
100
AcDbLine
 10
3.0
 20
12.75556
 30
0.0
 11
3.5
 21
16.35556
 31
0.0
  0
LINE
  5
31
330
1E
100
AcDbEntity
  8
0
100
AcDbLine
 10
2.299999999999999
 20
37.25555999999999
 30
0.0
 11
5.0
 21
33.75555999999999
 31
0.0
  0
LINE
  5
32
330
1E
100
AcDbEntity
  8
0
100
AcDbLine
 10
0.6
 20
41.35556
 30
0.0
 11
2.299999999999999
 21
37.25555999999999
 31
0.0
  0
LINE
  5
33
330
1E
100
AcDbEntity
  8
0
100
AcDbLine
 10
0.0
 20
45.75555999999999
 30
0.0
 11
0.6
 21
50.15556
 31
0.0
  0
LINE
  5
34
330
1E
100
AcDbEntity
  8
0
100
AcDbLine
 10
0.0
 20
45.75555999999999
 30
0.0
 11
0.6
 21
41.35556
 31
0.0
  0
LINE
  5
35
330
1E
100
AcDbEntity
  8
0
100
AcDbLine
 10
0.6
 20
50.15556
 30
0.0
 11
2.299999999999999
 21
54.25556
 31
0.0
  0
LINE
  5
36
330
1E
100
AcDbEntity
  8
0
100
AcDbLine
 10
0.6
 20
50.15556
 30
0.0
 11
2.299999999999999
 21
54.25556
 31
0.0
  0
LINE
  5
37
330
1E
100
AcDbEntity
  8
0
100
AcDbLine
 10
2.299999999999999
 20
54.25556
 30
0.0
 11
5.0
 21
57.75555999999999
 31
0.0
  0
LINE
  5
38
330
1E
100
AcDbEntity
  8
0
100
AcDbLine
 10
3.0
 20
45.75555999999999
 30
0.0
 11
3.5
 21
42.15555999999999
 31
0.0
  0
LINE
  5
39
330
1E
100
AcDbEntity
  8
0
100
AcDbLine
 10
3.0
 20
45.75555999999999
 30
0.0
 11
3.5
 21
49.35556
 31
0.0
  0
LINE
  5
3A
330
1E
100
AcDbEntity
  8
0
100
AcDbLine
 10
3.5
 20
16.35556
 30
0.0
 11
4.9
 21
19.75556
 31
0.0
  0
LINE
  5
3B
330
1E
100
AcDbEntity
  8
0
100
AcDbLine
 10
4.9
 20
19.75556
 30
0.0
 11
7.099999999999999
 21
22.65556
 31
0.0
  0
LINE
  5
3C
330
1E
100
AcDbEntity
  8
0
100
AcDbLine
 10
3.5
 20
9.155559999999971
 30
0.0
 11
4.9
 21
5.755559999999969
 31
0.0
  0
LINE
  5
3D
330
1E
100
AcDbEntity
  8
0
100
AcDbLine
 10
4.9
 20
5.755559999999969
 30
0.0
 11
7.099999999999999
 21
2.85555999999997
 31
0.0
  0
LINE
  5
3E
330
1E
100
AcDbEntity
  8
0
100
AcDbLine
 10
4.9
 20
38.75555999999999
 30
0.0
 11
7.099999999999999
 21
35.85555999999999
 31
0.0
  0
LINE
  5
3F
330
1E
100
AcDbEntity
  8
0
100
AcDbLine
 10
4.9
 20
38.75555999999999
 30
0.0
 11
7.099999999999999
 21
35.85555999999999
 31
0.0
  0
LINE
  5
40
330
1E
100
AcDbEntity
  8
0
100
AcDbLine
 10
5.0
 20
0.7555599999999691
 30
0.0
 11
7.099999999999999
 21
2.85555999999997
 31
0.0
  0
LINE
  5
41
330
1E
100
AcDbEntity
  8
0
100
AcDbLine
 10
5.0
 20
12.74426
 30
0.0
 11
5.4
 21
9.644259999999981
 31
0.0
  0
LINE
  5
42
330
1E
100
AcDbEntity
  8
0
100
AcDbLine
 10
5.0
 20
12.74426
 30
0.0
 11
5.4
 21
15.84426
 31
0.0
  0
LINE
  5
43
330
1E
100
AcDbEntity
  8
0
100
AcDbLine
 10
5.0
 20
12.74426
 30
0.0
 11
5.4
 21
9.644259999999981
 31
0.0
  0
LINE
  5
44
330
1E
100
AcDbEntity
  8
0
100
AcDbLine
 10
5.0
 20
12.74426
 30
0.0
 11
5.4
 21
15.84426
 31
0.0
  0
LINE
  5
45
330
1E
100
AcDbEntity
  8
0
100
AcDbLine
 10
5.0
 20
12.74426
 30
0.0
 11
5.4
 21
9.64425999999997
 31
0.0
  0
LINE
  5
46
330
1E
100
AcDbEntity
  8
0
100
AcDbLine
 10
6.599999999999999
 20
6.744259999999981
 30
0.0
 11
8.5
 21
4.24425999999998
 31
0.0
  0
LINE
  5
47
330
1E
100
AcDbEntity
  8
0
100
AcDbLine
 10
6.599999999999999
 20
6.744259999999981
 30
0.0
 11
8.5
 21
4.24425999999998
 31
0.0
  0
LINE
  5
48
330
1E
100
AcDbEntity
  8
0
100
AcDbLine
 10
7.0
 20
7.04425999999998
 30
0.0
 11
8.9
 21
4.64425999999998
 31
0.0
  0
LINE
  5
49
330
1E
100
AcDbEntity
  8
0
100
AcDbLine
 10
6.599999999999999
 20
6.74425999999997
 30
0.0
 11
8.199820344047671
 21
4.63923323151619
 31
0.0
  0
LINE
  5
4A
330
1E
100
AcDbEntity
  8
0
100
AcDbLine
 10
5.4
 20
15.84426
 30
0.0
 11
6.599999999999999
 21
18.74426
 31
0.0
  0
LINE
  5
4B
330
1E
100
AcDbEntity
  8
0
100
AcDbLine
 10
5.4
 20
9.644259999999981
 30
0.0
 11
6.599999999999999
 21
6.744259999999981
 31
0.0
  0
LINE
  5
4C
330
1E
100
AcDbEntity
  8
0
100
AcDbLine
 10
6.4
 20
9.94425999999998
 30
0.0
 11
7.5
 21
7.244259999999981
 31
0.0
  0
LINE
  5
4D
330
1E
100
AcDbEntity
  8
0
100
AcDbLine
 10
6.03571428571428
 20
12.49426
 30
0.0
 11
8.53409090909091
 21
12.49426
 31
0.0
  0
LINE
  5
4E
330
1E
100
AcDbEntity
  8
0
100
AcDbLine
 10
6.03571428571428
 20
12.49426
 30
0.0
 11
14.75
 21
12.49426
 31
0.0
  0
LINE
  5
4F
330
1E
100
AcDbEntity
  8
0
100
AcDbLine
 10
6.0
 20
12.74426
 30
0.0
 11
6.4
 21
9.94425999999998
 31
0.0
  0
LINE
  5
50
330
1E
100
AcDbEntity
  8
0
100
AcDbLine
 10
6.0
 20
12.74426
 30
0.0
 11
6.4
 21
15.54426
 31
0.0
  0
LINE
  5
51
330
1E
100
AcDbEntity
  8
0
100
AcDbLine
 10
6.03571428571429
 20
12.49426
 30
0.0
 11
14.75
 21
12.49426
 31
0.0
  0
LINE
  5
52
330
1E
100
AcDbEntity
  8
0
100
AcDbLine
 10
6.03571428571429
 20
12.49426
 30
0.0
 11
8.53409090909091
 21
12.49426
 31
0.0
  0
LINE
  5
53
330
1E
100
AcDbEntity
  8
0
100
AcDbLine
 10
5.9
 20
9.744259999999981
 30
0.0
 11
7.0
 21
7.04425999999998
 31
0.0
  0
LINE
  5
54
330
1E
100
AcDbEntity
  8
0
100
AcDbLine
 10
6.4
 20
15.54426
 30
0.0
 11
7.5
 21
18.24426
 31
0.0
  0
LINE
  5
55
330
1E
100
AcDbEntity
  8
0
100
AcDbLine
 10
6.03571428571428
 20
12.99426
 30
0.0
 11
14.75
 21
12.99426
 31
0.0
  0
LINE
  5
56
330
1E
100
AcDbEntity
  8
0
100
AcDbLine
 10
5.9
 20
15.74426
 30
0.0
 11
7.0
 21
18.44426
 31
0.0
  0
LINE
  5
57
330
1E
100
AcDbEntity
  8
0
100
AcDbLine
 10
7.0
 20
18.44426
 30
0.0
 11
8.9
 21
20.84426
 31
0.0
  0
LINE
  5
58
330
1E
100
AcDbEntity
  8
0
100
AcDbLine
 10
6.599999999999999
 20
18.74426
 30
0.0
 11
8.5
 21
21.24426
 31
0.0
  0
LINE
  5
59
330
1E
100
AcDbEntity
  8
0
100
AcDbLine
 10
6.4
 20
15.54426
 30
0.0
 11
7.399784013391699
 21
17.9982753055978
 31
0.0
  0
LINE
  5
5A
330
1E
100
AcDbEntity
  8
0
100
AcDbLine
 10
5.5
 20
12.74426
 30
0.0
 11
5.9
 21
9.744259999999981
 31
0.0
  0
LINE
  5
5B
330
1E
100
AcDbEntity
  8
0
100
AcDbLine
 10
5.5
 20
12.74426
 30
0.0
 11
5.9
 21
15.74426
 31
0.0
  0
LINE
  5
5C
330
1E
100
AcDbEntity
  8
0
100
AcDbLine
 10
5.4
 20
9.644259999999981
 30
0.0
 11
6.599999999999999
 21
6.744259999999981
 31
0.0
  0
LINE
  5
5D
330
1E
100
AcDbEntity
  8
0
100
AcDbLine
 10
5.4
 20
9.64425999999997
 30
0.0
 11
6.599999999999999
 21
6.74425999999997
 31
0.0
  0
LINE
  5
5E
330
1E
100
AcDbEntity
  8
0
100
AcDbLine
 10
5.0
 20
24.75556
 30
0.0
 11
8.5
 21
27.45556
 31
0.0
  0
LINE
  5
5F
330
1E
100
AcDbEntity
  8
0
100
AcDbLine
 10
5.0
 20
0.7555599999999699
 30
0.0
 11
7.099999999999999
 21
2.85555999999997
 31
0.0
  0
LINE
  5
60
330
1E
100
AcDbEntity
  8
0
100
AcDbLine
 10
8.434095000008499
 20
3.655094999992029
 30
0.0
 11
8.74507
 21
3.364429999999979
 31
0.0
  0
LINE
  5
61
330
1E
100
AcDbEntity
  8
0
100
AcDbLine
 10
8.434095000008499
 20
3.655094999992029
 30
0.0
 11
8.74507
 21
3.364429999999979
 31
0.0
  0
LINE
  5
62
330
1E
100
AcDbEntity
  8
0
100
AcDbLine
 10
8.434095000008499
 20
3.655094999992029
 30
0.0
 11
8.74507
 21
3.364429999999979
 31
0.0
  0
LINE
  5
63
330
1E
100
AcDbEntity
  8
0
100
AcDbLine
 10
8.434095000008499
 20
3.655094999992029
 30
0.0
 11
8.74507
 21
3.364429999999979
 31
0.0
  0
LINE
  5
64
330
1E
100
AcDbEntity
  8
0
100
AcDbLine
 10
8.434095000008499
 20
3.655094999992029
 30
0.0
 11
8.74507
 21
3.364429999999979
 31
0.0
  0
LINE
  5
65
330
1E
100
AcDbEntity
  8
0
100
AcDbLine
 10
8.43409500000866
 20
3.65509499999188
 30
0.0
 11
8.74507
 21
3.364429999999979
 31
0.0
  0
LINE
  5
66
330
1E
100
AcDbEntity
  8
0
100
AcDbLine
 10
8.43409500000866
 20
3.65509499999188
 30
0.0
 11
8.74507
 21
3.364429999999979
 31
0.0
  0
LINE
  5
67
330
1E
100
AcDbEntity
  8
0
100
AcDbLine
 10
8.43409500000866
 20
3.65509499999188
 30
0.0
 11
8.74507
 21
3.364429999999979
 31
0.0
  0
LINE
  5
68
330
1E
100
AcDbEntity
  8
0
100
AcDbLine
 10
8.43409500000866
 20
3.65509499999188
 30
0.0
 11
8.74507
 21
3.364429999999979
 31
0.0
  0
LINE
  5
69
330
1E
100
AcDbEntity
  8
0
100
AcDbLine
 10
8.43409500000903
 20
3.655094999991529
 30
0.0
 11
8.74507
 21
3.364429999999979
 31
0.0
  0
LINE
  5
6A
330
1E
100
AcDbEntity
  8
0
100
AcDbLine
 10
8.43409500000903
 20
3.655094999991529
 30
0.0
 11
8.74507
 21
3.364429999999979
 31
0.0
  0
LINE
  5
6B
330
1E
100
AcDbEntity
  8
0
100
AcDbLine
 10
8.74507
 20
3.364429999999979
 30
0.0
 11
9.056039999999999
 21
3.073849999999979
 31
0.0
  0
LINE
  5
6C
330
1E
100
AcDbEntity
  8
0
100
AcDbLine
 10
8.74507
 20
3.364449999999979
 30
0.0
 11
9.056039999999999
 21
3.073879999999979
 31
0.0
  0
LINE
  5
6D
330
1E
100
AcDbEntity
  8
0
100
AcDbLine
 10
8.74507
 20
3.364449999999979
 30
0.0
 11
9.13055085858685
 21
3.76504134747398
 31
0.0
  0
LINE
  5
6E
330
1E
100
AcDbEntity
  8
0
100
AcDbLine
 10
8.74507
 20
3.364449999999979
 30
0.0
 11
9.13055085858685
 21
3.76504134747398
 31
0.0
  0
LINE
  5
6F
330
1E
100
AcDbEntity
  8
0
100
AcDbLine
 10
8.74507
 20
3.364429999999979
 30
0.0
 11
9.056039999999999
 21
3.073849999999979
 31
0.0
  0
LINE
  5
70
330
1E
100
AcDbEntity
  8
0
100
AcDbLine
 10
8.434095000010389
 20
3.65509499999027
 30
0.0
 11
8.74507
 21
3.364429999999979
 31
0.0
  0
LINE
  5
71
330
1E
100
AcDbEntity
  8
0
100
AcDbLine
 10
8.74507
 20
3.364429999999979
 30
0.0
 11
9.056039999999999
 21
3.073849999999979
 31
0.0
  0
LINE
  5
72
330
1E
100
AcDbEntity
  8
0
100
AcDbLine
 10
8.74507
 20
3.364429999999979
 30
0.0
 11
9.056039999999999
 21
3.073849999999979
 31
0.0
  0
LINE
  5
73
330
1E
100
AcDbEntity
  8
0
100
AcDbLine
 10
8.74507
 20
3.364429999999979
 30
0.0
 11
9.056039999999999
 21
3.073849999999979
 31
0.0
  0
LINE
  5
74
330
1E
100
AcDbEntity
  8
0
100
AcDbLine
 10
8.74507
 20
3.364429999999979
 30
0.0
 11
9.056039999999999
 21
3.073849999999979
 31
0.0
  0
LINE
  5
75
330
1E
100
AcDbEntity
  8
0
100
AcDbLine
 10
8.74507
 20
3.364429999999979
 30
0.0
 11
9.056039999999999
 21
3.073849999999979
 31
0.0
  0
LINE
  5
76
330
1E
100
AcDbEntity
  8
0
100
AcDbLine
 10
8.43409500000903
 20
3.655094999991529
 30
0.0
 11
8.74507
 21
3.364429999999979
 31
0.0
  0
LINE
  5
77
330
1E
100
AcDbEntity
  8
0
100
AcDbLine
 10
8.74507
 20
3.364429999999979
 30
0.0
 11
9.056039999999999
 21
3.073849999999979
 31
0.0
  0
LINE
  5
78
330
1E
100
AcDbEntity
  8
0
100
AcDbLine
 10
8.43409500000866
 20
3.65509499999188
 30
0.0
 11
8.74507
 21
3.364429999999979
 31
0.0
  0
LINE
  5
79
330
1E
100
AcDbEntity
  8
0
100
AcDbLine
 10
8.74507
 20
3.364429999999979
 30
0.0
 11
9.056039999999999
 21
3.073849999999979
 31
0.0
  0
LINE
  5
7A
330
1E
100
AcDbEntity
  8
0
100
AcDbLine
 10
8.434095000008499
 20
3.655094999992029
 30
0.0
 11
8.74507
 21
3.364429999999979
 31
0.0
  0
LINE
  5
7B
330
1E
100
AcDbEntity
  8
0
100
AcDbLine
 10
7.812149999999999
 20
4.23632999999998
 30
0.0
 11
7.998731999995839
 21
4.06198800000386
 31
0.0
  0
LINE
  5
7C
330
1E
100
AcDbEntity
  8
0
100
AcDbLine
 10
7.812149999999999
 20
4.23632999999998
 30
0.0
 11
7.998731999995769
 21
4.06198800000393
 31
0.0
  0
LINE
  5
7D
330
1E
100
AcDbEntity
  8
0
100
AcDbLine
 10
7.812149999999999
 20
4.23632999999998
 30
0.0
 11
7.998731999995719
 21
4.061988000003979
 31
0.0
  0
LINE
  5
7E
330
1E
100
AcDbEntity
  8
0
100
AcDbLine
 10
7.812149999999999
 20
4.23632999999998
 30
0.0
 11
7.99873199999546
 21
4.061988000004209
 31
0.0
  0
LINE
  5
7F
330
1E
100
AcDbEntity
  8
0
100
AcDbLine
 10
7.812149999999999
 20
4.23632999999998
 30
0.0
 11
7.998731999995769
 21
4.06198800000393
 31
0.0
  0
LINE
  5
80
330
1E
100
AcDbEntity
  8
0
100
AcDbLine
 10
7.812149999999999
 20
4.23632999999998
 30
0.0
 11
7.998731999995839
 21
4.06198800000386
 31
0.0
  0
LINE
  5
81
330
1E
100
AcDbEntity
  8
0
100
AcDbLine
 10
7.812149999999999
 20
4.23632999999998
 30
0.0
 11
7.998731999995719
 21
4.06198800000397
 31
0.0
  0
LINE
  5
82
330
1E
100
AcDbEntity
  8
0
100
AcDbLine
 10
7.812149999999999
 20
4.23632999999998
 30
0.0
 11
7.99873199999546
 21
4.061988000004209
 31
0.0
  0
LINE
  5
83
330
1E
100
AcDbEntity
  8
0
100
AcDbLine
 10
7.812149999999999
 20
4.23632999999998
 30
0.0
 11
7.998731999995769
 21
4.06198800000393
 31
0.0
  0
LINE
  5
84
330
1E
100
AcDbEntity
  8
0
100
AcDbLine
 10
7.812149999999999
 20
4.23632999999998
 30
0.0
 11
7.998731999995839
 21
4.06198800000386
 31
0.0
  0
LINE
  5
85
330
1E
100
AcDbEntity
  8
0
100
AcDbLine
 10
7.812149999999999
 20
4.236359999999979
 30
0.0
 11
8.199820344047671
 21
4.639233231516199
 31
0.0
  0
LINE
  5
86
330
1E
100
AcDbEntity
  8
0
100
AcDbLine
 10
7.812149999999999
 20
4.236359999999979
 30
0.0
 11
8.199820344047671
 21
4.639233231516199
 31
0.0
  0
LINE
  5
87
330
1E
100
AcDbEntity
  8
0
100
AcDbLine
 10
7.812149999999999
 20
4.236359999999979
 30
0.0
 11
8.12312
 21
3.945739999999979
 31
0.0
  0
LINE
  5
88
330
1E
100
AcDbEntity
  8
0
100
AcDbLine
 10
8.12312
 20
3.945739999999979
 30
0.0
 11
8.434095000012808
 21
3.655094999987999
 31
0.0
  0
LINE
  5
89
330
1E
100
AcDbEntity
  8
0
100
AcDbLine
 10
8.12312
 20
3.945739999999979
 30
0.0
 11
8.434095000014171
 21
3.65509499998674
 31
0.0
  0
LINE
  5
8A
330
1E
100
AcDbEntity
  8
0
100
AcDbLine
 10
8.12312
 20
3.945739999999979
 30
0.0
 11
8.43409500001322
 21
3.65509499998762
 31
0.0
  0
LINE
  5
8B
330
1E
100
AcDbEntity
  8
0
100
AcDbLine
 10
8.12312
 20
3.945739999999979
 30
0.0
 11
8.43409500001376
 21
3.655094999987119
 31
0.0
  0
LINE
  5
8C
330
1E
100
AcDbEntity
  8
0
100
AcDbLine
 10
8.12312
 20
3.945739999999979
 30
0.0
 11
8.74507
 21
3.364449999999979
 31
0.0
  0
LINE
  5
8D
330
1E
100
AcDbEntity
  8
0
100
AcDbLine
 10
8.12312
 20
3.945739999999979
 30
0.0
 11
8.46044059769922
 21
4.296311845132589
 31
0.0
  0
LINE
  5
8E
330
1E
100
AcDbEntity
  8
0
100
AcDbLine
 10
8.12312
 20
3.945739999999979
 30
0.0
 11
8.43409500001373
 21
3.65509499998715
 31
0.0
  0
LINE
  5
8F
330
1E
100
AcDbEntity
  8
0
100
AcDbLine
 10
8.12312
 20
3.945739999999979
 30
0.0
 11
8.434095000012279
 21
3.6550949999885
 31
0.0
  0
LINE
  5
90
330
1E
100
AcDbEntity
  8
0
100
AcDbLine
 10
8.12312
 20
3.945739999999979
 30
0.0
 11
8.434095000008499
 21
3.655094999992029
 31
0.0
  0
LINE
  5
91
330
1E
100
AcDbEntity
  8
0
100
AcDbLine
 10
8.12312
 20
3.945739999999979
 30
0.0
 11
8.43409500000903
 21
3.655094999991529
 31
0.0
  0
LINE
  5
92
330
1E
100
AcDbEntity
  8
0
100
AcDbLine
 10
8.12312
 20
3.945739999999979
 30
0.0
 11
8.43409500001889
 21
3.65509499998232
 31
0.0
  0
LINE
  5
93
330
1E
100
AcDbEntity
  8
0
100
AcDbLine
 10
8.12312
 20
3.945739999999979
 30
0.0
 11
8.434095000018229
 21
3.65509499998294
 31
0.0
  0
LINE
  5
94
330
1E
100
AcDbEntity
  8
0
100
AcDbLine
 10
8.12312
 20
3.945739999999979
 30
0.0
 11
8.43409500001373
 21
3.65509499998714
 31
0.0
  0
LINE
  5
95
330
1E
100
AcDbEntity
  8
0
100
AcDbLine
 10
8.12312
 20
3.945739999999979
 30
0.0
 11
8.434095000012279
 21
3.6550949999885
 31
0.0
  0
LINE
  5
96
330
1E
100
AcDbEntity
  8
0
100
AcDbLine
 10
8.12312
 20
3.945739999999979
 30
0.0
 11
8.434095000008499
 21
3.655094999992029
 31
0.0
  0
LINE
  5
97
330
1E
100
AcDbEntity
  8
0
100
AcDbLine
 10
8.12312
 20
3.945739999999979
 30
0.0
 11
8.43409500000903
 21
3.655094999991529
 31
0.0
  0
LINE
  5
98
330
1E
100
AcDbEntity
  8
0
100
AcDbLine
 10
8.12312
 20
3.945739999999979
 30
0.0
 11
8.434095000021279
 21
3.65509499998008
 31
0.0
  0
LINE
  5
99
330
1E
100
AcDbEntity
  8
0
100
AcDbLine
 10
8.12312
 20
3.945739999999979
 30
0.0
 11
8.43409500002172
 21
3.65509499997967
 31
0.0
  0
LINE
  5
9A
330
1E
100
AcDbEntity
  8
0
100
AcDbLine
 10
8.43409500000453
 20
3.65509499999574
 30
0.0
 11
8.74507
 21
3.364429999999979
 31
0.0
  0
LINE
  5
9B
330
1E
100
AcDbEntity
  8
0
100
AcDbLine
 10
8.434095000003779
 20
3.65509499999645
 30
0.0
 11
8.74507
 21
3.364429999999979
 31
0.0
  0
LINE
  5
9C
330
1E
100
AcDbEntity
  8
0
100
AcDbLine
 10
8.434095000000159
 20
3.65509499999983
 30
0.0
 11
8.74507
 21
3.364429999999979
 31
0.0
  0
LINE
  5
9D
330
1E
100
AcDbEntity
  8
0
100
AcDbLine
 10
8.434094999999999
 20
3.655094999999979
 30
0.0
 11
8.74507
 21
3.364429999999979
 31
0.0
  0
LINE
  5
9E
330
1E
100
AcDbEntity
  8
0
100
AcDbLine
 10
8.434095000004719
 20
3.65509499999556
 30
0.0
 11
8.74507
 21
3.36442999999997
 31
0.0
  0
LINE
  5
9F
330
1E
100
AcDbEntity
  8
0
100
AcDbLine
 10
8.12312
 20
3.94573999999997
 30
0.0
 11
8.434095000008499
 21
3.655094999992029
 31
0.0
  0
LINE
  5
A0
330
1E
100
AcDbEntity
  8
0
100
AcDbLine
 10
8.12312
 20
3.94573999999997
 30
0.0
 11
8.43409500000903
 21
3.655094999991529
 31
0.0
  0
LINE
  5
A1
330
1E
100
AcDbEntity
  8
0
100
AcDbLine
 10
8.12312
 20
3.94573999999997
 30
0.0
 11
8.43409500001322
 21
3.65509499998762
 31
0.0
  0
LINE
  5
A2
330
1E
100
AcDbEntity
  8
0
100
AcDbLine
 10
8.12312
 20
3.94573999999997
 30
0.0
 11
8.43409500001376
 21
3.655094999987119
 31
0.0
  0
LINE
  5
A3
330
1E
100
AcDbEntity
  8
0
100
AcDbLine
 10
7.998731999995719
 20
4.061988000003979
 30
0.0
 11
8.12312
 21
3.945739999999979
 31
0.0
  0
LINE
  5
A4
330
1E
100
AcDbEntity
  8
0
100
AcDbLine
 10
7.998731999995719
 20
4.061988000003979
 30
0.0
 11
8.12312
 21
3.945739999999979
 31
0.0
  0
LINE
  5
A5
330
1E
100
AcDbEntity
  8
0
100
AcDbLine
 10
7.998731999995719
 20
4.06198800000397
 30
0.0
 11
8.12312
 21
3.945739999999979
 31
0.0
  0
LINE
  5
A6
330
1E
100
AcDbEntity
  8
0
100
AcDbLine
 10
7.998731999988659
 20
4.061988000010569
 30
0.0
 11
8.12312
 21
3.945739999999979
 31
0.0
  0
LINE
  5
A7
330
1E
100
AcDbEntity
  8
0
100
AcDbLine
 10
7.998731999988639
 20
4.06198800001059
 30
0.0
 11
8.12312
 21
3.945739999999979
 31
0.0
  0
LINE
  5
A8
330
1E
100
AcDbEntity
  8
0
100
AcDbLine
 10
7.99873199998869
 20
4.061988000010539
 30
0.0
 11
8.12312
 21
3.945739999999979
 31
0.0
  0
LINE
  5
A9
330
1E
100
AcDbEntity
  8
0
100
AcDbLine
 10
7.998731999988659
 20
4.061988000010569
 30
0.0
 11
8.12312
 21
3.945739999999979
 31
0.0
  0
LINE
  5
AA
330
1E
100
AcDbEntity
  8
0
100
AcDbLine
 10
7.99873199999297
 20
4.06198800000654
 30
0.0
 11
8.12312
 21
3.945739999999979
 31
0.0
  0
LINE
  5
AB
330
1E
100
AcDbEntity
  8
0
100
AcDbLine
 10
7.998731999995839
 20
4.06198800000386
 30
0.0
 11
8.12312
 21
3.945739999999979
 31
0.0
  0
LINE
  5
AC
330
1E
100
AcDbEntity
  8
0
100
AcDbLine
 10
7.998731999995839
 20
4.06198800000386
 30
0.0
 11
8.12312
 21
3.945739999999979
 31
0.0
  0
LINE
  5
AD
330
1E
100
AcDbEntity
  8
0
100
AcDbLine
 10
7.998731999995839
 20
4.06198800000386
 30
0.0
 11
8.12312
 21
3.945739999999979
 31
0.0
  0
LINE
  5
AE
330
1E
100
AcDbEntity
  8
0
100
AcDbLine
 10
7.998731999995719
 20
4.06198800000397
 30
0.0
 11
8.12312
 21
3.94573999999997
 31
0.0
  0
LINE
  5
AF
330
1E
100
AcDbEntity
  8
0
100
AcDbLine
 10
7.998731999995839
 20
4.06198800000386
 30
0.0
 11
8.12312
 21
3.94573999999997
 31
0.0
  0
LINE
  5
B0
330
1E
100
AcDbEntity
  8
0
100
AcDbLine
 10
7.812149999999999
 20
4.23632999999997
 30
0.0
 11
7.998731999995719
 21
4.06198800000397
 31
0.0
  0
LINE
  5
B1
330
1E
100
AcDbEntity
  8
0
100
AcDbLine
 10
7.812149999999999
 20
4.23632999999997
 30
0.0
 11
7.99873199999546
 21
4.061988000004209
 31
0.0
  0
LINE
  5
B2
330
1E
100
AcDbEntity
  8
0
100
AcDbLine
 10
7.812149999999999
 20
4.23632999999997
 30
0.0
 11
7.998731999995769
 21
4.061988000003919
 31
0.0
  0
LINE
  5
B3
330
1E
100
AcDbEntity
  8
0
100
AcDbLine
 10
7.812149999999999
 20
4.23632999999997
 30
0.0
 11
7.998731999995839
 21
4.06198800000386
 31
0.0
  0
LINE
  5
B4
330
1E
100
AcDbEntity
  8
0
100
AcDbLine
 10
7.812149999999999
 20
4.23632999999997
 30
0.0
 11
7.99873199999998
 21
4.06198799999999
 31
0.0
  0
LINE
  5
B5
330
1E
100
AcDbEntity
  8
0
100
AcDbLine
 10
7.812149999999999
 20
4.23632999999997
 30
0.0
 11
7.99873200000015
 21
4.061987999999829
 31
0.0
  0
LINE
  5
B6
330
1E
100
AcDbEntity
  8
0
100
AcDbLine
 10
8.43409500000525
 20
3.65509499999506
 30
0.0
 11
8.74507
 21
3.36442999999997
 31
0.0
  0
LINE
  5
B7
330
1E
100
AcDbEntity
  8
0
100
AcDbLine
 10
9.056039999999999
 20
3.073879999999979
 30
0.0
 11
9.471663604368551
 21
3.505795660679879
 31
0.0
  0
LINE
  5
B8
330
1E
100
AcDbEntity
  8
0
100
AcDbLine
 10
9.056039999999999
 20
3.073849999999979
 30
0.0
 11
9.47168027845459
 21
3.50578298837449
 31
0.0
  0
LINE
  5
B9
330
1E
100
AcDbEntity
  8
0
100
AcDbLine
 10
8.74507
 20
3.36442999999997
 30
0.0
 11
9.056039999999999
 21
3.073849999999979
 31
0.0
  0
LINE
  5
BA
330
1E
100
AcDbEntity
  8
0
100
AcDbLine
 10
7.5
 20
7.244259999999981
 30
0.0
 11
9.199999999999999
 21
4.94425999999998
 31
0.0
  0
LINE
  5
BB
330
1E
100
AcDbEntity
  8
0
100
AcDbLine
 10
7.399784013391699
 20
17.9982753055978
 30
0.0
 11
9.529716781302019
 21
16.76855195325499
 31
0.0
  0
LINE
  5
BC
330
1E
100
AcDbEntity
  8
0
100
AcDbLine
 10
7.399784013391699
 20
17.9982753055978
 30
0.0
 11
14.92639999999999
 21
13.65276
 31
0.0
  0
LINE
  5
BD
330
1E
100
AcDbEntity
  8
0
100
AcDbLine
 10
7.641684909728359
 20
18.43595134845599
 30
0.0
 11
9.199999999999999
 21
20.54426
 31
0.0
  0
LINE
  5
BE
330
1E
100
AcDbEntity
  8
0
100
AcDbLine
 10
7.5
 20
18.24426
 30
0.0
 11
9.199999999999999
 21
20.54426
 31
0.0
  0
LINE
  5
BF
330
1E
100
AcDbEntity
  8
0
100
AcDbLine
 10
7.641684909728359
 20
18.43595134845599
 30
0.0
 11
15.1764
 21
14.08576
 31
0.0
  0
LINE
  5
C0
330
1E
100
AcDbEntity
  8
0
100
AcDbLine
 10
7.399784013391699
 20
17.9982753055978
 30
0.0
 11
14.92639999999999
 21
13.65276
 31
0.0
  0
LINE
  5
C1
330
1E
100
AcDbEntity
  8
0
100
AcDbLine
 10
7.399784013391699
 20
17.9982753055978
 30
0.0
 11
9.529716781302019
 21
16.76855195325499
 31
0.0
  0
LINE
  5
C2
330
1E
100
AcDbEntity
  8
0
100
AcDbLine
 10
8.5
 20
12.74426
 30
0.0
 11
8.8
 21
10.54426
 31
0.0
  0
LINE
  5
C3
330
1E
100
AcDbEntity
  8
0
100
AcDbLine
 10
8.5
 20
12.74426
 30
0.0
 11
8.8
 21
14.94425999999999
 31
0.0
  0
LINE
  5
C4
330
1E
100
AcDbEntity
  8
0
100
AcDbLine
 10
7.641689917817239
 20
7.0525618758943
 30
0.0
 11
15.1764
 21
11.40276
 31
0.0
  0
LINE
  5
C5
330
1E
100
AcDbEntity
  8
0
100
AcDbLine
 10
7.641689917817239
 20
7.0525618758943
 30
0.0
 11
15.1764
 21
11.40276
 31
0.0
  0
LINE
  5
C6
330
1E
100
AcDbEntity
  8
0
100
AcDbLine
 10
7.39978082835615
 20
7.4902525122167
 30
0.0
 11
14.92639999999999
 21
11.83576
 31
0.0
  0
LINE
  5
C7
330
1E
100
AcDbEntity
  8
0
100
AcDbLine
 10
7.39978082835615
 20
7.4902525122167
 30
0.0
 11
9.529714531321369
 21
8.719973671696569
 31
0.0
  0
LINE
  5
C8
330
1E
100
AcDbEntity
  8
0
100
AcDbLine
 10
8.5
 20
21.24426
 30
0.0
 11
11.0
 21
23.14426
 31
0.0
  0
LINE
  5
C9
330
1E
100
AcDbEntity
  8
0
100
AcDbLine
 10
8.8
 20
10.54426
 30
0.0
 11
9.529714531321369
 21
8.719973671696569
 31
0.0
  0
LINE
  5
CA
330
1E
100
AcDbEntity
  8
0
100
AcDbLine
 10
8.8
 20
10.54426
 30
0.0
 11
9.599999999999999
 21
8.544259999999981
 31
0.0
  0
LINE
  5
CB
330
1E
100
AcDbEntity
  8
0
100
AcDbLine
 10
8.8
 20
14.94425999999999
 30
0.0
 11
9.529716781302019
 21
16.76855195325499
 31
0.0
  0
LINE
  5
CC
330
1E
100
AcDbEntity
  8
0
100
AcDbLine
 10
8.8
 20
14.94425999999999
 30
0.0
 11
9.599999999999999
 21
16.94425999999999
 31
0.0
  0
LINE
  5
CD
330
1E
100
AcDbEntity
  8
0
100
AcDbLine
 10
8.53409090909091
 20
12.99426
 30
0.0
 11
8.8
 21
14.94425999999999
 31
0.0
  0
LINE
  5
CE
330
1E
100
AcDbEntity
  8
0
100
AcDbLine
 10
9.0
 20
12.74426
 30
0.0
 11
9.3
 21
10.64426
 31
0.0
  0
LINE
  5
CF
330
1E
100
AcDbEntity
  8
0
100
AcDbLine
 10
9.0
 20
12.74426
 30
0.0
 11
9.3
 21
14.84426
 31
0.0
  0
LINE
  5
D0
330
1E
100
AcDbEntity
  8
0
100
AcDbLine
 10
8.53409090909091
 20
12.49426
 30
0.0
 11
8.8
 21
10.54426
 31
0.0
  0
LINE
  5
D1
330
1E
100
AcDbEntity
  8
0
100
AcDbLine
 10
9.199999999999999
 20
4.94425999999998
 30
0.0
 11
11.5
 21
3.244259999999979
 31
0.0
  0
LINE
  5
D2
330
1E
100
AcDbEntity
  8
0
100
AcDbLine
 10
9.199999999999999
 20
20.54426
 30
0.0
 11
11.5
 21
22.24426
 31
0.0
  0
LINE
  5
D3
330
1E
100
AcDbEntity
  8
0
100
AcDbLine
 10
9.035714285714288
 20
12.49426
 30
0.0
 11
11.5357142857143
 21
12.49426
 31
0.0
  0
LINE
  5
D4
330
1E
100
AcDbEntity
  8
0
100
AcDbLine
 10
9.035714285714288
 20
12.49426
 30
0.0
 11
11.5357142857143
 21
12.49426
 31
0.0
  0
LINE
  5
D5
330
1E
100
AcDbEntity
  8
0
100
AcDbLine
 10
8.9
 20
20.84426
 30
0.0
 11
11.3
 21
22.74426
 31
0.0
  0
LINE
  5
D6
330
1E
100
AcDbEntity
  8
0
100
AcDbLine
 10
9.3
 20
14.84426
 30
0.0
 11
10.1
 21
16.74426
 31
0.0
  0
LINE
  5
D7
330
1E
100
AcDbEntity
  8
0
100
AcDbLine
 10
9.3
 20
10.64426
 30
0.0
 11
10.1
 21
8.744259999999981
 31
0.0
  0
LINE
  5
D8
330
1E
100
AcDbEntity
  8
0
100
AcDbLine
 10
8.9
 20
4.64425999999998
 30
0.0
 11
11.3
 21
2.744259999999979
 31
0.0
  0
LINE
  5
D9
330
1E
100
AcDbEntity
  8
0
100
AcDbLine
 10
8.5
 20
4.24425999999998
 30
0.0
 11
11.0
 21
2.34425999999998
 31
0.0
  0
LINE
  5
DA
330
1E
100
AcDbEntity
  8
0
100
AcDbLine
 10
8.5
 20
4.24425999999998
 30
0.0
 11
11.0
 21
2.34425999999998
 31
0.0
  0
LINE
  5
DB
330
1E
100
AcDbEntity
  8
0
100
AcDbLine
 10
9.599999999999999
 20
8.544259999999981
 30
0.0
 11
11.0
 21
6.744259999999981
 31
0.0
  0
LINE
  5
DC
330
1E
100
AcDbEntity
  8
0
100
AcDbLine
 10
9.793798089274551
 20
8.295091028075558
 30
0.0
 11
11.0
 21
6.744259999999981
 31
0.0
  0
LINE
  5
DD
330
1E
100
AcDbEntity
  8
0
100
AcDbLine
 10
9.99670301623346
 20
8.989590336445509
 30
0.0
 11
12.13157574858819
 21
10.2221630536707
 31
0.0
  0
LINE
  5
DE
330
1E
100
AcDbEntity
  8
0
100
AcDbLine
 10
9.599999999999999
 20
16.94425999999999
 30
0.0
 11
11.0
 21
18.74426
 31
0.0
  0
LINE
  5
DF
330
1E
100
AcDbEntity
  8
0
100
AcDbLine
 10
9.793794382529618
 20
17.1934242061095
 30
0.0
 11
11.0
 21
18.74426
 31
0.0
  0
LINE
  5
E0
330
1E
100
AcDbEntity
  8
0
100
AcDbLine
 10
9.996705158536649
 20
16.4989347515245
 30
0.0
 11
12.131576877131
 21
15.2663598805406
 31
0.0
  0
LINE
  5
E1
330
1E
100
AcDbEntity
  8
0
100
AcDbLine
 10
9.99670301623346
 20
8.989590336445509
 30
0.0
 11
12.13157574858819
 21
10.2221630536707
 31
0.0
  0
LINE
  5
E2
330
1E
100
AcDbEntity
  8
0
100
AcDbLine
 10
9.471680278454579
 20
3.50578298837449
 30
0.0
 11
11.0
 21
2.34425999999997
 31
0.0
  0
LINE
  5
E3
330
1E
100
AcDbEntity
  8
0
100
AcDbLine
 10
8.5
 20
27.45556
 30
0.0
 11
8.5
 21
29.25556
 31
0.0
  0
LINE
  5
E4
330
1E
100
AcDbEntity
  8
0
100
AcDbLine
 10
10.0
 20
24.85556
 30
0.0
 11
13.4
 21
26.25556
 31
0.0
  0
LINE
  5
E5
330
1E
100
AcDbEntity
  8
0
100
AcDbLine
 10
7.099999999999999
 20
22.65556
 30
0.0
 11
10.0
 21
24.85556
 31
0.0
  0
LINE
  5
E6
330
1E
100
AcDbEntity
  8
0
100
AcDbLine
 10
8.5
 20
31.05555999999999
 30
0.0
 11
8.5
 21
29.25556
 31
0.0
  0
LINE
  5
E7
330
1E
100
AcDbEntity
  8
0
100
AcDbLine
 10
8.5
 20
29.25556
 30
0.0
 11
8.5
 21
31.05555999999999
 31
0.0
  0
LINE
  5
E9
330
1E
100
AcDbEntity
  8
0
100
AcDbLine
 10
8.5
 20
29.25556
 30
0.0
 11
8.5
 21
27.45556
 31
0.0
  0
LINE
  5
EA
330
1E
100
AcDbEntity
  8
0
100
AcDbLine
 10
10.0
 20
33.65555999999999
 30
0.0
 11
13.4
 21
32.25555999999999
 31
0.0
  0
LINE
  5
EB
330
1E
100
AcDbEntity
  8
0
100
AcDbLine
 10
5.0
 20
33.75555999999999
 30
0.0
 11
8.5
 21
31.05555999999999
 31
0.0
  0
LINE
  5
EC
330
1E
100
AcDbEntity
  8
0
100
AcDbLine
 10
10.0
 20
33.65555999999999
 30
0.0
 11
13.4
 21
32.25555999999999
 31
0.0
  0
LINE
  5
ED
330
1E
100
AcDbEntity
  8
0
100
AcDbLine
 10
12.7775333333333
 20
0.9463999999999781
 30
0.0
 11
12.9107
 21
0.895409999999978
 31
0.0
  0
LINE
  5
EE
330
1E
100
AcDbEntity
  8
0
100
AcDbLine
 10
12.7775333333308
 20
0.9464000000009441
 30
0.0
 11
12.9107
 21
0.8954099999999789
 31
0.0
  0
LINE
  5
EF
330
1E
100
AcDbEntity
  8
0
100
AcDbLine
 10
12.7775333333308
 20
0.9464000000009429
 30
0.0
 11
12.9107
 21
0.8954099999999789
 31
0.0
  0
LINE
  5
F0
330
1E
100
AcDbEntity
  8
0
100
AcDbLine
 10
12.7775333333308
 20
0.9464000000009429
 30
0.0
 11
12.9107
 21
0.895409999999978
 31
0.0
  0
LINE
  5
F1
330
1E
100
AcDbEntity
  8
0
100
AcDbLine
 10
12.7775333333308
 20
0.946400000000942
 30
0.0
 11
12.9107
 21
0.8954099999999771
 31
0.0
  0
LINE
  5
F2
330
1E
100
AcDbEntity
  8
0
100
AcDbLine
 10
12.7775333333308
 20
0.9464000000009407
 30
0.0
 11
12.9107
 21
0.8954099999999771
 31
0.0
  0
LINE
  5
F3
330
1E
100
AcDbEntity
  8
0
100
AcDbLine
 10
12.7775333333308
 20
0.9464000000009558
 30
0.0
 11
12.9107
 21
0.8954099999999771
 31
0.0
  0
LINE
  5
F4
330
1E
100
AcDbEntity
  8
0
100
AcDbLine
 10
12.7775333333308
 20
0.9464000000009407
 30
0.0
 11
12.9107
 21
0.895409999999976
 31
0.0
  0
LINE
  5
F5
330
1E
100
AcDbEntity
  8
0
100
AcDbLine
 10
12.7775333333308
 20
0.946400000000967
 30
0.0
 11
12.9107
 21
0.8954099999999789
 31
0.0
  0
LINE
  5
F6
330
1E
100
AcDbEntity
  8
0
100
AcDbLine
 10
12.7775333333308
 20
0.9464000000009658
 30
0.0
 11
12.9107
 21
0.8954099999999789
 31
0.0
  0
LINE
  5
F7
330
1E
100
AcDbEntity
  8
0
100
AcDbLine
 10
12.7775333333283
 20
0.9464000000019069
 30
0.0
 11
12.9107
 21
0.8954099999999771
 31
0.0
  0
LINE
  5
F8
330
1E
100
AcDbEntity
  8
0
100
AcDbLine
 10
12.77753333332819
 20
0.9464000000019291
 30
0.0
 11
12.9107
 21
0.8954099999999771
 31
0.0
  0
LINE
  5
F9
330
1E
100
AcDbEntity
  8
0
100
AcDbLine
 10
12.7775333333308
 20
0.9464000000009649
 30
0.0
 11
12.9107
 21
0.8954099999999771
 31
0.0
  0
LINE
  5
FA
330
1E
100
AcDbEntity
  8
0
100
AcDbLine
 10
12.7775333333308
 20
0.946400000000964
 30
0.0
 11
12.9107
 21
0.895409999999976
 31
0.0
  0
LINE
  5
FB
330
1E
100
AcDbEntity
  8
0
100
AcDbLine
 10
12.7775333333308
 20
0.946400000000963
 30
0.0
 11
12.9107
 21
0.895409999999976
 31
0.0
  0
LINE
  5
FC
330
1E
100
AcDbEntity
  8
0
100
AcDbLine
 10
12.7775333333308
 20
0.946400000000939
 30
0.0
 11
12.9107
 21
0.895409999999978
 31
0.0
  0
LINE
  5
FD
330
1E
100
AcDbEntity
  8
0
100
AcDbLine
 10
12.7775333333333
 20
0.9463999999999927
 30
0.0
 11
12.9107
 21
0.895409999999978
 31
0.0
  0
LINE
  5
FE
330
1E
100
AcDbEntity
  8
0
100
AcDbLine
 10
12.7775333333308
 20
0.9464000000009407
 30
0.0
 11
12.9107
 21
0.895409999999976
 31
0.0
  0
LINE
  5
FF
330
1E
100
AcDbEntity
  8
0
100
AcDbLine
 10
12.7775333333333
 20
0.9463999999999909
 30
0.0
 11
12.9107
 21
0.8954099999999749
 31
0.0
  0
LINE
  5
100
330
1E
100
AcDbEntity
  8
0
100
AcDbLine
 10
12.9107
 20
0.8954099999999801
 30
0.0
 11
13.1337918955228
 21
1.461311629438809
 31
0.0
  0
LINE
  5
101
330
1E
100
AcDbEntity
  8
0
100
AcDbLine
 10
12.7775333333333
 20
0.946399999999976
 30
0.0
 11
12.9107
 21
0.8954099999999749
 31
0.0
  0
LINE
  5
102
330
1E
100
AcDbEntity
  8
0
100
AcDbLine
 10
12.11169999997689
 20
1.20131000000883
 30
0.0
 11
12.5112
 21
1.048359999999979
 31
0.0
  0
LINE
  5
103
330
1E
100
AcDbEntity
  8
0
100
AcDbLine
 10
12.1116999999776
 20
1.201310000008529
 30
0.0
 11
12.5112
 21
1.048359999999979
 31
0.0
  0
LINE
  5
104
330
1E
100
AcDbEntity
  8
0
100
AcDbLine
 10
12.11169999997689
 20
1.201310000008819
 30
0.0
 11
12.5112
 21
1.048359999999979
 31
0.0
  0
LINE
  5
105
330
1E
100
AcDbEntity
  8
0
100
AcDbLine
 10
11.71219999999999
 20
1.35423999999998
 30
0.0
 11
12.5112
 21
1.04837999999998
 31
0.0
  0
LINE
  5
106
330
1E
100
AcDbEntity
  8
0
100
AcDbLine
 10
11.71219999999999
 20
1.35423999999998
 30
0.0
 11
11.9478487013828
 21
1.95204674425537
 31
0.0
  0
LINE
  5
107
330
1E
100
AcDbEntity
  8
0
100
AcDbLine
 10
11.71219999999999
 20
1.35423999999998
 30
0.0
 11
12.1117000000005
 21
1.2013099999998
 31
0.0
  0
LINE
  5
108
330
1E
100
AcDbEntity
  8
0
100
AcDbLine
 10
11.71219999999999
 20
1.35423999999998
 30
0.0
 11
12.1117000000004
 21
1.20130999999983
 31
0.0
  0
LINE
  5
109
330
1E
100
AcDbEntity
  8
0
100
AcDbLine
 10
11.71219999999999
 20
1.35423999999998
 30
0.0
 11
12.1116999999883
 21
1.20131000000448
 31
0.0
  0
LINE
  5
10A
330
1E
100
AcDbEntity
  8
0
100
AcDbLine
 10
11.71219999999999
 20
1.35423999999998
 30
0.0
 11
12.11169999998819
 21
1.2013100000045
 31
0.0
  0
LINE
  5
10B
330
1E
100
AcDbEntity
  8
0
100
AcDbLine
 10
11.71219999999999
 20
1.35423999999998
 30
0.0
 11
12.1117000000005
 21
1.2013099999998
 31
0.0
  0
LINE
  5
10C
330
1E
100
AcDbEntity
  8
0
100
AcDbLine
 10
11.71219999999999
 20
1.35423999999998
 30
0.0
 11
12.1117000000004
 21
1.20130999999983
 31
0.0
  0
LINE
  5
10D
330
1E
100
AcDbEntity
  8
0
100
AcDbLine
 10
11.71219999999999
 20
1.35423999999998
 30
0.0
 11
12.111699999989
 21
1.201310000004179
 31
0.0
  0
LINE
  5
10E
330
1E
100
AcDbEntity
  8
0
100
AcDbLine
 10
11.71219999999999
 20
1.35423999999998
 30
0.0
 11
12.11169999998819
 21
1.2013100000045
 31
0.0
  0
LINE
  5
10F
330
1E
100
AcDbEntity
  8
0
100
AcDbLine
 10
11.71219999999999
 20
1.35423999999998
 30
0.0
 11
12.1117000000004
 21
1.20130999999983
 31
0.0
  0
LINE
  5
110
330
1E
100
AcDbEntity
  8
0
100
AcDbLine
 10
11.71219999999999
 20
1.35423999999998
 30
0.0
 11
12.1117000000005
 21
1.2013099999998
 31
0.0
  0
LINE
  5
111
330
1E
100
AcDbEntity
  8
0
100
AcDbLine
 10
11.71219999999999
 20
1.35423999999998
 30
0.0
 11
12.111699999989
 21
1.201310000004179
 31
0.0
  0
LINE
  5
112
330
1E
100
AcDbEntity
  8
0
100
AcDbLine
 10
11.71219999999999
 20
1.35423999999998
 30
0.0
 11
12.11169999998819
 21
1.2013100000045
 31
0.0
  0
LINE
  5
113
330
1E
100
AcDbEntity
  8
0
100
AcDbLine
 10
11.71219999999999
 20
1.35423999999998
 30
0.0
 11
12.1117000000005
 21
1.2013099999998
 31
0.0
  0
LINE
  5
114
330
1E
100
AcDbEntity
  8
0
100
AcDbLine
 10
11.71219999999999
 20
1.35423999999998
 30
0.0
 11
12.1117000000004
 21
1.20130999999983
 31
0.0
  0
LINE
  5
115
330
1E
100
AcDbEntity
  8
0
100
AcDbLine
 10
11.71219999999999
 20
1.35423999999998
 30
0.0
 11
12.1117000000005
 21
1.2013099999998
 31
0.0
  0
LINE
  5
116
330
1E
100
AcDbEntity
  8
0
100
AcDbLine
 10
11.71219999999999
 20
1.35423999999998
 30
0.0
 11
12.1117000000004
 21
1.20130999999983
 31
0.0
  0
LINE
  5
117
330
1E
100
AcDbEntity
  8
0
100
AcDbLine
 10
11.71219999999999
 20
1.35423999999998
 30
0.0
 11
12.11169999998819
 21
1.2013100000045
 31
0.0
  0
LINE
  5
118
330
1E
100
AcDbEntity
  8
0
100
AcDbLine
 10
11.71219999999999
 20
1.35423999999998
 30
0.0
 11
12.111699999989
 21
1.201310000004179
 31
0.0
  0
LINE
  5
119
330
1E
100
AcDbEntity
  8
0
100
AcDbLine
 10
11.71219999999999
 20
1.35423999999998
 30
0.0
 11
12.1117000000005
 21
1.2013099999998
 31
0.0
  0
LINE
  5
11A
330
1E
100
AcDbEntity
  8
0
100
AcDbLine
 10
11.71219999999999
 20
1.35423999999998
 30
0.0
 11
12.1117000000004
 21
1.20130999999983
 31
0.0
  0
LINE
  5
11B
330
1E
100
AcDbEntity
  8
0
100
AcDbLine
 10
12.5112
 20
1.048359999999979
 30
0.0
 11
12.7775333333384
 21
0.9463999999980359
 31
0.0
  0
LINE
  5
11C
330
1E
100
AcDbEntity
  8
0
100
AcDbLine
 10
12.5112
 20
1.048359999999979
 30
0.0
 11
12.7775333333384
 21
0.9463999999980508
 31
0.0
  0
LINE
  5
11D
330
1E
100
AcDbEntity
  8
0
100
AcDbLine
 10
12.5112
 20
1.04837999999998
 30
0.0
 11
12.9107
 21
0.8954099999999801
 31
0.0
  0
LINE
  5
11E
330
1E
100
AcDbEntity
  8
0
100
AcDbLine
 10
12.5112
 20
1.04837999999998
 30
0.0
 11
12.7384670183814
 21
1.624894337221449
 31
0.0
  0
LINE
  5
11F
330
1E
100
AcDbEntity
  8
0
100
AcDbLine
 10
12.5112
 20
1.04837999999998
 30
0.0
 11
12.7384670183814
 21
1.624894337221449
 31
0.0
  0
LINE
  5
120
330
1E
100
AcDbEntity
  8
0
100
AcDbLine
 10
12.5112
 20
1.048359999999979
 30
0.0
 11
12.7775333333359
 21
0.9463999999990029
 31
0.0
  0
LINE
  5
121
330
1E
100
AcDbEntity
  8
0
100
AcDbLine
 10
12.5112
 20
1.048359999999979
 30
0.0
 11
12.7775333333359
 21
0.946399999999015
 31
0.0
  0
LINE
  5
122
330
1E
100
AcDbEntity
  8
0
100
AcDbLine
 10
12.111699999989
 20
1.201310000004179
 30
0.0
 11
12.5112
 21
1.048359999999979
 31
0.0
  0
LINE
  5
123
330
1E
100
AcDbEntity
  8
0
100
AcDbLine
 10
12.5112
 20
1.048359999999979
 30
0.0
 11
12.77753333333579
 21
0.946399999999029
 31
0.0
  0
LINE
  5
124
330
1E
100
AcDbEntity
  8
0
100
AcDbLine
 10
12.5112
 20
1.048359999999979
 30
0.0
 11
12.7775333333359
 21
0.9463999999990139
 31
0.0
  0
LINE
  5
125
330
1E
100
AcDbEntity
  8
0
100
AcDbLine
 10
12.5112
 20
1.048359999999979
 30
0.0
 11
12.7775333333359
 21
0.946399999999002
 31
0.0
  0
LINE
  5
126
330
1E
100
AcDbEntity
  8
0
100
AcDbLine
 10
12.5112
 20
1.048359999999979
 30
0.0
 11
12.7775333333359
 21
0.9463999999990139
 31
0.0
  0
LINE
  5
127
330
1E
100
AcDbEntity
  8
0
100
AcDbLine
 10
12.5112
 20
1.048359999999979
 30
0.0
 11
12.7775333333384
 21
0.946399999998049
 31
0.0
  0
LINE
  5
128
330
1E
100
AcDbEntity
  8
0
100
AcDbLine
 10
12.5112
 20
1.048359999999979
 30
0.0
 11
12.7775333333384
 21
0.9463999999980378
 31
0.0
  0
LINE
  5
129
330
1E
100
AcDbEntity
  8
0
100
AcDbLine
 10
12.5112
 20
1.048359999999979
 30
0.0
 11
12.7775333333359
 21
0.946399999999002
 31
0.0
  0
LINE
  5
12A
330
1E
100
AcDbEntity
  8
0
100
AcDbLine
 10
12.5112
 20
1.048359999999979
 30
0.0
 11
12.7775333333359
 21
0.9463999999990129
 31
0.0
  0
LINE
  5
12B
330
1E
100
AcDbEntity
  8
0
100
AcDbLine
 10
12.5112
 20
1.048359999999979
 30
0.0
 11
12.7775333333359
 21
0.946399999999001
 31
0.0
  0
LINE
  5
12C
330
1E
100
AcDbEntity
  8
0
100
AcDbLine
 10
12.5112
 20
1.048359999999979
 30
0.0
 11
12.7775333333359
 21
0.946399999999012
 31
0.0
  0
LINE
  5
12D
330
1E
100
AcDbEntity
  8
0
100
AcDbLine
 10
12.5112
 20
1.048359999999979
 30
0.0
 11
12.7775333333359
 21
0.9463999999990129
 31
0.0
  0
LINE
  5
12E
330
1E
100
AcDbEntity
  8
0
100
AcDbLine
 10
12.5112
 20
1.048359999999979
 30
0.0
 11
12.7775333333359
 21
0.946399999999001
 31
0.0
  0
LINE
  5
12F
330
1E
100
AcDbEntity
  8
0
100
AcDbLine
 10
12.5112
 20
1.048359999999979
 30
0.0
 11
12.7775333333359
 21
0.946399999999012
 31
0.0
  0
LINE
  5
130
330
1E
100
AcDbEntity
  8
0
100
AcDbLine
 10
12.5112
 20
1.048359999999979
 30
0.0
 11
12.7775333333359
 21
0.946399999999001
 31
0.0
  0
LINE
  5
131
330
1E
100
AcDbEntity
  8
0
100
AcDbLine
 10
12.1116999999883
 20
1.20131000000448
 30
0.0
 11
12.5112
 21
1.048359999999979
 31
0.0
  0
LINE
  5
132
330
1E
100
AcDbEntity
  8
0
100
AcDbLine
 10
12.1116999999883
 20
1.20131000000448
 30
0.0
 11
12.5112
 21
1.048359999999979
 31
0.0
  0
LINE
  5
133
330
1E
100
AcDbEntity
  8
0
100
AcDbLine
 10
12.1116999999883
 20
1.20131000000448
 30
0.0
 11
12.5112
 21
1.048359999999979
 31
0.0
  0
LINE
  5
134
330
1E
100
AcDbEntity
  8
0
100
AcDbLine
 10
12.1116999999883
 20
1.201310000004469
 30
0.0
 11
12.5112
 21
1.048359999999979
 31
0.0
  0
LINE
  5
135
330
1E
100
AcDbEntity
  8
0
100
AcDbLine
 10
12.1116999999883
 20
1.201310000004469
 30
0.0
 11
12.5112
 21
1.048359999999979
 31
0.0
  0
LINE
  5
136
330
1E
100
AcDbEntity
  8
0
100
AcDbLine
 10
12.1116999999883
 20
1.201310000004469
 30
0.0
 11
12.5112
 21
1.048359999999979
 31
0.0
  0
LINE
  5
137
330
1E
100
AcDbEntity
  8
0
100
AcDbLine
 10
12.1116999999883
 20
1.201310000004469
 30
0.0
 11
12.5112
 21
1.048359999999979
 31
0.0
  0
LINE
  5
138
330
1E
100
AcDbEntity
  8
0
100
AcDbLine
 10
12.5112
 20
1.048359999999979
 30
0.0
 11
12.7775333333384
 21
0.9463999999980469
 31
0.0
  0
LINE
  5
139
330
1E
100
AcDbEntity
  8
0
100
AcDbLine
 10
12.5112
 20
1.048359999999979
 30
0.0
 11
12.7775333333384
 21
0.946399999998032
 31
0.0
  0
LINE
  5
13A
330
1E
100
AcDbEntity
  8
0
100
AcDbLine
 10
12.11169999998819
 20
1.2013100000045
 30
0.0
 11
12.5112
 21
1.048359999999979
 31
0.0
  0
LINE
  5
13B
330
1E
100
AcDbEntity
  8
0
100
AcDbLine
 10
12.11169999998819
 20
1.2013100000045
 30
0.0
 11
12.5112
 21
1.048359999999979
 31
0.0
  0
LINE
  5
13C
330
1E
100
AcDbEntity
  8
0
100
AcDbLine
 10
12.11169999998819
 20
1.2013100000045
 30
0.0
 11
12.5112
 21
1.048359999999979
 31
0.0
  0
LINE
  5
13D
330
1E
100
AcDbEntity
  8
0
100
AcDbLine
 10
12.11169999998819
 20
1.2013100000045
 30
0.0
 11
12.5112
 21
1.048359999999979
 31
0.0
  0
LINE
  5
13E
330
1E
100
AcDbEntity
  8
0
100
AcDbLine
 10
12.11169999998819
 20
1.2013100000045
 30
0.0
 11
12.5112
 21
1.048359999999979
 31
0.0
  0
LINE
  5
13F
330
1E
100
AcDbEntity
  8
0
100
AcDbLine
 10
12.11169999998819
 20
1.2013100000045
 30
0.0
 11
12.5112
 21
1.048359999999979
 31
0.0
  0
LINE
  5
140
330
1E
100
AcDbEntity
  8
0
100
AcDbLine
 10
12.11169999998819
 20
1.2013100000045
 30
0.0
 11
12.5112
 21
1.048359999999979
 31
0.0
  0
LINE
  5
141
330
1E
100
AcDbEntity
  8
0
100
AcDbLine
 10
12.11169999998819
 20
1.2013100000045
 30
0.0
 11
12.5112
 21
1.048359999999979
 31
0.0
  0
LINE
  5
142
330
1E
100
AcDbEntity
  8
0
100
AcDbLine
 10
12.1116999999776
 20
1.201310000008529
 30
0.0
 11
12.5112
 21
1.048359999999979
 31
0.0
  0
LINE
  5
143
330
1E
100
AcDbEntity
  8
0
100
AcDbLine
 10
12.5112
 20
1.048359999999979
 30
0.0
 11
12.7775333333384
 21
0.946399999998054
 31
0.0
  0
LINE
  5
144
330
1E
100
AcDbEntity
  8
0
100
AcDbLine
 10
12.5112
 20
1.048359999999979
 30
0.0
 11
12.7775333333384
 21
0.9463999999980469
 31
0.0
  0
LINE
  5
145
330
1E
100
AcDbEntity
  8
0
100
AcDbLine
 10
13.9
 20
1.14425999999998
 30
0.0
 11
17.0
 21
0.744259999999981
 31
0.0
  0
LINE
  5
146
330
1E
100
AcDbEntity
  8
0
100
AcDbLine
 10
13.1337918955228
 20
1.461311629438799
 30
0.0
 11
13.9
 21
1.144259999999969
 31
0.0
  0
LINE
  5
147
330
1E
100
AcDbEntity
  8
0
100
AcDbLine
 10
13.9
 20
1.14425999999998
 30
0.0
 11
17.0
 21
0.7442599999999801
 31
0.0
  0
LINE
  5
148
330
1E
100
AcDbEntity
  8
0
100
AcDbLine
 10
10.1
 20
16.74426
 30
0.0
 11
11.4
 21
18.34426
 31
0.0
  0
LINE
  5
149
330
1E
100
AcDbEntity
  8
0
100
AcDbLine
 10
11.0
 20
18.74426
 30
0.0
 11
12.55083854544809
 21
19.95046775757069
 31
0.0
  0
LINE
  5
14A
330
1E
100
AcDbEntity
  8
0
100
AcDbLine
 10
11.0
 20
18.74426
 30
0.0
 11
12.8
 21
20.14425999999999
 31
0.0
  0
LINE
  5
14B
330
1E
100
AcDbEntity
  8
0
100
AcDbLine
 10
11.0
 20
6.744259999999981
 30
0.0
 11
12.5508357938905
 21
5.538054382529599
 31
0.0
  0
LINE
  5
14C
330
1E
100
AcDbEntity
  8
0
100
AcDbLine
 10
11.0
 20
6.744259999999981
 30
0.0
 11
12.8
 21
5.34425999999998
 31
0.0
  0
LINE
  5
14D
330
1E
100
AcDbEntity
  8
0
100
AcDbLine
 10
10.1
 20
8.744259999999981
 30
0.0
 11
11.4
 21
7.14425999999998
 31
0.0
  0
LINE
  5
14E
330
1E
100
AcDbEntity
  8
0
100
AcDbLine
 10
11.0
 20
23.14426
 30
0.0
 11
13.9
 21
24.34426
 31
0.0
  0
LINE
  5
14F
330
1E
100
AcDbEntity
  8
0
100
AcDbLine
 10
11.0
 20
2.34425999999998
 30
0.0
 11
13.9
 21
1.14425999999998
 31
0.0
  0
LINE
  5
150
330
1E
100
AcDbEntity
  8
0
100
AcDbLine
 10
11.0
 20
2.34425999999998
 30
0.0
 11
13.9
 21
1.14425999999998
 31
0.0
  0
LINE
  5
151
330
1E
100
AcDbEntity
  8
0
100
AcDbLine
 10
11.31269999999999
 20
1.507179999999979
 30
0.0
 11
11.71219999999999
 21
1.35423999999998
 31
0.0
  0
LINE
  5
152
330
1E
100
AcDbEntity
  8
0
100
AcDbLine
 10
11.31269999999999
 20
1.507179999999979
 30
0.0
 11
11.55254373532349
 21
2.11562121296958
 31
0.0
  0
LINE
  5
153
330
1E
100
AcDbEntity
  8
0
100
AcDbLine
 10
11.31269999999999
 20
1.507179999999979
 30
0.0
 11
11.71219999999999
 21
1.35423999999998
 31
0.0
  0
LINE
  5
154
330
1E
100
AcDbEntity
  8
0
100
AcDbLine
 10
11.31269999999999
 20
1.507179999999979
 30
0.0
 11
11.71219999999999
 21
1.35423999999998
 31
0.0
  0
LINE
  5
155
330
1E
100
AcDbEntity
  8
0
100
AcDbLine
 10
11.31269999999999
 20
1.507179999999979
 30
0.0
 11
11.71219999999999
 21
1.35423999999998
 31
0.0
  0
LINE
  5
156
330
1E
100
AcDbEntity
  8
0
100
AcDbLine
 10
11.31269999999999
 20
1.507179999999979
 30
0.0
 11
11.71219999999999
 21
1.35423999999998
 31
0.0
  0
LINE
  5
157
330
1E
100
AcDbEntity
  8
0
100
AcDbLine
 10
11.31269999999999
 20
1.507179999999979
 30
0.0
 11
11.71219999999999
 21
1.35423999999998
 31
0.0
  0
LINE
  5
158
330
1E
100
AcDbEntity
  8
0
100
AcDbLine
 10
11.31269999999999
 20
1.50718999999998
 30
0.0
 11
11.5525403462013
 21
2.115622615364959
 31
0.0
  0
LINE
  5
159
330
1E
100
AcDbEntity
  8
0
100
AcDbLine
 10
11.31269999999999
 20
1.507179999999979
 30
0.0
 11
11.71219999999999
 21
1.35423999999998
 31
0.0
  0
LINE
  5
15A
330
1E
100
AcDbEntity
  8
0
100
AcDbLine
 10
11.31269999999999
 20
1.507179999999979
 30
0.0
 11
11.71219999999999
 21
1.35423999999998
 31
0.0
  0
LINE
  5
15B
330
1E
100
AcDbEntity
  8
0
100
AcDbLine
 10
11.5
 20
3.244259999999979
 30
0.0
 11
14.19999999999999
 21
2.14425999999998
 31
0.0
  0
LINE
  5
15C
330
1E
100
AcDbEntity
  8
0
100
AcDbLine
 10
11.74598469440219
 20
3.14404401339168
 30
0.0
 11
16.0915
 21
10.67066
 31
0.0
  0
LINE
  5
15D
330
1E
100
AcDbEntity
  8
0
100
AcDbLine
 10
13.0
 20
5.84425999999998
 30
0.0
 11
14.9
 21
5.044259999999979
 31
0.0
  0
LINE
  5
15E
330
1E
100
AcDbEntity
  8
0
100
AcDbLine
 10
12.8
 20
5.34425999999998
 30
0.0
 11
14.8
 21
4.544259999999979
 31
0.0
  0
LINE
  5
15F
330
1E
100
AcDbEntity
  8
0
100
AcDbLine
 10
12.975708046745
 20
5.273976781302
 30
0.0
 11
14.8
 21
4.544259999999979
 31
0.0
  0
LINE
  5
160
330
1E
100
AcDbEntity
  8
0
100
AcDbLine
 10
11.74598469440219
 20
3.14404401339168
 30
0.0
 11
16.0915
 21
10.67066
 31
0.0
  0
LINE
  5
161
330
1E
100
AcDbEntity
  8
0
100
AcDbLine
 10
11.4
 20
7.14425999999998
 30
0.0
 11
13.0
 21
5.84425999999998
 31
0.0
  0
LINE
  5
162
330
1E
100
AcDbEntity
  8
0
100
AcDbLine
 10
11.5357142857143
 20
12.99426
 30
0.0
 11
11.69999999999999
 21
14.14426
 31
0.0
  0
LINE
  5
163
330
1E
100
AcDbEntity
  8
0
100
AcDbLine
 10
11.4
 20
18.34426
 30
0.0
 11
13.0
 21
19.64425999999999
 31
0.0
  0
LINE
  5
164
330
1E
100
AcDbEntity
  8
0
100
AcDbLine
 10
11.4
 20
18.34426
 30
0.0
 11
12.8145994873564
 21
19.4936220834771
 31
0.0
  0
LINE
  5
165
330
1E
100
AcDbEntity
  8
0
100
AcDbLine
 10
11.5
 20
12.74426
 30
0.0
 11
11.69999999999999
 21
11.34426
 31
0.0
  0
LINE
  5
166
330
1E
100
AcDbEntity
  8
0
100
AcDbLine
 10
11.5
 20
12.74426
 30
0.0
 11
11.69999999999999
 21
14.14426
 31
0.0
  0
LINE
  5
167
330
1E
100
AcDbEntity
  8
0
100
AcDbLine
 10
11.69999999999999
 20
14.14426
 30
0.0
 11
12.131576877131
 21
15.2663598805406
 31
0.0
  0
LINE
  5
168
330
1E
100
AcDbEntity
  8
0
100
AcDbLine
 10
11.69999999999999
 20
14.14426
 30
0.0
 11
12.19999999999999
 21
15.44426
 31
0.0
  0
LINE
  5
169
330
1E
100
AcDbEntity
  8
0
100
AcDbLine
 10
12.0
 20
12.74426
 30
0.0
 11
12.19999999999999
 21
11.44425999999999
 31
0.0
  0
LINE
  5
16A
330
1E
100
AcDbEntity
  8
0
100
AcDbLine
 10
12.0
 20
12.74426
 30
0.0
 11
12.19999999999999
 21
14.04426
 31
0.0
  0
LINE
  5
16B
330
1E
100
AcDbEntity
  8
0
100
AcDbLine
 10
11.69999999999999
 20
11.34426
 30
0.0
 11
12.13157574858819
 21
10.2221630536707
 31
0.0
  0
LINE
  5
16C
330
1E
100
AcDbEntity
  8
0
100
AcDbLine
 10
11.69999999999999
 20
11.34426
 30
0.0
 11
12.19999999999999
 21
10.04426
 31
0.0
  0
LINE
  5
16D
330
1E
100
AcDbEntity
  8
0
100
AcDbLine
 10
11.5357142857143
 20
12.49426
 30
0.0
 11
11.69999999999999
 21
11.34426
 31
0.0
  0
LINE
  5
16E
330
1E
100
AcDbEntity
  8
0
100
AcDbLine
 10
11.5
 20
22.24426
 30
0.0
 11
14.19999999999999
 21
23.34426
 31
0.0
  0
LINE
  5
16F
330
1E
100
AcDbEntity
  8
0
100
AcDbLine
 10
11.74598920803529
 20
22.3444778254958
 30
0.0
 11
16.0915
 21
14.81786
 31
0.0
  0
LINE
  5
170
330
1E
100
AcDbEntity
  8
0
100
AcDbLine
 10
11.74598920803529
 20
22.3444778254958
 30
0.0
 11
16.0915
 21
14.81786
 31
0.0
  0
LINE
  5
171
330
1E
100
AcDbEntity
  8
0
100
AcDbLine
 10
11.30831256348559
 20
22.1025779817067
 30
0.0
 11
12.55083854544809
 21
19.95046775757069
 31
0.0
  0
LINE
  5
172
330
1E
100
AcDbEntity
  8
0
100
AcDbLine
 10
11.30831256348559
 20
22.1025779817067
 30
0.0
 11
15.6585
 21
14.56786
 31
0.0
  0
LINE
  5
173
330
1E
100
AcDbEntity
  8
0
100
AcDbLine
 10
11.30831256348559
 20
22.1025779817067
 30
0.0
 11
15.6585
 21
14.56786
 31
0.0
  0
LINE
  5
174
330
1E
100
AcDbEntity
  8
0
100
AcDbLine
 10
11.30831256348559
 20
22.1025779817067
 30
0.0
 11
12.55083854544809
 21
19.95046775757069
 31
0.0
  0
LINE
  5
175
330
1E
100
AcDbEntity
  8
0
100
AcDbLine
 10
12.19999999999999
 20
10.04426
 30
0.0
 11
13.1
 21
8.84425999999998
 31
0.0
  0
LINE
  5
176
330
1E
100
AcDbEntity
  8
0
100
AcDbLine
 10
13.5
 20
9.244259999999981
 30
0.0
 11
14.5
 21
8.44425999999998
 31
0.0
  0
LINE
  5
177
330
1E
100
AcDbEntity
  8
0
100
AcDbLine
 10
13.1
 20
8.84425999999998
 30
0.0
 11
14.0488275438953
 21
8.132639342078499
 31
0.0
  0
LINE
  5
178
330
1E
100
AcDbEntity
  8
0
100
AcDbLine
 10
13.1
 20
8.84425999999998
 30
0.0
 11
14.3
 21
7.944259999999981
 31
0.0
  0
LINE
  5
179
330
1E
100
AcDbEntity
  8
0
100
AcDbLine
 10
12.7
 20
10.24426
 30
0.0
 11
13.5
 21
9.244259999999981
 31
0.0
  0
LINE
  5
17A
330
1E
100
AcDbEntity
  8
0
100
AcDbLine
 10
12.3883812142054
 20
9.793085047726108
 30
0.0
 11
13.1
 21
8.84425999999998
 31
0.0
  0
LINE
  5
17B
330
1E
100
AcDbEntity
  8
0
100
AcDbLine
 10
12.19999999999999
 20
14.04426
 30
0.0
 11
12.7
 21
15.24426
 31
0.0
  0
LINE
  5
17C
330
1E
100
AcDbEntity
  8
0
100
AcDbLine
 10
12.19999999999999
 20
15.44426
 30
0.0
 11
13.1
 21
16.64425999999999
 31
0.0
  0
LINE
  5
17D
330
1E
100
AcDbEntity
  8
0
100
AcDbLine
 10
12.38837934207849
 20
15.69543245610469
 30
0.0
 11
13.1
 21
16.64425999999999
 31
0.0
  0
LINE
  5
17E
330
1E
100
AcDbEntity
  8
0
100
AcDbLine
 10
12.19999999999999
 20
11.44425999999999
 30
0.0
 11
12.7
 21
10.24426
 31
0.0
  0
LINE
  5
17F
330
1E
100
AcDbEntity
  8
0
100
AcDbLine
 10
12.59719694785709
 20
14.9975326748569
 30
0.0
 11
14.7389150144696
 21
13.7610050434088
 31
0.0
  0
LINE
  5
180
330
1E
100
AcDbEntity
  8
0
100
AcDbLine
 10
12.7
 20
15.24426
 30
0.0
 11
13.5
 21
16.24426
 31
0.0
  0
LINE
  5
181
330
1E
100
AcDbEntity
  8
0
100
AcDbLine
 10
12.8
 20
20.14425999999999
 30
0.0
 11
14.8
 21
20.94425999999999
 31
0.0
  0
LINE
  5
182
330
1E
100
AcDbEntity
  8
0
100
AcDbLine
 10
13.5
 20
16.24426
 30
0.0
 11
14.5
 21
17.04426
 31
0.0
  0
LINE
  5
183
330
1E
100
AcDbEntity
  8
0
100
AcDbLine
 10
13.1
 20
16.64425999999999
 30
0.0
 11
14.0488289850661
 21
17.3558817387995
 31
0.0
  0
LINE
  5
184
330
1E
100
AcDbEntity
  8
0
100
AcDbLine
 10
13.1
 20
16.64425999999999
 30
0.0
 11
14.3
 21
17.54426
 31
0.0
  0
LINE
  5
185
330
1E
100
AcDbEntity
  8
0
100
AcDbLine
 10
13.0
 20
19.64425999999999
 30
0.0
 11
14.9
 21
20.44426
 31
0.0
  0
LINE
  5
186
330
1E
100
AcDbEntity
  8
0
100
AcDbLine
 10
12.9757112943237
 20
20.2145445177294
 30
0.0
 11
14.8
 21
20.94425999999999
 31
0.0
  0
LINE
  5
187
330
1E
100
AcDbEntity
  8
0
100
AcDbLine
 10
12.8145994873564
 20
19.4936220834771
 30
0.0
 11
14.0488289850661
 21
17.3558817387995
 31
0.0
  0
LINE
  5
188
330
1E
100
AcDbEntity
  8
0
100
AcDbLine
 10
12.59719694785709
 20
14.9975326748569
 30
0.0
 11
14.7389150144696
 21
13.7610050434088
 31
0.0
  0
LINE
  5
189
330
1E
100
AcDbEntity
  8
0
100
AcDbLine
 10
12.59719594415179
 20
10.49098973403569
 30
0.0
 11
14.73891494722869
 21
11.72751515831399
 31
0.0
  0
LINE
  5
18A
330
1E
100
AcDbEntity
  8
0
100
AcDbLine
 10
12.59719594415179
 20
10.49098973403569
 30
0.0
 11
14.73891494722869
 21
11.72751515831399
 31
0.0
  0
LINE
  5
18B
330
1E
100
AcDbEntity
  8
0
100
AcDbLine
 10
12.0384615384615
 20
12.49426
 30
0.0
 11
14.54166666666669
 21
12.49426
 31
0.0
  0
LINE
  5
18C
330
1E
100
AcDbEntity
  8
0
100
AcDbLine
 10
12.81459700369589
 20
5.99489993449704
 30
0.0
 11
14.0488275438953
 21
8.132639342078499
 31
0.0
  0
LINE
  5
18D
330
1E
100
AcDbEntity
  8
0
100
AcDbLine
 10
11.308308651544
 20
3.38594490972834
 30
0.0
 11
15.6585
 21
10.92065999999999
 31
0.0
  0
LINE
  5
18E
330
1E
100
AcDbEntity
  8
0
100
AcDbLine
 10
11.308308651544
 20
3.38594490972834
 30
0.0
 11
12.5508357938905
 21
5.538054382529599
 31
0.0
  0
LINE
  5
18F
330
1E
100
AcDbEntity
  8
0
100
AcDbLine
 10
11.3
 20
22.74426
 30
0.0
 11
14.0
 21
23.84426
 31
0.0
  0
LINE
  5
190
330
1E
100
AcDbEntity
  8
0
100
AcDbLine
 10
13.9
 20
24.34426
 30
0.0
 11
17.0
 21
24.74426
 31
0.0
  0
LINE
  5
191
330
1E
100
AcDbEntity
  8
0
100
AcDbLine
 10
11.3
 20
2.744259999999979
 30
0.0
 11
14.0
 21
1.64425999999998
 31
0.0
  0
LINE
  5
192
330
1E
100
AcDbEntity
  8
0
100
AcDbLine
 10
11.0
 20
2.34425999999997
 30
0.0
 11
11.5525403462013
 21
2.11562261536495
 31
0.0
  0
LINE
  5
193
330
1E
100
AcDbEntity
  8
0
100
AcDbLine
 10
13.1337918955228
 20
1.461311629438799
 30
0.0
 11
13.9
 21
1.144259999999969
 31
0.0
  0
LINE
  5
194
330
1E
100
AcDbEntity
  8
0
100
AcDbLine
 10
16.1429
 20
0.244439999999979
 30
0.0
 11
16.5714
 21
0.244439999999979
 31
0.0
  0
LINE
  5
195
330
1E
100
AcDbEntity
  8
0
100
AcDbLine
 10
16.1429
 20
0.244439999999979
 30
0.0
 11
16.1429
 21
0.8548535483870759
 31
0.0
  0
LINE
  5
196
330
1E
100
AcDbEntity
  8
0
100
AcDbLine
 10
16.1429
 20
0.24443999999998
 30
0.0
 11
16.5714
 21
0.24443999999998
 31
0.0
  0
LINE
  5
197
330
1E
100
AcDbEntity
  8
0
100
AcDbLine
 10
16.1429
 20
0.24443999999998
 30
0.0
 11
16.1429
 21
0.8548535483870759
 31
0.0
  0
LINE
  5
198
330
1E
100
AcDbEntity
  8
0
100
AcDbLine
 10
16.1429
 20
0.244459999999979
 30
0.0
 11
16.1429
 21
0.8548535483870759
 31
0.0
  0
LINE
  5
199
330
1E
100
AcDbEntity
  8
0
100
AcDbLine
 10
16.1429
 20
0.244459999999979
 30
0.0
 11
16.1429
 21
0.8548535483870759
 31
0.0
  0
LINE
  5
19A
330
1E
100
AcDbEntity
  8
0
100
AcDbLine
 10
16.1429
 20
0.244459999999979
 30
0.0
 11
16.1429
 21
0.8548535483870759
 31
0.0
  0
LINE
  5
19B
330
1E
100
AcDbEntity
  8
0
100
AcDbLine
 10
16.1429
 20
0.244439999999979
 30
0.0
 11
16.1429
 21
0.8548535483870759
 31
0.0
  0
LINE
  5
19C
330
1E
100
AcDbEntity
  8
0
100
AcDbLine
 10
16.1429
 20
0.244439999999979
 30
0.0
 11
16.5714
 21
0.244439999999979
 31
0.0
  0
LINE
  5
19D
330
1E
100
AcDbEntity
  8
0
100
AcDbLine
 10
16.1429
 20
0.244459999999978
 30
0.0
 11
16.1429
 21
0.8548535483870759
 31
0.0
  0
LINE
  5
19E
330
1E
100
AcDbEntity
  8
0
100
AcDbLine
 10
16.1429
 20
0.244439999999978
 30
0.0
 11
16.5714
 21
0.244439999999978
 31
0.0
  0
LINE
  5
19F
330
1E
100
AcDbEntity
  8
0
100
AcDbLine
 10
16.1429
 20
0.244439999999978
 30
0.0
 11
16.1429
 21
0.8548535483870759
 31
0.0
  0
LINE
  5
1A0
330
1E
100
AcDbEntity
  8
0
100
AcDbLine
 10
16.1429
 20
0.244459999999978
 30
0.0
 11
16.1429
 21
0.8548535483870759
 31
0.0
  0
LINE
  5
1A1
330
1E
100
AcDbEntity
  8
0
100
AcDbLine
 10
16.1429
 20
0.244439999999978
 30
0.0
 11
16.5714
 21
0.244439999999978
 31
0.0
  0
LINE
  5
1A2
330
1E
100
AcDbEntity
  8
0
100
AcDbLine
 10
16.1429
 20
0.244439999999978
 30
0.0
 11
16.1429
 21
0.8548535483870759
 31
0.0
  0
LINE
  5
1A3
330
1E
100
AcDbEntity
  8
0
100
AcDbLine
 10
16.1429
 20
0.244459999999977
 30
0.0
 11
16.1429
 21
0.8548535483870759
 31
0.0
  0
LINE
  5
1A4
330
1E
100
AcDbEntity
  8
0
100
AcDbLine
 10
16.1429
 20
0.244439999999977
 30
0.0
 11
16.5714
 21
0.244439999999977
 31
0.0
  0
LINE
  5
1A5
330
1E
100
AcDbEntity
  8
0
100
AcDbLine
 10
16.1429
 20
0.244439999999977
 30
0.0
 11
16.1429
 21
0.8548535483870759
 31
0.0
  0
LINE
  5
1A6
330
1E
100
AcDbEntity
  8
0
100
AcDbLine
 10
16.1429
 20
0.244459999999977
 30
0.0
 11
16.1429
 21
0.8548535483870759
 31
0.0
  0
LINE
  5
1A7
330
1E
100
AcDbEntity
  8
0
100
AcDbLine
 10
16.1429
 20
0.244439999999977
 30
0.0
 11
16.5714
 21
0.244439999999977
 31
0.0
  0
LINE
  5
1A8
330
1E
100
AcDbEntity
  8
0
100
AcDbLine
 10
16.1429
 20
0.244439999999977
 30
0.0
 11
16.1429
 21
0.8548535483870759
 31
0.0
  0
LINE
  5
1A9
330
1E
100
AcDbEntity
  8
0
100
AcDbLine
 10
16.1429
 20
0.244459999999977
 30
0.0
 11
16.1429
 21
0.8548535483870759
 31
0.0
  0
LINE
  5
1AA
330
1E
100
AcDbEntity
  8
0
100
AcDbLine
 10
16.1429
 20
0.244439999999977
 30
0.0
 11
16.5714
 21
0.244439999999977
 31
0.0
  0
LINE
  5
1AB
330
1E
100
AcDbEntity
  8
0
100
AcDbLine
 10
16.1429
 20
0.244439999999977
 30
0.0
 11
16.1429
 21
0.8548535483870759
 31
0.0
  0
LINE
  5
1AC
330
1E
100
AcDbEntity
  8
0
100
AcDbLine
 10
16.1429
 20
0.244459999999976
 30
0.0
 11
16.1429
 21
0.8548535483870759
 31
0.0
  0
LINE
  5
1AD
330
1E
100
AcDbEntity
  8
0
100
AcDbLine
 10
16.1429
 20
0.244439999999976
 30
0.0
 11
16.5714
 21
0.244439999999976
 31
0.0
  0
LINE
  5
1AE
330
1E
100
AcDbEntity
  8
0
100
AcDbLine
 10
16.1429
 20
0.244439999999976
 30
0.0
 11
16.1429
 21
0.8548535483870759
 31
0.0
  0
LINE
  5
1AF
330
1E
100
AcDbEntity
  8
0
100
AcDbLine
 10
16.1429
 20
0.244459999999976
 30
0.0
 11
16.1429
 21
0.8548535483870759
 31
0.0
  0
LINE
  5
1B0
330
1E
100
AcDbEntity
  8
0
100
AcDbLine
 10
16.1429
 20
0.244439999999976
 30
0.0
 11
16.5714
 21
0.244439999999976
 31
0.0
  0
LINE
  5
1B1
330
1E
100
AcDbEntity
  8
0
100
AcDbLine
 10
16.1429
 20
0.244439999999976
 30
0.0
 11
16.1429
 21
0.8548535483870759
 31
0.0
  0
LINE
  5
1B2
330
1E
100
AcDbEntity
  8
0
100
AcDbLine
 10
16.5714
 20
0.244439999999979
 30
0.0
 11
17.4286
 21
0.244439999999979
 31
0.0
  0
LINE
  5
1B3
330
1E
100
AcDbEntity
  8
0
100
AcDbLine
 10
16.5714
 20
0.24443999999998
 30
0.0
 11
17.4286
 21
0.24443999999998
 31
0.0
  0
LINE
  5
1B4
330
1E
100
AcDbEntity
  8
0
100
AcDbLine
 10
16.5714
 20
0.24443999999998
 30
0.0
 11
16.5714
 21
0.7995632258064309
 31
0.0
  0
LINE
  5
1B5
330
1E
100
AcDbEntity
  8
0
100
AcDbLine
 10
16.5714
 20
0.244439999999979
 30
0.0
 11
17.4286
 21
0.244439999999979
 31
0.0
  0
LINE
  5
1B6
330
1E
100
AcDbEntity
  8
0
100
AcDbLine
 10
16.5714
 20
0.244439999999978
 30
0.0
 11
17.4286
 21
0.244439999999978
 31
0.0
  0
LINE
  5
1B7
330
1E
100
AcDbEntity
  8
0
100
AcDbLine
 10
16.5714
 20
0.244439999999978
 30
0.0
 11
17.4286
 21
0.244439999999978
 31
0.0
  0
LINE
  5
1B8
330
1E
100
AcDbEntity
  8
0
100
AcDbLine
 10
16.5714
 20
0.244439999999977
 30
0.0
 11
17.4286
 21
0.244439999999977
 31
0.0
  0
LINE
  5
1B9
330
1E
100
AcDbEntity
  8
0
100
AcDbLine
 10
16.5714
 20
0.244439999999977
 30
0.0
 11
17.4286
 21
0.244439999999977
 31
0.0
  0
LINE
  5
1BA
330
1E
100
AcDbEntity
  8
0
100
AcDbLine
 10
16.5714
 20
0.244439999999977
 30
0.0
 11
17.4286
 21
0.244439999999977
 31
0.0
  0
LINE
  5
1BB
330
1E
100
AcDbEntity
  8
0
100
AcDbLine
 10
16.5714
 20
0.244439999999976
 30
0.0
 11
17.4286
 21
0.244439999999976
 31
0.0
  0
LINE
  5
1BC
330
1E
100
AcDbEntity
  8
0
100
AcDbLine
 10
16.5714
 20
0.244439999999976
 30
0.0
 11
17.4286
 21
0.244439999999976
 31
0.0
  0
LINE
  5
1BD
330
1E
100
AcDbEntity
  8
0
100
AcDbLine
 10
16.1429
 20
0.244459999999975
 30
0.0
 11
16.1429
 21
0.8548535483870759
 31
0.0
  0
LINE
  5
1BE
330
1E
100
AcDbEntity
  8
0
100
AcDbLine
 10
16.1429
 20
0.244439999999975
 30
0.0
 11
16.5714
 21
0.244439999999975
 31
0.0
  0
LINE
  5
1BF
330
1E
100
AcDbEntity
  8
0
100
AcDbLine
 10
16.1429
 20
0.244439999999975
 30
0.0
 11
16.1429
 21
0.8548535483870759
 31
0.0
  0
LINE
  5
1C0
330
1E
100
AcDbEntity
  8
0
100
AcDbLine
 10
16.5714
 20
0.244439999999975
 30
0.0
 11
17.4286
 21
0.244439999999975
 31
0.0
  0
LINE
  5
1C1
330
1E
100
AcDbEntity
  8
0
100
AcDbLine
 10
16.5714
 20
0.7995632258064309
 30
0.0
 11
16.5714
 21
0.24443999999998
 31
0.0
  0
LINE
  5
1C2
330
1E
100
AcDbEntity
  8
0
100
AcDbLine
 10
16.1429
 20
0.8548535483870759
 30
0.0
 11
16.1429
 21
0.244439999999978
 31
0.0
  0
LINE
  5
1C3
330
1E
100
AcDbEntity
  8
0
100
AcDbLine
 10
16.1429
 20
0.8548535483870759
 30
0.0
 11
16.1429
 21
0.244459999999975
 31
0.0
  0
LINE
  5
1C4
330
1E
100
AcDbEntity
  8
0
100
AcDbLine
 10
16.1429
 20
0.8548535483870759
 30
0.0
 11
16.1429
 21
0.244439999999975
 31
0.0
  0
LINE
  5
1C5
330
1E
100
AcDbEntity
  8
0
100
AcDbLine
 10
16.1429
 20
0.8548535483870759
 30
0.0
 11
16.1429
 21
0.244439999999976
 31
0.0
  0
LINE
  5
1C6
330
1E
100
AcDbEntity
  8
0
100
AcDbLine
 10
16.1429
 20
0.8548535483870759
 30
0.0
 11
16.1429
 21
0.244459999999976
 31
0.0
  0
LINE
  5
1C7
330
1E
100
AcDbEntity
  8
0
100
AcDbLine
 10
16.1429
 20
0.8548535483870759
 30
0.0
 11
16.1429
 21
0.244439999999976
 31
0.0
  0
LINE
  5
1C8
330
1E
100
AcDbEntity
  8
0
100
AcDbLine
 10
16.1429
 20
0.8548535483870759
 30
0.0
 11
16.1429
 21
0.244459999999976
 31
0.0
  0
LINE
  5
1C9
330
1E
100
AcDbEntity
  8
0
100
AcDbLine
 10
16.1429
 20
0.8548535483870759
 30
0.0
 11
16.1429
 21
0.244459999999977
 31
0.0
  0
LINE
  5
1CA
330
1E
100
AcDbEntity
  8
0
100
AcDbLine
 10
16.1429
 20
0.8548535483870759
 30
0.0
 11
16.1429
 21
0.244439999999977
 31
0.0
  0
LINE
  5
1CB
330
1E
100
AcDbEntity
  8
0
100
AcDbLine
 10
16.1429
 20
0.8548535483870759
 30
0.0
 11
16.1429
 21
0.244439999999977
 31
0.0
  0
LINE
  5
1CC
330
1E
100
AcDbEntity
  8
0
100
AcDbLine
 10
16.1429
 20
0.8548535483870759
 30
0.0
 11
16.1429
 21
0.244459999999977
 31
0.0
  0
LINE
  5
1CD
330
1E
100
AcDbEntity
  8
0
100
AcDbLine
 10
16.1429
 20
0.8548535483870759
 30
0.0
 11
16.1429
 21
0.244459999999977
 31
0.0
  0
LINE
  5
1CE
330
1E
100
AcDbEntity
  8
0
100
AcDbLine
 10
16.1429
 20
0.8548535483870759
 30
0.0
 11
16.1429
 21
0.244439999999977
 31
0.0
  0
LINE
  5
1CF
330
1E
100
AcDbEntity
  8
0
100
AcDbLine
 10
16.1429
 20
0.8548535483870759
 30
0.0
 11
16.1429
 21
0.244459999999978
 31
0.0
  0
LINE
  5
1D0
330
1E
100
AcDbEntity
  8
0
100
AcDbLine
 10
16.1429
 20
0.8548535483870759
 30
0.0
 11
16.1429
 21
0.244439999999978
 31
0.0
  0
LINE
  5
1D1
330
1E
100
AcDbEntity
  8
0
100
AcDbLine
 10
16.1429
 20
0.8548535483870759
 30
0.0
 11
16.1429
 21
0.244459999999978
 31
0.0
  0
LINE
  5
1D2
330
1E
100
AcDbEntity
  8
0
100
AcDbLine
 10
16.1429
 20
0.8548535483870759
 30
0.0
 11
16.1429
 21
0.244459999999979
 31
0.0
  0
LINE
  5
1D3
330
1E
100
AcDbEntity
  8
0
100
AcDbLine
 10
16.1429
 20
0.8548535483870759
 30
0.0
 11
16.1429
 21
0.244459999999979
 31
0.0
  0
LINE
  5
1D4
330
1E
100
AcDbEntity
  8
0
100
AcDbLine
 10
16.1429
 20
0.8548535483870759
 30
0.0
 11
16.1429
 21
0.244439999999979
 31
0.0
  0
LINE
  5
1D5
330
1E
100
AcDbEntity
  8
0
100
AcDbLine
 10
16.1429
 20
0.8548535483870759
 30
0.0
 11
16.1429
 21
0.244439999999979
 31
0.0
  0
LINE
  5
1D6
330
1E
100
AcDbEntity
  8
0
100
AcDbLine
 10
16.1429
 20
0.8548535483870759
 30
0.0
 11
16.1429
 21
0.244459999999979
 31
0.0
  0
LINE
  5
1D7
330
1E
100
AcDbEntity
  8
0
100
AcDbLine
 10
16.1429
 20
0.8548535483870759
 30
0.0
 11
16.1429
 21
0.24443999999998
 31
0.0
  0
LINE
  5
1D8
330
1E
100
AcDbEntity
  8
0
100
AcDbLine
 10
17.0
 20
1.244259999999979
 30
0.0
 11
20.0
 21
1.64425999999998
 31
0.0
  0
LINE
  5
1D9
330
1E
100
AcDbEntity
  8
0
100
AcDbLine
 10
17.0
 20
0.744259999999981
 30
0.0
 11
20.1
 21
1.14425999999998
 31
0.0
  0
LINE
  5
1DA
330
1E
100
AcDbEntity
  8
0
100
AcDbLine
 10
17.0
 20
0.7442599999999801
 30
0.0
 11
20.1
 21
1.14425999999998
 31
0.0
  0
LINE
  5
1DB
330
1E
100
AcDbEntity
  8
0
100
AcDbLine
 10
14.8
 20
4.544259999999979
 30
0.0
 11
16.75
 21
4.27835090909089
 31
0.0
  0
LINE
  5
1DC
330
1E
100
AcDbEntity
  8
0
100
AcDbLine
 10
14.8
 20
4.544259999999979
 30
0.0
 11
17.0
 21
4.24425999999998
 31
0.0
  0
LINE
  5
1DD
330
1E
100
AcDbEntity
  8
0
100
AcDbLine
 10
14.19999999999999
 20
2.14425999999998
 30
0.0
 11
17.0
 21
1.744259999999979
 31
0.0
  0
LINE
  5
1DE
330
1E
100
AcDbEntity
  8
0
100
AcDbLine
 10
16.75
 20
4.27835090909089
 30
0.0
 11
16.75
 21
1.77997428571427
 31
0.0
  0
LINE
  5
1DF
330
1E
100
AcDbEntity
  8
0
100
AcDbLine
 10
14.9
 20
5.044259999999979
 30
0.0
 11
17.0
 21
4.74425999999998
 31
0.0
  0
LINE
  5
1E0
330
1E
100
AcDbEntity
  8
0
100
AcDbLine
 10
14.3
 20
7.944259999999981
 30
0.0
 11
15.6
 21
7.444259999999981
 31
0.0
  0
LINE
  5
1E1
330
1E
100
AcDbEntity
  8
0
100
AcDbLine
 10
14.5
 20
8.44425999999998
 30
0.0
 11
15.7
 21
7.944259999999981
 31
0.0
  0
LINE
  5
1E2
330
1E
100
AcDbEntity
  8
0
100
AcDbLine
 10
15.7
 20
7.944259999999981
 30
0.0
 11
17.0
 21
7.744259999999981
 31
0.0
  0
LINE
  5
1E3
330
1E
100
AcDbEntity
  8
0
100
AcDbLine
 10
15.6
 20
7.444259999999981
 30
0.0
 11
17.0
 21
7.244259999999981
 31
0.0
  0
LINE
  5
1E4
330
1E
100
AcDbEntity
  8
0
100
AcDbLine
 10
14.4779001194594
 20
7.87583687713097
 30
0.0
 11
15.6
 21
7.444259999999981
 31
0.0
  0
LINE
  5
1E5
330
1E
100
AcDbEntity
  8
0
100
AcDbLine
 10
16.75
 20
7.27997428571427
 30
0.0
 11
16.75
 21
4.779974285714269
 31
0.0
  0
LINE
  5
1E6
330
1E
100
AcDbEntity
  8
0
100
AcDbLine
 10
16.75
 20
7.782721538461519
 30
0.0
 11
16.75
 21
10.2859266666667
 31
0.0
  0
LINE
  5
1E7
330
1E
100
AcDbEntity
  8
0
100
AcDbLine
 10
16.75
 20
4.779974285714269
 30
0.0
 11
16.75
 21
7.27997428571427
 31
0.0
  0
LINE
  5
1E8
330
1E
100
AcDbEntity
  8
0
100
AcDbLine
 10
17.0
 20
7.744259999999981
 30
0.0
 11
18.3
 21
7.944259999999981
 31
0.0
  0
LINE
  5
1E9
330
1E
100
AcDbEntity
  8
0
100
AcDbLine
 10
17.0
 20
7.244259999999981
 30
0.0
 11
18.39999999999999
 21
7.444259999999981
 31
0.0
  0
LINE
  5
1EA
330
1E
100
AcDbEntity
  8
0
100
AcDbLine
 10
17.0
 20
4.74425999999998
 30
0.0
 11
19.1
 21
5.044259999999979
 31
0.0
  0
LINE
  5
1EB
330
1E
100
AcDbEntity
  8
0
100
AcDbLine
 10
17.0
 20
4.24425999999998
 30
0.0
 11
19.19999999999999
 21
4.544259999999979
 31
0.0
  0
LINE
  5
1EC
330
1E
100
AcDbEntity
  8
0
100
AcDbLine
 10
17.0
 20
1.744259999999979
 30
0.0
 11
19.8
 21
2.14425999999998
 31
0.0
  0
LINE
  5
1ED
330
1E
100
AcDbEntity
  8
0
100
AcDbLine
 10
16.75
 20
1.77997428571427
 30
0.0
 11
16.75
 21
4.27835090909089
 31
0.0
  0
LINE
  5
1EE
330
1E
100
AcDbEntity
  8
0
100
AcDbLine
 10
16.75
 20
1.77997428571427
 30
0.0
 11
16.75
 21
10.49426
 31
0.0
  0
LINE
  5
1EF
330
1E
100
AcDbEntity
  8
0
100
AcDbLine
 10
14.59999999999999
 20
12.14426
 30
0.0
 11
14.73891494722869
 21
11.72751515831399
 31
0.0
  0
LINE
  5
1F0
330
1E
100
AcDbEntity
  8
0
100
AcDbLine
 10
14.59999999999999
 20
12.14426
 30
0.0
 11
14.8
 21
11.54426
 31
0.0
  0
LINE
  5
1F1
330
1E
100
AcDbEntity
  8
0
100
AcDbLine
 10
14.54166666666669
 20
12.99426
 30
0.0
 11
14.59999999999999
 21
13.34426
 31
0.0
  0
LINE
  5
1F2
330
1E
100
AcDbEntity
  8
0
100
AcDbLine
 10
14.5
 20
12.74426
 30
0.0
 11
14.59999999999999
 21
12.14426
 31
0.0
  0
LINE
  5
1F3
330
1E
100
AcDbEntity
  8
0
100
AcDbLine
 10
14.5
 20
12.74426
 30
0.0
 11
14.59999999999999
 21
13.34426
 31
0.0
  0
LINE
  5
1F4
330
1E
100
AcDbEntity
  8
0
100
AcDbLine
 10
14.54166666666669
 20
12.49426
 30
0.0
 11
14.59999999999999
 21
12.14426
 31
0.0
  0
LINE
  5
1F5
330
1E
100
AcDbEntity
  8
0
100
AcDbLine
 10
14.8
 20
11.54426
 30
0.0
 11
15.2
 21
10.94426
 31
0.0
  0
LINE
  5
1F6
330
1E
100
AcDbEntity
  8
0
100
AcDbLine
 10
15.6
 20
11.34426
 30
0.0
 11
16.0
 21
11.04426
 31
0.0
  0
LINE
  5
1F7
330
1E
100
AcDbEntity
  8
0
100
AcDbLine
 10
15.2
 20
10.94426
 30
0.0
 11
15.5409089625993
 21
10.7169873582671
 31
0.0
  0
LINE
  5
1F8
330
1E
100
AcDbEntity
  8
0
100
AcDbLine
 10
15.2
 20
10.94426
 30
0.0
 11
15.8
 21
10.54426
 31
0.0
  0
LINE
  5
1F9
330
1E
100
AcDbEntity
  8
0
100
AcDbLine
 10
15.3
 20
11.74426
 30
0.0
 11
15.6
 21
11.34426
 31
0.0
  0
LINE
  5
1FA
330
1E
100
AcDbEntity
  8
0
100
AcDbLine
 10
14.9727274840586
 20
11.2851687739121
 30
0.0
 11
15.2
 21
10.94426
 31
0.0
  0
LINE
  5
1FB
330
1E
100
AcDbEntity
  8
0
100
AcDbLine
 10
15.09999999999999
 20
12.24426
 30
0.0
 11
15.3
 21
11.74426
 31
0.0
  0
LINE
  5
1FC
330
1E
100
AcDbEntity
  8
0
100
AcDbLine
 10
15.0
 20
12.74426
 30
0.0
 11
15.09999999999999
 21
12.24426
 31
0.0
  0
LINE
  5
1FD
330
1E
100
AcDbEntity
  8
0
100
AcDbLine
 10
15.0
 20
12.74426
 30
0.0
 11
15.09999999999999
 21
13.24426
 31
0.0
  0
LINE
  5
1FE
330
1E
100
AcDbEntity
  8
0
100
AcDbLine
 10
14.92639999999999
 20
11.83576
 30
0.0
 11
15.1764
 21
11.40276
 31
0.0
  0
LINE
  5
1FF
330
1E
100
AcDbEntity
  8
0
100
AcDbLine
 10
14.75
 20
12.49426
 30
0.0
 11
14.75
 21
12.99426
 31
0.0
  0
LINE
  5
200
330
1E
100
AcDbEntity
  8
0
100
AcDbLine
 10
14.8
 20
13.94426
 30
0.0
 11
15.2
 21
14.54426
 31
0.0
  0
LINE
  5
201
330
1E
100
AcDbEntity
  8
0
100
AcDbLine
 10
14.59999999999999
 20
13.34426
 30
0.0
 11
14.7389150144696
 21
13.7610050434088
 31
0.0
  0
LINE
  5
202
330
1E
100
AcDbEntity
  8
0
100
AcDbLine
 10
14.59999999999999
 20
13.34426
 30
0.0
 11
14.8
 21
13.94426
 31
0.0
  0
LINE
  5
203
330
1E
100
AcDbEntity
  8
0
100
AcDbLine
 10
14.3144477628969
 20
16.8958182103175
 30
0.0
 11
15.5409090715384
 21
14.7715327143589
 31
0.0
  0
LINE
  5
204
330
1E
100
AcDbEntity
  8
0
100
AcDbLine
 10
14.5
 20
17.04426
 30
0.0
 11
15.7
 21
17.54426
 31
0.0
  0
LINE
  5
205
330
1E
100
AcDbEntity
  8
0
100
AcDbLine
 10
14.3
 20
17.54426
 30
0.0
 11
15.6
 21
18.04426
 31
0.0
  0
LINE
  5
206
330
1E
100
AcDbEntity
  8
0
100
AcDbLine
 10
14.477901813533
 20
17.6126837744358
 30
0.0
 11
15.6
 21
18.04426
 31
0.0
  0
LINE
  5
207
330
1E
100
AcDbEntity
  8
0
100
AcDbLine
 10
14.9
 20
20.44426
 30
0.0
 11
17.0
 21
20.74426
 31
0.0
  0
LINE
  5
208
330
1E
100
AcDbEntity
  8
0
100
AcDbLine
 10
14.8
 20
20.94425999999999
 30
0.0
 11
16.75
 21
21.2101690909091
 31
0.0
  0
LINE
  5
209
330
1E
100
AcDbEntity
  8
0
100
AcDbLine
 10
14.8
 20
20.94425999999999
 30
0.0
 11
17.0
 21
21.24426
 31
0.0
  0
LINE
  5
20A
330
1E
100
AcDbEntity
  8
0
100
AcDbLine
 10
14.19999999999999
 20
23.34426
 30
0.0
 11
17.0
 21
23.74426
 31
0.0
  0
LINE
  5
20B
330
1E
100
AcDbEntity
  8
0
100
AcDbLine
 10
14.3144477628969
 20
16.8958182103175
 30
0.0
 11
15.5409090715384
 21
14.7715327143589
 31
0.0
  0
LINE
  5
20C
330
1E
100
AcDbEntity
  8
0
100
AcDbLine
 10
15.09999999999999
 20
13.24426
 30
0.0
 11
15.3
 21
13.74426
 31
0.0
  0
LINE
  5
20D
330
1E
100
AcDbEntity
  8
0
100
AcDbLine
 10
14.9727273582671
 20
14.20335103740069
 30
0.0
 11
15.2
 21
14.54426
 31
0.0
  0
LINE
  5
20E
330
1E
100
AcDbEntity
  8
0
100
AcDbLine
 10
15.3
 20
13.74426
 30
0.0
 11
15.6
 21
14.14426
 31
0.0
  0
LINE
  5
20F
330
1E
100
AcDbEntity
  8
0
100
AcDbLine
 10
15.6
 20
14.14426
 30
0.0
 11
16.0
 21
14.44425999999999
 31
0.0
  0
LINE
  5
210
330
1E
100
AcDbEntity
  8
0
100
AcDbLine
 10
15.2
 20
14.54426
 30
0.0
 11
15.5409090715384
 21
14.7715327143589
 31
0.0
  0
LINE
  5
211
330
1E
100
AcDbEntity
  8
0
100
AcDbLine
 10
15.2
 20
14.54426
 30
0.0
 11
15.8
 21
14.94425999999999
 31
0.0
  0
LINE
  5
212
330
1E
100
AcDbEntity
  8
0
100
AcDbLine
 10
15.2
 20
14.54426
 30
0.0
 11
15.5409090715384
 21
14.7715327143589
 31
0.0
  0
LINE
  5
213
330
1E
100
AcDbEntity
  8
0
100
AcDbLine
 10
15.6
 20
18.04426
 30
0.0
 11
16.75
 21
18.2085457142857
 31
0.0
  0
LINE
  5
214
330
1E
100
AcDbEntity
  8
0
100
AcDbLine
 10
15.6
 20
18.04426
 30
0.0
 11
17.0
 21
18.24426
 31
0.0
  0
LINE
  5
215
330
1E
100
AcDbEntity
  8
0
100
AcDbLine
 10
15.6585
 20
14.56786
 30
0.0
 11
16.0915
 21
14.81786
 31
0.0
  0
LINE
  5
216
330
1E
100
AcDbEntity
  8
0
100
AcDbLine
 10
14.92639999999999
 20
13.65276
 30
0.0
 11
15.1764
 21
14.08576
 31
0.0
  0
LINE
  5
217
330
1E
100
AcDbEntity
  8
0
100
AcDbLine
 10
14.75
 20
12.99426
 30
0.0
 11
14.75
 21
12.49426
 31
0.0
  0
LINE
  5
218
330
1E
100
AcDbEntity
  8
0
100
AcDbLine
 10
15.98325495659119
 20
10.4831750144696
 30
0.0
 11
16.39999999999999
 21
10.34426
 31
0.0
  0
LINE
  5
219
330
1E
100
AcDbEntity
  8
0
100
AcDbLine
 10
16.39999999999999
 20
10.34426
 30
0.0
 11
16.75
 21
10.2859266666667
 31
0.0
  0
LINE
  5
21A
330
1E
100
AcDbEntity
  8
0
100
AcDbLine
 10
16.39999999999999
 20
10.34426
 30
0.0
 11
17.0
 21
10.24426
 31
0.0
  0
LINE
  5
21B
330
1E
100
AcDbEntity
  8
0
100
AcDbLine
 10
17.0
 20
10.24426
 30
0.0
 11
17.6
 21
10.34426
 31
0.0
  0
LINE
  5
21C
330
1E
100
AcDbEntity
  8
0
100
AcDbLine
 10
16.75
 20
10.2859266666667
 30
0.0
 11
16.75
 21
7.782721538461519
 31
0.0
  0
LINE
  5
21D
330
1E
100
AcDbEntity
  8
0
100
AcDbLine
 10
16.0
 20
14.44425999999999
 30
0.0
 11
16.5
 21
14.64426
 31
0.0
  0
LINE
  5
21E
330
1E
100
AcDbEntity
  8
0
100
AcDbLine
 10
16.5
 20
14.64426
 30
0.0
 11
17.0
 21
14.74426
 31
0.0
  0
LINE
  5
21F
330
1E
100
AcDbEntity
  8
0
100
AcDbLine
 10
15.8
 20
14.94425999999999
 30
0.0
 11
16.39999999999999
 21
15.14426
 31
0.0
  0
LINE
  5
220
330
1E
100
AcDbEntity
  8
0
100
AcDbLine
 10
16.39999999999999
 20
15.14426
 30
0.0
 11
17.0
 21
15.24426
 31
0.0
  0
LINE
  5
221
330
1E
100
AcDbEntity
  8
0
100
AcDbLine
 10
15.9832550730563
 20
15.00534502435209
 30
0.0
 11
16.39999999999999
 21
15.14426
 31
0.0
  0
LINE
  5
222
330
1E
100
AcDbEntity
  8
0
100
AcDbLine
 10
15.7
 20
17.54426
 30
0.0
 11
17.0
 21
17.74426
 31
0.0
  0
LINE
  5
223
330
1E
100
AcDbEntity
  8
0
100
AcDbLine
 10
16.0
 20
11.04426
 30
0.0
 11
16.5
 21
10.84426
 31
0.0
  0
LINE
  5
224
330
1E
100
AcDbEntity
  8
0
100
AcDbLine
 10
16.5
 20
10.84426
 30
0.0
 11
17.0
 21
10.74426
 31
0.0
  0
LINE
  5
225
330
1E
100
AcDbEntity
  8
0
100
AcDbLine
 10
15.8
 20
10.54426
 30
0.0
 11
16.39999999999999
 21
10.34426
 31
0.0
  0
LINE
  5
226
330
1E
100
AcDbEntity
  8
0
100
AcDbLine
 10
16.75
 20
15.2025933333333
 30
0.0
 11
16.75
 21
17.70579846153839
 31
0.0
  0
LINE
  5
227
330
1E
100
AcDbEntity
  8
0
100
AcDbLine
 10
16.75
 20
18.2085457142857
 30
0.0
 11
16.75
 21
20.7085457142857
 31
0.0
  0
LINE
  5
228
330
1E
100
AcDbEntity
  8
0
100
AcDbLine
 10
16.75
 20
21.2101690909091
 30
0.0
 11
16.75
 21
23.70854571428569
 31
0.0
  0
LINE
  5
229
330
1E
100
AcDbEntity
  8
0
100
AcDbLine
 10
16.75
 20
17.70579846153839
 30
0.0
 11
16.75
 21
15.2025933333333
 31
0.0
  0
LINE
  5
22A
330
1E
100
AcDbEntity
  8
0
100
AcDbLine
 10
16.75
 20
20.7085457142857
 30
0.0
 11
16.75
 21
18.2085457142857
 31
0.0
  0
LINE
  5
22B
330
1E
100
AcDbEntity
  8
0
100
AcDbLine
 10
16.75
 20
23.70854571428569
 30
0.0
 11
16.75
 21
21.2101690909091
 31
0.0
  0
LINE
  5
22C
330
1E
100
AcDbEntity
  8
0
100
AcDbLine
 10
16.75
 20
23.70854571428569
 30
0.0
 11
16.75
 21
14.99426
 31
0.0
  0
LINE
  5
22D
330
1E
100
AcDbEntity
  8
0
100
AcDbLine
 10
17.0
 20
14.74426
 30
0.0
 11
17.5
 21
14.64426
 31
0.0
  0
LINE
  5
22E
330
1E
100
AcDbEntity
  8
0
100
AcDbLine
 10
17.0
 20
15.24426
 30
0.0
 11
17.6
 21
15.14426
 31
0.0
  0
LINE
  5
22F
330
1E
100
AcDbEntity
  8
0
100
AcDbLine
 10
17.0
 20
17.74426
 30
0.0
 11
18.3
 21
17.54426
 31
0.0
  0
LINE
  5
230
330
1E
100
AcDbEntity
  8
0
100
AcDbLine
 10
17.0
 20
18.24426
 30
0.0
 11
18.39999999999999
 21
18.04426
 31
0.0
  0
LINE
  5
231
330
1E
100
AcDbEntity
  8
0
100
AcDbLine
 10
17.0
 20
20.74426
 30
0.0
 11
19.1
 21
20.44426
 31
0.0
  0
LINE
  5
232
330
1E
100
AcDbEntity
  8
0
100
AcDbLine
 10
17.0
 20
21.24426
 30
0.0
 11
19.19999999999999
 21
20.94425999999999
 31
0.0
  0
LINE
  5
233
330
1E
100
AcDbEntity
  8
0
100
AcDbLine
 10
17.0
 20
23.74426
 30
0.0
 11
19.8
 21
23.34426
 31
0.0
  0
LINE
  5
234
330
1E
100
AcDbEntity
  8
0
100
AcDbLine
 10
17.0
 20
10.74426
 30
0.0
 11
17.5
 21
10.84426
 31
0.0
  0
LINE
  5
235
330
1E
100
AcDbEntity
  8
0
100
AcDbLine
 10
16.75
 20
14.99426
 30
0.0
 11
16.75
 21
23.70854571428569
 31
0.0
  0
LINE
  5
236
330
1E
100
AcDbEntity
  8
0
100
AcDbLine
 10
16.75
 20
14.99426
 30
0.0
 11
17.25
 21
14.99426
 31
0.0
  0
LINE
  5
237
330
1E
100
AcDbEntity
  8
0
100
AcDbLine
 10
16.75
 20
10.49426
 30
0.0
 11
16.75
 21
1.77997428571427
 31
0.0
  0
LINE
  5
238
330
1E
100
AcDbEntity
  8
0
100
AcDbLine
 10
16.75
 20
10.49426
 30
0.0
 11
17.25
 21
10.49426
 31
0.0
  0
LINE
  5
239
330
1E
100
AcDbEntity
  8
0
100
AcDbLine
 10
15.6585
 20
10.92065999999999
 30
0.0
 11
16.0915
 21
10.67066
 31
0.0
  0
LINE
  5
23A
330
1E
100
AcDbEntity
  8
0
100
AcDbLine
 10
14.31444658330249
 20
8.592702733357951
 30
0.0
 11
15.5409089625993
 21
10.7169873582671
 31
0.0
  0
LINE
  5
23B
330
1E
100
AcDbEntity
  8
0
100
AcDbLine
 10
14.0
 20
23.84426
 30
0.0
 11
17.0
 21
24.24426
 31
0.0
  0
LINE
  5
23C
330
1E
100
AcDbEntity
  8
0
100
AcDbLine
 10
17.0
 20
24.24426
 30
0.0
 11
20.0
 21
23.84426
 31
0.0
  0
LINE
  5
23D
330
1E
100
AcDbEntity
  8
0
100
AcDbLine
 10
17.0
 20
24.74426
 30
0.0
 11
20.1
 21
24.34426
 31
0.0
  0
LINE
  5
23E
330
1E
100
AcDbEntity
  8
0
100
AcDbLine
 10
14.0
 20
1.64425999999998
 30
0.0
 11
17.0
 21
1.244259999999979
 31
0.0
  0
LINE
  5
23F
330
1E
100
AcDbEntity
  8
0
100
AcDbLine
 10
13.9
 20
1.144259999999969
 30
0.0
 11
16.1429
 21
0.854853548387067
 31
0.0
  0
LINE
  5
240
330
1E
100
AcDbEntity
  8
0
100
AcDbLine
 10
17.0
 20
26.75556
 30
0.0
 11
20.6
 21
26.25556
 31
0.0
  0
LINE
  5
241
330
1E
100
AcDbEntity
  8
0
100
AcDbLine
 10
13.4
 20
26.25556
 30
0.0
 11
17.0
 21
26.75556
 31
0.0
  0
LINE
  5
242
330
1E
100
AcDbEntity
  8
0
100
AcDbLine
 10
17.25
 20
7.782721538461519
 30
0.0
 11
18.3
 21
7.944259999999981
 31
0.0
  0
LINE
  5
243
330
1E
100
AcDbEntity
  8
0
100
AcDbLine
 10
17.25
 20
4.779974285714269
 30
0.0
 11
19.1
 21
5.044259999999979
 31
0.0
  0
LINE
  5
244
330
1E
100
AcDbEntity
  8
0
100
AcDbLine
 10
17.25
 20
17.70579846153839
 30
0.0
 11
18.3
 21
17.54426
 31
0.0
  0
LINE
  5
245
330
1E
100
AcDbEntity
  8
0
100
AcDbLine
 10
17.25
 20
21.2101690909091
 30
0.0
 11
19.19999999999999
 21
20.94425999999999
 31
0.0
  0
LINE
  5
246
330
1E
100
AcDbEntity
  8
0
100
AcDbLine
 10
17.25
 20
14.99426
 30
0.0
 11
17.25
 21
23.70854571428569
 31
0.0
  0
LINE
  5
247
330
1E
100
AcDbEntity
  8
0
100
AcDbLine
 10
17.25
 20
23.70854571428569
 30
0.0
 11
17.25
 21
14.99426
 31
0.0
  0
LINE
  5
248
330
1E
100
AcDbEntity
  8
0
100
AcDbLine
 10
17.25
 20
23.70854571428569
 30
0.0
 11
19.8
 21
23.34426
 31
0.0
  0
LINE
  5
249
330
1E
100
AcDbEntity
  8
0
100
AcDbLine
 10
17.25
 20
10.49426
 30
0.0
 11
17.25
 21
1.77997428571427
 31
0.0
  0
LINE
  5
24A
330
1E
100
AcDbEntity
  8
0
100
AcDbLine
 10
17.25
 20
1.77997428571427
 30
0.0
 11
17.25
 21
10.49426
 31
0.0
  0
LINE
  5
24B
330
1E
100
AcDbEntity
  8
0
100
AcDbLine
 10
17.25
 20
1.77997428571427
 30
0.0
 11
19.8
 21
2.14425999999998
 31
0.0
  0
LINE
  5
24C
330
1E
100
AcDbEntity
  8
0
100
AcDbLine
 10
17.4286
 20
0.7995632258064301
 30
0.0
 11
17.4286
 21
0.24443999999998
 31
0.0
  0
LINE
  5
24D
330
1E
100
AcDbEntity
  8
0
100
AcDbLine
 10
17.4286
 20
0.24443999999998
 30
0.0
 11
17.85709999999999
 21
0.24443999999998
 31
0.0
  0
LINE
  5
24E
330
1E
100
AcDbEntity
  8
0
100
AcDbLine
 10
17.4286
 20
0.24443999999998
 30
0.0
 11
17.4286
 21
0.7995632258064301
 31
0.0
  0
LINE
  5
24F
330
1E
100
AcDbEntity
  8
0
100
AcDbLine
 10
17.4286
 20
0.244439999999979
 30
0.0
 11
17.85709999999999
 21
0.244439999999979
 31
0.0
  0
LINE
  5
250
330
1E
100
AcDbEntity
  8
0
100
AcDbLine
 10
17.4286
 20
0.244439999999979
 30
0.0
 11
17.85709999999999
 21
0.244439999999979
 31
0.0
  0
LINE
  5
251
330
1E
100
AcDbEntity
  8
0
100
AcDbLine
 10
17.4286
 20
0.244439999999978
 30
0.0
 11
17.85709999999999
 21
0.244439999999978
 31
0.0
  0
LINE
  5
252
330
1E
100
AcDbEntity
  8
0
100
AcDbLine
 10
17.4286
 20
0.244439999999978
 30
0.0
 11
17.85709999999999
 21
0.244439999999978
 31
0.0
  0
LINE
  5
253
330
1E
100
AcDbEntity
  8
0
100
AcDbLine
 10
17.4286
 20
0.244439999999977
 30
0.0
 11
17.85709999999999
 21
0.244439999999977
 31
0.0
  0
LINE
  5
254
330
1E
100
AcDbEntity
  8
0
100
AcDbLine
 10
17.4286
 20
0.244439999999977
 30
0.0
 11
17.85709999999999
 21
0.244439999999977
 31
0.0
  0
LINE
  5
255
330
1E
100
AcDbEntity
  8
0
100
AcDbLine
 10
17.4286
 20
0.244439999999977
 30
0.0
 11
17.85709999999999
 21
0.244439999999977
 31
0.0
  0
LINE
  5
256
330
1E
100
AcDbEntity
  8
0
100
AcDbLine
 10
17.5
 20
14.64426
 30
0.0
 11
18.0
 21
14.44425999999999
 31
0.0
  0
LINE
  5
257
330
1E
100
AcDbEntity
  8
0
100
AcDbLine
 10
17.6
 20
15.14426
 30
0.0
 11
18.2
 21
14.94425999999999
 31
0.0
  0
LINE
  5
258
330
1E
100
AcDbEntity
  8
0
100
AcDbLine
 10
17.5
 20
10.84426
 30
0.0
 11
18.0
 21
11.04426
 31
0.0
  0
LINE
  5
259
330
1E
100
AcDbEntity
  8
0
100
AcDbLine
 10
17.6
 20
10.34426
 30
0.0
 11
18.0167450434088
 21
10.4831750144696
 31
0.0
  0
LINE
  5
25A
330
1E
100
AcDbEntity
  8
0
100
AcDbLine
 10
17.6
 20
10.34426
 30
0.0
 11
18.2
 21
10.54426
 31
0.0
  0
LINE
  5
25B
330
1E
100
AcDbEntity
  8
0
100
AcDbLine
 10
17.85709999999999
 20
0.8548535483870759
 30
0.0
 11
17.85709999999999
 21
0.24443999999998
 31
0.0
  0
LINE
  5
25C
330
1E
100
AcDbEntity
  8
0
100
AcDbLine
 10
17.85709999999999
 20
0.24443999999998
 30
0.0
 11
17.85709999999999
 21
0.8548535483870759
 31
0.0
  0
LINE
  5
25D
330
1E
100
AcDbEntity
  8
0
100
AcDbLine
 10
17.4286
 20
0.244439999999976
 30
0.0
 11
17.85709999999999
 21
0.244439999999976
 31
0.0
  0
LINE
  5
25E
330
1E
100
AcDbEntity
  8
0
100
AcDbLine
 10
17.4286
 20
0.244439999999976
 30
0.0
 11
17.85709999999999
 21
0.244439999999976
 31
0.0
  0
LINE
  5
25F
330
1E
100
AcDbEntity
  8
0
100
AcDbLine
 10
17.4286
 20
0.244439999999975
 30
0.0
 11
17.85709999999999
 21
0.244439999999975
 31
0.0
  0
LINE
  5
260
330
1E
100
AcDbEntity
  8
0
100
AcDbLine
 10
18.39999999999999
 20
7.444259999999981
 30
0.0
 11
19.5220998805406
 21
7.87583687713097
 31
0.0
  0
LINE
  5
261
330
1E
100
AcDbEntity
  8
0
100
AcDbLine
 10
18.39999999999999
 20
7.444259999999981
 30
0.0
 11
19.69999999999999
 21
7.944259999999981
 31
0.0
  0
LINE
  5
262
330
1E
100
AcDbEntity
  8
0
100
AcDbLine
 10
18.39999999999999
 20
7.444259999999981
 30
0.0
 11
19.5220998805406
 21
7.87583687713097
 31
0.0
  0
LINE
  5
263
330
1E
100
AcDbEntity
  8
0
100
AcDbLine
 10
19.1
 20
5.044259999999979
 30
0.0
 11
21.0
 21
5.84425999999998
 31
0.0
  0
LINE
  5
264
330
1E
100
AcDbEntity
  8
0
100
AcDbLine
 10
19.1
 20
5.044259999999979
 30
0.0
 11
20.7546747515245
 21
5.740965158536629
 31
0.0
  0
LINE
  5
265
330
1E
100
AcDbEntity
  8
0
100
AcDbLine
 10
19.19999999999999
 20
4.544259999999979
 30
0.0
 11
21.2
 21
5.34425999999998
 31
0.0
  0
LINE
  5
266
330
1E
100
AcDbEntity
  8
0
100
AcDbLine
 10
19.8
 20
2.14425999999998
 30
0.0
 11
22.5
 21
3.244259999999979
 31
0.0
  0
LINE
  5
267
330
1E
100
AcDbEntity
  8
0
100
AcDbLine
 10
19.8
 20
2.14425999999998
 30
0.0
 11
22.2540153055978
 21
3.14404401339168
 31
0.0
  0
LINE
  5
268
330
1E
100
AcDbEntity
  8
0
100
AcDbLine
 10
19.8
 20
2.14425999999998
 30
0.0
 11
22.2540153055978
 21
3.14404401339168
 31
0.0
  0
LINE
  5
269
330
1E
100
AcDbEntity
  8
0
100
AcDbLine
 10
18.3
 20
7.944259999999981
 30
0.0
 11
19.5
 21
8.44425999999998
 31
0.0
  0
LINE
  5
26A
330
1E
100
AcDbEntity
  8
0
100
AcDbLine
 10
18.3
 20
7.944259999999981
 30
0.0
 11
19.25327267485689
 21
8.341456947857039
 31
0.0
  0
LINE
  5
26B
330
1E
100
AcDbEntity
  8
0
100
AcDbLine
 10
18.2
 20
10.54426
 30
0.0
 11
18.8
 21
10.94426
 31
0.0
  0
LINE
  5
26C
330
1E
100
AcDbEntity
  8
0
100
AcDbLine
 10
19.68555341669749
 20
8.592702733357951
 30
0.0
 11
20.5
 21
9.244259999999981
 31
0.0
  0
LINE
  5
26D
330
1E
100
AcDbEntity
  8
0
100
AcDbLine
 10
19.5
 20
8.44425999999998
 30
0.0
 11
20.5
 21
9.244259999999981
 31
0.0
  0
LINE
  5
26E
330
1E
100
AcDbEntity
  8
0
100
AcDbLine
 10
19.69999999999999
 20
7.944259999999981
 30
0.0
 11
20.89999999999999
 21
8.84425999999998
 31
0.0
  0
LINE
  5
26F
330
1E
100
AcDbEntity
  8
0
100
AcDbLine
 10
18.0167450434088
 20
10.4831750144696
 30
0.0
 11
19.25327267485689
 21
8.341456947857039
 31
0.0
  0
LINE
  5
270
330
1E
100
AcDbEntity
  8
0
100
AcDbLine
 10
18.0167450434088
 20
10.4831750144696
 30
0.0
 11
19.25327267485689
 21
8.341456947857039
 31
0.0
  0
LINE
  5
271
330
1E
100
AcDbEntity
  8
0
100
AcDbLine
 10
19.5220998805406
 20
7.87583687713097
 30
0.0
 11
20.7546747515245
 21
5.740965158536629
 31
0.0
  0
LINE
  5
272
330
1E
100
AcDbEntity
  8
0
100
AcDbLine
 10
17.9085
 20
10.67066
 30
0.0
 11
18.3415
 21
10.92065999999999
 31
0.0
  0
LINE
  5
273
330
1E
100
AcDbEntity
  8
0
100
AcDbLine
 10
17.9085
 20
10.67066
 30
0.0
 11
22.2540153055978
 21
3.14404401339168
 31
0.0
  0
LINE
  5
274
330
1E
100
AcDbEntity
  8
0
100
AcDbLine
 10
17.9085
 20
10.67066
 30
0.0
 11
22.2540153055978
 21
3.14404401339168
 31
0.0
  0
LINE
  5
275
330
1E
100
AcDbEntity
  8
0
100
AcDbLine
 10
18.8
 20
10.94426
 30
0.0
 11
19.19999999999999
 21
11.54426
 31
0.0
  0
LINE
  5
276
330
1E
100
AcDbEntity
  8
0
100
AcDbLine
 10
18.39999999999999
 20
11.34426
 30
0.0
 11
18.7
 21
11.74426
 31
0.0
  0
LINE
  5
277
330
1E
100
AcDbEntity
  8
0
100
AcDbLine
 10
18.0
 20
11.04426
 30
0.0
 11
18.39999999999999
 21
11.34426
 31
0.0
  0
LINE
  5
278
330
1E
100
AcDbEntity
  8
0
100
AcDbLine
 10
19.0272725885676
 20
11.28516888285129
 30
0.0
 11
21.15155657583219
 21
10.05870571979019
 31
0.0
  0
LINE
  5
279
330
1E
100
AcDbEntity
  8
0
100
AcDbLine
 10
19.0272725885676
 20
11.28516888285129
 30
0.0
 11
21.15155657583219
 21
10.05870571979019
 31
0.0
  0
LINE
  5
27A
330
1E
100
AcDbEntity
  8
0
100
AcDbLine
 10
18.0
 20
14.44425999999999
 30
0.0
 11
18.39999999999999
 21
14.14426
 31
0.0
  0
LINE
  5
27B
330
1E
100
AcDbEntity
  8
0
100
AcDbLine
 10
18.0167449269437
 20
15.00534502435209
 30
0.0
 11
19.2532712840773
 21
17.1470636316344
 31
0.0
  0
LINE
  5
27C
330
1E
100
AcDbEntity
  8
0
100
AcDbLine
 10
18.2
 20
14.94425999999999
 30
0.0
 11
18.8
 21
14.54426
 31
0.0
  0
LINE
  5
27D
330
1E
100
AcDbEntity
  8
0
100
AcDbLine
 10
18.3
 20
17.54426
 30
0.0
 11
19.5
 21
17.04426
 31
0.0
  0
LINE
  5
27E
330
1E
100
AcDbEntity
  8
0
100
AcDbLine
 10
18.0167449269437
 20
15.00534502435209
 30
0.0
 11
19.2532712840773
 21
17.1470636316344
 31
0.0
  0
LINE
  5
27F
330
1E
100
AcDbEntity
  8
0
100
AcDbLine
 10
17.9085
 20
14.81786
 30
0.0
 11
18.3415
 21
14.56786
 31
0.0
  0
LINE
  5
280
330
1E
100
AcDbEntity
  8
0
100
AcDbLine
 10
17.9085
 20
14.81786
 30
0.0
 11
22.2540107919647
 21
22.3444778254958
 31
0.0
  0
LINE
  5
281
330
1E
100
AcDbEntity
  8
0
100
AcDbLine
 10
18.89999999999999
 20
13.24426
 30
0.0
 11
19.0
 21
12.74426
 31
0.0
  0
LINE
  5
282
330
1E
100
AcDbEntity
  8
0
100
AcDbLine
 10
18.7
 20
11.74426
 30
0.0
 11
18.89999999999999
 21
12.24426
 31
0.0
  0
LINE
  5
283
330
1E
100
AcDbEntity
  8
0
100
AcDbLine
 10
18.89999999999999
 20
12.24426
 30
0.0
 11
19.0
 21
12.74426
 31
0.0
  0
LINE
  5
284
330
1E
100
AcDbEntity
  8
0
100
AcDbLine
 10
18.39999999999999
 20
14.14426
 30
0.0
 11
18.7
 21
13.74426
 31
0.0
  0
LINE
  5
285
330
1E
100
AcDbEntity
  8
0
100
AcDbLine
 10
18.7
 20
13.74426
 30
0.0
 11
18.89999999999999
 21
13.24426
 31
0.0
  0
LINE
  5
286
330
1E
100
AcDbEntity
  8
0
100
AcDbLine
 10
18.8
 20
14.54426
 30
0.0
 11
19.19999999999999
 21
13.94426
 31
0.0
  0
LINE
  5
287
330
1E
100
AcDbEntity
  8
0
100
AcDbLine
 10
18.39999999999999
 20
18.04426
 30
0.0
 11
19.69999999999999
 21
17.54426
 31
0.0
  0
LINE
  5
288
330
1E
100
AcDbEntity
  8
0
100
AcDbLine
 10
19.0272727143589
 20
14.20335092846159
 30
0.0
 11
21.1515582103175
 21
15.42981223710309
 31
0.0
  0
LINE
  5
289
330
1E
100
AcDbEntity
  8
0
100
AcDbLine
 10
18.8236
 20
14.08576
 30
0.0
 11
19.07359999999999
 21
13.65276
 31
0.0
  0
LINE
  5
28A
330
1E
100
AcDbEntity
  8
0
100
AcDbLine
 10
18.8236
 20
14.08576
 30
0.0
 11
26.3583179817068
 21
18.4359474365144
 31
0.0
  0
LINE
  5
28B
330
1E
100
AcDbEntity
  8
0
100
AcDbLine
 10
18.8236
 20
14.08576
 30
0.0
 11
26.3583179817068
 21
18.4359474365144
 31
0.0
  0
LINE
  5
28C
330
1E
100
AcDbEntity
  8
0
100
AcDbLine
 10
19.07359999999999
 20
13.65276
 30
0.0
 11
26.60021782549589
 21
17.9982707919647
 31
0.0
  0
LINE
  5
28D
330
1E
100
AcDbEntity
  8
0
100
AcDbLine
 10
19.07359999999999
 20
13.65276
 30
0.0
 11
26.60021782549589
 21
17.9982707919647
 31
0.0
  0
LINE
  5
28E
330
1E
100
AcDbEntity
  8
0
100
AcDbLine
 10
18.3415
 20
14.56786
 30
0.0
 11
22.69168743651439
 21
22.1025779817067
 31
0.0
  0
LINE
  5
28F
330
1E
100
AcDbEntity
  8
0
100
AcDbLine
 10
18.3415
 20
14.56786
 30
0.0
 11
22.69168743651439
 21
22.1025779817067
 31
0.0
  0
LINE
  5
290
330
1E
100
AcDbEntity
  8
0
100
AcDbLine
 10
18.8236
 20
11.40276
 30
0.0
 11
19.07359999999999
 21
11.83576
 31
0.0
  0
LINE
  5
291
330
1E
100
AcDbEntity
  8
0
100
AcDbLine
 10
18.8236
 20
11.40276
 30
0.0
 11
26.3583129736205
 21
7.052565787839429
 31
0.0
  0
LINE
  5
292
330
1E
100
AcDbEntity
  8
0
100
AcDbLine
 10
19.19999999999999
 20
11.54426
 30
0.0
 11
19.39999999999999
 21
12.14426
 31
0.0
  0
LINE
  5
293
330
1E
100
AcDbEntity
  8
0
100
AcDbLine
 10
19.39999999999999
 20
12.14426
 30
0.0
 11
19.5
 21
12.74426
 31
0.0
  0
LINE
  5
294
330
1E
100
AcDbEntity
  8
0
100
AcDbLine
 10
19.4583333333333
 20
12.49426
 30
0.0
 11
21.9615384615385
 21
12.49426
 31
0.0
  0
LINE
  5
295
330
1E
100
AcDbEntity
  8
0
100
AcDbLine
 10
19.19999999999999
 20
13.94426
 30
0.0
 11
19.39999999999999
 21
13.34426
 31
0.0
  0
LINE
  5
296
330
1E
100
AcDbEntity
  8
0
100
AcDbLine
 10
19.1
 20
20.44426
 30
0.0
 11
21.0
 21
19.64425999999999
 31
0.0
  0
LINE
  5
297
330
1E
100
AcDbEntity
  8
0
100
AcDbLine
 10
19.1
 20
20.44426
 30
0.0
 11
20.75467181397339
 21
19.747556078327
 31
0.0
  0
LINE
  5
298
330
1E
100
AcDbEntity
  8
0
100
AcDbLine
 10
19.19999999999999
 20
20.94425999999999
 30
0.0
 11
21.2
 21
20.14425999999999
 31
0.0
  0
LINE
  5
299
330
1E
100
AcDbEntity
  8
0
100
AcDbLine
 10
19.39999999999999
 20
13.34426
 30
0.0
 11
19.5
 21
12.74426
 31
0.0
  0
LINE
  5
29A
330
1E
100
AcDbEntity
  8
0
100
AcDbLine
 10
19.6855522371031
 20
16.8958182103175
 30
0.0
 11
20.5
 21
16.24426
 31
0.0
  0
LINE
  5
29B
330
1E
100
AcDbEntity
  8
0
100
AcDbLine
 10
19.5
 20
17.04426
 30
0.0
 11
20.5
 21
16.24426
 31
0.0
  0
LINE
  5
29C
330
1E
100
AcDbEntity
  8
0
100
AcDbLine
 10
19.69999999999999
 20
17.54426
 30
0.0
 11
20.89999999999999
 21
16.64425999999999
 31
0.0
  0
LINE
  5
29D
330
1E
100
AcDbEntity
  8
0
100
AcDbLine
 10
19.8
 20
23.34426
 30
0.0
 11
22.5
 21
22.24426
 31
0.0
  0
LINE
  5
29E
330
1E
100
AcDbEntity
  8
0
100
AcDbLine
 10
19.8
 20
23.34426
 30
0.0
 11
22.2540107919647
 21
22.3444778254958
 31
0.0
  0
LINE
  5
29F
330
1E
100
AcDbEntity
  8
0
100
AcDbLine
 10
19.52209818646699
 20
17.6126837744358
 30
0.0
 11
20.75467181397339
 21
19.747556078327
 31
0.0
  0
LINE
  5
2A0
330
1E
100
AcDbEntity
  8
0
100
AcDbLine
 10
19.25
 20
12.99426
 30
0.0
 11
19.25
 21
12.49426
 31
0.0
  0
LINE
  5
2A1
330
1E
100
AcDbEntity
  8
0
100
AcDbLine
 10
19.25
 20
12.99426
 30
0.0
 11
27.96428571428569
 21
12.99426
 31
0.0
  0
LINE
  5
2A2
330
1E
100
AcDbEntity
  8
0
100
AcDbLine
 10
19.25
 20
12.49426
 30
0.0
 11
27.96428571428569
 21
12.49426
 31
0.0
  0
LINE
  5
2A3
330
1E
100
AcDbEntity
  8
0
100
AcDbLine
 10
19.25
 20
12.49426
 30
0.0
 11
19.25
 21
12.99426
 31
0.0
  0
LINE
  5
2A4
330
1E
100
AcDbEntity
  8
0
100
AcDbLine
 10
19.07359999999999
 20
11.83576
 30
0.0
 11
26.6002210105289
 21
7.490257025843579
 31
0.0
  0
LINE
  5
2A5
330
1E
100
AcDbEntity
  8
0
100
AcDbLine
 10
18.3415
 20
10.92065999999999
 30
0.0
 11
22.691691348456
 21
3.38594490972834
 31
0.0
  0
LINE
  5
2A6
330
1E
100
AcDbEntity
  8
0
100
AcDbLine
 10
18.3415
 20
10.92065999999999
 30
0.0
 11
22.691691348456
 21
3.38594490972834
 31
0.0
  0
LINE
  5
2A7
330
1E
100
AcDbEntity
  8
0
100
AcDbLine
 10
20.0
 20
23.84426
 30
0.0
 11
22.7
 21
22.74426
 31
0.0
  0
LINE
  5
2A8
330
1E
100
AcDbEntity
  8
0
100
AcDbLine
 10
20.5
 20
16.24426
 30
0.0
 11
21.3
 21
15.24426
 31
0.0
  0
LINE
  5
2A9
330
1E
100
AcDbEntity
  8
0
100
AcDbLine
 10
20.5
 20
16.24426
 30
0.0
 11
21.1515582103175
 21
15.42981223710309
 31
0.0
  0
LINE
  5
2AA
330
1E
100
AcDbEntity
  8
0
100
AcDbLine
 10
20.5
 20
16.24426
 30
0.0
 11
21.1515582103175
 21
15.42981223710309
 31
0.0
  0
LINE
  5
2AB
330
1E
100
AcDbEntity
  8
0
100
AcDbLine
 10
20.5
 20
9.244259999999981
 30
0.0
 11
21.3
 21
10.24426
 31
0.0
  0
LINE
  5
2AC
330
1E
100
AcDbEntity
  8
0
100
AcDbLine
 10
20.5
 20
9.244259999999981
 30
0.0
 11
21.15155657583219
 21
10.05870571979019
 31
0.0
  0
LINE
  5
2AD
330
1E
100
AcDbEntity
  8
0
100
AcDbLine
 10
20.1
 20
24.34426
 30
0.0
 11
23.0
 21
23.14426
 31
0.0
  0
LINE
  5
2AE
330
1E
100
AcDbEntity
  8
0
100
AcDbLine
 10
20.0
 20
1.64425999999998
 30
0.0
 11
22.7
 21
2.744259999999979
 31
0.0
  0
LINE
  5
2AF
330
1E
100
AcDbEntity
  8
0
100
AcDbLine
 10
20.1
 20
1.14425999999998
 30
0.0
 11
23.0
 21
2.34425999999998
 31
0.0
  0
LINE
  5
2B0
330
1E
100
AcDbEntity
  8
0
100
AcDbLine
 10
19.8
 20
2.14425999999998
 30
0.0
 11
22.2540153055978
 21
3.14404401339168
 31
0.0
  0
LINE
  5
2B1
330
1E
100
AcDbEntity
  8
0
100
AcDbLine
 10
20.1
 20
1.144259999999969
 30
0.0
 11
20.8662698996473
 21
1.461337199854019
 31
0.0
  0
LINE
  5
2B2
330
1E
100
AcDbEntity
  8
0
100
AcDbLine
 10
17.85709999999999
 20
0.854853548387067
 30
0.0
 11
20.1
 21
1.144259999999969
 31
0.0
  0
LINE
  5
2B3
330
1E
100
AcDbEntity
  8
0
100
AcDbLine
 10
20.6
 20
26.25556
 30
0.0
 11
24.0
 21
24.85556
 31
0.0
  0
LINE
  5
2B5
330
1E
100
AcDbEntity
  8
0
100
AcDbLine
 10
17.0
 20
31.75556
 30
0.0
 11
20.6
 21
32.25555999999999
 31
0.0
  0
LINE
  5
2B6
330
1E
100
AcDbEntity
  8
0
100
AcDbLine
 10
17.0
 20
31.75556
 30
0.0
 11
20.6
 21
32.25555999999999
 31
0.0
  0
LINE
  5
2B7
330
1E
100
AcDbEntity
  8
0
100
AcDbLine
 10
17.0
 20
31.75556
 30
0.0
 11
20.6
 21
32.25555999999999
 31
0.0
  0
LINE
  5
2B8
330
1E
100
AcDbEntity
  8
0
100
AcDbLine
 10
21.0893
 20
0.8954099999999801
 30
0.0
 11
21.4888
 21
1.04837999999998
 31
0.0
  0
LINE
  5
2B9
330
1E
100
AcDbEntity
  8
0
100
AcDbLine
 10
20.8662698996473
 20
1.46133719985403
 30
0.0
 11
21.0893
 21
0.895409999999978
 31
0.0
  0
LINE
  5
2BA
330
1E
100
AcDbEntity
  8
0
100
AcDbLine
 10
20.8662698996473
 20
1.46133719985403
 30
0.0
 11
21.0893
 21
0.895409999999978
 31
0.0
  0
LINE
  5
2BB
330
1E
100
AcDbEntity
  8
0
100
AcDbLine
 10
20.8662698996473
 20
1.46133719985403
 30
0.0
 11
21.0893
 21
0.8954099999999789
 31
0.0
  0
LINE
  5
2BC
330
1E
100
AcDbEntity
  8
0
100
AcDbLine
 10
20.8662698996473
 20
1.46133719985403
 30
0.0
 11
21.0893
 21
0.8954099999999789
 31
0.0
  0
LINE
  5
2BD
330
1E
100
AcDbEntity
  8
0
100
AcDbLine
 10
20.8662698996473
 20
1.46133719985403
 30
0.0
 11
21.0893
 21
0.8954099999999801
 31
0.0
  0
LINE
  5
2BE
330
1E
100
AcDbEntity
  8
0
100
AcDbLine
 10
20.8662698996473
 20
1.46133719985403
 30
0.0
 11
21.0893
 21
0.8954099999999771
 31
0.0
  0
LINE
  5
2BF
330
1E
100
AcDbEntity
  8
0
100
AcDbLine
 10
20.8662698996473
 20
1.46133719985403
 30
0.0
 11
21.0893
 21
0.8954099999999771
 31
0.0
  0
LINE
  5
2C0
330
1E
100
AcDbEntity
  8
0
100
AcDbLine
 10
20.8662698996473
 20
1.46133719985403
 30
0.0
 11
21.0893
 21
0.8954099999999771
 31
0.0
  0
LINE
  5
2C1
330
1E
100
AcDbEntity
  8
0
100
AcDbLine
 10
20.8662698996473
 20
1.46133719985403
 30
0.0
 11
21.0893
 21
0.8954099999999749
 31
0.0
  0
LINE
  5
2C2
330
1E
100
AcDbEntity
  8
0
100
AcDbLine
 10
20.8662698996473
 20
1.46133719985403
 30
0.0
 11
21.0893
 21
0.895409999999976
 31
0.0
  0
LINE
  5
2C3
330
1E
100
AcDbEntity
  8
0
100
AcDbLine
 10
20.8662698996473
 20
1.46133719985403
 30
0.0
 11
21.0893
 21
0.895409999999976
 31
0.0
  0
LINE
  5
2C4
330
1E
100
AcDbEntity
  8
0
100
AcDbLine
 10
21.2224666666616
 20
0.9463999999980508
 30
0.0
 11
21.4888
 21
1.048359999999979
 31
0.0
  0
LINE
  5
2C5
330
1E
100
AcDbEntity
  8
0
100
AcDbLine
 10
21.2224666666616
 20
0.9463999999980359
 30
0.0
 11
21.4888
 21
1.048359999999979
 31
0.0
  0
LINE
  5
2C6
330
1E
100
AcDbEntity
  8
0
100
AcDbLine
 10
21.4888
 20
1.048359999999979
 30
0.0
 11
21.8883000000113
 21
1.201310000004299
 31
0.0
  0
LINE
  5
2C7
330
1E
100
AcDbEntity
  8
0
100
AcDbLine
 10
21.4888
 20
1.048359999999979
 30
0.0
 11
21.8883000000113
 21
1.201310000004319
 31
0.0
  0
LINE
  5
2C8
330
1E
100
AcDbEntity
  8
0
100
AcDbLine
 10
21.2615329816186
 20
1.624894337221449
 30
0.0
 11
21.4888
 21
1.04837999999998
 31
0.0
  0
LINE
  5
2C9
330
1E
100
AcDbEntity
  8
0
100
AcDbLine
 10
21.2615329816186
 20
1.624894337221449
 30
0.0
 11
21.4888
 21
1.04837999999998
 31
0.0
  0
LINE
  5
2CA
330
1E
100
AcDbEntity
  8
0
100
AcDbLine
 10
22.05215129861719
 20
1.95204674425537
 30
0.0
 11
22.28779999999999
 21
1.35423999999998
 31
0.0
  0
LINE
  5
2CB
330
1E
100
AcDbEntity
  8
0
100
AcDbLine
 10
21.4888
 20
1.04837999999998
 30
0.0
 11
22.28779999999999
 21
1.35423999999998
 31
0.0
  0
LINE
  5
2CC
330
1E
100
AcDbEntity
  8
0
100
AcDbLine
 10
22.28779999999999
 20
1.35423999999998
 30
0.0
 11
22.6872
 21
1.507179999999979
 31
0.0
  0
LINE
  5
2CD
330
1E
100
AcDbEntity
  8
0
100
AcDbLine
 10
22.4474367207888
 20
2.11561312584362
 30
0.0
 11
22.6872
 21
1.507179999999979
 31
0.0
  0
LINE
  5
2CE
330
1E
100
AcDbEntity
  8
0
100
AcDbLine
 10
22.4474367207888
 20
2.11561312584362
 30
0.0
 11
22.6872
 21
1.507179999999979
 31
0.0
  0
LINE
  5
2CF
330
1E
100
AcDbEntity
  8
0
100
AcDbLine
 10
20.89999999999999
 20
16.64425999999999
 30
0.0
 11
21.8
 21
15.44426
 31
0.0
  0
LINE
  5
2D0
330
1E
100
AcDbEntity
  8
0
100
AcDbLine
 10
21.1854005126436
 20
19.4936220834771
 30
0.0
 11
22.6
 21
18.34426
 31
0.0
  0
LINE
  5
2D1
330
1E
100
AcDbEntity
  8
0
100
AcDbLine
 10
21.0
 20
19.64425999999999
 30
0.0
 11
22.6
 21
18.34426
 31
0.0
  0
LINE
  5
2D2
330
1E
100
AcDbEntity
  8
0
100
AcDbLine
 10
20.89999999999999
 20
8.84425999999998
 30
0.0
 11
21.8
 21
10.04426
 31
0.0
  0
LINE
  5
2D3
330
1E
100
AcDbEntity
  8
0
100
AcDbLine
 10
21.2
 20
20.14425999999999
 30
0.0
 11
23.0
 21
18.74426
 31
0.0
  0
LINE
  5
2D4
330
1E
100
AcDbEntity
  8
0
100
AcDbLine
 10
21.1854029963041
 20
5.99489993449704
 30
0.0
 11
22.6
 21
7.14425999999998
 31
0.0
  0
LINE
  5
2D5
330
1E
100
AcDbEntity
  8
0
100
AcDbLine
 10
21.0
 20
5.84425999999998
 30
0.0
 11
22.6
 21
7.14425999999998
 31
0.0
  0
LINE
  5
2D6
330
1E
100
AcDbEntity
  8
0
100
AcDbLine
 10
21.4028036316345
 20
14.9975312840773
 30
0.0
 11
21.8
 21
14.04426
 31
0.0
  0
LINE
  5
2D7
330
1E
100
AcDbEntity
  8
0
100
AcDbLine
 10
21.3
 20
15.24426
 30
0.0
 11
21.8
 21
14.04426
 31
0.0
  0
LINE
  5
2D8
330
1E
100
AcDbEntity
  8
0
100
AcDbLine
 10
21.4028046353389
 20
10.4909911248134
 30
0.0
 11
21.8
 21
11.44425999999999
 31
0.0
  0
LINE
  5
2D9
330
1E
100
AcDbEntity
  8
0
100
AcDbLine
 10
21.3
 20
10.24426
 30
0.0
 11
21.8
 21
11.44425999999999
 31
0.0
  0
LINE
  5
2DA
330
1E
100
AcDbEntity
  8
0
100
AcDbLine
 10
21.2
 20
5.34425999999998
 30
0.0
 11
23.0
 21
6.744259999999981
 31
0.0
  0
LINE
  5
2DB
330
1E
100
AcDbEntity
  8
0
100
AcDbLine
 10
21.0242887056763
 20
20.2145445177294
 30
0.0
 11
22.2540107919647
 21
22.3444778254958
 31
0.0
  0
LINE
  5
2DC
330
1E
100
AcDbEntity
  8
0
100
AcDbLine
 10
21.8
 20
14.04426
 30
0.0
 11
22.0
 21
12.74426
 31
0.0
  0
LINE
  5
2DD
330
1E
100
AcDbEntity
  8
0
100
AcDbLine
 10
21.8
 20
14.04426
 30
0.0
 11
21.9615384615385
 21
12.99426
 31
0.0
  0
LINE
  5
2DE
330
1E
100
AcDbEntity
  8
0
100
AcDbLine
 10
21.8
 20
15.44426
 30
0.0
 11
22.29999999999999
 21
14.14426
 31
0.0
  0
LINE
  5
2DF
330
1E
100
AcDbEntity
  8
0
100
AcDbLine
 10
22.29999999999999
 20
14.14426
 30
0.0
 11
22.5
 21
12.74426
 31
0.0
  0
LINE
  5
2E0
330
1E
100
AcDbEntity
  8
0
100
AcDbLine
 10
21.8
 20
11.44425999999999
 30
0.0
 11
22.0
 21
12.74426
 31
0.0
  0
LINE
  5
2E1
330
1E
100
AcDbEntity
  8
0
100
AcDbLine
 10
21.8
 20
11.44425999999999
 30
0.0
 11
21.9615384615385
 21
12.49426
 31
0.0
  0
LINE
  5
2E2
330
1E
100
AcDbEntity
  8
0
100
AcDbLine
 10
21.8
 20
10.04426
 30
0.0
 11
22.29999999999999
 21
11.34426
 31
0.0
  0
LINE
  5
2E3
330
1E
100
AcDbEntity
  8
0
100
AcDbLine
 10
22.29999999999999
 20
11.34426
 30
0.0
 11
22.5
 21
12.74426
 31
0.0
  0
LINE
  5
2E4
330
1E
100
AcDbEntity
  8
0
100
AcDbLine
 10
21.6116217387996
 20
15.6954310149339
 30
0.0
 11
23.7493620834771
 21
16.9296605126436
 31
0.0
  0
LINE
  5
2E5
330
1E
100
AcDbEntity
  8
0
100
AcDbLine
 10
21.6116198666736
 20
9.79308648889814
 30
0.0
 11
23.74935858826169
 21
8.558855185552879
 31
0.0
  0
LINE
  5
2E6
330
1E
100
AcDbEntity
  8
0
100
AcDbLine
 10
21.024291953255
 20
5.273976781302
 30
0.0
 11
22.2540153055978
 21
3.14404401339168
 31
0.0
  0
LINE
  5
2E7
330
1E
100
AcDbEntity
  8
0
100
AcDbLine
 10
21.024291953255
 20
5.273976781302
 30
0.0
 11
22.2540153055978
 21
3.14404401339168
 31
0.0
  0
LINE
  5
2E8
330
1E
100
AcDbEntity
  8
0
100
AcDbLine
 10
22.4474401089722
 20
2.11561452785054
 30
0.0
 11
22.6872
 21
1.50718999999998
 31
0.0
  0
LINE
  5
2E9
330
1E
100
AcDbEntity
  8
0
100
AcDbLine
 10
22.4474401089722
 20
2.11561452785053
 30
0.0
 11
23.0
 21
2.34425999999997
 31
0.0
  0
LINE
  5
2EA
330
1E
100
AcDbEntity
  8
0
100
AcDbLine
 10
22.6
 20
18.34426
 30
0.0
 11
23.9
 21
16.74426
 31
0.0
  0
LINE
  5
2EB
330
1E
100
AcDbEntity
  8
0
100
AcDbLine
 10
22.6
 20
18.34426
 30
0.0
 11
23.7493620834771
 21
16.9296605126436
 31
0.0
  0
LINE
  5
2EC
330
1E
100
AcDbEntity
  8
0
100
AcDbLine
 10
22.5
 20
22.24426
 30
0.0
 11
24.8
 21
20.54426
 31
0.0
  0
LINE
  5
2ED
330
1E
100
AcDbEntity
  8
0
100
AcDbLine
 10
22.6
 20
7.14425999999998
 30
0.0
 11
23.9
 21
8.744259999999981
 31
0.0
  0
LINE
  5
2EE
330
1E
100
AcDbEntity
  8
0
100
AcDbLine
 10
22.6
 20
7.14425999999998
 30
0.0
 11
23.74935858826169
 21
8.558855185552879
 31
0.0
  0
LINE
  5
2EF
330
1E
100
AcDbEntity
  8
0
100
AcDbLine
 10
22.691691348456
 20
3.38594490972834
 30
0.0
 11
24.8
 21
4.94425999999998
 31
0.0
  0
LINE
  5
2F0
330
1E
100
AcDbEntity
  8
0
100
AcDbLine
 10
22.691691348456
 20
3.38594490972834
 30
0.0
 11
24.8
 21
4.94425999999998
 31
0.0
  0
LINE
  5
2F1
330
1E
100
AcDbEntity
  8
0
100
AcDbLine
 10
22.5
 20
3.244259999999979
 30
0.0
 11
24.8
 21
4.94425999999998
 31
0.0
  0
LINE
  5
2F2
330
1E
100
AcDbEntity
  8
0
100
AcDbLine
 10
22.46428571428569
 20
12.49426
 30
0.0
 11
24.9642857142857
 21
12.49426
 31
0.0
  0
LINE
  5
2F3
330
1E
100
AcDbEntity
  8
0
100
AcDbLine
 10
22.7
 20
22.74426
 30
0.0
 11
25.1
 21
20.84426
 31
0.0
  0
LINE
  5
2F4
330
1E
100
AcDbEntity
  8
0
100
AcDbLine
 10
23.0
 20
18.74426
 30
0.0
 11
24.39999999999999
 21
16.94425999999999
 31
0.0
  0
LINE
  5
2F5
330
1E
100
AcDbEntity
  8
0
100
AcDbLine
 10
23.0
 20
6.744259999999981
 30
0.0
 11
24.39999999999999
 21
8.544259999999981
 31
0.0
  0
LINE
  5
2F6
330
1E
100
AcDbEntity
  8
0
100
AcDbLine
 10
23.0
 20
23.14426
 30
0.0
 11
25.5
 21
21.24426
 31
0.0
  0
LINE
  5
2F7
330
1E
100
AcDbEntity
  8
0
100
AcDbLine
 10
22.7
 20
2.744259999999979
 30
0.0
 11
25.1
 21
4.64425999999998
 31
0.0
  0
LINE
  5
2F8
330
1E
100
AcDbEntity
  8
0
100
AcDbLine
 10
23.0
 20
2.34425999999998
 30
0.0
 11
25.5
 21
4.24425999999998
 31
0.0
  0
LINE
  5
2F9
330
1E
100
AcDbEntity
  8
0
100
AcDbLine
 10
24.944
 20
3.073879999999979
 30
0.0
 11
25.255
 21
3.364449999999979
 31
0.0
  0
LINE
  5
2FA
330
1E
100
AcDbEntity
  8
0
100
AcDbLine
 10
24.944
 20
3.073849999999979
 30
0.0
 11
25.255
 21
3.364429999999979
 31
0.0
  0
LINE
  5
2FB
330
1E
100
AcDbEntity
  8
0
100
AcDbLine
 10
24.944
 20
3.073849999999979
 30
0.0
 11
25.255
 21
3.364429999999979
 31
0.0
  0
LINE
  5
2FC
330
1E
100
AcDbEntity
  8
0
100
AcDbLine
 10
24.944
 20
3.073849999999979
 30
0.0
 11
25.255
 21
3.364429999999979
 31
0.0
  0
LINE
  5
2FD
330
1E
100
AcDbEntity
  8
0
100
AcDbLine
 10
24.944
 20
3.073849999999979
 30
0.0
 11
25.255
 21
3.364429999999979
 31
0.0
  0
LINE
  5
2FE
330
1E
100
AcDbEntity
  8
0
100
AcDbLine
 10
24.944
 20
3.073849999999979
 30
0.0
 11
25.255
 21
3.364429999999979
 31
0.0
  0
LINE
  5
2FF
330
1E
100
AcDbEntity
  8
0
100
AcDbLine
 10
24.944
 20
3.073849999999979
 30
0.0
 11
25.255
 21
3.364429999999979
 31
0.0
  0
LINE
  5
300
330
1E
100
AcDbEntity
  8
0
100
AcDbLine
 10
24.944
 20
3.073849999999979
 30
0.0
 11
25.255
 21
3.364429999999979
 31
0.0
  0
LINE
  5
301
330
1E
100
AcDbEntity
  8
0
100
AcDbLine
 10
24.5283061934278
 20
3.505772707005089
 30
0.0
 11
24.944
 21
3.073849999999979
 31
0.0
  0
LINE
  5
302
330
1E
100
AcDbEntity
  8
0
100
AcDbLine
 10
24.944
 20
3.073849999999979
 30
0.0
 11
25.255
 21
3.364429999999979
 31
0.0
  0
LINE
  5
303
330
1E
100
AcDbEntity
  8
0
100
AcDbLine
 10
24.8694555978116
 20
3.765046254336829
 30
0.0
 11
25.255
 21
3.364449999999979
 31
0.0
  0
LINE
  5
304
330
1E
100
AcDbEntity
  8
0
100
AcDbLine
 10
24.8694555978116
 20
3.765046254336829
 30
0.0
 11
25.255
 21
3.364449999999979
 31
0.0
  0
LINE
  5
305
330
1E
100
AcDbEntity
  8
0
100
AcDbLine
 10
24.5283228689833
 20
3.50578538042729
 30
0.0
 11
24.944
 21
3.073879999999979
 31
0.0
  0
LINE
  5
306
330
1E
100
AcDbEntity
  8
0
100
AcDbLine
 10
24.5283061934278
 20
3.505772707005089
 30
0.0
 11
24.944
 21
3.073849999999979
 31
0.0
  0
LINE
  5
307
330
1E
100
AcDbEntity
  8
0
100
AcDbLine
 10
24.5283061934278
 20
3.505772707005089
 30
0.0
 11
24.944
 21
3.073849999999979
 31
0.0
  0
LINE
  5
308
330
1E
100
AcDbEntity
  8
0
100
AcDbLine
 10
24.5283061934278
 20
3.505772707005089
 30
0.0
 11
24.944
 21
3.073849999999979
 31
0.0
  0
LINE
  5
309
330
1E
100
AcDbEntity
  8
0
100
AcDbLine
 10
24.5283061934278
 20
3.505772707005089
 30
0.0
 11
24.944
 21
3.073849999999979
 31
0.0
  0
LINE
  5
30A
330
1E
100
AcDbEntity
  8
0
100
AcDbLine
 10
24.5283061934278
 20
3.505772707005089
 30
0.0
 11
24.944
 21
3.073849999999979
 31
0.0
  0
LINE
  5
30B
330
1E
100
AcDbEntity
  8
0
100
AcDbLine
 10
24.5283061934278
 20
3.505772707005089
 30
0.0
 11
24.944
 21
3.073849999999979
 31
0.0
  0
LINE
  5
30C
330
1E
100
AcDbEntity
  8
0
100
AcDbLine
 10
24.5283061934278
 20
3.505772707005089
 30
0.0
 11
24.944
 21
3.073849999999979
 31
0.0
  0
LINE
  5
30D
330
1E
100
AcDbEntity
  8
0
100
AcDbLine
 10
24.5283061934278
 20
3.505772707005089
 30
0.0
 11
24.944
 21
3.073849999999979
 31
0.0
  0
LINE
  5
30E
330
1E
100
AcDbEntity
  8
0
100
AcDbLine
 10
24.5283061934278
 20
3.505772707005089
 30
0.0
 11
24.944
 21
3.073849999999979
 31
0.0
  0
LINE
  5
30F
330
1E
100
AcDbEntity
  8
0
100
AcDbLine
 10
24.5283061934278
 20
3.505772707005089
 30
0.0
 11
24.944
 21
3.073849999999979
 31
0.0
  0
LINE
  5
310
330
1E
100
AcDbEntity
  8
0
100
AcDbLine
 10
24.5283061934278
 20
3.505772707005089
 30
0.0
 11
24.944
 21
3.073849999999979
 31
0.0
  0
LINE
  5
311
330
1E
100
AcDbEntity
  8
0
100
AcDbLine
 10
25.255
 20
3.364429999999979
 30
0.0
 11
25.56594999999139
 21
3.65509499999198
 31
0.0
  0
LINE
  5
312
330
1E
100
AcDbEntity
  8
0
100
AcDbLine
 10
25.255
 20
3.364429999999979
 30
0.0
 11
25.5659499999906
 21
3.655094999991149
 31
0.0
  0
LINE
  5
313
330
1E
100
AcDbEntity
  8
0
100
AcDbLine
 10
25.255
 20
3.364449999999979
 30
0.0
 11
25.8769
 21
3.945739999999979
 31
0.0
  0
LINE
  5
314
330
1E
100
AcDbEntity
  8
0
100
AcDbLine
 10
24.944
 20
3.073849999999979
 30
0.0
 11
25.255
 21
3.36442999999997
 31
0.0
  0
LINE
  5
315
330
1E
100
AcDbEntity
  8
0
100
AcDbLine
 10
24.00329607832699
 20
16.4989318139734
 30
0.0
 11
24.7
 21
14.84426
 31
0.0
  0
LINE
  5
316
330
1E
100
AcDbEntity
  8
0
100
AcDbLine
 10
23.9
 20
16.74426
 30
0.0
 11
24.7
 21
14.84426
 31
0.0
  0
LINE
  5
317
330
1E
100
AcDbEntity
  8
0
100
AcDbLine
 10
24.0032982206285
 20
8.989593273992689
 30
0.0
 11
24.7
 21
10.64426
 31
0.0
  0
LINE
  5
318
330
1E
100
AcDbEntity
  8
0
100
AcDbLine
 10
24.0032982206285
 20
8.989593273992689
 30
0.0
 11
24.7
 21
10.64426
 31
0.0
  0
LINE
  5
319
330
1E
100
AcDbEntity
  8
0
100
AcDbLine
 10
23.9
 20
8.744259999999981
 30
0.0
 11
24.7
 21
10.64426
 31
0.0
  0
LINE
  5
31A
330
1E
100
AcDbEntity
  8
0
100
AcDbLine
 10
24.39999999999999
 20
16.94425999999999
 30
0.0
 11
25.2
 21
14.94425999999999
 31
0.0
  0
LINE
  5
31B
330
1E
100
AcDbEntity
  8
0
100
AcDbLine
 10
24.7
 20
14.84426
 30
0.0
 11
25.0
 21
12.74426
 31
0.0
  0
LINE
  5
31C
330
1E
100
AcDbEntity
  8
0
100
AcDbLine
 10
24.7
 20
14.84426
 30
0.0
 11
24.9642857142857
 21
12.99426
 31
0.0
  0
LINE
  5
31D
330
1E
100
AcDbEntity
  8
0
100
AcDbLine
 10
24.7
 20
10.64426
 30
0.0
 11
25.0
 21
12.74426
 31
0.0
  0
LINE
  5
31E
330
1E
100
AcDbEntity
  8
0
100
AcDbLine
 10
24.7
 20
10.64426
 30
0.0
 11
24.9642857142857
 21
12.49426
 31
0.0
  0
LINE
  5
31F
330
1E
100
AcDbEntity
  8
0
100
AcDbLine
 10
24.39999999999999
 20
8.544259999999981
 30
0.0
 11
25.2
 21
10.54426
 31
0.0
  0
LINE
  5
320
330
1E
100
AcDbEntity
  8
0
100
AcDbLine
 10
24.2062077575708
 20
17.1934214545519
 30
0.0
 11
26.3583179817068
 21
18.4359474365144
 31
0.0
  0
LINE
  5
321
330
1E
100
AcDbEntity
  8
0
100
AcDbLine
 10
24.2062077575707
 20
17.1934214545519
 30
0.0
 11
26.3583179817068
 21
18.4359474365144
 31
0.0
  0
LINE
  5
322
330
1E
100
AcDbEntity
  8
0
100
AcDbLine
 10
24.2062040508276
 20
8.295093779635498
 30
0.0
 11
26.3583129736205
 21
7.052565787839429
 31
0.0
  0
LINE
  5
323
330
1E
100
AcDbEntity
  8
0
100
AcDbLine
 10
24.8
 20
20.54426
 30
0.0
 11
26.5
 21
18.24426
 31
0.0
  0
LINE
  5
324
330
1E
100
AcDbEntity
  8
0
100
AcDbLine
 10
24.8
 20
20.54426
 30
0.0
 11
26.3583179817068
 21
18.4359474365144
 31
0.0
  0
LINE
  5
325
330
1E
100
AcDbEntity
  8
0
100
AcDbLine
 10
24.8
 20
4.94425999999998
 30
0.0
 11
26.5
 21
7.244259999999981
 31
0.0
  0
LINE
  5
326
330
1E
100
AcDbEntity
  8
0
100
AcDbLine
 10
24.8
 20
4.94425999999998
 30
0.0
 11
26.3583129736205
 21
7.052565787839429
 31
0.0
  0
LINE
  5
327
330
1E
100
AcDbEntity
  8
0
100
AcDbLine
 10
25.1
 20
20.84426
 30
0.0
 11
27.0
 21
18.44426
 31
0.0
  0
LINE
  5
328
330
1E
100
AcDbEntity
  8
0
100
AcDbLine
 10
25.2
 20
14.94425999999999
 30
0.0
 11
25.4659090909091
 21
12.99426
 31
0.0
  0
LINE
  5
329
330
1E
100
AcDbEntity
  8
0
100
AcDbLine
 10
25.2
 20
14.94425999999999
 30
0.0
 11
25.5
 21
12.74426
 31
0.0
  0
LINE
  5
32A
330
1E
100
AcDbEntity
  8
0
100
AcDbLine
 10
25.2
 20
10.54426
 30
0.0
 11
25.5
 21
12.74426
 31
0.0
  0
LINE
  5
32B
330
1E
100
AcDbEntity
  8
0
100
AcDbLine
 10
25.4659090909091
 20
12.49426
 30
0.0
 11
27.96428571428569
 21
12.49426
 31
0.0
  0
LINE
  5
32C
330
1E
100
AcDbEntity
  8
0
100
AcDbLine
 10
25.5
 20
21.24426
 30
0.0
 11
27.4
 21
18.74426
 31
0.0
  0
LINE
  5
32D
330
1E
100
AcDbEntity
  8
0
100
AcDbLine
 10
25.1
 20
4.64425999999998
 30
0.0
 11
27.0
 21
7.04425999999998
 31
0.0
  0
LINE
  5
32E
330
1E
100
AcDbEntity
  8
0
100
AcDbLine
 10
25.5
 20
4.24425999999998
 30
0.0
 11
27.4
 21
6.744259999999981
 31
0.0
  0
LINE
  5
32F
330
1E
100
AcDbEntity
  8
0
100
AcDbLine
 10
23.0
 20
2.34425999999998
 30
0.0
 11
25.5
 21
4.24425999999998
 31
0.0
  0
LINE
  5
330
330
1E
100
AcDbEntity
  8
0
100
AcDbLine
 10
23.0
 20
2.34425999999997
 30
0.0
 11
24.5283061934278
 21
3.50577270700508
 31
0.0
  0
LINE
  5
331
330
1E
100
AcDbEntity
  8
0
100
AcDbLine
 10
23.0
 20
2.34425999999997
 30
0.0
 11
24.5283061934278
 21
3.50577270700508
 31
0.0
  0
LINE
  5
332
330
1E
100
AcDbEntity
  8
0
100
AcDbLine
 10
22.4474401089722
 20
2.11561452785053
 30
0.0
 11
23.0
 21
2.34425999999997
 31
0.0
  0
LINE
  5
333
330
1E
100
AcDbEntity
  8
0
100
AcDbLine
 10
25.5
 20
27.45556
 30
0.0
 11
29.0
 21
24.75556
 31
0.0
  0
LINE
  5
334
330
1E
100
AcDbEntity
  8
0
100
AcDbLine
 10
24.0
 20
24.85556
 30
0.0
 11
26.89999999999999
 21
22.65556
 31
0.0
  0
LINE
  5
335
330
1E
100
AcDbEntity
  8
0
100
AcDbLine
 10
29.0
 20
0.7555599999999699
 30
0.0
 11
31.69999999999999
 21
4.255559999999969
 31
0.0
  0
LINE
  5
336
330
1E
100
AcDbEntity
  8
0
100
AcDbLine
 10
26.89999999999999
 20
2.85555999999997
 30
0.0
 11
29.0
 21
0.7555599999999691
 31
0.0
  0
LINE
  5
337
330
1E
100
AcDbEntity
  8
0
100
AcDbLine
 10
25.5395455149101
 20
4.296293572250159
 30
0.0
 11
25.8769
 21
3.945739999999979
 31
0.0
  0
LINE
  5
338
330
1E
100
AcDbEntity
  8
0
100
AcDbLine
 10
25.8002046206149
 20
4.639266079756379
 30
0.0
 11
26.1879
 21
4.236359999999979
 31
0.0
  0
LINE
  5
339
330
1E
100
AcDbEntity
  8
0
100
AcDbLine
 10
25.8002046206149
 20
4.639266079756379
 30
0.0
 11
27.4
 21
6.74425999999997
 31
0.0
  0
LINE
  5
33A
330
1E
100
AcDbEntity
  8
0
100
AcDbLine
 10
26.0013000000042
 20
4.06198800000386
 30
0.0
 11
26.1879
 21
4.23632999999998
 31
0.0
  0
LINE
  5
33B
330
1E
100
AcDbEntity
  8
0
100
AcDbLine
 10
26.00130000000429
 20
4.061988000004019
 30
0.0
 11
26.1879
 21
4.23632999999998
 31
0.0
  0
LINE
  5
33C
330
1E
100
AcDbEntity
  8
0
100
AcDbLine
 10
25.8769
 20
3.945739999999979
 30
0.0
 11
26.1879
 21
4.236359999999979
 31
0.0
  0
LINE
  5
33D
330
1E
100
AcDbEntity
  8
0
100
AcDbLine
 10
25.8002046206149
 20
4.639266079756379
 30
0.0
 11
27.4
 21
6.74425999999997
 31
0.0
  0
LINE
  5
33E
330
1E
100
AcDbEntity
  8
0
100
AcDbLine
 10
26.5
 20
7.244259999999981
 30
0.0
 11
27.6
 21
9.94425999999998
 31
0.0
  0
LINE
  5
33F
330
1E
100
AcDbEntity
  8
0
100
AcDbLine
 10
27.0
 20
7.04425999999998
 30
0.0
 11
28.1
 21
9.744259999999981
 31
0.0
  0
LINE
  5
340
330
1E
100
AcDbEntity
  8
0
100
AcDbLine
 10
27.4
 20
6.744259999999981
 30
0.0
 11
28.6
 21
9.644259999999981
 31
0.0
  0
LINE
  5
341
330
1E
100
AcDbEntity
  8
0
100
AcDbLine
 10
26.5
 20
18.24426
 30
0.0
 11
27.6
 21
15.54426
 31
0.0
  0
LINE
  5
342
330
1E
100
AcDbEntity
  8
0
100
AcDbLine
 10
27.0
 20
18.44426
 30
0.0
 11
28.1
 21
15.74426
 31
0.0
  0
LINE
  5
343
330
1E
100
AcDbEntity
  8
0
100
AcDbLine
 10
27.4
 20
18.74426
 30
0.0
 11
28.6
 21
15.84426
 31
0.0
  0
LINE
  5
344
330
1E
100
AcDbEntity
  8
0
100
AcDbLine
 10
26.6002210105289
 20
7.490257025843579
 30
0.0
 11
27.6
 21
9.94425999999998
 31
0.0
  0
LINE
  5
345
330
1E
100
AcDbEntity
  8
0
100
AcDbLine
 10
26.6002210105289
 20
7.490257025843579
 30
0.0
 11
27.6
 21
9.94425999999998
 31
0.0
  0
LINE
  5
346
330
1E
100
AcDbEntity
  8
0
100
AcDbLine
 10
27.6
 20
15.54426
 30
0.0
 11
28.0
 21
12.74426
 31
0.0
  0
LINE
  5
347
330
1E
100
AcDbEntity
  8
0
100
AcDbLine
 10
27.6
 20
15.54426
 30
0.0
 11
27.96428571428569
 21
12.99426
 31
0.0
  0
LINE
  5
348
330
1E
100
AcDbEntity
  8
0
100
AcDbLine
 10
27.6
 20
9.94425999999998
 30
0.0
 11
28.0
 21
12.74426
 31
0.0
  0
LINE
  5
349
330
1E
100
AcDbEntity
  8
0
100
AcDbLine
 10
27.6
 20
9.94425999999998
 30
0.0
 11
27.96428571428569
 21
12.49426
 31
0.0
  0
LINE
  5
34A
330
1E
100
AcDbEntity
  8
0
100
AcDbLine
 10
28.1
 20
15.74426
 30
0.0
 11
28.5
 21
12.74426
 31
0.0
  0
LINE
  5
34B
330
1E
100
AcDbEntity
  8
0
100
AcDbLine
 10
28.6
 20
15.84426
 30
0.0
 11
29.0
 21
12.74426
 31
0.0
  0
LINE
  5
34C
330
1E
100
AcDbEntity
  8
0
100
AcDbLine
 10
28.1
 20
9.744259999999981
 30
0.0
 11
28.5
 21
12.74426
 31
0.0
  0
LINE
  5
34D
330
1E
100
AcDbEntity
  8
0
100
AcDbLine
 10
28.6
 20
9.644259999999981
 30
0.0
 11
29.0
 21
12.74426
 31
0.0
  0
LINE
  5
34E
330
1E
100
AcDbEntity
  8
0
100
AcDbLine
 10
27.4
 20
6.74425999999997
 30
0.0
 11
28.6
 21
9.64425999999997
 31
0.0
  0
LINE
  5
34F
330
1E
100
AcDbEntity
  8
0
100
AcDbLine
 10
29.0
 20
24.75556
 30
0.0
 11
31.69999999999999
 21
21.25556
 31
0.0
  0
LINE
  5
350
330
1E
100
AcDbEntity
  8
0
100
AcDbLine
 10
26.89999999999999
 20
22.65556
 30
0.0
 11
29.1
 21
19.75556
 31
0.0
  0
LINE
  5
351
330
1E
100
AcDbEntity
  8
0
100
AcDbLine
 10
29.1
 20
19.75556
 30
0.0
 11
30.5
 21
16.35556
 31
0.0
  0
LINE
  5
352
330
1E
100
AcDbEntity
  8
0
100
AcDbLine
 10
29.1
 20
5.755559999999969
 30
0.0
 11
30.5
 21
9.155559999999971
 31
0.0
  0
LINE
  5
353
330
1E
100
AcDbEntity
  8
0
100
AcDbLine
 10
33.39999999999999
 20
8.35555999999997
 30
0.0
 11
34.0
 21
12.75556
 31
0.0
  0
LINE
  5
354
330
1E
100
AcDbEntity
  8
0
100
AcDbLine
 10
31.69999999999999
 20
4.255559999999969
 30
0.0
 11
33.39999999999999
 21
8.35555999999997
 31
0.0
  0
LINE
  5
355
330
1E
100
AcDbEntity
  8
0
100
AcDbLine
 10
30.5
 20
16.35556
 30
0.0
 11
31.0
 21
12.75556
 31
0.0
  0
LINE
  5
356
330
1E
100
AcDbEntity
  8
0
100
AcDbLine
 10
31.69999999999999
 20
21.25556
 30
0.0
 11
33.39999999999999
 21
17.15556
 31
0.0
  0
LINE
  5
357
330
1E
100
AcDbEntity
  8
0
100
AcDbLine
 10
33.39999999999999
 20
17.15556
 30
0.0
 11
34.0
 21
12.75556
 31
0.0
  0
LINE
  5
358
330
1E
100
AcDbEntity
  8
0
100
AcDbLine
 10
30.5
 20
9.155559999999971
 30
0.0
 11
31.0
 21
12.75556
 31
0.0
  0
LINE
  5
359
330
1E
100
AcDbEntity
  8
0
100
AcDbLine
 10
26.89999999999999
 20
2.85555999999997
 30
0.0
 11
29.1
 21
5.755559999999969
 31
0.0
  0
LINE
  5
35A
330
1E
100
AcDbEntity
  8
0
100
AcDbLine
 10
26.89999999999999
 20
2.85555999999997
 30
0.0
 11
29.0
 21
0.7555599999999699
 31
0.0
  0
LINE
  5
35B
330
1E
100
AcDbEntity
  8
0
100
AcDbLine
 10
25.5
 20
29.25556
 30
0.0
 11
25.5
 21
31.05555999999999
 31
0.0
  0
LINE
  5
35C
330
1E
100
AcDbEntity
  8
0
100
AcDbLine
 10
25.5
 20
29.25556
 30
0.0
 11
25.5
 21
27.45556
 31
0.0
  0
LINE
  5
35D
330
1E
100
AcDbEntity
  8
0
100
AcDbLine
 10
25.5
 20
31.05555999999999
 30
0.0
 11
29.0
 21
33.75555999999999
 31
0.0
  0
LINE
  5
35E
330
1E
100
AcDbEntity
  8
0
100
AcDbLine
 10
25.5
 20
31.05555999999999
 30
0.0
 11
25.5
 21
29.25556
 31
0.0
  0
LINE
  5
35F
330
1E
100
AcDbEntity
  8
0
100
AcDbLine
 10
20.6
 20
32.25555999999999
 30
0.0
 11
24.0
 21
33.65555999999999
 31
0.0
  0
LINE
  5
360
330
1E
100
AcDbEntity
  8
0
100
AcDbLine
 10
13.4
 20
32.25555999999999
 30
0.0
 11
17.0
 21
31.75556
 31
0.0
  0
LINE
  5
361
330
1E
100
AcDbEntity
  8
0
100
AcDbLine
 10
20.6
 20
32.25555999999999
 30
0.0
 11
24.0
 21
33.65555999999999
 31
0.0
  0
LINE
  5
362
330
1E
100
AcDbEntity
  8
0
100
AcDbLine
 10
20.6
 20
32.25555999999999
 30
0.0
 11
24.0
 21
33.65555999999999
 31
0.0
  0
LINE
  5
363
330
1E
100
AcDbEntity
  8
0
100
AcDbLine
 10
17.0
 20
32.75555999999999
 30
0.0
 11
20.4
 21
33.25555999999999
 31
0.0
  0
LINE
  5
364
330
1E
100
AcDbEntity
  8
0
100
AcDbLine
 10
20.4
 20
33.25555999999999
 30
0.0
 11
23.5
 21
34.45555999999999
 31
0.0
  0
LINE
  5
365
330
1E
100
AcDbEntity
  8
0
100
AcDbLine
 10
13.4
 20
32.25555999999999
 30
0.0
 11
17.0
 21
31.75556
 31
0.0
  0
LINE
  5
366
330
1E
100
AcDbEntity
  8
0
100
AcDbLine
 10
24.0
 20
33.65555999999999
 30
0.0
 11
26.89999999999999
 21
35.85555999999999
 31
0.0
  0
LINE
  5
367
330
1E
100
AcDbEntity
  8
0
100
AcDbLine
 10
24.0
 20
33.65555999999999
 30
0.0
 11
26.89999999999999
 21
35.85555999999999
 31
0.0
  0
LINE
  5
368
330
1E
100
AcDbEntity
  8
0
100
AcDbLine
 10
23.5
 20
34.45555999999999
 30
0.0
 11
26.2
 21
36.55556
 31
0.0
  0
LINE
  5
369
330
1E
100
AcDbEntity
  8
0
100
AcDbLine
 10
24.0
 20
33.65555999999999
 30
0.0
 11
26.89999999999999
 21
35.85555999999999
 31
0.0
  0
LINE
  5
36A
330
1E
100
AcDbEntity
  8
0
100
AcDbLine
 10
29.0
 20
33.75555999999999
 30
0.0
 11
31.69999999999999
 21
37.25555999999999
 31
0.0
  0
LINE
  5
36B
330
1E
100
AcDbEntity
  8
0
100
AcDbLine
 10
26.89999999999999
 20
35.85555999999999
 30
0.0
 11
29.1
 21
38.75555999999999
 31
0.0
  0
LINE
  5
36C
330
1E
100
AcDbEntity
  8
0
100
AcDbLine
 10
13.6
 20
33.25555999999999
 30
0.0
 11
17.0
 21
32.75555999999999
 31
0.0
  0
LINE
  5
36D
330
1E
100
AcDbEntity
  8
0
100
AcDbLine
 10
10.5
 20
34.45555999999999
 30
0.0
 11
13.6
 21
33.25555999999999
 31
0.0
  0
LINE
  5
36E
330
1E
100
AcDbEntity
  8
0
100
AcDbLine
 10
13.4
 20
32.25555999999999
 30
0.0
 11
17.0
 21
31.75556
 31
0.0
  0
LINE
  5
36F
330
1E
100
AcDbEntity
  8
0
100
AcDbLine
 10
10.0
 20
33.65555999999999
 30
0.0
 11
13.4
 21
32.25555999999999
 31
0.0
  0
LINE
  5
370
330
1E
100
AcDbEntity
  8
0
100
AcDbLine
 10
7.099999999999999
 20
35.85555999999999
 30
0.0
 11
10.0
 21
33.65555999999999
 31
0.0
  0
LINE
  5
371
330
1E
100
AcDbEntity
  8
0
100
AcDbLine
 10
26.89999999999999
 20
35.85555999999999
 30
0.0
 11
29.1
 21
38.75555999999999
 31
0.0
  0
LINE
  5
372
330
1E
100
AcDbEntity
  8
0
100
AcDbLine
 10
26.89999999999999
 20
35.85555999999999
 30
0.0
 11
29.1
 21
38.75555999999999
 31
0.0
  0
LINE
  5
373
330
1E
100
AcDbEntity
  8
0
100
AcDbLine
 10
26.2
 20
36.55556
 30
0.0
 11
28.3
 21
39.25555999999999
 31
0.0
  0
LINE
  5
374
330
1E
100
AcDbEntity
  8
0
100
AcDbLine
 10
7.099999999999999
 20
35.85555999999999
 30
0.0
 11
10.0
 21
33.65555999999999
 31
0.0
  0
LINE
  5
375
330
1E
100
AcDbEntity
  8
0
100
AcDbLine
 10
29.1
 20
38.75555999999999
 30
0.0
 11
30.5
 21
42.15555999999999
 31
0.0
  0
LINE
  5
376
330
1E
100
AcDbEntity
  8
0
100
AcDbLine
 10
28.3
 20
39.25555999999999
 30
0.0
 11
29.5
 21
42.35555999999999
 31
0.0
  0
LINE
  5
377
330
1E
100
AcDbEntity
  8
0
100
AcDbLine
 10
29.1
 20
38.75555999999999
 30
0.0
 11
30.5
 21
42.15555999999999
 31
0.0
  0
LINE
  5
378
330
1E
100
AcDbEntity
  8
0
100
AcDbLine
 10
30.5
 20
42.15555999999999
 30
0.0
 11
31.0
 21
45.75555999999999
 31
0.0
  0
LINE
  5
379
330
1E
100
AcDbEntity
  8
0
100
AcDbLine
 10
31.69999999999999
 20
37.25555999999999
 30
0.0
 11
33.39999999999999
 21
41.35556
 31
0.0
  0
LINE
  5
37A
330
1E
100
AcDbEntity
  8
0
100
AcDbLine
 10
33.39999999999999
 20
41.35556
 30
0.0
 11
34.0
 21
45.75555999999999
 31
0.0
  0
LINE
  5
37B
330
1E
100
AcDbEntity
  8
0
100
AcDbLine
 10
7.799999999999999
 20
36.55556
 30
0.0
 11
10.5
 21
34.45555999999999
 31
0.0
  0
LINE
  5
37C
330
1E
100
AcDbEntity
  8
0
100
AcDbLine
 10
5.7
 20
39.25555999999999
 30
0.0
 11
7.799999999999999
 21
36.55556
 31
0.0
  0
LINE
  5
37D
330
1E
100
AcDbEntity
  8
0
100
AcDbLine
 10
7.099999999999999
 20
35.85555999999999
 30
0.0
 11
10.0
 21
33.65555999999999
 31
0.0
  0
LINE
  5
37E
330
1E
100
AcDbEntity
  8
0
100
AcDbLine
 10
4.9
 20
38.75555999999999
 30
0.0
 11
7.099999999999999
 21
35.85555999999999
 31
0.0
  0
LINE
  5
37F
330
1E
100
AcDbEntity
  8
0
100
AcDbLine
 10
3.5
 20
42.15555999999999
 30
0.0
 11
4.9
 21
38.75555999999999
 31
0.0
  0
LINE
  5
380
330
1E
100
AcDbEntity
  8
0
100
AcDbLine
 10
3.5
 20
42.15555999999999
 30
0.0
 11
4.9
 21
38.75555999999999
 31
0.0
  0
LINE
  5
381
330
1E
100
AcDbEntity
  8
0
100
AcDbLine
 10
4.5
 20
42.35555999999999
 30
0.0
 11
5.7
 21
39.25555999999999
 31
0.0
  0
LINE
  5
382
330
1E
100
AcDbEntity
  8
0
100
AcDbLine
 10
3.5
 20
49.35556
 30
0.0
 11
4.9
 21
52.75555999999999
 31
0.0
  0
LINE
  5
383
330
1E
100
AcDbEntity
  8
0
100
AcDbLine
 10
4.5
 20
49.15555999999999
 30
0.0
 11
5.7
 21
52.25556
 31
0.0
  0
LINE
  5
384
330
1E
100
AcDbEntity
  8
0
100
AcDbLine
 10
5.7
 20
52.25556
 30
0.0
 11
7.799999999999999
 21
54.95556
 31
0.0
  0
LINE
  5
385
330
1E
100
AcDbEntity
  8
0
100
AcDbLine
 10
5.0
 20
57.75555999999999
 30
0.0
 11
7.0
 21
59.29841714285711
 31
0.0
  0
LINE
  5
386
330
1E
100
AcDbEntity
  8
0
100
AcDbLine
 10
7.0
 20
55.5237418181818
 30
0.0
 11
7.0
 21
81.75556
 31
0.0
  0
LINE
  5
387
330
1E
100
AcDbEntity
  8
0
100
AcDbLine
 10
4.9
 20
52.75555999999999
 30
0.0
 11
7.0
 21
55.5237418181818
 31
0.0
  0
LINE
  5
388
330
1E
100
AcDbEntity
  8
0
100
AcDbLine
 10
4.9
 20
52.75555999999999
 30
0.0
 11
7.099999999999999
 21
55.65555999999999
 31
0.0
  0
LINE
  5
389
330
1E
100
AcDbEntity
  8
0
100
AcDbLine
 10
4.0
 20
45.75555999999999
 30
0.0
 11
4.5
 21
42.35555999999999
 31
0.0
  0
LINE
  5
38A
330
1E
100
AcDbEntity
  8
0
100
AcDbLine
 10
4.0
 20
45.75555999999999
 30
0.0
 11
4.5
 21
49.15555999999999
 31
0.0
  0
LINE
  5
38B
330
1E
100
AcDbEntity
  8
0
100
AcDbLine
 10
7.0
 20
81.75556
 30
0.0
 11
7.4
 21
81.75556
 31
0.0
  0
LINE
  5
38C
330
1E
100
AcDbEntity
  8
0
100
AcDbLine
 10
7.0
 20
81.75556
 30
0.0
 11
7.0
 21
55.5237418181818
 31
0.0
  0
LINE
  5
38D
330
1E
100
AcDbEntity
  8
0
100
AcDbLine
 10
7.0
 20
81.75556
 30
0.0
 11
7.0
 21
59.29841714285711
 31
0.0
  0
LINE
  5
38E
330
1E
100
AcDbEntity
  8
0
100
AcDbLine
 10
7.099999999999999
 20
55.65555999999999
 30
0.0
 11
10.0
 21
57.85555999999999
 31
0.0
  0
LINE
  5
38F
330
1E
100
AcDbEntity
  8
0
100
AcDbLine
 10
7.799999999999999
 20
54.95556
 30
0.0
 11
10.5
 21
57.05556
 31
0.0
  0
LINE
  5
390
330
1E
100
AcDbEntity
  8
0
100
AcDbLine
 10
7.4
 20
81.75556
 30
0.0
 11
8.3
 21
81.75556
 31
0.0
  0
LINE
  5
391
330
1E
100
AcDbEntity
  8
0
100
AcDbLine
 10
10.0
 20
57.85555999999999
 30
0.0
 11
13.4
 21
59.25556
 31
0.0
  0
LINE
  5
392
330
1E
100
AcDbEntity
  8
0
100
AcDbLine
 10
10.5
 20
57.05556
 30
0.0
 11
13.6
 21
58.25555999999999
 31
0.0
  0
LINE
  5
393
330
1E
100
AcDbEntity
  8
0
100
AcDbLine
 10
8.3
 20
81.75556
 30
0.0
 11
10.0
 21
81.75556
 31
0.0
  0
LINE
  5
394
330
1E
100
AcDbEntity
  8
0
100
AcDbLine
 10
10.0
 20
81.75556
 30
0.0
 11
12.0
 21
81.75556
 31
0.0
  0
LINE
  5
395
330
1E
100
AcDbEntity
  8
0
100
AcDbLine
 10
29.1
 20
52.75555999999999
 30
0.0
 11
30.5
 21
49.35556
 31
0.0
  0
LINE
  5
396
330
1E
100
AcDbEntity
  8
0
100
AcDbLine
 10
26.2
 20
54.95556
 30
0.0
 11
28.3
 21
52.25556
 31
0.0
  0
LINE
  5
397
330
1E
100
AcDbEntity
  8
0
100
AcDbLine
 10
28.3
 20
52.25556
 30
0.0
 11
29.5
 21
49.15555999999999
 31
0.0
  0
LINE
  5
398
330
1E
100
AcDbEntity
  8
0
100
AcDbLine
 10
29.5
 20
49.15555999999999
 30
0.0
 11
30.0
 21
45.75555999999999
 31
0.0
  0
LINE
  5
399
330
1E
100
AcDbEntity
  8
0
100
AcDbLine
 10
20.4
 20
58.25555999999999
 30
0.0
 11
23.5
 21
57.05556
 31
0.0
  0
LINE
  5
39A
330
1E
100
AcDbEntity
  8
0
100
AcDbLine
 10
29.0
 20
57.75555999999999
 30
0.0
 11
31.69999999999999
 21
54.25556
 31
0.0
  0
LINE
  5
39B
330
1E
100
AcDbEntity
  8
0
100
AcDbLine
 10
24.0
 20
57.85555999999999
 30
0.0
 11
26.89999999999999
 21
55.65555999999999
 31
0.0
  0
LINE
  5
39C
330
1E
100
AcDbEntity
  8
0
100
AcDbLine
 10
26.89999999999999
 20
55.65555999999999
 30
0.0
 11
29.1
 21
52.75555999999999
 31
0.0
  0
LINE
  5
39D
330
1E
100
AcDbEntity
  8
0
100
AcDbLine
 10
23.5
 20
57.05556
 30
0.0
 11
26.2
 21
54.95556
 31
0.0
  0
LINE
  5
39E
330
1E
100
AcDbEntity
  8
0
100
AcDbLine
 10
30.5
 20
49.35556
 30
0.0
 11
31.0
 21
45.75555999999999
 31
0.0
  0
LINE
  5
39F
330
1E
100
AcDbEntity
  8
0
100
AcDbLine
 10
33.39999999999999
 20
50.15556
 30
0.0
 11
34.0
 21
45.75555999999999
 31
0.0
  0
LINE
  5
3A0
330
1E
100
AcDbEntity
  8
0
100
AcDbLine
 10
31.69999999999999
 20
54.25556
 30
0.0
 11
33.39999999999999
 21
50.15556
 31
0.0
  0
LINE
  5
3A1
330
1E
100
AcDbEntity
  8
0
100
AcDbLine
 10
30.5
 20
42.15555999999999
 30
0.0
 11
31.0
 21
45.75555999999999
 31
0.0
  0
LINE
  5
3A2
330
1E
100
AcDbEntity
  8
0
100
AcDbLine
 10
29.5
 20
42.35555999999999
 30
0.0
 11
30.0
 21
45.75555999999999
 31
0.0
  0
LINE
  5
3A3
330
1E
100
AcDbEntity
  8
0
100
AcDbLine
 10
17.0
 20
59.75556
 30
0.0
 11
20.6
 21
59.25556
 31
0.0
  0
LINE
  5
3A4
330
1E
100
AcDbEntity
  8
0
100
AcDbLine
 10
17.0
 20
58.75555999999999
 30
0.0
 11
20.4
 21
58.25555999999999
 31
0.0
  0
LINE
  5
3A5
330
1E
100
AcDbEntity
  8
0
100
AcDbLine
 10
20.6
 20
59.25556
 30
0.0
 11
24.0
 21
57.85555999999999
 31
0.0
  0
LINE
  5
3A6
330
1E
100
AcDbEntity
  8
0
100
AcDbLine
 10
27.0
 20
59.29841714285711
 30
0.0
 11
29.0
 21
57.75555999999999
 31
0.0
  0
LINE
  5
3A7
330
1E
100
AcDbEntity
  8
0
100
AcDbLine
 10
26.6
 20
81.75556
 30
0.0
 11
27.0
 21
81.75556
 31
0.0
  0
LINE
  5
3A8
330
1E
100
AcDbEntity
  8
0
100
AcDbLine
 10
25.7
 20
81.75556
 30
0.0
 11
26.6
 21
81.75556
 31
0.0
  0
LINE
  5
3A9
330
1E
100
AcDbEntity
  8
0
100
AcDbLine
 10
24.0
 20
81.75556
 30
0.0
 11
25.7
 21
81.75556
 31
0.0
  0
LINE
  5
3AA
330
1E
100
AcDbEntity
  8
0
100
AcDbLine
 10
22.0
 20
81.75556
 30
0.0
 11
24.0
 21
81.75556
 31
0.0
  0
LINE
  5
3AB
330
1E
100
AcDbEntity
  8
0
100
AcDbLine
 10
19.6
 20
81.75556
 30
0.0
 11
22.0
 21
81.75556
 31
0.0
  0
LINE
  5
3AC
330
1E
100
AcDbEntity
  8
0
100
AcDbLine
 10
17.0
 20
81.75556
 30
0.0
 11
19.6
 21
81.75556
 31
0.0
  0
LINE
  5
3AD
330
1E
100
AcDbEntity
  8
0
100
AcDbLine
 10
13.4
 20
59.25556
 30
0.0
 11
17.0
 21
59.75556
 31
0.0
  0
LINE
  5
3AE
330
1E
100
AcDbEntity
  8
0
100
AcDbLine
 10
13.6
 20
58.25555999999999
 30
0.0
 11
17.0
 21
58.75555999999999
 31
0.0
  0
LINE
  5
3AF
330
1E
100
AcDbEntity
  8
0
100
AcDbLine
 10
12.0
 20
81.75556
 30
0.0
 11
14.4
 21
81.75556
 31
0.0
  0
LINE
  5
3B0
330
1E
100
AcDbEntity
  8
0
100
AcDbLine
 10
14.4
 20
81.75556
 30
0.0
 11
17.0
 21
81.75556
 31
0.0
  0
LINE
  5
3B1
330
1E
100
AcDbEntity
  8
0
100
AcDbLine
 10
7.0
 20
59.29841714285711
 30
0.0
 11
7.0
 21
81.75556
 31
0.0
  0
LINE
  5
3B2
330
1E
100
AcDbEntity
  8
0
100
AcDbLine
 10
3.5
 20
42.15555999999999
 30
0.0
 11
4.9
 21
38.75555999999999
 31
0.0
  0
LINE
  5
3B3
330
1E
100
AcDbEntity
  8
0
100
AcDbLine
 10
3.0
 20
45.75555999999999
 30
0.0
 11
3.5
 21
42.15555999999999
 31
0.0
  0
LINE
  5
3B8
330
1E
100
AcDbEntity
  8
0
  6
Continuous
100
AcDbLine
 10
27.0
 20
81.75556
 30
0.0
 11
27.0
 21
59.29841714285711
 31
0.0
  0
LINE
  5
3B9
330
1E
100
AcDbEntity
  8
0
  6
Continuous
100
AcDbLine
 10
27.0
 20
59.29841714285711
 30
0.0
 11
26.89999999999999
 21
55.65555999999999
 31
0.0
  0
ENDSEC
  0
SECTION
  2
OBJECTS
  0
DICTIONARY
  5
C
330
0
100
AcDbDictionary
281
     1
  3
ACAD_GROUP
350
D
  3
ACAD_LAYOUT
350
19
  3
ACAD_MLINESTYLE
350
16
  3
ACAD_PLOTSETTINGS
350
18
  3
ACAD_PLOTSTYLENAME
350
E
  3
AcDbVariableDictionary
350
3BA
  0
DICTIONARY
  5
D
102
{ACAD_REACTORS
330
C
102
}
330
C
100
AcDbDictionary
281
     1
  0
DICTIONARY
  5
19
102
{ACAD_REACTORS
330
C
102
}
330
C
100
AcDbDictionary
281
     1
  3
Layout1
350
1D
  3
Model
350
21
  0
DICTIONARY
  5
16
102
{ACAD_REACTORS
330
C
102
}
330
C
100
AcDbDictionary
281
     1
  3
Standard
350
17
  0
DICTIONARY
  5
18
102
{ACAD_REACTORS
330
C
102
}
330
C
100
AcDbDictionary
281
     1
  0
ACDBDICTIONARYWDFLT
  5
E
102
{ACAD_REACTORS
330
C
102
}
330
C
100
AcDbDictionary
281
     1
  3
Normal
350
F
100
AcDbDictionaryWithDefault
340
F
  0
DICTIONARY
  5
3BA
102
{ACAD_REACTORS
330
C
102
}
330
C
100
AcDbDictionary
281
     1
  3
DIMASSOC
350
3BB
  0
LAYOUT
  5
1D
102
{ACAD_REACTORS
330
19
102
}
330
19
100
AcDbPlotSettings
  1

  2
hp deskjet 980c series
  4

  6

 40
0.0
 41
0.0
 42
0.0
 43
0.0
 44
0.0
 45
0.0
 46
0.0
 47
0.0
 48
0.0
 49
0.0
140
0.0
141
0.0
142
1.0
143
1.0
 70
   688
 72
     0
 73
     0
 74
     5
  7

 75
    16
147
1.0
148
0.0
149
0.0
100
AcDbLayout
  1
Layout1
 70
     1
 71
     1
 10
0.0
 20
0.0
 11
12.0
 21
9.0
 12
0.0
 22
0.0
 32
0.0
 14
1.000000000000000E+20
 24
1.000000000000000E+20
 34
1.000000000000000E+20
 15
-1.000000000000000E+20
 25
-1.000000000000000E+20
 35
-1.000000000000000E+20
146
0.0
 13
0.0
 23
0.0
 33
0.0
 16
1.0
 26
0.0
 36
0.0
 17
0.0
 27
1.0
 37
0.0
 76
     0
330
1A
  0
LAYOUT
  5
21
102
{ACAD_REACTORS
330
19
102
}
330
19
100
AcDbPlotSettings
  1

  2
hp deskjet 980c series
  4

  6

 40
0.0
 41
0.0
 42
0.0
 43
0.0
 44
0.0
 45
0.0
 46
0.0
 47
0.0
 48
0.0
 49
0.0
140
0.0
141
0.0
142
1.0
143
1.0
 70
  1712
 72
     0
 73
     0
 74
     0
  7

 75
     0
147
1.0
148
0.0
149
0.0
100
AcDbLayout
  1
Model
 70
     1
 71
     0
 10
0.0
 20
0.0
 11
12.0
 21
9.0
 12
0.0
 22
0.0
 32
0.0
 14
0.0
 24
0.0
 34
0.0
 15
0.0
 25
0.0
 35
0.0
146
0.0
 13
0.0
 23
0.0
 33
0.0
 16
1.0
 26
0.0
 36
0.0
 17
0.0
 27
1.0
 37
0.0
 76
     0
330
1E
  0
MLINESTYLE
  5
17
102
{ACAD_REACTORS
330
16
102
}
330
16
100
AcDbMlineStyle
  2
STANDARD
 70
     0
  3

 62
   256
 51
90.0
 52
90.0
 71
     2
 49
0.5
 62
   256
  6
BYLAYER
 49
-0.5
 62
   256
  6
BYLAYER
  0
ACDBPLACEHOLDER
  5
F
102
{ACAD_REACTORS
330
E
102
}
330
E
  0
DICTIONARYVAR
  5
3BB
102
{ACAD_REACTORS
330
3BA
102
}
330
3BA
100
DictionaryVariables
280
     0
  1
1
  0
ENDSEC
  0
EOF
