  0
SECTION
  2
HEADER
  9
$ACADVER
  1
AC1015
  9
$ACADMAINTVER
 70
    13
  9
$DWGCODEPAGE
  3
ANSI_1252
  9
$INSBASE
 10
0.0
 20
0.0
 30
0.0
  9
$EXTMIN
 10
0.244439999999975
 20
-0.164500000000106
 30
0.0
  9
$EXTMAX
 10
81.75556
 20
1053.1645
 30
0.0
  9
$LIMMIN
 10
0.0
 20
0.0
  9
$LIMMAX
 10
12.0
 20
9.0
  9
$ORTHOMODE
 70
     0
  9
$REGENMODE
 70
     1
  9
$FILLMODE
 70
     1
  9
$QTEXTMODE
 70
     0
  9
$MIRRTEXT
 70
     1
  9
$LTSCALE
 40
1.0
  9
$ATTMODE
 70
     1
  9
$TEXTSIZE
 40
0.2
  9
$TRACEWID
 40
0.05
  9
$TEXTSTYLE
  7
Standard
  9
$CLAYER
  8
0
  9
$CELTYPE
  6
Continuous
  9
$CECOLOR
 62
   256
  9
$CELTSCALE
 40
1.0
  9
$DISPSILH
 70
     0
  9
$DIMSCALE
 40
1.0
  9
$DIMASZ
 40
0.18
  9
$DIMEXO
 40
0.0625
  9
$DIMDLI
 40
0.38
  9
$DIMRND
 40
0.0
  9
$DIMDLE
 40
0.0
  9
$DIMEXE
 40
0.18
  9
$DIMTP
 40
0.0
  9
$DIMTM
 40
0.0
  9
$DIMTXT
 40
0.18
  9
$DIMCEN
 40
0.09
  9
$DIMTSZ
 40
0.0
  9
$DIMTOL
 70
     0
  9
$DIMLIM
 70
     0
  9
$DIMTIH
 70
     1
  9
$DIMTOH
 70
     1
  9
$DIMSE1
 70
     0
  9
$DIMSE2
 70
     0
  9
$DIMTAD
 70
     0
  9
$DIMZIN
 70
     0
  9
$DIMBLK
  1

  9
$DIMASO
 70
     1
  9
$DIMSHO
 70
     1
  9
$DIMPOST
  1

  9
$DIMAPOST
  1

  9
$DIMALT
 70
     0
  9
$DIMALTD
 70
     2
  9
$DIMALTF
 40
25.4
  9
$DIMLFAC
 40
1.0
  9
$DIMTOFL
 70
     0
  9
$DIMTVP
 40
0.0
  9
$DIMTIX
 70
     0
  9
$DIMSOXD
 70
     0
  9
$DIMSAH
 70
     0
  9
$DIMBLK1
  1

  9
$DIMBLK2
  1

  9
$DIMSTYLE
  2
Standard
  9
$DIMCLRD
 70
     0
  9
$DIMCLRE
 70
     0
  9
$DIMCLRT
 70
     0
  9
$DIMTFAC
 40
1.0
  9
$DIMGAP
 40
0.09
  9
$DIMJUST
 70
     0
  9
$DIMSD1
 70
     0
  9
$DIMSD2
 70
     0
  9
$DIMTOLJ
 70
     1
  9
$DIMTZIN
 70
     0
  9
$DIMALTZ
 70
     0
  9
$DIMALTTZ
 70
     0
  9
$DIMUPT
 70
     0
  9
$DIMDEC
 70
     4
  9
$DIMTDEC
 70
     4
  9
$DIMALTU
 70
     2
  9
$DIMALTTD
 70
     2
  9
$DIMTXSTY
  7
Standard
  9
$DIMAUNIT
 70
     0
  9
$DIMADEC
 70
     0
  9
$DIMALTRND
 40
0.0
  9
$DIMAZIN
 70
     0
  9
$DIMDSEP
 70
    46
  9
$DIMATFIT
 70
     3
  9
$DIMFRAC
 70
     0
  9
$DIMLDRBLK
  1

  9
$DIMLUNIT
 70
     2
  9
$DIMLWD
 70
    -2
  9
$DIMLWE
 70
    -2
  9
$DIMTMOVE
 70
     0
  9
$LUNITS
 70
     2
  9
$LUPREC
 70
     4
  9
$SKETCHINC
 40
0.1
  9
$FILLETRAD
 40
0.0
  9
$AUNITS
 70
     0
  9
$AUPREC
 70
     0
  9
$MENU
  1
.
  9
$ELEVATION
 40
0.0
  9
$PELEVATION
 40
0.0
  9
$THICKNESS
 40
0.0
  9
$LIMCHECK
 70
     0
  9
$CHAMFERA
 40
0.0
  9
$CHAMFERB
 40
0.0
  9
$CHAMFERC
 40
0.0
  9
$CHAMFERD
 40
0.0
  9
$SKPOLY
 70
     0
  9
$TDCREATE
 40
2454874.796044733
  9
$TDUCREATE
 40
2454874.754378067
  9
$TDUPDATE
 40
2454874.797177372
  9
$TDUUPDATE
 40
2454874.755510706
  9
$TDINDWG
 40
0.0011326389
  9
$TDUSRTIMER
 40
0.0011326389
  9
$USRTIMER
 70
     1
  9
$ANGBASE
 50
0.0
  9
$ANGDIR
 70
     0
  9
$PDMODE
 70
     0
  9
$PDSIZE
 40
0.0
  9
$PLINEWID
 40
0.0
  9
$SPLFRAME
 70
     0
  9
$SPLINETYPE
 70
     6
  9
$SPLINESEGS
 70
     8
  9
$HANDSEED
  5
344
  9
$SURFTAB1
 70
     6
  9
$SURFTAB2
 70
     6
  9
$SURFTYPE
 70
     6
  9
$SURFU
 70
     6
  9
$SURFV
 70
     6
  9
$UCSBASE
  2

  9
$UCSNAME
  2

  9
$UCSORG
 10
0.0
 20
0.0
 30
0.0
  9
$UCSXDIR
 10
1.0
 20
0.0
 30
0.0
  9
$UCSYDIR
 10
0.0
 20
1.0
 30
0.0
  9
$UCSORTHOREF
  2

  9
$UCSORTHOVIEW
 70
     1
  9
$UCSORGTOP
 10
0.0
 20
0.0
 30
0.0
  9
$UCSORGBOTTOM
 10
0.0
 20
0.0
 30
0.0
  9
$UCSORGLEFT
 10
0.0
 20
0.0
 30
0.0
  9
$UCSORGRIGHT
 10
0.0
 20
0.0
 30
0.0
  9
$UCSORGFRONT
 10
0.0
 20
0.0
 30
0.0
  9
$UCSORGBACK
 10
0.0
 20
0.0
 30
0.0
  9
$PUCSBASE
  2

  9
$PUCSNAME
  2

  9
$PUCSORG
 10
0.0
 20
0.0
 30
0.0
  9
$PUCSXDIR
 10
1.0
 20
0.0
 30
0.0
  9
$PUCSYDIR
 10
0.0
 20
1.0
 30
0.0
  9
$PUCSORTHOREF
  2

  9
$PUCSORTHOVIEW
 70
     0
  9
$PUCSORGTOP
 10
0.0
 20
0.0
 30
0.0
  9
$PUCSORGBOTTOM
 10
0.0
 20
0.0
 30
0.0
  9
$PUCSORGLEFT
 10
0.0
 20
0.0
 30
0.0
  9
$PUCSORGRIGHT
 10
0.0
 20
0.0
 30
0.0
  9
$PUCSORGFRONT
 10
0.0
 20
0.0
 30
0.0
  9
$PUCSORGBACK
 10
0.0
 20
0.0
 30
0.0
  9
$USERI1
 70
     0
  9
$USERI2
 70
     0
  9
$USERI3
 70
     0
  9
$USERI4
 70
     0
  9
$USERI5
 70
     0
  9
$USERR1
 40
0.0
  9
$USERR2
 40
0.0
  9
$USERR3
 40
0.0
  9
$USERR4
 40
0.0
  9
$USERR5
 40
0.0
  9
$WORLDVIEW
 70
     1
  9
$SHADEDGE
 70
     3
  9
$SHADEDIF
 70
    70
  9
$TILEMODE
 70
     1
  9
$MAXACTVP
 70
    64
  9
$PINSBASE
 10
0.0
 20
0.0
 30
0.0
  9
$PLIMCHECK
 70
     0
  9
$PEXTMIN
 10
1.000000000000000E+20
 20
1.000000000000000E+20
 30
1.000000000000000E+20
  9
$PEXTMAX
 10
-1.000000000000000E+20
 20
-1.000000000000000E+20
 30
-1.000000000000000E+20
  9
$PLIMMIN
 10
0.0
 20
0.0
  9
$PLIMMAX
 10
12.0
 20
9.0
  9
$UNITMODE
 70
     0
  9
$VISRETAIN
 70
     1
  9
$PLINEGEN
 70
     0
  9
$PSLTSCALE
 70
     1
  9
$TREEDEPTH
 70
  3020
  9
$CMLSTYLE
  2
Standard
  9
$CMLJUST
 70
     0
  9
$CMLSCALE
 40
1.0
  9
$PROXYGRAPHICS
 70
     1
  9
$MEASUREMENT
 70
     0
  9
$CELWEIGHT
370
    -1
  9
$ENDCAPS
280
     0
  9
$JOINSTYLE
280
     0
  9
$LWDISPLAY
290
     0
  9
$INSUNITS
 70
     0
  9
$HYPERLINKBASE
  1

  9
$STYLESHEET
  1

  9
$XEDIT
290
     1
  9
$CEPSNTYPE
380
     0
  9
$PSTYLEMODE
290
     1
  9
$FINGERPRINTGUID
  2
{1D06E383-478A-46DC-9D0D-36E790A609BB}
  9
$VERSIONGUID
  2
{1B4A0B6F-2B2A-454D-9031-FF26068CA19B}
  9
$EXTNAMES
290
     1
  9
$PSVPSCALE
 40
0.0
  9
$OLESTARTUP
290
     0
  0
ENDSEC
  0
SECTION
  2
CLASSES
  0
CLASS
  1
ACDBDICTIONARYWDFLT
  2
AcDbDictionaryWithDefault
  3
AutoCAD 2000
 90
        0
280
     0
281
     0
  0
CLASS
  1
ACDBPLACEHOLDER
  2
AcDbPlaceHolder
  3
AutoCAD 2000
 90
        0
280
     0
281
     0
  0
CLASS
  1
LAYOUT
  2
AcDbLayout
  3
AutoCAD 2000
 90
        0
280
     0
281
     0
  0
CLASS
  1
DICTIONARYVAR
  2
AcDbDictionaryVar
  3
AutoCAD 2000
 90
        0
280
     0
281
     0
  0
ENDSEC
  0
SECTION
  2
TABLES
  0
TABLE
  2
VPORT
  5
8
330
0
100
AcDbSymbolTable
 70
     2
  0
VPORT
  5
343
330
8
100
AcDbSymbolTableRecord
100
AcDbViewportTableRecord
  2
*Active
 70
     0
 10
0.0
 20
0.0
 11
1.0
 21
1.0
 12
40.99999999999999
 22
526.4999999999999
 13
0.0
 23
0.0
 14
1.0
 24
1.0
 15
0.0
 25
0.0
 16
0.0
 26
0.0
 36
1.0
 17
0.0
 27
0.0
 37
0.0
 40
1059.981604210526
 41
1.968387776606954
 42
50.0
 43
0.0
 44
0.0
 50
0.0
 51
0.0
 71
     0
 72
   100
 73
     1
 74
     3
 75
     0
 76
     0
 77
     0
 78
     0
281
     0
 65
     1
110
0.0
120
0.0
130
0.0
111
1.0
121
0.0
131
0.0
112
0.0
122
1.0
132
0.0
 79
     1
146
0.0
  0
ENDTAB
  0
TABLE
  2
LTYPE
  5
5
330
0
100
AcDbSymbolTable
 70
     1
  0
LTYPE
  5
13
330
5
100
AcDbSymbolTableRecord
100
AcDbLinetypeTableRecord
  2
ByBlock
 70
     0
  3

 72
    65
 73
     0
 40
0.0
  0
LTYPE
  5
14
330
5
100
AcDbSymbolTableRecord
100
AcDbLinetypeTableRecord
  2
ByLayer
 70
     0
  3

 72
    65
 73
     0
 40
0.0
  0
LTYPE
  5
15
330
5
100
AcDbSymbolTableRecord
100
AcDbLinetypeTableRecord
  2
Continuous
 70
     0
  3
Solid line
 72
    65
 73
     0
 40
0.0
  0
ENDTAB
  0
TABLE
  2
LAYER
  5
2
330
0
100
AcDbSymbolTable
 70
     1
  0
LAYER
  5
10
330
2
100
AcDbSymbolTableRecord
100
AcDbLayerTableRecord
  2
0
 70
     0
 62
     7
  6
Continuous
370
    -3
390
F
  0
ENDTAB
  0
TABLE
  2
STYLE
  5
3
330
0
100
AcDbSymbolTable
 70
     1
  0
STYLE
  5
11
330
3
100
AcDbSymbolTableRecord
100
AcDbTextStyleTableRecord
  2
Standard
 70
     0
 40
0.0
 41
1.0
 50
0.0
 71
     0
 42
0.2
  3
txt
  4

  0
ENDTAB
  0
TABLE
  2
VIEW
  5
6
330
0
100
AcDbSymbolTable
 70
     0
  0
ENDTAB
  0
TABLE
  2
UCS
  5
7
330
0
100
AcDbSymbolTable
 70
     0
  0
ENDTAB
  0
TABLE
  2
APPID
  5
9
330
0
100
AcDbSymbolTable
 70
     1
  0
APPID
  5
12
330
9
100
AcDbSymbolTableRecord
100
AcDbRegAppTableRecord
  2
ACAD
 70
     0
  0
ENDTAB
  0
TABLE
  2
DIMSTYLE
  5
A
330
0
100
AcDbSymbolTable
 70
     1
100
AcDbDimStyleTable
 71
     0
  0
DIMSTYLE
105
33D
330
A
100
AcDbSymbolTableRecord
100
AcDbDimStyleTableRecord
  2
Standard
 70
     0
340
11
  0
ENDTAB
  0
TABLE
  2
BLOCK_RECORD
  5
1
330
0
100
AcDbSymbolTable
 70
     0
  0
BLOCK_RECORD
  5
1E
330
1
100
AcDbSymbolTableRecord
100
AcDbBlockTableRecord
  2
*Model_Space
340
21
  0
BLOCK_RECORD
  5
1A
330
1
100
AcDbSymbolTableRecord
100
AcDbBlockTableRecord
  2
*Paper_Space
340
1D
  0
ENDTAB
  0
ENDSEC
  0
SECTION
  2
BLOCKS
  0
BLOCK
  5
1F
330
1E
100
AcDbEntity
  8
0
100
AcDbBlockBegin
  2
*Model_Space
 70
     0
 10
0.0
 20
0.0
 30
0.0
  3
*Model_Space
  1

  0
ENDBLK
  5
20
330
1E
100
AcDbEntity
  8
0
100
AcDbBlockEnd
  0
BLOCK
  5
1B
330
1A
100
AcDbEntity
 67
     1
  8
0
100
AcDbBlockBegin
  2
*Paper_Space
 70
     0
 10
0.0
 20
0.0
 30
0.0
  3
*Paper_Space
  1

  0
ENDBLK
  5
1C
330
1A
100
AcDbEntity
 67
     1
  8
0
100
AcDbBlockEnd
  0
ENDSEC
  0
SECTION
  2
ENTITIES
  0
LINE
  5
22
330
1E
100
AcDbEntity
  8
0
100
AcDbLine
 10
14.5858199999999
 20
-0.164500000000048
 30
0.0
 11
17.4446599999999
 21
-0.0125000000000324
 31
0.0
  0
LINE
  5
23
330
1E
100
AcDbEntity
  8
0
100
AcDbLine
 10
19.78125999999989
 20
0.251499999999988
 30
0.0
 11
21.10315999999989
 21
0.6274999999999561
 31
0.0
  0
LINE
  5
24
330
1E
100
AcDbEntity
  8
0
100
AcDbLine
 10
17.4446599999999
 20
-0.0125000000000324
 30
0.0
 11
19.78125999999989
 21
0.251499999999988
 31
0.0
  0
LINE
  5
25
330
1E
100
AcDbEntity
  8
0
100
AcDbLine
 10
11.4332899999999
 20
-0.144500000000043
 30
0.0
 11
14.5858199999999
 21
-0.164500000000048
 31
0.0
  0
LINE
  5
26
330
1E
100
AcDbEntity
  8
0
100
AcDbLine
 10
8.57109999999993
 20
0.0294999999999842
 30
0.0
 11
11.4332899999999
 21
-0.144500000000043
 31
0.0
  0
LINE
  5
27
330
1E
100
AcDbEntity
  8
0
100
AcDbLine
 10
9.229349999999929
 20
1.77049999999995
 30
0.0
 11
12.08936999999989
 21
1.92149999999998
 31
0.0
  0
LINE
  5
28
330
1E
100
AcDbEntity
  8
0
100
AcDbLine
 10
6.891809999999929
 20
1.50649999999999
 30
0.0
 11
9.229349999999929
 21
1.77049999999995
 31
0.0
  0
LINE
  5
29
330
1E
100
AcDbEntity
  8
0
100
AcDbLine
 10
5.568935999999929
 20
1.129499999999969
 30
0.0
 11
6.891809999999929
 21
1.50649999999999
 31
0.0
  0
LINE
  5
2A
330
1E
100
AcDbEntity
  8
0
100
AcDbLine
 10
11.42873040431569
 20
1.88662032120461
 30
0.0
 11
11.4332899999999
 21
-0.144500000000043
 31
0.0
  0
LINE
  5
2B
330
1E
100
AcDbEntity
  8
0
100
AcDbLine
 10
21.10315999999989
 20
0.6274999999999561
 30
0.0
 11
21.25665999999989
 21
1.04249999999997
 31
0.0
  0
LINE
  5
2C
330
1E
100
AcDbEntity
  8
0
100
AcDbLine
 10
21.1026338814793
 20
1.09306853320755
 30
0.0
 11
21.10315999999989
 21
0.6274999999999561
 31
0.0
  0
LINE
  5
2E
330
1E
100
AcDbEntity
  8
0
100
AcDbLine
 10
20.1083599999999
 20
1.41949999999996
 30
0.0
 11
21.25665999999989
 21
1.04249999999997
 31
0.0
  0
LINE
  5
2F
330
1E
100
AcDbEntity
  8
0
100
AcDbLine
 10
18.10275999999989
 20
1.727499999999949
 30
0.0
 11
20.1083599999999
 21
1.41949999999996
 31
0.0
  0
LINE
  5
31
330
1E
100
AcDbEntity
  8
0
100
AcDbLine
 10
15.2419599999999
 20
1.90149999999997
 30
0.0
 11
18.10275999999989
 21
1.727499999999949
 31
0.0
  0
LINE
  5
32
330
1E
100
AcDbEntity
  8
0
100
AcDbLine
 10
21.1026338814793
 20
1.093068533207639
 30
0.0
 11
21.10315999999989
 21
0.6274999999999561
 31
0.0
  0
LINE
  5
33
330
1E
100
AcDbEntity
  8
0
100
AcDbLine
 10
14.5810553351234
 20
1.90569277270354
 30
0.0
 11
14.5858199999999
 21
-0.164500000000048
 31
0.0
  0
LINE
  5
36
330
1E
100
AcDbEntity
  8
0
100
AcDbLine
 10
12.08936999999989
 20
1.92149999999998
 30
0.0
 11
15.2419599999999
 21
1.90149999999997
 31
0.0
  0
LINE
  5
37
330
1E
100
AcDbEntity
  8
0
100
AcDbLine
 10
14.5810553351234
 20
1.905692772703689
 30
0.0
 11
14.5858199999999
 21
-0.164500000000106
 31
0.0
  0
LINE
  5
38
330
1E
100
AcDbEntity
  8
0
100
AcDbLine
 10
11.42873040431569
 20
1.886620321204649
 30
0.0
 11
11.4332899999999
 21
-0.144500000000101
 31
0.0
  0
LINE
  5
39
330
1E
100
AcDbEntity
  8
0
100
AcDbLine
 10
6.564659999999929
 20
0.33749999999994
 30
0.0
 11
8.57109999999993
 21
0.0294999999999842
 31
0.0
  0
LINE
  5
3A
330
1E
100
AcDbEntity
  8
0
100
AcDbLine
 10
5.415395999999929
 20
0.7144999999999841
 30
0.0
 11
6.564659999999929
 21
0.33749999999994
 31
0.0
  0
LINE
  5
3B
330
1E
100
AcDbEntity
  8
0
100
AcDbLine
 10
5.415395999999929
 20
0.7144999999999841
 30
0.0
 11
5.568935999999929
 21
1.129499999999969
 31
0.0
  0
LINE
  5
3C
330
1E
100
AcDbEntity
  8
0
100
AcDbLine
 10
32.7555599999999
 20
153.1645
 30
0.0
 11
33.2555599999999
 21
153.1645
 31
0.0
  0
LINE
  5
3D
330
1E
100
AcDbEntity
  8
0
100
AcDbLine
 10
33.2555599999999
 20
153.1645
 30
0.0
 11
34.4555599999999
 21
153.1645
 31
0.0
  0
LINE
  5
3E
330
1E
100
AcDbEntity
  8
0
100
AcDbLine
 10
34.4555599999999
 20
153.1645
 30
0.0
 11
36.5555599999999
 21
153.1645
 31
0.0
  0
LINE
  5
3F
330
1E
100
AcDbEntity
  8
0
100
AcDbLine
 10
36.5555599999999
 20
153.1645
 30
0.0
 11
39.2555599999999
 21
153.1645
 31
0.0
  0
LINE
  5
40
330
1E
100
AcDbEntity
  8
0
100
AcDbLine
 10
2.24425999999997
 20
573.1644999999999
 30
0.0
 11
2.64425999999997
 21
573.1644999999999
 31
0.0
  0
LINE
  5
41
330
1E
100
AcDbEntity
  8
0
100
AcDbLine
 10
1.910926666666639
 20
583.1644999999999
 30
0.0
 11
2.24425999999997
 21
573.1644999999999
 31
0.0
  0
LINE
  5
42
330
1E
100
AcDbEntity
  8
0
100
AcDbLine
 10
2.64425999999997
 20
573.1644999999999
 30
0.0
 11
3.64425999999997
 21
573.1644999999999
 31
0.0
  0
LINE
  5
43
330
1E
100
AcDbEntity
  8
0
100
AcDbLine
 10
4.95156511435561
 20
573.1644999999999
 30
0.0
 11
5.415395999999929
 21
0.7144999999999841
 31
0.0
  0
LINE
  5
47
330
1E
100
AcDbEntity
  8
0
100
AcDbLine
 10
5.34425999999997
 20
573.1644999999999
 30
0.0
 11
7.54425999999997
 21
573.1644999999999
 31
0.0
  0
LINE
  5
4D
330
1E
100
AcDbEntity
  8
0
100
AcDbLine
 10
3.64425999999997
 20
573.1644999999999
 30
0.0
 11
4.95156511435561
 21
573.1644999999999
 31
0.0
  0
LINE
  5
4E
330
1E
100
AcDbEntity
  8
0
100
AcDbLine
 10
3.64425999999997
 20
573.1644999999999
 30
0.0
 11
5.34425999999997
 21
573.1644999999999
 31
0.0
  0
LINE
  5
4F
330
1E
100
AcDbEntity
  8
0
100
AcDbLine
 10
4.255559999999969
 20
583.1644999999999
 30
0.0
 11
8.35555999999997
 21
583.1644999999999
 31
0.0
  0
LINE
  5
52
330
1E
100
AcDbEntity
  8
0
100
AcDbLine
 10
7.54425999999997
 20
573.1644999999999
 30
0.0
 11
10.04426
 21
573.1644999999999
 31
0.0
  0
LINE
  5
53
330
1E
100
AcDbEntity
  8
0
100
AcDbLine
 10
10.04426
 20
573.1644999999999
 30
0.0
 11
12.74426
 21
573.1644999999999
 31
0.0
  0
LINE
  5
58
330
1E
100
AcDbEntity
  8
0
100
AcDbLine
 10
12.74426
 20
573.1644999999999
 30
0.0
 11
15.44426
 21
573.1644999999999
 31
0.0
  0
LINE
  5
5A
330
1E
100
AcDbEntity
  8
0
100
AcDbLine
 10
8.35555999999997
 20
583.1644999999999
 30
0.0
 11
12.75556
 21
583.1644999999999
 31
0.0
  0
LINE
  5
5C
330
1E
100
AcDbEntity
  8
0
100
AcDbLine
 10
17.94426
 20
573.1644999999999
 30
0.0
 11
20.14425999999999
 21
573.1644999999999
 31
0.0
  0
LINE
  5
5D
330
1E
100
AcDbEntity
  8
0
100
AcDbLine
 10
15.44426
 20
573.1644999999999
 30
0.0
 11
17.94426
 21
573.1644999999999
 31
0.0
  0
LINE
  5
5E
330
1E
100
AcDbEntity
  8
0
100
AcDbLine
 10
17.15556
 20
583.1644999999999
 30
0.0
 11
21.25556
 21
583.1644999999999
 31
0.0
  0
LINE
  5
5F
330
1E
100
AcDbEntity
  8
0
100
AcDbLine
 10
20.14425999999999
 20
573.1644999999999
 30
0.0
 11
21.84426
 21
573.1644999999999
 31
0.0
  0
LINE
  5
60
330
1E
100
AcDbEntity
  8
0
100
AcDbLine
 10
20.9329752357115
 20
573.1644999999999
 30
0.0
 11
21.84426
 21
573.1644999999999
 31
0.0
  0
LINE
  5
61
330
1E
100
AcDbEntity
  8
0
100
AcDbLine
 10
20.9329752357115
 20
573.1644999999999
 30
0.0
 11
21.25665999999989
 21
1.042499999999999
 31
0.0
  0
LINE
  5
62
330
1E
100
AcDbEntity
  8
0
100
AcDbLine
 10
20.9329752357115
 20
573.1644999999999
 30
0.0
 11
21.25665999999989
 21
1.04249999999997
 31
0.0
  0
LINE
  5
63
330
1E
100
AcDbEntity
  8
0
100
AcDbLine
 10
22.84426
 20
573.1644999999999
 30
0.0
 11
23.24426
 21
573.1644999999999
 31
0.0
  0
LINE
  5
64
330
1E
100
AcDbEntity
  8
0
100
AcDbLine
 10
23.24426
 20
573.1644999999999
 30
0.0
 11
23.57759333333329
 21
583.1644999999999
 31
0.0
  0
LINE
  5
65
330
1E
100
AcDbEntity
  8
0
100
AcDbLine
 10
21.84426
 20
573.1644999999999
 30
0.0
 11
22.84426
 21
573.1644999999999
 31
0.0
  0
LINE
  5
66
330
1E
100
AcDbEntity
  8
0
100
AcDbLine
 10
21.25556
 20
583.1644999999999
 30
0.0
 11
24.75556
 21
583.1644999999999
 31
0.0
  0
LINE
  5
67
330
1E
100
AcDbEntity
  8
0
100
AcDbLine
 10
22.65556
 20
583.1644999999999
 30
0.0
 11
24.85556
 21
583.1644999999999
 31
0.0
  0
LINE
  5
68
330
1E
100
AcDbEntity
  8
0
100
AcDbLine
 10
19.75556
 20
583.1644999999999
 30
0.0
 11
22.65556
 21
583.1644999999999
 31
0.0
  0
LINE
  5
69
330
1E
100
AcDbEntity
  8
0
100
AcDbLine
 10
16.35556
 20
583.1644999999999
 30
0.0
 11
19.75556
 21
583.1644999999999
 31
0.0
  0
LINE
  5
6A
330
1E
100
AcDbEntity
  8
0
100
AcDbLine
 10
12.75556
 20
583.1644999999999
 30
0.0
 11
16.35556
 21
583.1644999999999
 31
0.0
  0
LINE
  5
6B
330
1E
100
AcDbEntity
  8
0
100
AcDbLine
 10
12.75556
 20
583.1644999999999
 30
0.0
 11
17.15556
 21
583.1644999999999
 31
0.0
  0
LINE
  5
6C
330
1E
100
AcDbEntity
  8
0
100
AcDbLine
 10
9.155559999999971
 20
583.1644999999999
 30
0.0
 11
12.75556
 21
583.1644999999999
 31
0.0
  0
LINE
  5
6D
330
1E
100
AcDbEntity
  8
0
100
AcDbLine
 10
5.755559999999969
 20
583.1644999999999
 30
0.0
 11
9.155559999999971
 21
583.1644999999999
 31
0.0
  0
LINE
  5
6E
330
1E
100
AcDbEntity
  8
0
100
AcDbLine
 10
2.85555999999997
 20
583.1644999999999
 30
0.0
 11
5.755559999999969
 21
583.1644999999999
 31
0.0
  0
LINE
  5
6F
330
1E
100
AcDbEntity
  8
0
100
AcDbLine
 10
24.75556
 20
583.1644999999999
 30
0.0
 11
27.45556
 21
583.1644999999999
 31
0.0
  0
LINE
  5
70
330
1E
100
AcDbEntity
  8
0
100
AcDbLine
 10
0.7555599999999691
 20
583.1644999999999
 30
0.0
 11
1.910926666666639
 21
583.1644999999999
 31
0.0
  0
LINE
  5
71
330
1E
100
AcDbEntity
  8
0
100
AcDbLine
 10
0.7555599999999691
 20
583.1644999999999
 30
0.0
 11
0.7555599999999699
 21
603.1645
 31
0.0
  0
LINE
  5
72
330
1E
100
AcDbEntity
  8
0
100
AcDbLine
 10
0.7555599999999691
 20
583.1644999999999
 30
0.0
 11
1.910926666666639
 21
583.1644999999999
 31
0.0
  0
LINE
  5
73
330
1E
100
AcDbEntity
  8
0
100
AcDbLine
 10
0.7555599999999691
 20
583.1644999999999
 30
0.0
 11
4.255559999999969
 21
583.1644999999999
 31
0.0
  0
LINE
  5
74
330
1E
100
AcDbEntity
  8
0
100
AcDbLine
 10
0.7555599999999691
 20
583.1644999999999
 30
0.0
 11
2.85555999999997
 21
583.1644999999999
 31
0.0
  0
LINE
  5
75
330
1E
100
AcDbEntity
  8
0
100
AcDbLine
 10
27.45556
 20
583.1644999999999
 30
0.0
 11
29.25556
 21
583.1644999999999
 31
0.0
  0
LINE
  5
77
330
1E
100
AcDbEntity
  8
0
100
AcDbLine
 10
26.25556
 20
583.1644999999999
 30
0.0
 11
26.75556
 21
583.1644999999999
 31
0.0
  0
LINE
  5
78
330
1E
100
AcDbEntity
  8
0
100
AcDbLine
 10
24.85556
 20
583.1644999999999
 30
0.0
 11
26.25556
 21
583.1644999999999
 31
0.0
  0
LINE
  5
79
330
1E
100
AcDbEntity
  8
0
100
AcDbLine
 10
23.57759333333329
 20
583.1644999999999
 30
0.0
 11
24.85556
 21
583.1644999999999
 31
0.0
  0
LINE
  5
7A
330
1E
100
AcDbEntity
  8
0
100
AcDbLine
 10
23.57759333333329
 20
583.1644999999999
 30
0.0
 11
24.75556
 21
583.1644999999999
 31
0.0
  0
LINE
  5
7B
330
1E
100
AcDbEntity
  8
0
100
AcDbLine
 10
29.25556
 20
583.1644999999999
 30
0.0
 11
31.05555999999999
 21
583.1644999999999
 31
0.0
  0
LINE
  5
7C
330
1E
100
AcDbEntity
  8
0
100
AcDbLine
 10
29.25556
 20
583.1644999999999
 30
0.0
 11
29.25556
 21
603.1645
 31
0.0
  0
LINE
  5
7D
330
1E
100
AcDbEntity
  8
0
100
AcDbLine
 10
23.74426
 20
603.1645
 30
0.0
 11
24.74426
 21
604.1644999999999
 31
0.0
  0
LINE
  5
7E
330
1E
100
AcDbEntity
  8
0
100
AcDbLine
 10
27.45556
 20
603.1645
 30
0.0
 11
29.25556
 21
603.1645
 31
0.0
  0
LINE
  5
80
330
1E
100
AcDbEntity
  8
0
100
AcDbLine
 10
24.75556
 20
603.1645
 30
0.0
 11
27.45556
 21
603.1645
 31
0.0
  0
LINE
  5
81
330
1E
100
AcDbEntity
  8
0
100
AcDbLine
 10
21.25556
 20
603.1645
 30
0.0
 11
24.75556
 21
603.1645
 31
0.0
  0
LINE
  5
82
330
1E
100
AcDbEntity
  8
0
100
AcDbLine
 10
17.15556
 20
603.1645
 30
0.0
 11
21.25556
 21
603.1645
 31
0.0
  0
LINE
  5
83
330
1E
100
AcDbEntity
  8
0
100
AcDbLine
 10
12.75556
 20
603.1645
 30
0.0
 11
17.15556
 21
603.1645
 31
0.0
  0
LINE
  5
84
330
1E
100
AcDbEntity
  8
0
100
AcDbLine
 10
8.35555999999997
 20
603.1645
 30
0.0
 11
12.75556
 21
603.1645
 31
0.0
  0
LINE
  5
85
330
1E
100
AcDbEntity
  8
0
100
AcDbLine
 10
4.255559999999969
 20
603.1645
 30
0.0
 11
8.35555999999997
 21
603.1645
 31
0.0
  0
LINE
  5
86
330
1E
100
AcDbEntity
  8
0
100
AcDbLine
 10
0.7555599999999699
 20
603.1645
 30
0.0
 11
4.255559999999969
 21
603.1645
 31
0.0
  0
LINE
  5
87
330
1E
100
AcDbEntity
  8
0
100
AcDbLine
 10
0.244439999999979
 20
742.5644999999999
 30
0.0
 11
0.244439999999979
 21
742.0644999999999
 31
0.0
  0
LINE
  5
88
330
1E
100
AcDbEntity
  8
0
100
AcDbLine
 10
0.244439999999979
 20
742.5644999999999
 30
0.0
 11
0.744259999999979
 21
742.5644999999999
 31
0.0
  0
LINE
  5
89
330
1E
100
AcDbEntity
  8
0
100
AcDbLine
 10
0.244439999999979
 20
742.0644999999999
 30
0.0
 11
0.244459999999979
 21
741.0644999999999
 31
0.0
  0
LINE
  5
8A
330
1E
100
AcDbEntity
  8
0
100
AcDbLine
 10
0.244439999999979
 20
742.0644999999999
 30
0.0
 11
0.244439999999979
 21
742.5644999999999
 31
0.0
  0
LINE
  5
8B
330
1E
100
AcDbEntity
  8
0
100
AcDbLine
 10
0.244439999999979
 20
742.0644999999999
 30
0.0
 11
0.744259999999979
 21
742.0644999999999
 31
0.0
  0
LINE
  5
8C
330
1E
100
AcDbEntity
  8
0
100
AcDbLine
 10
0.244439999999979
 20
742.0644999999999
 30
0.0
 11
0.744259999999979
 21
742.0644999999999
 31
0.0
  0
LINE
  5
8D
330
1E
100
AcDbEntity
  8
0
100
AcDbLine
 10
0.24443999999998
 20
756.1644999999999
 30
0.0
 11
0.24443999999998
 21
755.6644999999999
 31
0.0
  0
LINE
  5
8E
330
1E
100
AcDbEntity
  8
0
100
AcDbLine
 10
0.24443999999998
 20
756.1644999999999
 30
0.0
 11
0.744259999999979
 21
756.1644999999999
 31
0.0
  0
LINE
  5
8F
330
1E
100
AcDbEntity
  8
0
100
AcDbLine
 10
0.24443999999998
 20
755.6644999999999
 30
0.0
 11
0.244459999999979
 21
754.6644999999999
 31
0.0
  0
LINE
  5
90
330
1E
100
AcDbEntity
  8
0
100
AcDbLine
 10
0.24443999999998
 20
755.6644999999999
 30
0.0
 11
0.24443999999998
 21
756.1644999999999
 31
0.0
  0
LINE
  5
91
330
1E
100
AcDbEntity
  8
0
100
AcDbLine
 10
0.24443999999998
 20
755.6644999999999
 30
0.0
 11
0.744259999999979
 21
755.6644999999999
 31
0.0
  0
LINE
  5
92
330
1E
100
AcDbEntity
  8
0
100
AcDbLine
 10
0.244439999999979
 20
749.3645
 30
0.0
 11
0.744259999999979
 21
749.3645
 31
0.0
  0
LINE
  5
93
330
1E
100
AcDbEntity
  8
0
100
AcDbLine
 10
0.244439999999979
 20
749.3645
 30
0.0
 11
0.244439999999979
 21
748.8644999999999
 31
0.0
  0
LINE
  5
94
330
1E
100
AcDbEntity
  8
0
100
AcDbLine
 10
0.244439999999979
 20
748.8644999999999
 30
0.0
 11
0.244459999999979
 21
747.8645
 31
0.0
  0
LINE
  5
95
330
1E
100
AcDbEntity
  8
0
100
AcDbLine
 10
0.244439999999979
 20
748.8644999999999
 30
0.0
 11
0.744259999999979
 21
748.8644999999999
 31
0.0
  0
LINE
  5
96
330
1E
100
AcDbEntity
  8
0
100
AcDbLine
 10
0.244439999999979
 20
748.8644999999999
 30
0.0
 11
0.244439999999979
 21
749.3645
 31
0.0
  0
LINE
  5
97
330
1E
100
AcDbEntity
  8
0
100
AcDbLine
 10
0.244439999999978
 20
735.7644999999999
 30
0.0
 11
0.7442599999999781
 21
735.7644999999999
 31
0.0
  0
LINE
  5
98
330
1E
100
AcDbEntity
  8
0
100
AcDbLine
 10
0.244439999999978
 20
735.7644999999999
 30
0.0
 11
0.244439999999978
 21
735.2644999999999
 31
0.0
  0
LINE
  5
99
330
1E
100
AcDbEntity
  8
0
100
AcDbLine
 10
0.244439999999978
 20
735.2644999999999
 30
0.0
 11
0.244439999999978
 21
735.7644999999999
 31
0.0
  0
LINE
  5
9A
330
1E
100
AcDbEntity
  8
0
100
AcDbLine
 10
0.244439999999978
 20
735.2644999999999
 30
0.0
 11
0.7442599999999781
 21
735.2644999999999
 31
0.0
  0
LINE
  5
9B
330
1E
100
AcDbEntity
  8
0
100
AcDbLine
 10
0.244439999999978
 20
735.2644999999999
 30
0.0
 11
0.244459999999978
 21
734.2645
 31
0.0
  0
LINE
  5
9C
330
1E
100
AcDbEntity
  8
0
100
AcDbLine
 10
0.244439999999978
 20
728.9645
 30
0.0
 11
0.244439999999978
 21
728.4645
 31
0.0
  0
LINE
  5
9D
330
1E
100
AcDbEntity
  8
0
100
AcDbLine
 10
0.244439999999978
 20
728.9645
 30
0.0
 11
0.7442599999999781
 21
728.9645
 31
0.0
  0
LINE
  5
9E
330
1E
100
AcDbEntity
  8
0
100
AcDbLine
 10
0.244439999999978
 20
728.4645
 30
0.0
 11
0.244459999999978
 21
727.4645
 31
0.0
  0
LINE
  5
9F
330
1E
100
AcDbEntity
  8
0
100
AcDbLine
 10
0.244439999999978
 20
728.4645
 30
0.0
 11
0.244439999999978
 21
728.9645
 31
0.0
  0
LINE
  5
A0
330
1E
100
AcDbEntity
  8
0
100
AcDbLine
 10
0.244439999999978
 20
728.4645
 30
0.0
 11
0.7442599999999781
 21
728.4645
 31
0.0
  0
LINE
  5
A1
330
1E
100
AcDbEntity
  8
0
100
AcDbLine
 10
0.244439999999977
 20
722.1644999999999
 30
0.0
 11
0.244439999999977
 21
721.6644999999999
 31
0.0
  0
LINE
  5
A2
330
1E
100
AcDbEntity
  8
0
100
AcDbLine
 10
0.244439999999977
 20
722.1644999999999
 30
0.0
 11
0.7442599999999771
 21
722.1644999999999
 31
0.0
  0
LINE
  5
A3
330
1E
100
AcDbEntity
  8
0
100
AcDbLine
 10
0.244439999999977
 20
721.6644999999999
 30
0.0
 11
0.244459999999977
 21
720.6644999999999
 31
0.0
  0
LINE
  5
A4
330
1E
100
AcDbEntity
  8
0
100
AcDbLine
 10
0.244439999999977
 20
721.6644999999999
 30
0.0
 11
0.244439999999977
 21
722.1644999999999
 31
0.0
  0
LINE
  5
A5
330
1E
100
AcDbEntity
  8
0
100
AcDbLine
 10
0.244439999999977
 20
721.6644999999999
 30
0.0
 11
0.7442599999999771
 21
721.6644999999999
 31
0.0
  0
LINE
  5
A6
330
1E
100
AcDbEntity
  8
0
100
AcDbLine
 10
0.244439999999977
 20
715.3645
 30
0.0
 11
0.7442599999999771
 21
715.3645
 31
0.0
  0
LINE
  5
A7
330
1E
100
AcDbEntity
  8
0
100
AcDbLine
 10
0.244439999999977
 20
715.3645
 30
0.0
 11
0.244439999999977
 21
714.8645
 31
0.0
  0
LINE
  5
A8
330
1E
100
AcDbEntity
  8
0
100
AcDbLine
 10
0.244439999999977
 20
714.8645
 30
0.0
 11
0.244439999999977
 21
715.3645
 31
0.0
  0
LINE
  5
A9
330
1E
100
AcDbEntity
  8
0
100
AcDbLine
 10
0.244439999999977
 20
714.8645
 30
0.0
 11
0.7442599999999771
 21
714.8645
 31
0.0
  0
LINE
  5
AA
330
1E
100
AcDbEntity
  8
0
100
AcDbLine
 10
0.244439999999977
 20
714.8645
 30
0.0
 11
0.244459999999977
 21
713.8645
 31
0.0
  0
LINE
  5
AB
330
1E
100
AcDbEntity
  8
0
100
AcDbLine
 10
0.244439999999977
 20
708.5644999999999
 30
0.0
 11
0.7442599999999771
 21
708.5644999999999
 31
0.0
  0
LINE
  5
AC
330
1E
100
AcDbEntity
  8
0
100
AcDbLine
 10
0.244439999999977
 20
708.5644999999999
 30
0.0
 11
0.7442599999999761
 21
708.5644999999999
 31
0.0
  0
LINE
  5
AD
330
1E
100
AcDbEntity
  8
0
100
AcDbLine
 10
0.244439999999977
 20
708.0644999999999
 30
0.0
 11
0.244459999999977
 21
707.0644999999999
 31
0.0
  0
LINE
  5
AE
330
1E
100
AcDbEntity
  8
0
100
AcDbLine
 10
0.244439999999977
 20
708.0644999999999
 30
0.0
 11
0.244439999999977
 21
708.5644999999999
 31
0.0
  0
LINE
  5
AF
330
1E
100
AcDbEntity
  8
0
100
AcDbLine
 10
0.244439999999977
 20
708.0644999999999
 30
0.0
 11
0.7442599999999761
 21
708.0644999999999
 31
0.0
  0
LINE
  5
B0
330
1E
100
AcDbEntity
  8
0
100
AcDbLine
 10
0.244439999999976
 20
701.7644999999999
 30
0.0
 11
0.7442599999999761
 21
701.7644999999999
 31
0.0
  0
LINE
  5
B1
330
1E
100
AcDbEntity
  8
0
100
AcDbLine
 10
0.244439999999976
 20
701.7644999999999
 30
0.0
 11
0.244439999999976
 21
701.2645
 31
0.0
  0
LINE
  5
B2
330
1E
100
AcDbEntity
  8
0
100
AcDbLine
 10
0.244439999999976
 20
701.2645
 30
0.0
 11
0.244439999999976
 21
701.7644999999999
 31
0.0
  0
LINE
  5
B3
330
1E
100
AcDbEntity
  8
0
100
AcDbLine
 10
0.244439999999976
 20
701.2645
 30
0.0
 11
0.7442599999999761
 21
701.2645
 31
0.0
  0
LINE
  5
B4
330
1E
100
AcDbEntity
  8
0
100
AcDbLine
 10
0.244439999999976
 20
701.2645
 30
0.0
 11
0.244459999999976
 21
700.2645
 31
0.0
  0
LINE
  5
B5
330
1E
100
AcDbEntity
  8
0
100
AcDbLine
 10
0.244439999999976
 20
694.9645
 30
0.0
 11
0.7442599999999761
 21
694.9645
 31
0.0
  0
LINE
  5
B6
330
1E
100
AcDbEntity
  8
0
100
AcDbLine
 10
0.244439999999976
 20
694.9645
 30
0.0
 11
0.244439999999976
 21
694.4645
 31
0.0
  0
LINE
  5
B7
330
1E
100
AcDbEntity
  8
0
100
AcDbLine
 10
0.244439999999976
 20
694.9645
 30
0.0
 11
0.7442599999999761
 21
694.9645
 31
0.0
  0
LINE
  5
B8
330
1E
100
AcDbEntity
  8
0
100
AcDbLine
 10
0.244439999999976
 20
694.4645
 30
0.0
 11
0.244439999999976
 21
694.9645
 31
0.0
  0
LINE
  5
B9
330
1E
100
AcDbEntity
  8
0
100
AcDbLine
 10
0.244439999999976
 20
694.4645
 30
0.0
 11
0.895409999999976
 21
694.4645
 31
0.0
  0
LINE
  5
BA
330
1E
100
AcDbEntity
  8
0
100
AcDbLine
 10
0.244439999999976
 20
694.4645
 30
0.0
 11
0.244459999999976
 21
693.4645
 31
0.0
  0
LINE
  5
BB
330
1E
100
AcDbEntity
  8
0
100
AcDbLine
 10
0.244439999999975
 20
688.1644999999999
 30
0.0
 11
0.244439999999975
 21
687.6644999999999
 31
0.0
  0
LINE
  5
BC
330
1E
100
AcDbEntity
  8
0
100
AcDbLine
 10
0.244439999999975
 20
688.1644999999999
 30
0.0
 11
0.744259999999975
 21
688.1644999999999
 31
0.0
  0
LINE
  5
BD
330
1E
100
AcDbEntity
  8
0
100
AcDbLine
 10
0.244439999999975
 20
687.6644999999999
 30
0.0
 11
0.244459999999975
 21
686.6645
 31
0.0
  0
LINE
  5
BE
330
1E
100
AcDbEntity
  8
0
100
AcDbLine
 10
0.244439999999975
 20
687.6644999999999
 30
0.0
 11
0.244439999999975
 21
688.1644999999999
 31
0.0
  0
LINE
  5
BF
330
1E
100
AcDbEntity
  8
0
100
AcDbLine
 10
0.244439999999975
 20
687.6644999999999
 30
0.0
 11
0.8954099999999749
 21
687.6644999999999
 31
0.0
  0
LINE
  5
C0
330
1E
100
AcDbEntity
  8
0
100
AcDbLine
 10
0.244459999999976
 20
692.9645
 30
0.0
 11
0.7442599999999761
 21
692.9645
 31
0.0
  0
LINE
  5
C1
330
1E
100
AcDbEntity
  8
0
100
AcDbLine
 10
0.244459999999976
 20
692.9645
 30
0.0
 11
0.244459999999976
 21
693.4645
 31
0.0
  0
LINE
  5
C2
330
1E
100
AcDbEntity
  8
0
100
AcDbLine
 10
0.244459999999976
 20
699.7645
 30
0.0
 11
0.7442599999999761
 21
699.7645
 31
0.0
  0
LINE
  5
C3
330
1E
100
AcDbEntity
  8
0
100
AcDbLine
 10
0.244459999999976
 20
699.7645
 30
0.0
 11
0.244459999999976
 21
700.2645
 31
0.0
  0
LINE
  5
C4
330
1E
100
AcDbEntity
  8
0
100
AcDbLine
 10
0.244459999999977
 20
706.5644999999999
 30
0.0
 11
0.244459999999977
 21
707.0644999999999
 31
0.0
  0
LINE
  5
C5
330
1E
100
AcDbEntity
  8
0
100
AcDbLine
 10
0.244459999999977
 20
706.5644999999999
 30
0.0
 11
0.7442599999999761
 21
706.5644999999999
 31
0.0
  0
LINE
  5
C6
330
1E
100
AcDbEntity
  8
0
100
AcDbLine
 10
0.244459999999977
 20
713.3645
 30
0.0
 11
0.7442599999999771
 21
713.3645
 31
0.0
  0
LINE
  5
C7
330
1E
100
AcDbEntity
  8
0
100
AcDbLine
 10
0.244459999999977
 20
713.3645
 30
0.0
 11
0.244459999999977
 21
713.8645
 31
0.0
  0
LINE
  5
C8
330
1E
100
AcDbEntity
  8
0
100
AcDbLine
 10
0.244459999999977
 20
720.1645
 30
0.0
 11
0.244459999999977
 21
720.6644999999999
 31
0.0
  0
LINE
  5
C9
330
1E
100
AcDbEntity
  8
0
100
AcDbLine
 10
0.244459999999977
 20
720.1645
 30
0.0
 11
0.7442599999999771
 21
720.1645
 31
0.0
  0
LINE
  5
CA
330
1E
100
AcDbEntity
  8
0
100
AcDbLine
 10
0.244459999999978
 20
726.9645
 30
0.0
 11
0.244459999999978
 21
727.4645
 31
0.0
  0
LINE
  5
CB
330
1E
100
AcDbEntity
  8
0
100
AcDbLine
 10
0.244459999999978
 20
726.9645
 30
0.0
 11
0.7442599999999781
 21
726.9645
 31
0.0
  0
LINE
  5
CC
330
1E
100
AcDbEntity
  8
0
100
AcDbLine
 10
0.244459999999978
 20
726.9645
 30
0.0
 11
0.7442599999999781
 21
726.9645
 31
0.0
  0
LINE
  5
CD
330
1E
100
AcDbEntity
  8
0
100
AcDbLine
 10
0.244459999999978
 20
733.7645
 30
0.0
 11
0.7442599999999781
 21
733.7645
 31
0.0
  0
LINE
  5
CE
330
1E
100
AcDbEntity
  8
0
100
AcDbLine
 10
0.244459999999978
 20
733.7645
 30
0.0
 11
0.244459999999978
 21
734.2645
 31
0.0
  0
LINE
  5
CF
330
1E
100
AcDbEntity
  8
0
100
AcDbLine
 10
0.244459999999979
 20
747.8645
 30
0.0
 11
0.244459999999979
 21
747.3645
 31
0.0
  0
LINE
  5
D0
330
1E
100
AcDbEntity
  8
0
100
AcDbLine
 10
0.244459999999979
 20
747.8645
 30
0.0
 11
0.744259999999979
 21
747.8645
 31
0.0
  0
LINE
  5
D1
330
1E
100
AcDbEntity
  8
0
100
AcDbLine
 10
0.244459999999979
 20
754.1644999999999
 30
0.0
 11
0.244459999999979
 21
754.6644999999999
 31
0.0
  0
LINE
  5
D2
330
1E
100
AcDbEntity
  8
0
100
AcDbLine
 10
0.244459999999979
 20
754.1644999999999
 30
0.0
 11
0.744259999999979
 21
754.1644999999999
 31
0.0
  0
LINE
  5
D3
330
1E
100
AcDbEntity
  8
0
100
AcDbLine
 10
0.244459999999979
 20
754.6644999999999
 30
0.0
 11
0.744259999999979
 21
754.6644999999999
 31
0.0
  0
LINE
  5
D4
330
1E
100
AcDbEntity
  8
0
100
AcDbLine
 10
0.244459999999979
 20
754.6644999999999
 30
0.0
 11
0.244459999999979
 21
754.1644999999999
 31
0.0
  0
LINE
  5
D5
330
1E
100
AcDbEntity
  8
0
100
AcDbLine
 10
0.244459999999979
 20
747.3645
 30
0.0
 11
0.244459999999979
 21
747.8645
 31
0.0
  0
LINE
  5
D6
330
1E
100
AcDbEntity
  8
0
100
AcDbLine
 10
0.244459999999979
 20
747.3645
 30
0.0
 11
0.744259999999979
 21
747.3645
 31
0.0
  0
LINE
  5
D7
330
1E
100
AcDbEntity
  8
0
100
AcDbLine
 10
0.244459999999979
 20
741.0644999999999
 30
0.0
 11
0.7442599999999781
 21
741.0644999999999
 31
0.0
  0
LINE
  5
D8
330
1E
100
AcDbEntity
  8
0
100
AcDbLine
 10
0.244459999999979
 20
740.5644999999999
 30
0.0
 11
0.244459999999979
 21
741.0644999999999
 31
0.0
  0
LINE
  5
D9
330
1E
100
AcDbEntity
  8
0
100
AcDbLine
 10
0.244459999999979
 20
740.5644999999999
 30
0.0
 11
0.744259999999979
 21
740.5644999999999
 31
0.0
  0
LINE
  5
DA
330
1E
100
AcDbEntity
  8
0
100
AcDbLine
 10
0.244459999999979
 20
740.5644999999999
 30
0.0
 11
0.7442599999999781
 21
740.5644999999999
 31
0.0
  0
LINE
  5
DB
330
1E
100
AcDbEntity
  8
0
100
AcDbLine
 10
0.244459999999978
 20
734.2645
 30
0.0
 11
0.244459999999978
 21
733.7645
 31
0.0
  0
LINE
  5
DC
330
1E
100
AcDbEntity
  8
0
100
AcDbLine
 10
0.244459999999978
 20
734.2645
 30
0.0
 11
0.7442599999999781
 21
734.2645
 31
0.0
  0
LINE
  5
DD
330
1E
100
AcDbEntity
  8
0
100
AcDbLine
 10
0.244459999999978
 20
727.4645
 30
0.0
 11
0.7442599999999781
 21
727.4645
 31
0.0
  0
LINE
  5
DE
330
1E
100
AcDbEntity
  8
0
100
AcDbLine
 10
0.244459999999978
 20
727.4645
 30
0.0
 11
0.7442599999999781
 21
727.4645
 31
0.0
  0
LINE
  5
DF
330
1E
100
AcDbEntity
  8
0
100
AcDbLine
 10
0.244459999999977
 20
720.6644999999999
 30
0.0
 11
0.7442599999999771
 21
720.6644999999999
 31
0.0
  0
LINE
  5
E0
330
1E
100
AcDbEntity
  8
0
100
AcDbLine
 10
0.244459999999977
 20
720.6644999999999
 30
0.0
 11
0.244459999999977
 21
720.1645
 31
0.0
  0
LINE
  5
E1
330
1E
100
AcDbEntity
  8
0
100
AcDbLine
 10
0.244459999999977
 20
713.8645
 30
0.0
 11
0.244459999999977
 21
713.3645
 31
0.0
  0
LINE
  5
E2
330
1E
100
AcDbEntity
  8
0
100
AcDbLine
 10
0.244459999999977
 20
713.8645
 30
0.0
 11
0.7442599999999771
 21
713.8645
 31
0.0
  0
LINE
  5
E3
330
1E
100
AcDbEntity
  8
0
100
AcDbLine
 10
0.244459999999977
 20
707.0644999999999
 30
0.0
 11
0.7442599999999761
 21
707.0644999999999
 31
0.0
  0
LINE
  5
E4
330
1E
100
AcDbEntity
  8
0
100
AcDbLine
 10
0.244459999999977
 20
707.0644999999999
 30
0.0
 11
0.244459999999977
 21
706.5644999999999
 31
0.0
  0
LINE
  5
E5
330
1E
100
AcDbEntity
  8
0
100
AcDbLine
 10
0.244459999999976
 20
700.2645
 30
0.0
 11
0.244459999999976
 21
699.7645
 31
0.0
  0
LINE
  5
E6
330
1E
100
AcDbEntity
  8
0
100
AcDbLine
 10
0.244459999999976
 20
700.2645
 30
0.0
 11
0.7442599999999761
 21
700.2645
 31
0.0
  0
LINE
  5
E7
330
1E
100
AcDbEntity
  8
0
100
AcDbLine
 10
0.244459999999976
 20
700.2645
 30
0.0
 11
0.7442599999999761
 21
700.2645
 31
0.0
  0
LINE
  5
E8
330
1E
100
AcDbEntity
  8
0
100
AcDbLine
 10
0.244459999999976
 20
693.4645
 30
0.0
 11
0.244459999999976
 21
692.9645
 31
0.0
  0
LINE
  5
E9
330
1E
100
AcDbEntity
  8
0
100
AcDbLine
 10
0.244459999999976
 20
693.4645
 30
0.0
 11
0.895419999999976
 21
693.4645
 31
0.0
  0
LINE
  5
EA
330
1E
100
AcDbEntity
  8
0
100
AcDbLine
 10
0.244459999999976
 20
693.4645
 30
0.0
 11
0.8954199999999749
 21
693.4645
 31
0.0
  0
LINE
  5
EB
330
1E
100
AcDbEntity
  8
0
100
AcDbLine
 10
0.244459999999975
 20
686.6645
 30
0.0
 11
0.244459999999975
 21
686.1645
 31
0.0
  0
LINE
  5
EC
330
1E
100
AcDbEntity
  8
0
100
AcDbLine
 10
0.244459999999975
 20
686.6645
 30
0.0
 11
0.8954199999999749
 21
686.6645
 31
0.0
  0
LINE
  5
ED
330
1E
100
AcDbEntity
  8
0
100
AcDbLine
 10
0.244459999999975
 20
686.1645
 30
0.0
 11
0.244459999999975
 21
686.6645
 31
0.0
  0
LINE
  5
EE
330
1E
100
AcDbEntity
  8
0
100
AcDbLine
 10
0.244459999999975
 20
686.1645
 30
0.0
 11
0.744259999999975
 21
686.1645
 31
0.0
  0
LINE
  5
EF
330
1E
100
AcDbEntity
  8
0
100
AcDbLine
 10
1.048359999999979
 20
686.1645
 30
0.0
 11
1.354259999999969
 21
686.1645
 31
0.0
  0
LINE
  5
F0
330
1E
100
AcDbEntity
  8
0
100
AcDbLine
 10
1.048359999999979
 20
686.1645
 30
0.0
 11
1.78530234527685
 21
686.1645
 31
0.0
  0
LINE
  5
F1
330
1E
100
AcDbEntity
  8
0
100
AcDbLine
 10
0.8954099999999749
 20
687.6644999999999
 30
0.0
 11
1.04837999999998
 21
688.1644999999999
 31
0.0
  0
LINE
  5
F2
330
1E
100
AcDbEntity
  8
0
100
AcDbLine
 10
0.8954099999999749
 20
687.6644999999999
 30
0.0
 11
0.8954199999999749
 21
686.6645
 31
0.0
  0
LINE
  5
F3
330
1E
100
AcDbEntity
  8
0
100
AcDbLine
 10
1.04837999999998
 20
688.1644999999999
 30
0.0
 11
1.35423999999998
 21
688.1644999999999
 31
0.0
  0
LINE
  5
F4
330
1E
100
AcDbEntity
  8
0
100
AcDbLine
 10
0.8954199999999749
 20
686.6645
 30
0.0
 11
1.048359999999979
 21
686.1645
 31
0.0
  0
LINE
  5
F5
330
1E
100
AcDbEntity
  8
0
100
AcDbLine
 10
4.24425999999997
 20
604.1644999999999
 30
0.0
 11
6.74425999999997
 21
604.1644999999999
 31
0.0
  0
LINE
  5
F6
330
1E
100
AcDbEntity
  8
0
100
AcDbLine
 10
6.74425999999997
 20
604.1644999999999
 30
0.0
 11
9.64425999999997
 21
604.1644999999999
 31
0.0
  0
LINE
  5
F7
330
1E
100
AcDbEntity
  8
0
100
AcDbLine
 10
21.24426
 20
604.1644999999999
 30
0.0
 11
23.14426
 21
604.1644999999999
 31
0.0
  0
LINE
  5
F8
330
1E
100
AcDbEntity
  8
0
100
AcDbLine
 10
23.14426
 20
604.1644999999999
 30
0.0
 11
24.34426
 21
604.1644999999999
 31
0.0
  0
LINE
  5
F9
330
1E
100
AcDbEntity
  8
0
100
AcDbLine
 10
24.74426
 20
604.1644999999999
 30
0.0
 11
24.74426
 21
757.6645
 31
0.0
  0
LINE
  5
FA
330
1E
100
AcDbEntity
  8
0
100
AcDbLine
 10
24.34426
 20
604.1644999999999
 30
0.0
 11
24.74426
 21
604.1644999999999
 31
0.0
  0
LINE
  5
FB
330
1E
100
AcDbEntity
  8
0
100
AcDbLine
 10
18.74426
 20
604.1644999999999
 30
0.0
 11
21.24426
 21
604.1644999999999
 31
0.0
  0
LINE
  5
FC
330
1E
100
AcDbEntity
  8
0
100
AcDbLine
 10
15.84426
 20
604.1644999999999
 30
0.0
 11
18.74426
 21
604.1644999999999
 31
0.0
  0
LINE
  5
FD
330
1E
100
AcDbEntity
  8
0
100
AcDbLine
 10
12.74426
 20
604.1644999999999
 30
0.0
 11
15.84426
 21
604.1644999999999
 31
0.0
  0
LINE
  5
FE
330
1E
100
AcDbEntity
  8
0
100
AcDbLine
 10
9.64425999999997
 20
604.1644999999999
 30
0.0
 11
12.74426
 21
604.1644999999999
 31
0.0
  0
LINE
  5
FF
330
1E
100
AcDbEntity
  8
0
100
AcDbLine
 10
1.35423999999998
 20
688.1644999999999
 30
0.0
 11
1.507179999999979
 21
687.6644999999999
 31
0.0
  0
LINE
  5
100
330
1E
100
AcDbEntity
  8
0
100
AcDbLine
 10
1.35423999999998
 20
688.1644999999999
 30
0.0
 11
1.800937524429939
 21
688.1644999999999
 31
0.0
  0
LINE
  5
101
330
1E
100
AcDbEntity
  8
0
100
AcDbLine
 10
4.23632999999997
 20
686.6645
 30
0.0
 11
4.23635999999997
 21
687.6644999999999
 31
0.0
  0
LINE
  5
103
330
1E
100
AcDbEntity
  8
0
100
AcDbLine
 10
3.94575999999998
 20
686.1645
 30
0.0
 11
4.23632999999997
 21
686.6645
 31
0.0
  0
LINE
  5
104
330
1E
100
AcDbEntity
  8
0
100
AcDbLine
 10
3.94575999999998
 20
686.1645
 30
0.0
 11
4.24425999999998
 21
686.1645
 31
0.0
  0
LINE
  5
105
330
1E
100
AcDbEntity
  8
0
100
AcDbLine
 10
3.36442999999997
 20
686.1645
 30
0.0
 11
3.94575999999998
 21
686.1645
 31
0.0
  0
LINE
  5
106
330
1E
100
AcDbEntity
  8
0
100
AcDbLine
 10
3.36442999999997
 20
686.1645
 30
0.0
 11
3.977359999999979
 21
686.1645
 31
0.0
  0
LINE
  5
108
330
1E
100
AcDbEntity
  8
0
100
AcDbLine
 10
3.073879999999979
 20
687.6644999999999
 30
0.0
 11
3.364449999999979
 21
688.1644999999999
 31
0.0
  0
LINE
  5
109
330
1E
100
AcDbEntity
  8
0
100
AcDbLine
 10
3.073849999999979
 20
686.6645
 30
0.0
 11
3.36442999999997
 21
686.1645
 31
0.0
  0
LINE
  5
10A
330
1E
100
AcDbEntity
  8
0
100
AcDbLine
 10
3.073849999999979
 20
686.6645
 30
0.0
 11
3.073879999999979
 21
687.6644999999999
 31
0.0
  0
LINE
  5
10C
330
1E
100
AcDbEntity
  8
0
100
AcDbLine
 10
3.364449999999979
 20
688.1644999999999
 30
0.0
 11
3.94573999999997
 21
688.1644999999999
 31
0.0
  0
LINE
  5
10D
330
1E
100
AcDbEntity
  8
0
100
AcDbLine
 10
3.94573999999997
 20
688.1644999999999
 30
0.0
 11
4.23635999999997
 21
687.6644999999999
 31
0.0
  0
LINE
  5
10E
330
1E
100
AcDbEntity
  8
0
100
AcDbLine
 10
3.94573999999997
 20
688.1644999999999
 30
0.0
 11
4.24425999999998
 21
688.1644999999999
 31
0.0
  0
LINE
  5
10F
330
1E
100
AcDbEntity
  8
0
100
AcDbLine
 10
1.507179999999979
 20
687.6644999999999
 30
0.0
 11
1.50718999999998
 21
686.6645
 31
0.0
  0
LINE
  5
111
330
1E
100
AcDbEntity
  8
0
100
AcDbLine
 10
1.354259999999969
 20
686.1645
 30
0.0
 11
1.50718999999998
 21
686.6645
 31
0.0
  0
LINE
  5
112
330
1E
100
AcDbEntity
  8
0
100
AcDbLine
 10
1.354259999999969
 20
686.1645
 30
0.0
 11
1.78530234527685
 21
686.1645
 31
0.0
  0
LINE
  5
113
330
1E
100
AcDbEntity
  8
0
100
AcDbLine
 10
2.34425999999997
 20
604.1644999999999
 30
0.0
 11
4.24425999999997
 21
604.1644999999999
 31
0.0
  0
LINE
  5
114
330
1E
100
AcDbEntity
  8
0
100
AcDbLine
 10
1.144259999999969
 20
604.1644999999999
 30
0.0
 11
2.34425999999997
 21
604.1644999999999
 31
0.0
  0
LINE
  5
115
330
1E
100
AcDbEntity
  8
0
100
AcDbLine
 10
0.895419999999976
 20
693.4645
 30
0.0
 11
1.048359999999979
 21
692.9645
 31
0.0
  0
LINE
  5
116
330
1E
100
AcDbEntity
  8
0
100
AcDbLine
 10
1.048359999999979
 20
692.9645
 30
0.0
 11
1.35425999999998
 21
692.9645
 31
0.0
  0
LINE
  5
119
330
1E
100
AcDbEntity
  8
0
100
AcDbLine
 10
1.35425999999998
 20
692.9645
 30
0.0
 11
1.50718999999998
 21
693.4645
 31
0.0
  0
LINE
  5
11B
330
1E
100
AcDbEntity
  8
0
100
AcDbLine
 10
0.895409999999976
 20
694.4645
 30
0.0
 11
1.04837999999998
 21
694.9645
 31
0.0
  0
LINE
  5
11C
330
1E
100
AcDbEntity
  8
0
100
AcDbLine
 10
0.895409999999976
 20
694.4645
 30
0.0
 11
0.895419999999976
 21
693.4645
 31
0.0
  0
LINE
  5
11D
330
1E
100
AcDbEntity
  8
0
100
AcDbLine
 10
0.895419999999976
 20
700.2645
 30
0.0
 11
1.048359999999979
 21
699.7645
 31
0.0
  0
LINE
  5
11E
330
1E
100
AcDbEntity
  8
0
100
AcDbLine
 10
0.895409999999976
 20
701.2645
 30
0.0
 11
1.04837999999998
 21
701.7644999999999
 31
0.0
  0
LINE
  5
11F
330
1E
100
AcDbEntity
  8
0
100
AcDbLine
 10
0.895409999999976
 20
701.2645
 30
0.0
 11
0.895419999999976
 21
700.2645
 31
0.0
  0
LINE
  5
120
330
1E
100
AcDbEntity
  8
0
100
AcDbLine
 10
1.048359999999979
 20
699.7645
 30
0.0
 11
1.35425999999998
 21
699.7645
 31
0.0
  0
LINE
  5
122
330
1E
100
AcDbEntity
  8
0
100
AcDbLine
 10
1.04837999999998
 20
701.7644999999999
 30
0.0
 11
1.35423999999998
 21
701.7644999999999
 31
0.0
  0
LINE
  5
123
330
1E
100
AcDbEntity
  8
0
100
AcDbLine
 10
1.04837999999998
 20
694.9645
 30
0.0
 11
1.35423999999998
 21
694.9645
 31
0.0
  0
LINE
  5
124
330
1E
100
AcDbEntity
  8
0
100
AcDbLine
 10
1.35425999999998
 20
699.7645
 30
0.0
 11
1.50718999999998
 21
700.2645
 31
0.0
  0
LINE
  5
128
330
1E
100
AcDbEntity
  8
0
100
AcDbLine
 10
1.507179999999979
 20
701.2645
 30
0.0
 11
1.50718999999998
 21
700.2645
 31
0.0
  0
LINE
  5
12A
330
1E
100
AcDbEntity
  8
0
100
AcDbLine
 10
1.35423999999998
 20
701.7644999999999
 30
0.0
 11
1.507179999999979
 21
701.2645
 31
0.0
  0
LINE
  5
12B
330
1E
100
AcDbEntity
  8
0
100
AcDbLine
 10
3.073849999999979
 20
700.2645
 30
0.0
 11
3.364429999999979
 21
699.7645
 31
0.0
  0
LINE
  5
12C
330
1E
100
AcDbEntity
  8
0
100
AcDbLine
 10
3.073849999999979
 20
700.2645
 30
0.0
 11
3.073879999999979
 21
701.2645
 31
0.0
  0
LINE
  5
12E
330
1E
100
AcDbEntity
  8
0
100
AcDbLine
 10
1.507179999999979
 20
694.4645
 30
0.0
 11
1.50718999999998
 21
693.4645
 31
0.0
  0
LINE
  5
130
330
1E
100
AcDbEntity
  8
0
100
AcDbLine
 10
1.35423999999998
 20
694.9645
 30
0.0
 11
1.507179999999979
 21
694.4645
 31
0.0
  0
LINE
  5
131
330
1E
100
AcDbEntity
  8
0
100
AcDbLine
 10
3.073849999999979
 20
693.4645
 30
0.0
 11
3.364429999999979
 21
692.9645
 31
0.0
  0
LINE
  5
132
330
1E
100
AcDbEntity
  8
0
100
AcDbLine
 10
3.073849999999979
 20
693.4645
 30
0.0
 11
3.073879999999979
 21
694.4645
 31
0.0
  0
LINE
  5
133
330
1E
100
AcDbEntity
  8
0
100
AcDbLine
 10
3.364429999999979
 20
692.9645
 30
0.0
 11
3.94575999999998
 21
692.9645
 31
0.0
  0
LINE
  5
134
330
1E
100
AcDbEntity
  8
0
100
AcDbLine
 10
3.364429999999979
 20
692.9645
 30
0.0
 11
3.977359999999979
 21
692.9645
 31
0.0
  0
LINE
  5
136
330
1E
100
AcDbEntity
  8
0
100
AcDbLine
 10
4.23632999999997
 20
693.4645
 30
0.0
 11
4.23635999999997
 21
694.4645
 31
0.0
  0
LINE
  5
138
330
1E
100
AcDbEntity
  8
0
100
AcDbLine
 10
3.94575999999998
 20
692.9645
 30
0.0
 11
4.24425999999998
 21
692.9645
 31
0.0
  0
LINE
  5
139
330
1E
100
AcDbEntity
  8
0
100
AcDbLine
 10
3.94575999999998
 20
692.9645
 30
0.0
 11
4.23632999999997
 21
693.4645
 31
0.0
  0
LINE
  5
13A
330
1E
100
AcDbEntity
  8
0
100
AcDbLine
 10
3.364449999999979
 20
694.9645
 30
0.0
 11
3.94573999999997
 21
694.9645
 31
0.0
  0
LINE
  5
13B
330
1E
100
AcDbEntity
  8
0
100
AcDbLine
 10
3.364429999999979
 20
699.7645
 30
0.0
 11
3.94575999999998
 21
699.7645
 31
0.0
  0
LINE
  5
13C
330
1E
100
AcDbEntity
  8
0
100
AcDbLine
 10
3.364429999999979
 20
699.7645
 30
0.0
 11
3.977359999999979
 21
699.7645
 31
0.0
  0
LINE
  5
13E
330
1E
100
AcDbEntity
  8
0
100
AcDbLine
 10
4.23632999999997
 20
700.2645
 30
0.0
 11
4.23635999999997
 21
701.2645
 31
0.0
  0
LINE
  5
140
330
1E
100
AcDbEntity
  8
0
100
AcDbLine
 10
3.94575999999998
 20
699.7645
 30
0.0
 11
4.24425999999998
 21
699.7645
 31
0.0
  0
LINE
  5
141
330
1E
100
AcDbEntity
  8
0
100
AcDbLine
 10
3.94575999999998
 20
699.7645
 30
0.0
 11
4.23632999999997
 21
700.2645
 31
0.0
  0
LINE
  5
142
330
1E
100
AcDbEntity
  8
0
100
AcDbLine
 10
3.364449999999979
 20
701.7644999999999
 30
0.0
 11
3.945739999999979
 21
701.7644999999999
 31
0.0
  0
LINE
  5
143
330
1E
100
AcDbEntity
  8
0
100
AcDbLine
 10
3.945739999999979
 20
701.7644999999999
 30
0.0
 11
4.24425999999998
 21
701.7644999999999
 31
0.0
  0
LINE
  5
144
330
1E
100
AcDbEntity
  8
0
100
AcDbLine
 10
3.945739999999979
 20
701.7644999999999
 30
0.0
 11
4.23635999999997
 21
701.2645
 31
0.0
  0
LINE
  5
145
330
1E
100
AcDbEntity
  8
0
100
AcDbLine
 10
3.073879999999979
 20
701.2645
 30
0.0
 11
3.364449999999979
 21
701.7644999999999
 31
0.0
  0
LINE
  5
146
330
1E
100
AcDbEntity
  8
0
100
AcDbLine
 10
3.94573999999997
 20
694.9645
 30
0.0
 11
4.24425999999998
 21
694.9645
 31
0.0
  0
LINE
  5
147
330
1E
100
AcDbEntity
  8
0
100
AcDbLine
 10
3.94573999999997
 20
694.9645
 30
0.0
 11
4.23635999999997
 21
694.4645
 31
0.0
  0
LINE
  5
148
330
1E
100
AcDbEntity
  8
0
100
AcDbLine
 10
3.073879999999979
 20
694.4645
 30
0.0
 11
3.364449999999979
 21
694.9645
 31
0.0
  0
LINE
  5
149
330
1E
100
AcDbEntity
  8
0
100
AcDbLine
 10
0.895419999999976
 20
707.0644999999999
 30
0.0
 11
1.048359999999979
 21
706.5644999999999
 31
0.0
  0
LINE
  5
14B
330
1E
100
AcDbEntity
  8
0
100
AcDbLine
 10
1.35425999999998
 20
706.5644999999999
 30
0.0
 11
1.50718999999998
 21
707.0644999999999
 31
0.0
  0
LINE
  5
14D
330
1E
100
AcDbEntity
  8
0
100
AcDbLine
 10
1.048359999999979
 20
706.5644999999999
 30
0.0
 11
1.35425999999998
 21
706.5644999999999
 31
0.0
  0
LINE
  5
14F
330
1E
100
AcDbEntity
  8
0
100
AcDbLine
 10
0.8954099999999771
 20
708.0644999999999
 30
0.0
 11
1.04837999999998
 21
708.5644999999999
 31
0.0
  0
LINE
  5
150
330
1E
100
AcDbEntity
  8
0
100
AcDbLine
 10
0.8954099999999771
 20
708.0644999999999
 30
0.0
 11
0.895419999999976
 21
707.0644999999999
 31
0.0
  0
LINE
  5
151
330
1E
100
AcDbEntity
  8
0
100
AcDbLine
 10
0.8954199999999769
 20
713.8645
 30
0.0
 11
1.048359999999979
 21
713.3645
 31
0.0
  0
LINE
  5
152
330
1E
100
AcDbEntity
  8
0
100
AcDbLine
 10
0.8954099999999771
 20
714.8645
 30
0.0
 11
1.04837999999998
 21
715.3645
 31
0.0
  0
LINE
  5
153
330
1E
100
AcDbEntity
  8
0
100
AcDbLine
 10
0.8954099999999771
 20
714.8645
 30
0.0
 11
0.8954199999999769
 21
713.8645
 31
0.0
  0
LINE
  5
154
330
1E
100
AcDbEntity
  8
0
100
AcDbLine
 10
1.048359999999979
 20
713.3645
 30
0.0
 11
1.35425999999998
 21
713.3645
 31
0.0
  0
LINE
  5
155
330
1E
100
AcDbEntity
  8
0
100
AcDbLine
 10
1.048359999999979
 20
713.3645
 30
0.0
 11
1.83579999999998
 21
713.3645
 31
0.0
  0
LINE
  5
156
330
1E
100
AcDbEntity
  8
0
100
AcDbLine
 10
1.04837999999998
 20
715.3645
 30
0.0
 11
1.35423999999998
 21
715.3645
 31
0.0
  0
LINE
  5
158
330
1E
100
AcDbEntity
  8
0
100
AcDbLine
 10
1.35423999999998
 20
715.3645
 30
0.0
 11
1.507179999999979
 21
714.8645
 31
0.0
  0
LINE
  5
159
330
1E
100
AcDbEntity
  8
0
100
AcDbLine
 10
1.04837999999998
 20
708.5644999999999
 30
0.0
 11
1.35423999999998
 21
708.5644999999999
 31
0.0
  0
LINE
  5
15C
330
1E
100
AcDbEntity
  8
0
100
AcDbLine
 10
1.35425999999998
 20
713.3645
 30
0.0
 11
1.50718999999998
 21
713.8645
 31
0.0
  0
LINE
  5
160
330
1E
100
AcDbEntity
  8
0
100
AcDbLine
 10
1.507179999999979
 20
714.8645
 30
0.0
 11
1.50718999999998
 21
713.8645
 31
0.0
  0
LINE
  5
161
330
1E
100
AcDbEntity
  8
0
100
AcDbLine
 10
3.073849999999979
 20
713.8645
 30
0.0
 11
3.364429999999979
 21
713.3645
 31
0.0
  0
LINE
  5
162
330
1E
100
AcDbEntity
  8
0
100
AcDbLine
 10
3.073849999999979
 20
713.8645
 30
0.0
 11
3.073879999999979
 21
714.8645
 31
0.0
  0
LINE
  5
163
330
1E
100
AcDbEntity
  8
0
100
AcDbLine
 10
3.073879999999979
 20
714.8645
 30
0.0
 11
3.364449999999979
 21
715.3645
 31
0.0
  0
LINE
  5
164
330
1E
100
AcDbEntity
  8
0
100
AcDbLine
 10
1.35423999999998
 20
708.5644999999999
 30
0.0
 11
1.507179999999979
 21
708.0644999999999
 31
0.0
  0
LINE
  5
166
330
1E
100
AcDbEntity
  8
0
100
AcDbLine
 10
1.507179999999979
 20
708.0644999999999
 30
0.0
 11
1.50718999999998
 21
707.0644999999999
 31
0.0
  0
LINE
  5
169
330
1E
100
AcDbEntity
  8
0
100
AcDbLine
 10
3.364429999999979
 20
713.3645
 30
0.0
 11
3.94575999999998
 21
713.3645
 31
0.0
  0
LINE
  5
16A
330
1E
100
AcDbEntity
  8
0
100
AcDbLine
 10
3.364429999999979
 20
713.3645
 30
0.0
 11
3.69592123778499
 21
713.3645
 31
0.0
  0
LINE
  5
16B
330
1E
100
AcDbEntity
  8
0
100
AcDbLine
 10
3.073879999999979
 20
708.0644999999999
 30
0.0
 11
3.364449999999979
 21
708.5644999999999
 31
0.0
  0
LINE
  5
16C
330
1E
100
AcDbEntity
  8
0
100
AcDbLine
 10
3.073849999999979
 20
707.0644999999999
 30
0.0
 11
3.364429999999979
 21
706.5644999999999
 31
0.0
  0
LINE
  5
16D
330
1E
100
AcDbEntity
  8
0
100
AcDbLine
 10
3.073849999999979
 20
707.0644999999999
 30
0.0
 11
3.073879999999979
 21
708.0644999999999
 31
0.0
  0
LINE
  5
16E
330
1E
100
AcDbEntity
  8
0
100
AcDbLine
 10
3.364449999999979
 20
708.5644999999999
 30
0.0
 11
3.945739999999979
 21
708.5644999999999
 31
0.0
  0
LINE
  5
16F
330
1E
100
AcDbEntity
  8
0
100
AcDbLine
 10
3.364449999999979
 20
715.3645
 30
0.0
 11
3.945739999999979
 21
715.3645
 31
0.0
  0
LINE
  5
170
330
1E
100
AcDbEntity
  8
0
100
AcDbLine
 10
4.23632999999998
 20
713.8645
 30
0.0
 11
4.236359999999979
 21
714.8645
 31
0.0
  0
LINE
  5
172
330
1E
100
AcDbEntity
  8
0
100
AcDbLine
 10
3.94575999999998
 20
713.3645
 30
0.0
 11
4.24425999999998
 21
713.3645
 31
0.0
  0
LINE
  5
173
330
1E
100
AcDbEntity
  8
0
100
AcDbLine
 10
3.94575999999998
 20
713.3645
 30
0.0
 11
4.23632999999998
 21
713.8645
 31
0.0
  0
LINE
  5
174
330
1E
100
AcDbEntity
  8
0
100
AcDbLine
 10
3.945739999999979
 20
715.3645
 30
0.0
 11
4.24425999999998
 21
715.3645
 31
0.0
  0
LINE
  5
175
330
1E
100
AcDbEntity
  8
0
100
AcDbLine
 10
3.945739999999979
 20
715.3645
 30
0.0
 11
4.236359999999979
 21
714.8645
 31
0.0
  0
LINE
  5
176
330
1E
100
AcDbEntity
  8
0
100
AcDbLine
 10
3.945739999999979
 20
708.5644999999999
 30
0.0
 11
4.236359999999979
 21
708.0644999999999
 31
0.0
  0
LINE
  5
177
330
1E
100
AcDbEntity
  8
0
100
AcDbLine
 10
3.945739999999979
 20
708.5644999999999
 30
0.0
 11
4.24425999999998
 21
708.5644999999999
 31
0.0
  0
LINE
  5
17A
330
1E
100
AcDbEntity
  8
0
100
AcDbLine
 10
4.23632999999998
 20
707.0644999999999
 30
0.0
 11
4.236359999999979
 21
708.0644999999999
 31
0.0
  0
LINE
  5
17C
330
1E
100
AcDbEntity
  8
0
100
AcDbLine
 10
3.94575999999998
 20
706.5644999999999
 30
0.0
 11
4.23632999999998
 21
707.0644999999999
 31
0.0
  0
LINE
  5
17D
330
1E
100
AcDbEntity
  8
0
100
AcDbLine
 10
3.94575999999998
 20
706.5644999999999
 30
0.0
 11
4.24425999999998
 21
706.5644999999999
 31
0.0
  0
LINE
  5
17E
330
1E
100
AcDbEntity
  8
0
100
AcDbLine
 10
3.364429999999979
 20
706.5644999999999
 30
0.0
 11
3.94575999999998
 21
706.5644999999999
 31
0.0
  0
LINE
  5
17F
330
1E
100
AcDbEntity
  8
0
100
AcDbLine
 10
3.364429999999979
 20
706.5644999999999
 30
0.0
 11
3.611751856677499
 21
706.5644999999999
 31
0.0
  0
LINE
  5
180
330
1E
100
AcDbEntity
  8
0
100
AcDbLine
 10
0.8954199999999769
 20
720.6644999999999
 30
0.0
 11
1.048359999999979
 21
720.1645
 31
0.0
  0
LINE
  5
182
330
1E
100
AcDbEntity
  8
0
100
AcDbLine
 10
1.35425999999998
 20
720.1645
 30
0.0
 11
1.50718999999998
 21
720.6644999999999
 31
0.0
  0
LINE
  5
184
330
1E
100
AcDbEntity
  8
0
100
AcDbLine
 10
1.048359999999979
 20
720.1645
 30
0.0
 11
1.35425999999998
 21
720.1645
 31
0.0
  0
LINE
  5
185
330
1E
100
AcDbEntity
  8
0
100
AcDbLine
 10
1.048359999999979
 20
720.1645
 30
0.0
 11
1.83579999999998
 21
720.1645
 31
0.0
  0
LINE
  5
186
330
1E
100
AcDbEntity
  8
0
100
AcDbLine
 10
0.8954099999999771
 20
721.6644999999999
 30
0.0
 11
1.04837999999998
 21
722.1644999999999
 31
0.0
  0
LINE
  5
187
330
1E
100
AcDbEntity
  8
0
100
AcDbLine
 10
0.8954099999999771
 20
721.6644999999999
 30
0.0
 11
0.8954199999999769
 21
720.6644999999999
 31
0.0
  0
LINE
  5
188
330
1E
100
AcDbEntity
  8
0
100
AcDbLine
 10
0.8954199999999781
 20
727.4645
 30
0.0
 11
1.048359999999979
 21
726.9645
 31
0.0
  0
LINE
  5
189
330
1E
100
AcDbEntity
  8
0
100
AcDbLine
 10
0.895409999999978
 20
728.4645
 30
0.0
 11
1.04837999999998
 21
728.9645
 31
0.0
  0
LINE
  5
18A
330
1E
100
AcDbEntity
  8
0
100
AcDbLine
 10
0.895409999999978
 20
728.4645
 30
0.0
 11
0.8954199999999781
 21
727.4645
 31
0.0
  0
LINE
  5
18B
330
1E
100
AcDbEntity
  8
0
100
AcDbLine
 10
1.048359999999979
 20
726.9645
 30
0.0
 11
1.35425999999998
 21
726.9645
 31
0.0
  0
LINE
  5
18C
330
1E
100
AcDbEntity
  8
0
100
AcDbLine
 10
1.048359999999979
 20
726.9645
 30
0.0
 11
1.83579999999998
 21
726.9645
 31
0.0
  0
LINE
  5
18D
330
1E
100
AcDbEntity
  8
0
100
AcDbLine
 10
1.04837999999998
 20
728.9645
 30
0.0
 11
1.35423999999998
 21
728.9645
 31
0.0
  0
LINE
  5
18E
330
1E
100
AcDbEntity
  8
0
100
AcDbLine
 10
1.04837999999998
 20
722.1644999999999
 30
0.0
 11
1.35423999999998
 21
722.1644999999999
 31
0.0
  0
LINE
  5
191
330
1E
100
AcDbEntity
  8
0
100
AcDbLine
 10
1.35425999999998
 20
726.9645
 30
0.0
 11
1.50718999999998
 21
727.4645
 31
0.0
  0
LINE
  5
193
330
1E
100
AcDbEntity
  8
0
100
AcDbLine
 10
1.35423999999998
 20
728.9645
 30
0.0
 11
1.507179999999979
 21
728.4645
 31
0.0
  0
LINE
  5
195
330
1E
100
AcDbEntity
  8
0
100
AcDbLine
 10
1.507179999999979
 20
728.4645
 30
0.0
 11
1.50718999999998
 21
727.4645
 31
0.0
  0
LINE
  5
197
330
1E
100
AcDbEntity
  8
0
100
AcDbLine
 10
3.073849999999979
 20
727.4645
 30
0.0
 11
3.364429999999979
 21
726.9645
 31
0.0
  0
LINE
  5
198
330
1E
100
AcDbEntity
  8
0
100
AcDbLine
 10
3.073849999999979
 20
727.4645
 30
0.0
 11
3.073879999999979
 21
728.4645
 31
0.0
  0
LINE
  5
199
330
1E
100
AcDbEntity
  8
0
100
AcDbLine
 10
1.35423999999998
 20
722.1644999999999
 30
0.0
 11
1.507179999999979
 21
721.6644999999999
 31
0.0
  0
LINE
  5
19B
330
1E
100
AcDbEntity
  8
0
100
AcDbLine
 10
1.507179999999979
 20
721.6644999999999
 30
0.0
 11
1.50718999999998
 21
720.6644999999999
 31
0.0
  0
LINE
  5
19D
330
1E
100
AcDbEntity
  8
0
100
AcDbLine
 10
3.073879999999979
 20
728.4645
 30
0.0
 11
3.364449999999979
 21
728.9645
 31
0.0
  0
LINE
  5
19E
330
1E
100
AcDbEntity
  8
0
100
AcDbLine
 10
3.073879999999979
 20
721.6644999999999
 30
0.0
 11
3.364449999999979
 21
722.1644999999999
 31
0.0
  0
LINE
  5
19F
330
1E
100
AcDbEntity
  8
0
100
AcDbLine
 10
3.073849999999979
 20
720.6644999999999
 30
0.0
 11
3.364429999999979
 21
720.1645
 31
0.0
  0
LINE
  5
1A0
330
1E
100
AcDbEntity
  8
0
100
AcDbLine
 10
3.073849999999979
 20
720.6644999999999
 30
0.0
 11
3.073879999999979
 21
721.6644999999999
 31
0.0
  0
LINE
  5
1A1
330
1E
100
AcDbEntity
  8
0
100
AcDbLine
 10
3.364449999999979
 20
722.1644999999999
 30
0.0
 11
3.945739999999979
 21
722.1644999999999
 31
0.0
  0
LINE
  5
1A2
330
1E
100
AcDbEntity
  8
0
100
AcDbLine
 10
3.364449999999979
 20
728.9645
 30
0.0
 11
3.945739999999979
 21
728.9645
 31
0.0
  0
LINE
  5
1A3
330
1E
100
AcDbEntity
  8
0
100
AcDbLine
 10
3.945739999999979
 20
728.9645
 30
0.0
 11
4.236359999999979
 21
728.4645
 31
0.0
  0
LINE
  5
1A4
330
1E
100
AcDbEntity
  8
0
100
AcDbLine
 10
3.945739999999979
 20
728.9645
 30
0.0
 11
4.24425999999998
 21
728.9645
 31
0.0
  0
LINE
  5
1A5
330
1E
100
AcDbEntity
  8
0
100
AcDbLine
 10
4.23632999999998
 20
727.4645
 30
0.0
 11
4.236359999999979
 21
728.4645
 31
0.0
  0
LINE
  5
1A7
330
1E
100
AcDbEntity
  8
0
100
AcDbLine
 10
3.94575999999998
 20
726.9645
 30
0.0
 11
4.23632999999998
 21
727.4645
 31
0.0
  0
LINE
  5
1A8
330
1E
100
AcDbEntity
  8
0
100
AcDbLine
 10
3.94575999999998
 20
726.9645
 30
0.0
 11
4.24425999999998
 21
726.9645
 31
0.0
  0
LINE
  5
1A9
330
1E
100
AcDbEntity
  8
0
100
AcDbLine
 10
3.364429999999979
 20
726.9645
 30
0.0
 11
3.94575999999998
 21
726.9645
 31
0.0
  0
LINE
  5
1AA
330
1E
100
AcDbEntity
  8
0
100
AcDbLine
 10
3.364429999999979
 20
726.9645
 30
0.0
 11
3.864259999999979
 21
726.9645
 31
0.0
  0
LINE
  5
1AB
330
1E
100
AcDbEntity
  8
0
100
AcDbLine
 10
3.945739999999979
 20
722.1644999999999
 30
0.0
 11
4.236359999999979
 21
721.6644999999999
 31
0.0
  0
LINE
  5
1AC
330
1E
100
AcDbEntity
  8
0
100
AcDbLine
 10
3.945739999999979
 20
722.1644999999999
 30
0.0
 11
4.24425999999998
 21
722.1644999999999
 31
0.0
  0
LINE
  5
1AF
330
1E
100
AcDbEntity
  8
0
100
AcDbLine
 10
4.23632999999998
 20
720.6644999999999
 30
0.0
 11
4.236359999999979
 21
721.6644999999999
 31
0.0
  0
LINE
  5
1B1
330
1E
100
AcDbEntity
  8
0
100
AcDbLine
 10
3.94575999999998
 20
720.1645
 30
0.0
 11
4.23632999999998
 21
720.6644999999999
 31
0.0
  0
LINE
  5
1B2
330
1E
100
AcDbEntity
  8
0
100
AcDbLine
 10
3.94575999999998
 20
720.1645
 30
0.0
 11
4.24425999999998
 21
720.1645
 31
0.0
  0
LINE
  5
1B3
330
1E
100
AcDbEntity
  8
0
100
AcDbLine
 10
3.364429999999979
 20
720.1645
 30
0.0
 11
3.94575999999998
 21
720.1645
 31
0.0
  0
LINE
  5
1B4
330
1E
100
AcDbEntity
  8
0
100
AcDbLine
 10
3.364429999999979
 20
720.1645
 30
0.0
 11
3.78009061889249
 21
720.1645
 31
0.0
  0
LINE
  5
1B5
330
1E
100
AcDbEntity
  8
0
100
AcDbLine
 10
0.8954199999999781
 20
734.2645
 30
0.0
 11
1.048359999999979
 21
733.7645
 31
0.0
  0
LINE
  5
1B6
330
1E
100
AcDbEntity
  8
0
100
AcDbLine
 10
1.048359999999979
 20
733.7645
 30
0.0
 11
1.35425999999998
 21
733.7645
 31
0.0
  0
LINE
  5
1B7
330
1E
100
AcDbEntity
  8
0
100
AcDbLine
 10
1.048359999999979
 20
733.7645
 30
0.0
 11
1.83579999999998
 21
733.7645
 31
0.0
  0
LINE
  5
1BA
330
1E
100
AcDbEntity
  8
0
100
AcDbLine
 10
1.35425999999998
 20
733.7645
 30
0.0
 11
1.50718999999998
 21
734.2645
 31
0.0
  0
LINE
  5
1BC
330
1E
100
AcDbEntity
  8
0
100
AcDbLine
 10
0.895409999999978
 20
735.2644999999999
 30
0.0
 11
1.04837999999998
 21
735.7644999999999
 31
0.0
  0
LINE
  5
1BD
330
1E
100
AcDbEntity
  8
0
100
AcDbLine
 10
0.895409999999978
 20
735.2644999999999
 30
0.0
 11
0.8954199999999781
 21
734.2645
 31
0.0
  0
LINE
  5
1BF
330
1E
100
AcDbEntity
  8
0
100
AcDbLine
 10
1.507179999999979
 20
735.2644999999999
 30
0.0
 11
1.50718999999998
 21
734.2645
 31
0.0
  0
LINE
  5
1C0
330
1E
100
AcDbEntity
  8
0
100
AcDbLine
 10
3.073849999999979
 20
734.2645
 30
0.0
 11
3.364429999999979
 21
733.7645
 31
0.0
  0
LINE
  5
1C1
330
1E
100
AcDbEntity
  8
0
100
AcDbLine
 10
3.073849999999979
 20
734.2645
 30
0.0
 11
3.073879999999979
 21
735.2644999999999
 31
0.0
  0
LINE
  5
1C3
330
1E
100
AcDbEntity
  8
0
100
AcDbLine
 10
4.23632999999998
 20
734.2645
 30
0.0
 11
4.236359999999979
 21
735.2644999999999
 31
0.0
  0
LINE
  5
1C5
330
1E
100
AcDbEntity
  8
0
100
AcDbLine
 10
3.94575999999998
 20
733.7645
 30
0.0
 11
4.24425999999998
 21
733.7645
 31
0.0
  0
LINE
  5
1C6
330
1E
100
AcDbEntity
  8
0
100
AcDbLine
 10
3.94575999999998
 20
733.7645
 30
0.0
 11
4.23632999999998
 21
734.2645
 31
0.0
  0
LINE
  5
1C7
330
1E
100
AcDbEntity
  8
0
100
AcDbLine
 10
3.364429999999979
 20
733.7645
 30
0.0
 11
3.94575999999998
 21
733.7645
 31
0.0
  0
LINE
  5
1C8
330
1E
100
AcDbEntity
  8
0
100
AcDbLine
 10
3.364429999999979
 20
733.7645
 30
0.0
 11
3.94842938110747
 21
733.7645
 31
0.0
  0
LINE
  5
1C9
330
1E
100
AcDbEntity
  8
0
100
AcDbLine
 10
1.04837999999998
 20
735.7644999999999
 30
0.0
 11
1.35423999999998
 21
735.7644999999999
 31
0.0
  0
LINE
  5
1CB
330
1E
100
AcDbEntity
  8
0
100
AcDbLine
 10
1.35423999999998
 20
735.7644999999999
 30
0.0
 11
1.507179999999979
 21
735.2644999999999
 31
0.0
  0
LINE
  5
1CD
330
1E
100
AcDbEntity
  8
0
100
AcDbLine
 10
1.35425999999998
 20
740.5644999999999
 30
0.0
 11
1.50718999999998
 21
741.0644999999999
 31
0.0
  0
LINE
  5
1CF
330
1E
100
AcDbEntity
  8
0
100
AcDbLine
 10
1.048359999999979
 20
740.5644999999999
 30
0.0
 11
1.83579999999998
 21
740.5644999999999
 31
0.0
  0
LINE
  5
1D0
330
1E
100
AcDbEntity
  8
0
100
AcDbLine
 10
1.048359999999979
 20
740.5644999999999
 30
0.0
 11
1.35425999999998
 21
740.5644999999999
 31
0.0
  0
LINE
  5
1D1
330
1E
100
AcDbEntity
  8
0
100
AcDbLine
 10
0.8954099999999789
 20
742.0644999999999
 30
0.0
 11
1.04837999999998
 21
742.5644999999999
 31
0.0
  0
LINE
  5
1D2
330
1E
100
AcDbEntity
  8
0
100
AcDbLine
 10
0.8954099999999789
 20
742.0644999999999
 30
0.0
 11
0.895419999999979
 21
741.0644999999999
 31
0.0
  0
LINE
  5
1D3
330
1E
100
AcDbEntity
  8
0
100
AcDbLine
 10
1.04837999999998
 20
742.5644999999999
 30
0.0
 11
1.35423999999998
 21
742.5644999999999
 31
0.0
  0
LINE
  5
1D4
330
1E
100
AcDbEntity
  8
0
100
AcDbLine
 10
1.35423999999998
 20
742.5644999999999
 30
0.0
 11
1.507179999999979
 21
742.0644999999999
 31
0.0
  0
LINE
  5
1D6
330
1E
100
AcDbEntity
  8
0
100
AcDbLine
 10
1.048359999999979
 20
747.3645
 30
0.0
 11
1.35425999999998
 21
747.3645
 31
0.0
  0
LINE
  5
1D7
330
1E
100
AcDbEntity
  8
0
100
AcDbLine
 10
1.048359999999979
 20
747.3645
 30
0.0
 11
1.83579999999998
 21
747.3645
 31
0.0
  0
LINE
  5
1D8
330
1E
100
AcDbEntity
  8
0
100
AcDbLine
 10
1.507179999999979
 20
742.0644999999999
 30
0.0
 11
1.50718999999998
 21
741.0644999999999
 31
0.0
  0
LINE
  5
1DB
330
1E
100
AcDbEntity
  8
0
100
AcDbLine
 10
1.35425999999998
 20
747.3645
 30
0.0
 11
1.50718999999998
 21
747.8645
 31
0.0
  0
LINE
  5
1DD
330
1E
100
AcDbEntity
  8
0
100
AcDbLine
 10
1.04837999999998
 20
749.3645
 30
0.0
 11
1.35423999999998
 21
749.3645
 31
0.0
  0
LINE
  5
1DF
330
1E
100
AcDbEntity
  8
0
100
AcDbLine
 10
1.35423999999998
 20
749.3645
 30
0.0
 11
1.507179999999979
 21
748.8644999999999
 31
0.0
  0
LINE
  5
1E0
330
1E
100
AcDbEntity
  8
0
100
AcDbLine
 10
0.8954099999999789
 20
748.8644999999999
 30
0.0
 11
0.895419999999979
 21
747.8645
 31
0.0
  0
LINE
  5
1E1
330
1E
100
AcDbEntity
  8
0
100
AcDbLine
 10
0.8954099999999789
 20
748.8644999999999
 30
0.0
 11
1.04837999999998
 21
749.3645
 31
0.0
  0
LINE
  5
1E2
330
1E
100
AcDbEntity
  8
0
100
AcDbLine
 10
0.895419999999979
 20
747.8645
 30
0.0
 11
1.048359999999979
 21
747.3645
 31
0.0
  0
LINE
  5
1E4
330
1E
100
AcDbEntity
  8
0
100
AcDbLine
 10
1.507179999999979
 20
748.8644999999999
 30
0.0
 11
1.50718999999998
 21
747.8645
 31
0.0
  0
LINE
  5
1E6
330
1E
100
AcDbEntity
  8
0
100
AcDbLine
 10
0.895419999999979
 20
741.0644999999999
 30
0.0
 11
1.048359999999979
 21
740.5644999999999
 31
0.0
  0
LINE
  5
1E7
330
1E
100
AcDbEntity
  8
0
100
AcDbLine
 10
3.073879999999979
 20
742.0644999999999
 30
0.0
 11
3.364449999999979
 21
742.5644999999999
 31
0.0
  0
LINE
  5
1E8
330
1E
100
AcDbEntity
  8
0
100
AcDbLine
 10
3.364449999999979
 20
742.5644999999999
 30
0.0
 11
3.945739999999979
 21
742.5644999999999
 31
0.0
  0
LINE
  5
1E9
330
1E
100
AcDbEntity
  8
0
100
AcDbLine
 10
3.364449999999979
 20
749.3645
 30
0.0
 11
3.945739999999979
 21
749.3645
 31
0.0
  0
LINE
  5
1EA
330
1E
100
AcDbEntity
  8
0
100
AcDbLine
 10
3.073879999999979
 20
748.8644999999999
 30
0.0
 11
3.364449999999979
 21
749.3645
 31
0.0
  0
LINE
  5
1EB
330
1E
100
AcDbEntity
  8
0
100
AcDbLine
 10
3.364429999999979
 20
747.3645
 30
0.0
 11
3.94575999999998
 21
747.3645
 31
0.0
  0
LINE
  5
1EC
330
1E
100
AcDbEntity
  8
0
100
AcDbLine
 10
3.364429999999979
 20
747.3645
 30
0.0
 11
3.977359999999979
 21
747.3645
 31
0.0
  0
LINE
  5
1ED
330
1E
100
AcDbEntity
  8
0
100
AcDbLine
 10
3.073849999999979
 20
747.8645
 30
0.0
 11
3.364429999999979
 21
747.3645
 31
0.0
  0
LINE
  5
1EE
330
1E
100
AcDbEntity
  8
0
100
AcDbLine
 10
3.073849999999979
 20
747.8645
 30
0.0
 11
3.073879999999979
 21
748.8644999999999
 31
0.0
  0
LINE
  5
1EF
330
1E
100
AcDbEntity
  8
0
100
AcDbLine
 10
3.364429999999979
 20
740.5644999999999
 30
0.0
 11
3.94575999999998
 21
740.5644999999999
 31
0.0
  0
LINE
  5
1F0
330
1E
100
AcDbEntity
  8
0
100
AcDbLine
 10
3.364429999999979
 20
740.5644999999999
 30
0.0
 11
3.977359999999979
 21
740.5644999999999
 31
0.0
  0
LINE
  5
1F1
330
1E
100
AcDbEntity
  8
0
100
AcDbLine
 10
3.073849999999979
 20
741.0644999999999
 30
0.0
 11
3.364429999999979
 21
740.5644999999999
 31
0.0
  0
LINE
  5
1F2
330
1E
100
AcDbEntity
  8
0
100
AcDbLine
 10
3.073849999999979
 20
741.0644999999999
 30
0.0
 11
3.073879999999979
 21
742.0644999999999
 31
0.0
  0
LINE
  5
1F3
330
1E
100
AcDbEntity
  8
0
100
AcDbLine
 10
3.364449999999979
 20
735.7644999999999
 30
0.0
 11
3.945739999999979
 21
735.7644999999999
 31
0.0
  0
LINE
  5
1F4
330
1E
100
AcDbEntity
  8
0
100
AcDbLine
 10
3.945739999999979
 20
742.5644999999999
 30
0.0
 11
4.236359999999979
 21
742.0644999999999
 31
0.0
  0
LINE
  5
1F5
330
1E
100
AcDbEntity
  8
0
100
AcDbLine
 10
3.945739999999979
 20
742.5644999999999
 30
0.0
 11
4.24425999999998
 21
742.5644999999999
 31
0.0
  0
LINE
  5
1F6
330
1E
100
AcDbEntity
  8
0
100
AcDbLine
 10
3.94575999999998
 20
747.3645
 30
0.0
 11
4.23632999999998
 21
747.8645
 31
0.0
  0
LINE
  5
1F7
330
1E
100
AcDbEntity
  8
0
100
AcDbLine
 10
3.94575999999998
 20
747.3645
 30
0.0
 11
4.24425999999998
 21
747.3645
 31
0.0
  0
LINE
  5
1F8
330
1E
100
AcDbEntity
  8
0
100
AcDbLine
 10
3.945739999999979
 20
749.3645
 30
0.0
 11
4.24425999999998
 21
749.3645
 31
0.0
  0
LINE
  5
1F9
330
1E
100
AcDbEntity
  8
0
100
AcDbLine
 10
3.945739999999979
 20
749.3645
 30
0.0
 11
4.236359999999979
 21
748.8644999999999
 31
0.0
  0
LINE
  5
1FB
330
1E
100
AcDbEntity
  8
0
100
AcDbLine
 10
4.23632999999998
 20
747.8645
 30
0.0
 11
4.236359999999979
 21
748.8644999999999
 31
0.0
  0
LINE
  5
1FF
330
1E
100
AcDbEntity
  8
0
100
AcDbLine
 10
4.23632999999998
 20
741.0644999999999
 30
0.0
 11
4.236359999999979
 21
742.0644999999999
 31
0.0
  0
LINE
  5
200
330
1E
100
AcDbEntity
  8
0
100
AcDbLine
 10
3.94575999999998
 20
740.5644999999999
 30
0.0
 11
4.23632999999998
 21
741.0644999999999
 31
0.0
  0
LINE
  5
201
330
1E
100
AcDbEntity
  8
0
100
AcDbLine
 10
3.94575999999998
 20
740.5644999999999
 30
0.0
 11
4.24425999999998
 21
740.5644999999999
 31
0.0
  0
LINE
  5
202
330
1E
100
AcDbEntity
  8
0
100
AcDbLine
 10
3.945739999999979
 20
735.7644999999999
 30
0.0
 11
4.24425999999998
 21
735.7644999999999
 31
0.0
  0
LINE
  5
203
330
1E
100
AcDbEntity
  8
0
100
AcDbLine
 10
3.945739999999979
 20
735.7644999999999
 30
0.0
 11
4.236359999999979
 21
735.2644999999999
 31
0.0
  0
LINE
  5
204
330
1E
100
AcDbEntity
  8
0
100
AcDbLine
 10
3.945739999999979
 20
735.7644999999999
 30
0.0
 11
4.24425999999998
 21
735.7644999999999
 31
0.0
  0
LINE
  5
205
330
1E
100
AcDbEntity
  8
0
100
AcDbLine
 10
3.073879999999979
 20
735.2644999999999
 30
0.0
 11
3.364449999999979
 21
735.7644999999999
 31
0.0
  0
LINE
  5
206
330
1E
100
AcDbEntity
  8
0
100
AcDbLine
 10
0.744259999999979
 20
742.5644999999999
 30
0.0
 11
0.744259999999979
 21
747.3645
 31
0.0
  0
LINE
  5
207
330
1E
100
AcDbEntity
  8
0
100
AcDbLine
 10
0.895419999999979
 20
754.6644999999999
 30
0.0
 11
1.048359999999979
 21
754.1644999999999
 31
0.0
  0
LINE
  5
208
330
1E
100
AcDbEntity
  8
0
100
AcDbLine
 10
1.048359999999979
 20
754.1644999999999
 30
0.0
 11
1.35425999999998
 21
754.1644999999999
 31
0.0
  0
LINE
  5
209
330
1E
100
AcDbEntity
  8
0
100
AcDbLine
 10
1.048359999999979
 20
754.1644999999999
 30
0.0
 11
1.83579999999998
 21
754.1644999999999
 31
0.0
  0
LINE
  5
20A
330
1E
100
AcDbEntity
  8
0
100
AcDbLine
 10
1.04837999999998
 20
756.1644999999999
 30
0.0
 11
1.35423999999998
 21
756.1644999999999
 31
0.0
  0
LINE
  5
20B
330
1E
100
AcDbEntity
  8
0
100
AcDbLine
 10
0.8954099999999801
 20
755.6644999999999
 30
0.0
 11
1.04837999999998
 21
756.1644999999999
 31
0.0
  0
LINE
  5
20C
330
1E
100
AcDbEntity
  8
0
100
AcDbLine
 10
0.8954099999999801
 20
755.6644999999999
 30
0.0
 11
0.895419999999979
 21
754.6644999999999
 31
0.0
  0
LINE
  5
20D
330
1E
100
AcDbEntity
  8
0
100
AcDbLine
 10
1.35425999999998
 20
754.1644999999999
 30
0.0
 11
1.50718999999998
 21
754.6644999999999
 31
0.0
  0
LINE
  5
20F
330
1E
100
AcDbEntity
  8
0
100
AcDbLine
 10
3.94575999999998
 20
754.1644999999999
 30
0.0
 11
4.23632999999998
 21
754.6644999999999
 31
0.0
  0
LINE
  5
210
330
1E
100
AcDbEntity
  8
0
100
AcDbLine
 10
3.94575999999998
 20
754.1644999999999
 30
0.0
 11
4.24425999999998
 21
754.1644999999999
 31
0.0
  0
LINE
  5
211
330
1E
100
AcDbEntity
  8
0
100
AcDbLine
 10
3.364429999999979
 20
754.1644999999999
 30
0.0
 11
3.94575999999998
 21
754.1644999999999
 31
0.0
  0
LINE
  5
212
330
1E
100
AcDbEntity
  8
0
100
AcDbLine
 10
3.364429999999979
 20
754.1644999999999
 30
0.0
 11
3.977359999999979
 21
754.1644999999999
 31
0.0
  0
LINE
  5
213
330
1E
100
AcDbEntity
  8
0
100
AcDbLine
 10
3.073849999999979
 20
754.6644999999999
 30
0.0
 11
3.073879999999979
 21
755.6644999999999
 31
0.0
  0
LINE
  5
214
330
1E
100
AcDbEntity
  8
0
100
AcDbLine
 10
3.073849999999979
 20
754.6644999999999
 30
0.0
 11
3.364429999999979
 21
754.1644999999999
 31
0.0
  0
LINE
  5
216
330
1E
100
AcDbEntity
  8
0
100
AcDbLine
 10
3.073879999999979
 20
755.6644999999999
 30
0.0
 11
3.364449999999979
 21
756.1644999999999
 31
0.0
  0
LINE
  5
217
330
1E
100
AcDbEntity
  8
0
100
AcDbLine
 10
3.364449999999979
 20
756.1644999999999
 30
0.0
 11
3.945739999999979
 21
756.1644999999999
 31
0.0
  0
LINE
  5
218
330
1E
100
AcDbEntity
  8
0
100
AcDbLine
 10
3.945739999999979
 20
756.1644999999999
 30
0.0
 11
4.236359999999979
 21
755.6644999999999
 31
0.0
  0
LINE
  5
219
330
1E
100
AcDbEntity
  8
0
100
AcDbLine
 10
3.945739999999979
 20
756.1644999999999
 30
0.0
 11
4.24425999999998
 21
756.1644999999999
 31
0.0
  0
LINE
  5
21A
330
1E
100
AcDbEntity
  8
0
100
AcDbLine
 10
1.35423999999998
 20
756.1644999999999
 30
0.0
 11
1.507179999999979
 21
755.6644999999999
 31
0.0
  0
LINE
  5
21C
330
1E
100
AcDbEntity
  8
0
100
AcDbLine
 10
1.507179999999979
 20
755.6644999999999
 30
0.0
 11
1.50718999999998
 21
754.6644999999999
 31
0.0
  0
LINE
  5
220
330
1E
100
AcDbEntity
  8
0
100
AcDbLine
 10
4.23632999999998
 20
754.6644999999999
 30
0.0
 11
4.236359999999979
 21
755.6644999999999
 31
0.0
  0
LINE
  5
221
330
1E
100
AcDbEntity
  8
0
100
AcDbLine
 10
4.24425999999998
 20
757.6645
 30
0.0
 11
6.744259999999981
 21
757.6645
 31
0.0
  0
LINE
  5
222
330
1E
100
AcDbEntity
  8
0
100
AcDbLine
 10
6.744259999999981
 20
757.6645
 30
0.0
 11
9.644259999999981
 21
757.6645
 31
0.0
  0
LINE
  5
223
330
1E
100
AcDbEntity
  8
0
100
AcDbLine
 10
21.24426
 20
757.6645
 30
0.0
 11
23.14426
 21
757.6645
 31
0.0
  0
LINE
  5
224
330
1E
100
AcDbEntity
  8
0
100
AcDbLine
 10
23.14426
 20
757.6645
 30
0.0
 11
24.34426
 21
757.6645
 31
0.0
  0
LINE
  5
225
330
1E
100
AcDbEntity
  8
0
100
AcDbLine
 10
24.34426
 20
757.6645
 30
0.0
 11
24.74426
 21
757.6645
 31
0.0
  0
LINE
  5
226
330
1E
100
AcDbEntity
  8
0
100
AcDbLine
 10
18.74426
 20
757.6645
 30
0.0
 11
21.24426
 21
757.6645
 31
0.0
  0
LINE
  5
227
330
1E
100
AcDbEntity
  8
0
100
AcDbLine
 10
15.84426
 20
757.6645
 30
0.0
 11
18.74426
 21
757.6645
 31
0.0
  0
LINE
  5
228
330
1E
100
AcDbEntity
  8
0
100
AcDbLine
 10
12.74426
 20
757.6645
 30
0.0
 11
15.84426
 21
757.6645
 31
0.0
  0
LINE
  5
229
330
1E
100
AcDbEntity
  8
0
100
AcDbLine
 10
9.644259999999981
 20
757.6645
 30
0.0
 11
12.74426
 21
757.6645
 31
0.0
  0
LINE
  5
22A
330
1E
100
AcDbEntity
  8
0
100
AcDbLine
 10
2.34425999999998
 20
757.6645
 30
0.0
 11
4.24425999999998
 21
757.6645
 31
0.0
  0
LINE
  5
22B
330
1E
100
AcDbEntity
  8
0
100
AcDbLine
 10
1.14425999999998
 20
757.6645
 30
0.0
 11
2.34425999999998
 21
757.6645
 31
0.0
  0
LINE
  5
22C
330
1E
100
AcDbEntity
  8
0
100
AcDbLine
 10
1.14425999999998
 20
777.6645
 30
0.0
 11
2.34425999999998
 21
777.6645
 31
0.0
  0
LINE
  5
22D
330
1E
100
AcDbEntity
  8
0
100
AcDbLine
 10
1.14425999999998
 20
758.6644999999999
 30
0.0
 11
2.34425999999998
 21
758.6644999999999
 31
0.0
  0
LINE
  5
22E
330
1E
100
AcDbEntity
  8
0
100
AcDbLine
 10
4.94425999999998
 20
758.1644999999999
 30
0.0
 11
7.244259999999981
 21
758.1644999999999
 31
0.0
  0
LINE
  5
22F
330
1E
100
AcDbEntity
  8
0
100
AcDbLine
 10
20.54426
 20
758.1644999999999
 30
0.0
 11
22.24426
 21
758.1644999999999
 31
0.0
  0
LINE
  5
230
330
1E
100
AcDbEntity
  8
0
100
AcDbLine
 10
22.24426
 20
758.1644999999999
 30
0.0
 11
23.34426
 21
758.1644999999999
 31
0.0
  0
LINE
  5
231
330
1E
100
AcDbEntity
  8
0
100
AcDbLine
 10
23.74426
 20
758.1644999999999
 30
0.0
 11
24.74426
 21
757.6645
 31
0.0
  0
LINE
  5
232
330
1E
100
AcDbEntity
  8
0
100
AcDbLine
 10
23.74426
 20
758.1644999999999
 30
0.0
 11
24.74426
 21
758.6644999999999
 31
0.0
  0
LINE
  5
233
330
1E
100
AcDbEntity
  8
0
100
AcDbLine
 10
23.34426
 20
758.1644999999999
 30
0.0
 11
23.74426
 21
758.1644999999999
 31
0.0
  0
LINE
  5
234
330
1E
100
AcDbEntity
  8
0
100
AcDbLine
 10
18.24426
 20
758.1644999999999
 30
0.0
 11
20.54426
 21
758.1644999999999
 31
0.0
  0
LINE
  5
235
330
1E
100
AcDbEntity
  8
0
100
AcDbLine
 10
15.54426
 20
758.1644999999999
 30
0.0
 11
18.24426
 21
758.1644999999999
 31
0.0
  0
LINE
  5
236
330
1E
100
AcDbEntity
  8
0
100
AcDbLine
 10
12.74426
 20
758.1644999999999
 30
0.0
 11
15.54426
 21
758.1644999999999
 31
0.0
  0
LINE
  5
237
330
1E
100
AcDbEntity
  8
0
100
AcDbLine
 10
7.244259999999981
 20
758.1644999999999
 30
0.0
 11
9.94425999999998
 21
758.1644999999999
 31
0.0
  0
LINE
  5
238
330
1E
100
AcDbEntity
  8
0
100
AcDbLine
 10
9.94425999999998
 20
758.1644999999999
 30
0.0
 11
12.74426
 21
758.1644999999999
 31
0.0
  0
LINE
  5
239
330
1E
100
AcDbEntity
  8
0
100
AcDbLine
 10
3.244259999999979
 20
758.1644999999999
 30
0.0
 11
4.94425999999998
 21
758.1644999999999
 31
0.0
  0
LINE
  5
23A
330
1E
100
AcDbEntity
  8
0
100
AcDbLine
 10
4.24425999999998
 20
758.6644999999999
 30
0.0
 11
6.744259999999981
 21
758.6644999999999
 31
0.0
  0
LINE
  5
23B
330
1E
100
AcDbEntity
  8
0
100
AcDbLine
 10
4.24425999999998
 20
777.6645
 30
0.0
 11
6.744259999999981
 21
777.6645
 31
0.0
  0
LINE
  5
23C
330
1E
100
AcDbEntity
  8
0
100
AcDbLine
 10
6.744259999999981
 20
777.6645
 30
0.0
 11
9.644259999999981
 21
777.6645
 31
0.0
  0
LINE
  5
23D
330
1E
100
AcDbEntity
  8
0
100
AcDbLine
 10
6.744259999999981
 20
758.6644999999999
 30
0.0
 11
9.644259999999981
 21
758.6644999999999
 31
0.0
  0
LINE
  5
23E
330
1E
100
AcDbEntity
  8
0
100
AcDbLine
 10
21.24426
 20
758.6644999999999
 30
0.0
 11
23.14426
 21
758.6644999999999
 31
0.0
  0
LINE
  5
23F
330
1E
100
AcDbEntity
  8
0
100
AcDbLine
 10
24.74426
 20
758.6644999999999
 30
0.0
 11
24.74426
 21
777.6645
 31
0.0
  0
LINE
  5
240
330
1E
100
AcDbEntity
  8
0
100
AcDbLine
 10
23.14426
 20
758.6644999999999
 30
0.0
 11
24.34426
 21
758.6644999999999
 31
0.0
  0
LINE
  5
241
330
1E
100
AcDbEntity
  8
0
100
AcDbLine
 10
24.34426
 20
758.6644999999999
 30
0.0
 11
24.74426
 21
758.6644999999999
 31
0.0
  0
LINE
  5
242
330
1E
100
AcDbEntity
  8
0
100
AcDbLine
 10
18.74426
 20
758.6644999999999
 30
0.0
 11
21.24426
 21
758.6644999999999
 31
0.0
  0
LINE
  5
243
330
1E
100
AcDbEntity
  8
0
100
AcDbLine
 10
21.24426
 20
777.6645
 30
0.0
 11
23.14426
 21
777.6645
 31
0.0
  0
LINE
  5
244
330
1E
100
AcDbEntity
  8
0
100
AcDbLine
 10
24.74426
 20
777.6645
 30
0.0
 11
24.74426
 21
758.6644999999999
 31
0.0
  0
LINE
  5
245
330
1E
100
AcDbEntity
  8
0
100
AcDbLine
 10
23.14426
 20
777.6645
 30
0.0
 11
24.34426
 21
777.6645
 31
0.0
  0
LINE
  5
246
330
1E
100
AcDbEntity
  8
0
100
AcDbLine
 10
24.34426
 20
777.6645
 30
0.0
 11
24.74426
 21
777.6645
 31
0.0
  0
LINE
  5
247
330
1E
100
AcDbEntity
  8
0
100
AcDbLine
 10
18.74426
 20
777.6645
 30
0.0
 11
21.24426
 21
777.6645
 31
0.0
  0
LINE
  5
248
330
1E
100
AcDbEntity
  8
0
100
AcDbLine
 10
15.84426
 20
777.6645
 30
0.0
 11
18.74426
 21
777.6645
 31
0.0
  0
LINE
  5
249
330
1E
100
AcDbEntity
  8
0
100
AcDbLine
 10
12.74426
 20
777.6645
 30
0.0
 11
15.84426
 21
777.6645
 31
0.0
  0
LINE
  5
24A
330
1E
100
AcDbEntity
  8
0
100
AcDbLine
 10
15.84426
 20
758.6644999999999
 30
0.0
 11
18.74426
 21
758.6644999999999
 31
0.0
  0
LINE
  5
24B
330
1E
100
AcDbEntity
  8
0
100
AcDbLine
 10
12.74426
 20
758.6644999999999
 30
0.0
 11
15.84426
 21
758.6644999999999
 31
0.0
  0
LINE
  5
24C
330
1E
100
AcDbEntity
  8
0
100
AcDbLine
 10
9.644259999999981
 20
777.6645
 30
0.0
 11
12.74426
 21
777.6645
 31
0.0
  0
LINE
  5
24D
330
1E
100
AcDbEntity
  8
0
100
AcDbLine
 10
9.644259999999981
 20
758.6644999999999
 30
0.0
 11
12.74426
 21
758.6644999999999
 31
0.0
  0
LINE
  5
24E
330
1E
100
AcDbEntity
  8
0
100
AcDbLine
 10
2.34425999999998
 20
777.6645
 30
0.0
 11
4.24425999999998
 21
777.6645
 31
0.0
  0
LINE
  5
24F
330
1E
100
AcDbEntity
  8
0
100
AcDbLine
 10
2.34425999999998
 20
758.6644999999999
 30
0.0
 11
4.24425999999998
 21
758.6644999999999
 31
0.0
  0
LINE
  5
250
330
1E
100
AcDbEntity
  8
0
100
AcDbLine
 10
2.14425999999998
 20
758.1644999999999
 30
0.0
 11
3.244259999999979
 21
758.1644999999999
 31
0.0
  0
LINE
  5
251
330
1E
100
AcDbEntity
  8
0
100
AcDbLine
 10
1.744259999999979
 20
758.1644999999999
 30
0.0
 11
2.14425999999998
 21
758.1644999999999
 31
0.0
  0
LINE
  5
252
330
1E
100
AcDbEntity
  8
0
100
AcDbLine
 10
4.64425999999998
 20
778.1645
 30
0.0
 11
7.04425999999998
 21
778.1645
 31
0.0
  0
LINE
  5
253
330
1E
100
AcDbEntity
  8
0
100
AcDbLine
 10
20.84426
 20
778.1645
 30
0.0
 11
22.74426
 21
778.1645
 31
0.0
  0
LINE
  5
254
330
1E
100
AcDbEntity
  8
0
100
AcDbLine
 10
22.74426
 20
778.1645
 30
0.0
 11
23.84426
 21
778.1645
 31
0.0
  0
LINE
  5
255
330
1E
100
AcDbEntity
  8
0
100
AcDbLine
 10
24.24426
 20
778.1645
 30
0.0
 11
24.74426
 21
777.6645
 31
0.0
  0
LINE
  5
256
330
1E
100
AcDbEntity
  8
0
100
AcDbLine
 10
23.84426
 20
778.1645
 30
0.0
 11
24.24426
 21
778.1645
 31
0.0
  0
LINE
  5
257
330
1E
100
AcDbEntity
  8
0
100
AcDbLine
 10
18.44426
 20
778.1645
 30
0.0
 11
20.84426
 21
778.1645
 31
0.0
  0
LINE
  5
258
330
1E
100
AcDbEntity
  8
0
100
AcDbLine
 10
15.74426
 20
778.1645
 30
0.0
 11
18.44426
 21
778.1645
 31
0.0
  0
LINE
  5
259
330
1E
100
AcDbEntity
  8
0
100
AcDbLine
 10
12.74426
 20
778.1645
 30
0.0
 11
15.74426
 21
778.1645
 31
0.0
  0
LINE
  5
25A
330
1E
100
AcDbEntity
  8
0
100
AcDbLine
 10
7.04425999999998
 20
778.1645
 30
0.0
 11
9.744259999999981
 21
778.1645
 31
0.0
  0
LINE
  5
25B
330
1E
100
AcDbEntity
  8
0
100
AcDbLine
 10
9.744259999999981
 20
778.1645
 30
0.0
 11
12.74426
 21
778.1645
 31
0.0
  0
LINE
  5
25C
330
1E
100
AcDbEntity
  8
0
100
AcDbLine
 10
2.744259999999979
 20
778.1645
 30
0.0
 11
4.64425999999998
 21
778.1645
 31
0.0
  0
LINE
  5
25D
330
1E
100
AcDbEntity
  8
0
100
AcDbLine
 10
1.64425999999998
 20
778.1645
 30
0.0
 11
2.744259999999979
 21
778.1645
 31
0.0
  0
LINE
  5
25E
330
1E
100
AcDbEntity
  8
0
100
AcDbLine
 10
1.244259999999979
 20
778.1645
 30
0.0
 11
1.64425999999998
 21
778.1645
 31
0.0
  0
LINE
  5
25F
330
1E
100
AcDbEntity
  8
0
100
AcDbLine
 10
0.744259999999981
 20
777.6645
 30
0.0
 11
1.244259999999979
 21
778.1645
 31
0.0
  0
LINE
  5
260
330
1E
100
AcDbEntity
  8
0
100
AcDbLine
 10
0.744259999999981
 20
777.6645
 30
0.0
 11
1.14425999999998
 21
777.6645
 31
0.0
  0
LINE
  5
261
330
1E
100
AcDbEntity
  8
0
100
AcDbLine
 10
0.7442599999999801
 20
758.6644999999999
 30
0.0
 11
1.744259999999979
 21
758.1644999999999
 31
0.0
  0
LINE
  5
262
330
1E
100
AcDbEntity
  8
0
100
AcDbLine
 10
0.7442599999999801
 20
758.6644999999999
 30
0.0
 11
0.744259999999981
 21
777.6645
 31
0.0
  0
LINE
  5
263
330
1E
100
AcDbEntity
  8
0
100
AcDbLine
 10
0.7442599999999801
 20
758.6644999999999
 30
0.0
 11
1.14425999999998
 21
758.6644999999999
 31
0.0
  0
LINE
  5
264
330
1E
100
AcDbEntity
  8
0
100
AcDbLine
 10
0.7442599999999801
 20
757.6645
 30
0.0
 11
1.744259999999979
 21
758.1644999999999
 31
0.0
  0
LINE
  5
265
330
1E
100
AcDbEntity
  8
0
100
AcDbLine
 10
0.7442599999999801
 20
757.6645
 30
0.0
 11
1.14425999999998
 21
757.6645
 31
0.0
  0
LINE
  5
266
330
1E
100
AcDbEntity
  8
0
100
AcDbLine
 10
0.744259999999979
 20
756.1644999999999
 30
0.0
 11
0.7442599999999801
 21
757.6645
 31
0.0
  0
LINE
  5
267
330
1E
100
AcDbEntity
  8
0
100
AcDbLine
 10
0.744259999999979
 20
749.3645
 30
0.0
 11
0.744259999999979
 21
754.1644999999999
 31
0.0
  0
LINE
  5
268
330
1E
100
AcDbEntity
  8
0
100
AcDbLine
 10
0.7442599999999781
 20
735.7644999999999
 30
0.0
 11
0.744259999999979
 21
740.5644999999999
 31
0.0
  0
LINE
  5
269
330
1E
100
AcDbEntity
  8
0
100
AcDbLine
 10
0.7442599999999781
 20
728.9645
 30
0.0
 11
0.7442599999999781
 21
733.7645
 31
0.0
  0
LINE
  5
26A
330
1E
100
AcDbEntity
  8
0
100
AcDbLine
 10
0.7442599999999771
 20
722.1644999999999
 30
0.0
 11
0.7442599999999781
 21
726.9645
 31
0.0
  0
LINE
  5
26B
330
1E
100
AcDbEntity
  8
0
100
AcDbLine
 10
0.7442599999999771
 20
715.3645
 30
0.0
 11
0.7442599999999771
 21
720.1645
 31
0.0
  0
LINE
  5
26C
330
1E
100
AcDbEntity
  8
0
100
AcDbLine
 10
0.7442599999999771
 20
708.5644999999999
 30
0.0
 11
0.7442599999999771
 21
713.3645
 31
0.0
  0
LINE
  5
26D
330
1E
100
AcDbEntity
  8
0
100
AcDbLine
 10
0.7442599999999761
 20
701.7644999999999
 30
0.0
 11
0.7442599999999761
 21
706.5644999999999
 31
0.0
  0
LINE
  5
26E
330
1E
100
AcDbEntity
  8
0
100
AcDbLine
 10
0.7442599999999761
 20
694.9645
 30
0.0
 11
0.7442599999999761
 21
699.7645
 31
0.0
  0
LINE
  5
26F
330
1E
100
AcDbEntity
  8
0
100
AcDbLine
 10
0.744259999999975
 20
688.1644999999999
 30
0.0
 11
0.7442599999999761
 21
692.9645
 31
0.0
  0
LINE
  5
270
330
1E
100
AcDbEntity
  8
0
100
AcDbLine
 10
0.74425999999997
 20
604.1644999999999
 30
0.0
 11
1.744259999999969
 21
603.1645
 31
0.0
  0
LINE
  5
271
330
1E
100
AcDbEntity
  8
0
100
AcDbLine
 10
0.74425999999997
 20
604.1644999999999
 30
0.0
 11
0.744259999999975
 21
686.1645
 31
0.0
  0
LINE
  5
272
330
1E
100
AcDbEntity
  8
0
100
AcDbLine
 10
0.74425999999997
 20
604.1644999999999
 30
0.0
 11
1.144259999999969
 21
604.1644999999999
 31
0.0
  0
LINE
  5
273
330
1E
100
AcDbEntity
  8
0
100
AcDbLine
 10
29.25556
 20
603.1645
 30
0.0
 11
31.05555999999999
 21
603.1645
 31
0.0
  0
LINE
  5
274
330
1E
100
AcDbEntity
  8
0
100
AcDbLine
 10
29.25556
 20
603.1645
 30
0.0
 11
29.25556
 21
583.1644999999999
 31
0.0
  0
LINE
  5
275
330
1E
100
AcDbEntity
  8
0
100
AcDbLine
 10
31.05555999999999
 20
603.1645
 30
0.0
 11
33.75555999999999
 21
603.1645
 31
0.0
  0
LINE
  5
277
330
1E
100
AcDbEntity
  8
0
100
AcDbLine
 10
31.05555999999999
 20
583.1644999999999
 30
0.0
 11
31.75556
 21
583.1644999999999
 31
0.0
  0
LINE
  5
279
330
1E
100
AcDbEntity
  8
0
100
AcDbLine
 10
31.05555999999999
 20
583.1644999999999
 30
0.0
 11
33.75555999999999
 21
583.1644999999999
 31
0.0
  0
LINE
  5
27A
330
1E
100
AcDbEntity
  8
0
100
AcDbLine
 10
32.2555599999999
 20
154.1645
 30
0.0
 11
33.6555599999999
 21
154.1645
 31
0.0
  0
LINE
  5
27B
330
1E
100
AcDbEntity
  8
0
100
AcDbLine
 10
33.6555599999999
 20
154.1645
 30
0.0
 11
35.85555999999989
 21
154.1645
 31
0.0
  0
LINE
  5
27C
330
1E
100
AcDbEntity
  8
0
100
AcDbLine
 10
35.85555999999989
 20
154.1645
 30
0.0
 11
38.7555599999999
 21
154.1645
 31
0.0
  0
LINE
  5
27D
330
1E
100
AcDbEntity
  8
0
100
AcDbLine
 10
32.2555599999999
 20
212.1645
 30
0.0
 11
33.6555599999999
 21
212.1645
 31
0.0
  0
LINE
  5
27E
330
1E
100
AcDbEntity
  8
0
100
AcDbLine
 10
33.6555599999999
 20
212.1645
 30
0.0
 11
35.85555999999989
 21
212.1645
 31
0.0
  0
LINE
  5
27F
330
1E
100
AcDbEntity
  8
0
100
AcDbLine
 10
35.85555999999989
 20
212.1645
 30
0.0
 11
38.7555599999999
 21
212.1645
 31
0.0
  0
LINE
  5
280
330
1E
100
AcDbEntity
  8
0
100
AcDbLine
 10
38.7555599999999
 20
212.1645
 30
0.0
 11
42.1555599999999
 21
212.1645
 31
0.0
  0
LINE
  5
281
330
1E
100
AcDbEntity
  8
0
100
AcDbLine
 10
42.1555599999999
 20
212.1645
 30
0.0
 11
45.75555999999989
 21
212.1645
 31
0.0
  0
LINE
  5
282
330
1E
100
AcDbEntity
  8
0
100
AcDbLine
 10
38.7555599999999
 20
154.1645
 30
0.0
 11
42.1555599999999
 21
154.1645
 31
0.0
  0
LINE
  5
283
330
1E
100
AcDbEntity
  8
0
100
AcDbLine
 10
42.1555599999999
 20
154.1645
 30
0.0
 11
45.75555999999989
 21
154.1645
 31
0.0
  0
LINE
  5
284
330
1E
100
AcDbEntity
  8
0
100
AcDbLine
 10
31.75556
 20
583.1644999999999
 30
0.0
 11
32.25555999999999
 21
583.1644999999999
 31
0.0
  0
LINE
  5
285
330
1E
100
AcDbEntity
  8
0
100
AcDbLine
 10
31.75556
 20
603.1645
 30
0.0
 11
31.75556
 21
992.1644999999999
 31
0.0
  0
LINE
  5
286
330
1E
100
AcDbEntity
  8
0
100
AcDbLine
 10
31.75556
 20
992.1644999999999
 30
0.0
 11
32.75555999999999
 21
993.1644999999999
 31
0.0
  0
LINE
  5
287
330
1E
100
AcDbEntity
  8
0
100
AcDbLine
 10
31.75556
 20
992.1644999999999
 30
0.0
 11
32.25555999999999
 21
992.1644999999999
 31
0.0
  0
LINE
  5
288
330
1E
100
AcDbEntity
  8
0
100
AcDbLine
 10
32.7555599999999
 20
213.1645
 30
0.0
 11
33.2555599999999
 21
213.1645
 31
0.0
  0
LINE
  5
289
330
1E
100
AcDbEntity
  8
0
100
AcDbLine
 10
33.2555599999999
 20
213.1645
 30
0.0
 11
34.4555599999999
 21
213.1645
 31
0.0
  0
LINE
  5
28A
330
1E
100
AcDbEntity
  8
0
100
AcDbLine
 10
32.2555599999999
 20
214.1645
 30
0.0
 11
33.6555599999999
 21
214.1645
 31
0.0
  0
LINE
  5
28B
330
1E
100
AcDbEntity
  8
0
100
AcDbLine
 10
34.4555599999999
 20
213.1645
 30
0.0
 11
36.55556
 21
213.1645
 31
0.0
  0
LINE
  5
28C
330
1E
100
AcDbEntity
  8
0
100
AcDbLine
 10
33.6555599999999
 20
214.1645
 30
0.0
 11
35.85555999999989
 21
214.1645
 31
0.0
  0
LINE
  5
28D
330
1E
100
AcDbEntity
  8
0
100
AcDbLine
 10
36.55556
 20
213.1645
 30
0.0
 11
39.2555599999999
 21
213.1645
 31
0.0
  0
LINE
  5
28E
330
1E
100
AcDbEntity
  8
0
100
AcDbLine
 10
35.85555999999989
 20
214.1645
 30
0.0
 11
38.7555599999999
 21
214.1645
 31
0.0
  0
LINE
  5
28F
330
1E
100
AcDbEntity
  8
0
100
AcDbLine
 10
39.2555599999999
 20
213.1645
 30
0.0
 11
42.3555599999999
 21
213.1645
 31
0.0
  0
LINE
  5
290
330
1E
100
AcDbEntity
  8
0
100
AcDbLine
 10
38.7555599999999
 20
214.1645
 30
0.0
 11
42.1555599999999
 21
214.1645
 31
0.0
  0
LINE
  5
291
330
1E
100
AcDbEntity
  8
0
100
AcDbLine
 10
42.3555599999999
 20
213.1645
 30
0.0
 11
45.75555999999989
 21
213.1645
 31
0.0
  0
LINE
  5
292
330
1E
100
AcDbEntity
  8
0
100
AcDbLine
 10
32.25555999999999
 20
583.1644999999999
 30
0.0
 11
33.65555999999999
 21
583.1644999999999
 31
0.0
  0
LINE
  5
293
330
1E
100
AcDbEntity
  8
0
100
AcDbLine
 10
32.25555999999999
 20
992.1644999999999
 30
0.0
 11
33.65555999999999
 21
992.1644999999999
 31
0.0
  0
LINE
  5
294
330
1E
100
AcDbEntity
  8
0
100
AcDbLine
 10
32.25555999999999
 20
994.1644999999999
 30
0.0
 11
33.65555999999999
 21
994.1644999999999
 31
0.0
  0
LINE
  5
295
330
1E
100
AcDbEntity
  8
0
100
AcDbLine
 10
33.65555999999999
 20
583.1644999999999
 30
0.0
 11
35.85555999999999
 21
583.1644999999999
 31
0.0
  0
LINE
  5
296
330
1E
100
AcDbEntity
  8
0
100
AcDbLine
 10
33.65555999999999
 20
992.1644999999999
 30
0.0
 11
35.85555999999999
 21
992.1644999999999
 31
0.0
  0
LINE
  5
297
330
1E
100
AcDbEntity
  8
0
100
AcDbLine
 10
32.75555999999999
 20
993.1644999999999
 30
0.0
 11
33.25555999999999
 21
993.1644999999999
 31
0.0
  0
LINE
  5
298
330
1E
100
AcDbEntity
  8
0
100
AcDbLine
 10
33.25555999999999
 20
993.1644999999999
 30
0.0
 11
34.45555999999999
 21
993.1644999999999
 31
0.0
  0
LINE
  5
299
330
1E
100
AcDbEntity
  8
0
100
AcDbLine
 10
33.75555999999999
 20
583.1644999999999
 30
0.0
 11
37.25555999999999
 21
583.1644999999999
 31
0.0
  0
LINE
  5
29A
330
1E
100
AcDbEntity
  8
0
100
AcDbLine
 10
33.75555999999999
 20
603.1645
 30
0.0
 11
37.25555999999999
 21
603.1645
 31
0.0
  0
LINE
  5
29B
330
1E
100
AcDbEntity
  8
0
100
AcDbLine
 10
35.85555999999999
 20
583.1644999999999
 30
0.0
 11
38.75555999999999
 21
583.1644999999999
 31
0.0
  0
LINE
  5
29C
330
1E
100
AcDbEntity
  8
0
100
AcDbLine
 10
35.85555999999999
 20
992.1644999999999
 30
0.0
 11
38.75555999999999
 21
992.1644999999999
 31
0.0
  0
LINE
  5
29D
330
1E
100
AcDbEntity
  8
0
100
AcDbLine
 10
34.45555999999999
 20
993.1644999999999
 30
0.0
 11
36.55556
 21
993.1644999999999
 31
0.0
  0
LINE
  5
29E
330
1E
100
AcDbEntity
  8
0
100
AcDbLine
 10
33.65555999999999
 20
994.1644999999999
 30
0.0
 11
35.85555999999999
 21
994.1644999999999
 31
0.0
  0
LINE
  5
29F
330
1E
100
AcDbEntity
  8
0
100
AcDbLine
 10
35.85555999999999
 20
994.1644999999999
 30
0.0
 11
38.75555999999999
 21
994.1644999999999
 31
0.0
  0
LINE
  5
2A0
330
1E
100
AcDbEntity
  8
0
100
AcDbLine
 10
32.25555999999999
 20
1052.1645
 30
0.0
 11
33.65555999999999
 21
1052.1645
 31
0.0
  0
LINE
  5
2A1
330
1E
100
AcDbEntity
  8
0
100
AcDbLine
 10
33.65555999999999
 20
1052.1645
 30
0.0
 11
35.85555999999999
 21
1052.1645
 31
0.0
  0
LINE
  5
2A2
330
1E
100
AcDbEntity
  8
0
100
AcDbLine
 10
37.25555999999999
 20
583.1644999999999
 30
0.0
 11
41.35556
 21
583.1644999999999
 31
0.0
  0
LINE
  5
2A3
330
1E
100
AcDbEntity
  8
0
100
AcDbLine
 10
37.25555999999999
 20
603.1645
 30
0.0
 11
41.35556
 21
603.1645
 31
0.0
  0
LINE
  5
2A4
330
1E
100
AcDbEntity
  8
0
100
AcDbLine
 10
38.75555999999999
 20
583.1644999999999
 30
0.0
 11
42.15555999999999
 21
583.1644999999999
 31
0.0
  0
LINE
  5
2A5
330
1E
100
AcDbEntity
  8
0
100
AcDbLine
 10
38.75555999999999
 20
992.1644999999999
 30
0.0
 11
42.15555999999999
 21
992.1644999999999
 31
0.0
  0
LINE
  5
2A6
330
1E
100
AcDbEntity
  8
0
100
AcDbLine
 10
36.55556
 20
993.1644999999999
 30
0.0
 11
39.25555999999999
 21
993.1644999999999
 31
0.0
  0
LINE
  5
2A7
330
1E
100
AcDbEntity
  8
0
100
AcDbLine
 10
41.35556
 20
583.1644999999999
 30
0.0
 11
45.75555999999999
 21
583.1644999999999
 31
0.0
  0
LINE
  5
2A8
330
1E
100
AcDbEntity
  8
0
100
AcDbLine
 10
41.35556
 20
603.1645
 30
0.0
 11
45.75555999999999
 21
603.1645
 31
0.0
  0
LINE
  5
2A9
330
1E
100
AcDbEntity
  8
0
100
AcDbLine
 10
42.15555999999999
 20
583.1644999999999
 30
0.0
 11
45.75555999999999
 21
583.1644999999999
 31
0.0
  0
LINE
  5
2AA
330
1E
100
AcDbEntity
  8
0
100
AcDbLine
 10
42.15555999999999
 20
992.1644999999999
 30
0.0
 11
45.75555999999999
 21
992.1644999999999
 31
0.0
  0
LINE
  5
2AB
330
1E
100
AcDbEntity
  8
0
100
AcDbLine
 10
39.25555999999999
 20
993.1644999999999
 30
0.0
 11
42.35555999999999
 21
993.1644999999999
 31
0.0
  0
LINE
  5
2AC
330
1E
100
AcDbEntity
  8
0
100
AcDbLine
 10
38.75555999999999
 20
994.1644999999999
 30
0.0
 11
42.15555999999999
 21
994.1644999999999
 31
0.0
  0
LINE
  5
2AD
330
1E
100
AcDbEntity
  8
0
100
AcDbLine
 10
42.15555999999999
 20
994.1644999999999
 30
0.0
 11
45.75555999999999
 21
994.1644999999999
 31
0.0
  0
LINE
  5
2AE
330
1E
100
AcDbEntity
  8
0
100
AcDbLine
 10
35.85555999999999
 20
1052.1645
 30
0.0
 11
38.75555999999999
 21
1052.1645
 31
0.0
  0
LINE
  5
2AF
330
1E
100
AcDbEntity
  8
0
100
AcDbLine
 10
38.75555999999999
 20
1052.1645
 30
0.0
 11
42.15555999999999
 21
1052.1645
 31
0.0
  0
LINE
  5
2B0
330
1E
100
AcDbEntity
  8
0
100
AcDbLine
 10
42.15555999999999
 20
1052.1645
 30
0.0
 11
45.75555999999999
 21
1052.1645
 31
0.0
  0
LINE
  5
2B1
330
1E
100
AcDbEntity
  8
0
100
AcDbLine
 10
42.1555599999999
 20
214.1645
 30
0.0
 11
45.75555999999989
 21
214.1645
 31
0.0
  0
LINE
  5
2B2
330
1E
100
AcDbEntity
  8
0
100
AcDbLine
 10
31.75556
 20
994.1644999999999
 30
0.0
 11
31.75556
 21
1052.1645
 31
0.0
  0
LINE
  5
2B3
330
1E
100
AcDbEntity
  8
0
100
AcDbLine
 10
31.75556
 20
994.1644999999999
 30
0.0
 11
32.75555999999999
 21
993.1644999999999
 31
0.0
  0
LINE
  5
2B4
330
1E
100
AcDbEntity
  8
0
100
AcDbLine
 10
31.75556
 20
994.1644999999999
 30
0.0
 11
32.25555999999999
 21
994.1644999999999
 31
0.0
  0
LINE
  5
2B5
330
1E
100
AcDbEntity
  8
0
100
AcDbLine
 10
32.75555999999999
 20
1053.1645
 30
0.0
 11
33.25555999999999
 21
1053.1645
 31
0.0
  0
LINE
  5
2B6
330
1E
100
AcDbEntity
  8
0
100
AcDbLine
 10
33.25555999999999
 20
1053.1645
 30
0.0
 11
34.45555999999999
 21
1053.1645
 31
0.0
  0
LINE
  5
2B7
330
1E
100
AcDbEntity
  8
0
100
AcDbLine
 10
34.45555999999999
 20
1053.1645
 30
0.0
 11
36.55556
 21
1053.1645
 31
0.0
  0
LINE
  5
2B8
330
1E
100
AcDbEntity
  8
0
100
AcDbLine
 10
36.55556
 20
1053.1645
 30
0.0
 11
39.25555999999999
 21
1053.1645
 31
0.0
  0
LINE
  5
2B9
330
1E
100
AcDbEntity
  8
0
100
AcDbLine
 10
39.25555999999999
 20
1053.1645
 30
0.0
 11
42.35555999999999
 21
1053.1645
 31
0.0
  0
LINE
  5
2BA
330
1E
100
AcDbEntity
  8
0
100
AcDbLine
 10
31.75556
 20
1052.1645
 30
0.0
 11
32.75555999999999
 21
1053.1645
 31
0.0
  0
LINE
  5
2BB
330
1E
100
AcDbEntity
  8
0
100
AcDbLine
 10
31.75556
 20
1052.1645
 30
0.0
 11
32.25555999999999
 21
1052.1645
 31
0.0
  0
LINE
  5
2BC
330
1E
100
AcDbEntity
  8
0
100
AcDbLine
 10
31.7555599999999
 20
214.1645
 30
0.0
 11
32.7555599999999
 21
213.1645
 31
0.0
  0
LINE
  5
2BD
330
1E
100
AcDbEntity
  8
0
100
AcDbLine
 10
31.7555599999999
 20
214.1645
 30
0.0
 11
31.75556
 21
583.1644999999999
 31
0.0
  0
LINE
  5
2BE
330
1E
100
AcDbEntity
  8
0
100
AcDbLine
 10
31.7555599999999
 20
214.1645
 30
0.0
 11
32.2555599999999
 21
214.1645
 31
0.0
  0
LINE
  5
2BF
330
1E
100
AcDbEntity
  8
0
100
AcDbLine
 10
31.7555599999999
 20
212.1645
 30
0.0
 11
32.7555599999999
 21
213.1645
 31
0.0
  0
LINE
  5
2C0
330
1E
100
AcDbEntity
  8
0
100
AcDbLine
 10
31.7555599999999
 20
212.1645
 30
0.0
 11
32.2555599999999
 21
212.1645
 31
0.0
  0
LINE
  5
2C1
330
1E
100
AcDbEntity
  8
0
100
AcDbLine
 10
31.7555599999999
 20
154.1645
 30
0.0
 11
32.7555599999999
 21
153.1645
 31
0.0
  0
LINE
  5
2C2
330
1E
100
AcDbEntity
  8
0
100
AcDbLine
 10
31.7555599999999
 20
154.1645
 30
0.0
 11
31.7555599999999
 21
212.1645
 31
0.0
  0
LINE
  5
2C3
330
1E
100
AcDbEntity
  8
0
100
AcDbLine
 10
31.7555599999999
 20
154.1645
 30
0.0
 11
32.2555599999999
 21
154.1645
 31
0.0
  0
LINE
  5
2C4
330
1E
100
AcDbEntity
  8
0
100
AcDbLine
 10
39.2555599999999
 20
153.1645
 30
0.0
 11
42.3555599999999
 21
153.1645
 31
0.0
  0
LINE
  5
2C5
330
1E
100
AcDbEntity
  8
0
100
AcDbLine
 10
45.75555999999989
 20
154.1645
 30
0.0
 11
49.3555599999999
 21
154.1645
 31
0.0
  0
LINE
  5
2C6
330
1E
100
AcDbEntity
  8
0
100
AcDbLine
 10
58.75555999999989
 20
153.1645
 30
0.0
 11
59.7555599999999
 21
154.1645
 31
0.0
  0
LINE
  5
2C7
330
1E
100
AcDbEntity
  8
0
100
AcDbLine
 10
58.25555999999989
 20
153.1645
 30
0.0
 11
58.75555999999989
 21
153.1645
 31
0.0
  0
LINE
  5
2C8
330
1E
100
AcDbEntity
  8
0
100
AcDbLine
 10
57.05555999999989
 20
153.1645
 30
0.0
 11
58.25555999999989
 21
153.1645
 31
0.0
  0
LINE
  5
2C9
330
1E
100
AcDbEntity
  8
0
100
AcDbLine
 10
54.95555999999989
 20
153.1645
 30
0.0
 11
57.05555999999989
 21
153.1645
 31
0.0
  0
LINE
  5
2CA
330
1E
100
AcDbEntity
  8
0
100
AcDbLine
 10
52.2555599999999
 20
153.1645
 30
0.0
 11
54.95555999999989
 21
153.1645
 31
0.0
  0
LINE
  5
2CB
330
1E
100
AcDbEntity
  8
0
100
AcDbLine
 10
59.7555599999999
 20
154.1645
 30
0.0
 11
59.7555599999999
 21
183.166309954751
 31
0.0
  0
LINE
  5
2CC
330
1E
100
AcDbEntity
  8
0
100
AcDbLine
 10
59.25555999999989
 20
154.1645
 30
0.0
 11
59.7555599999999
 21
154.1645
 31
0.0
  0
LINE
  5
2CD
330
1E
100
AcDbEntity
  8
0
100
AcDbLine
 10
57.85555999999989
 20
154.1645
 30
0.0
 11
59.25555999999989
 21
154.1645
 31
0.0
  0
LINE
  5
2CE
330
1E
100
AcDbEntity
  8
0
100
AcDbLine
 10
55.6555599999999
 20
154.1645
 30
0.0
 11
57.85555999999989
 21
154.1645
 31
0.0
  0
LINE
  5
2CF
330
1E
100
AcDbEntity
  8
0
100
AcDbLine
 10
81.75556
 20
183.1644999999999
 30
0.0
 11
81.75556
 21
183.5645
 31
0.0
  0
LINE
  5
2D0
330
1E
100
AcDbEntity
  8
0
100
AcDbLine
 10
52.7555599999999
 20
154.1645
 30
0.0
 11
55.6555599999999
 21
154.1645
 31
0.0
  0
LINE
  5
2D1
330
1E
100
AcDbEntity
  8
0
100
AcDbLine
 10
49.3555599999999
 20
154.1645
 30
0.0
 11
52.7555599999999
 21
154.1645
 31
0.0
  0
LINE
  5
2D2
330
1E
100
AcDbEntity
  8
0
100
AcDbLine
 10
49.15555999999989
 20
153.1645
 30
0.0
 11
52.2555599999999
 21
153.1645
 31
0.0
  0
LINE
  5
2D3
330
1E
100
AcDbEntity
  8
0
100
AcDbLine
 10
45.75555999999989
 20
153.1645
 30
0.0
 11
49.15555999999989
 21
153.1645
 31
0.0
  0
LINE
  5
2D4
330
1E
100
AcDbEntity
  8
0
100
AcDbLine
 10
49.3555599999999
 20
212.1645
 30
0.0
 11
52.7555599999999
 21
212.1645
 31
0.0
  0
LINE
  5
2D5
330
1E
100
AcDbEntity
  8
0
100
AcDbLine
 10
45.75555999999989
 20
214.1645
 30
0.0
 11
49.3555599999999
 21
214.1645
 31
0.0
  0
LINE
  5
2D6
330
1E
100
AcDbEntity
  8
0
100
AcDbLine
 10
45.75555999999999
 20
603.1645
 30
0.0
 11
50.15556
 21
603.1645
 31
0.0
  0
LINE
  5
2D7
330
1E
100
AcDbEntity
  8
0
100
AcDbLine
 10
45.75555999999999
 20
583.1644999999999
 30
0.0
 11
49.35556
 21
583.1644999999999
 31
0.0
  0
LINE
  5
2D8
330
1E
100
AcDbEntity
  8
0
100
AcDbLine
 10
45.75555999999999
 20
583.1644999999999
 30
0.0
 11
50.15556
 21
583.1644999999999
 31
0.0
  0
LINE
  5
2D9
330
1E
100
AcDbEntity
  8
0
100
AcDbLine
 10
49.35556
 20
583.1644999999999
 30
0.0
 11
52.75555999999999
 21
583.1644999999999
 31
0.0
  0
LINE
  5
2DA
330
1E
100
AcDbEntity
  8
0
100
AcDbLine
 10
49.3555599999999
 20
214.1645
 30
0.0
 11
52.7555599999999
 21
214.1645
 31
0.0
  0
LINE
  5
2DB
330
1E
100
AcDbEntity
  8
0
100
AcDbLine
 10
49.15555999999989
 20
213.1645
 30
0.0
 11
52.2555599999999
 21
213.1645
 31
0.0
  0
LINE
  5
2DC
330
1E
100
AcDbEntity
  8
0
100
AcDbLine
 10
45.75555999999989
 20
213.1645
 30
0.0
 11
49.15555999999989
 21
213.1645
 31
0.0
  0
LINE
  5
2DD
330
1E
100
AcDbEntity
  8
0
100
AcDbLine
 10
45.75555999999989
 20
212.1645
 30
0.0
 11
49.3555599999999
 21
212.1645
 31
0.0
  0
LINE
  5
2DE
330
1E
100
AcDbEntity
  8
0
100
AcDbLine
 10
59.7555599999999
 20
211.1645
 30
0.0
 11
81.75556
 21
211.1645
 31
0.0
  0
LINE
  5
2DF
330
1E
100
AcDbEntity
  8
0
100
AcDbLine
 10
55.6555599999999
 20
212.1645
 30
0.0
 11
57.85555999999989
 21
212.1645
 31
0.0
  0
LINE
  5
2E0
330
1E
100
AcDbEntity
  8
0
100
AcDbLine
 10
50.15556
 20
583.1644999999999
 30
0.0
 11
54.25556
 21
583.1644999999999
 31
0.0
  0
LINE
  5
2E1
330
1E
100
AcDbEntity
  8
0
100
AcDbLine
 10
50.15556
 20
603.1645
 30
0.0
 11
54.25556
 21
603.1645
 31
0.0
  0
LINE
  5
2E2
330
1E
100
AcDbEntity
  8
0
100
AcDbLine
 10
54.25556
 20
583.1644999999999
 30
0.0
 11
57.75555999999999
 21
583.1644999999999
 31
0.0
  0
LINE
  5
2E3
330
1E
100
AcDbEntity
  8
0
100
AcDbLine
 10
54.25556
 20
603.1645
 30
0.0
 11
57.75555999999999
 21
603.1645
 31
0.0
  0
LINE
  5
2E4
330
1E
100
AcDbEntity
  8
0
100
AcDbLine
 10
52.75555999999999
 20
583.1644999999999
 30
0.0
 11
55.65555999999999
 21
583.1644999999999
 31
0.0
  0
LINE
  5
2E5
330
1E
100
AcDbEntity
  8
0
100
AcDbLine
 10
55.65555999999999
 20
583.1644999999999
 30
0.0
 11
57.85555999999999
 21
583.1644999999999
 31
0.0
  0
LINE
  5
2E6
330
1E
100
AcDbEntity
  8
0
100
AcDbLine
 10
55.6555599999999
 20
214.1645
 30
0.0
 11
57.85555999999989
 21
214.1645
 31
0.0
  0
LINE
  5
2E7
330
1E
100
AcDbEntity
  8
0
100
AcDbLine
 10
52.7555599999999
 20
214.1645
 30
0.0
 11
55.6555599999999
 21
214.1645
 31
0.0
  0
LINE
  5
2E8
330
1E
100
AcDbEntity
  8
0
100
AcDbLine
 10
54.95555999999989
 20
213.1645
 30
0.0
 11
57.05555999999989
 21
213.1645
 31
0.0
  0
LINE
  5
2E9
330
1E
100
AcDbEntity
  8
0
100
AcDbLine
 10
52.2555599999999
 20
213.1645
 30
0.0
 11
54.95555999999989
 21
213.1645
 31
0.0
  0
LINE
  5
2EA
330
1E
100
AcDbEntity
  8
0
100
AcDbLine
 10
52.7555599999999
 20
212.1645
 30
0.0
 11
55.6555599999999
 21
212.1645
 31
0.0
  0
LINE
  5
2EB
330
1E
100
AcDbEntity
  8
0
100
AcDbLine
 10
57.75555999999999
 20
583.1644999999999
 30
0.0
 11
60.45556
 21
583.1644999999999
 31
0.0
  0
LINE
  5
2EC
330
1E
100
AcDbEntity
  8
0
100
AcDbLine
 10
57.75555999999999
 20
603.1645
 30
0.0
 11
60.45556
 21
603.1645
 31
0.0
  0
LINE
  5
2ED
330
1E
100
AcDbEntity
  8
0
100
AcDbLine
 10
57.85555999999989
 20
214.1645
 30
0.0
 11
59.25555999999989
 21
214.1645
 31
0.0
  0
LINE
  5
2EE
330
1E
100
AcDbEntity
  8
0
100
AcDbLine
 10
57.05555999999989
 20
213.1645
 30
0.0
 11
58.25555999999989
 21
213.1645
 31
0.0
  0
LINE
  5
2EF
330
1E
100
AcDbEntity
  8
0
100
AcDbLine
 10
57.85555999999999
 20
583.1644999999999
 30
0.0
 11
59.25556
 21
583.1644999999999
 31
0.0
  0
LINE
  5
2F0
330
1E
100
AcDbEntity
  8
0
100
AcDbLine
 10
58.25555999999989
 20
213.1645
 30
0.0
 11
58.75555999999989
 21
213.1645
 31
0.0
  0
LINE
  5
2F1
330
1E
100
AcDbEntity
  8
0
100
AcDbLine
 10
57.85555999999989
 20
212.1645
 30
0.0
 11
59.25555999999989
 21
212.1645
 31
0.0
  0
LINE
  5
2F2
330
1E
100
AcDbEntity
  8
0
100
AcDbLine
 10
57.85555999999999
 20
992.1644999999999
 30
0.0
 11
59.25556
 21
992.1644999999999
 31
0.0
  0
LINE
  5
2F3
330
1E
100
AcDbEntity
  8
0
100
AcDbLine
 10
55.65555999999999
 20
992.1644999999999
 30
0.0
 11
57.85555999999999
 21
992.1644999999999
 31
0.0
  0
LINE
  5
2F4
330
1E
100
AcDbEntity
  8
0
100
AcDbLine
 10
52.75555999999999
 20
992.1644999999999
 30
0.0
 11
55.65555999999999
 21
992.1644999999999
 31
0.0
  0
LINE
  5
2F5
330
1E
100
AcDbEntity
  8
0
100
AcDbLine
 10
49.35556
 20
992.1644999999999
 30
0.0
 11
52.75555999999999
 21
992.1644999999999
 31
0.0
  0
LINE
  5
2F6
330
1E
100
AcDbEntity
  8
0
100
AcDbLine
 10
45.75555999999999
 20
994.1644999999999
 30
0.0
 11
49.35556
 21
994.1644999999999
 31
0.0
  0
LINE
  5
2F7
330
1E
100
AcDbEntity
  8
0
100
AcDbLine
 10
45.75555999999999
 20
1052.1645
 30
0.0
 11
49.35556
 21
1052.1645
 31
0.0
  0
LINE
  5
2F8
330
1E
100
AcDbEntity
  8
0
100
AcDbLine
 10
45.75555999999999
 20
1053.1645
 30
0.0
 11
49.15555999999999
 21
1053.1645
 31
0.0
  0
LINE
  5
2F9
330
1E
100
AcDbEntity
  8
0
100
AcDbLine
 10
58.25555999999999
 20
993.1644999999999
 30
0.0
 11
58.75555999999999
 21
993.1644999999999
 31
0.0
  0
LINE
  5
2FA
330
1E
100
AcDbEntity
  8
0
100
AcDbLine
 10
57.05556
 20
993.1644999999999
 30
0.0
 11
58.25555999999999
 21
993.1644999999999
 31
0.0
  0
LINE
  5
2FB
330
1E
100
AcDbEntity
  8
0
100
AcDbLine
 10
54.95556
 20
993.1644999999999
 30
0.0
 11
57.05556
 21
993.1644999999999
 31
0.0
  0
LINE
  5
2FC
330
1E
100
AcDbEntity
  8
0
100
AcDbLine
 10
52.25556
 20
993.1644999999999
 30
0.0
 11
54.95556
 21
993.1644999999999
 31
0.0
  0
LINE
  5
2FD
330
1E
100
AcDbEntity
  8
0
100
AcDbLine
 10
49.35556
 20
994.1644999999999
 30
0.0
 11
52.75555999999999
 21
994.1644999999999
 31
0.0
  0
LINE
  5
2FE
330
1E
100
AcDbEntity
  8
0
100
AcDbLine
 10
49.35556
 20
1052.1645
 30
0.0
 11
52.75555999999999
 21
1052.1645
 31
0.0
  0
LINE
  5
2FF
330
1E
100
AcDbEntity
  8
0
100
AcDbLine
 10
52.75555999999999
 20
994.1644999999999
 30
0.0
 11
55.65555999999999
 21
994.1644999999999
 31
0.0
  0
LINE
  5
300
330
1E
100
AcDbEntity
  8
0
100
AcDbLine
 10
52.75555999999999
 20
1052.1645
 30
0.0
 11
55.65555999999999
 21
1052.1645
 31
0.0
  0
LINE
  5
301
330
1E
100
AcDbEntity
  8
0
100
AcDbLine
 10
54.95556
 20
1053.1645
 30
0.0
 11
57.05556
 21
1053.1645
 31
0.0
  0
LINE
  5
302
330
1E
100
AcDbEntity
  8
0
100
AcDbLine
 10
52.25556
 20
1053.1645
 30
0.0
 11
54.95556
 21
1053.1645
 31
0.0
  0
LINE
  5
303
330
1E
100
AcDbEntity
  8
0
100
AcDbLine
 10
49.15555999999999
 20
1053.1645
 30
0.0
 11
52.25556
 21
1053.1645
 31
0.0
  0
LINE
  5
304
330
1E
100
AcDbEntity
  8
0
100
AcDbLine
 10
57.85555999999999
 20
994.1644999999999
 30
0.0
 11
59.25556
 21
994.1644999999999
 31
0.0
  0
LINE
  5
305
330
1E
100
AcDbEntity
  8
0
100
AcDbLine
 10
55.65555999999999
 20
994.1644999999999
 30
0.0
 11
57.85555999999999
 21
994.1644999999999
 31
0.0
  0
LINE
  5
306
330
1E
100
AcDbEntity
  8
0
100
AcDbLine
 10
57.85555999999999
 20
1052.1645
 30
0.0
 11
59.25556
 21
1052.1645
 31
0.0
  0
LINE
  5
307
330
1E
100
AcDbEntity
  8
0
100
AcDbLine
 10
55.65555999999999
 20
1052.1645
 30
0.0
 11
57.85555999999999
 21
1052.1645
 31
0.0
  0
LINE
  5
308
330
1E
100
AcDbEntity
  8
0
100
AcDbLine
 10
58.25555999999999
 20
1053.1645
 30
0.0
 11
58.75555999999999
 21
1053.1645
 31
0.0
  0
LINE
  5
309
330
1E
100
AcDbEntity
  8
0
100
AcDbLine
 10
57.05556
 20
1053.1645
 30
0.0
 11
58.25555999999999
 21
1053.1645
 31
0.0
  0
LINE
  5
30A
330
1E
100
AcDbEntity
  8
0
100
AcDbLine
 10
59.75556
 20
995.1644999999999
 30
0.0
 11
81.75556
 21
995.1644999999999
 31
0.0
  0
LINE
  5
30B
330
1E
100
AcDbEntity
  8
0
100
AcDbLine
 10
49.15555999999999
 20
993.1644999999999
 30
0.0
 11
52.25556
 21
993.1644999999999
 31
0.0
  0
LINE
  5
30C
330
1E
100
AcDbEntity
  8
0
100
AcDbLine
 10
45.75555999999999
 20
993.1644999999999
 30
0.0
 11
49.15555999999999
 21
993.1644999999999
 31
0.0
  0
LINE
  5
30D
330
1E
100
AcDbEntity
  8
0
100
AcDbLine
 10
45.75555999999999
 20
992.1644999999999
 30
0.0
 11
49.35556
 21
992.1644999999999
 31
0.0
  0
LINE
  5
30E
330
1E
100
AcDbEntity
  8
0
100
AcDbLine
 10
42.35555999999999
 20
993.1644999999999
 30
0.0
 11
45.75555999999999
 21
993.1644999999999
 31
0.0
  0
LINE
  5
30F
330
1E
100
AcDbEntity
  8
0
100
AcDbLine
 10
42.35555999999999
 20
1053.1645
 30
0.0
 11
45.75555999999999
 21
1053.1645
 31
0.0
  0
LINE
  5
310
330
1E
100
AcDbEntity
  8
0
100
AcDbLine
 10
59.7555599999999
 20
214.1645
 30
0.0
 11
59.75556
 21
583.1644999999999
 31
0.0
  0
LINE
  5
311
330
1E
100
AcDbEntity
  8
0
100
AcDbLine
 10
59.25555999999989
 20
214.1645
 30
0.0
 11
59.7555599999999
 21
214.1645
 31
0.0
  0
LINE
  5
312
330
1E
100
AcDbEntity
  8
0
100
AcDbLine
 10
59.25555999999989
 20
212.1645
 30
0.0
 11
59.7555599999999
 21
212.1645
 31
0.0
  0
LINE
  5
313
330
1E
100
AcDbEntity
  8
0
100
AcDbLine
 10
59.7555599999999
 20
211.1645
 30
0.0
 11
59.7555599999999
 21
212.1645
 31
0.0
  0
LINE
  5
314
330
1E
100
AcDbEntity
  8
0
100
AcDbLine
 10
58.75555999999999
 20
1053.1645
 30
0.0
 11
59.75556
 21
1052.1645
 31
0.0
  0
LINE
  5
315
330
1E
100
AcDbEntity
  8
0
100
AcDbLine
 10
59.25556
 20
583.1644999999999
 30
0.0
 11
59.75556
 21
583.1644999999999
 31
0.0
  0
LINE
  5
316
330
1E
100
AcDbEntity
  8
0
100
AcDbLine
 10
59.25556
 20
994.1644999999999
 30
0.0
 11
59.75556
 21
994.1644999999999
 31
0.0
  0
LINE
  5
317
330
1E
100
AcDbEntity
  8
0
100
AcDbLine
 10
59.25556
 20
1052.1645
 30
0.0
 11
59.75556
 21
1052.1645
 31
0.0
  0
LINE
  5
318
330
1E
100
AcDbEntity
  8
0
100
AcDbLine
 10
59.25556
 20
992.1644999999999
 30
0.0
 11
59.75556
 21
992.1644999999999
 31
0.0
  0
LINE
  5
319
330
1E
100
AcDbEntity
  8
0
100
AcDbLine
 10
58.75555999999999
 20
993.1644999999999
 30
0.0
 11
59.75556
 21
992.1644999999999
 31
0.0
  0
LINE
  5
31A
330
1E
100
AcDbEntity
  8
0
100
AcDbLine
 10
58.75555999999999
 20
993.1644999999999
 30
0.0
 11
59.75556
 21
994.1644999999999
 31
0.0
  0
LINE
  5
31B
330
1E
100
AcDbEntity
  8
0
100
AcDbLine
 10
59.7555599999999
 20
214.1645
 30
0.0
 11
59.75556
 21
583.1644999999999
 31
0.0
  0
LINE
  5
31C
330
1E
100
AcDbEntity
  8
0
100
AcDbLine
 10
58.75555999999989
 20
213.1645
 30
0.0
 11
59.7555599999999
 21
212.1645
 31
0.0
  0
LINE
  5
31D
330
1E
100
AcDbEntity
  8
0
100
AcDbLine
 10
58.75555999999989
 20
213.1645
 30
0.0
 11
59.7555599999999
 21
214.1645
 31
0.0
  0
LINE
  5
31E
330
1E
100
AcDbEntity
  8
0
100
AcDbLine
 10
59.7555599999999
 20
183.166309954751
 30
0.0
 11
59.7555599999999
 21
154.1645
 31
0.0
  0
LINE
  5
31F
330
1E
100
AcDbEntity
  8
0
100
AcDbLine
 10
60.45556
 20
583.1644999999999
 30
0.0
 11
62.15555999999999
 21
583.1644999999999
 31
0.0
  0
LINE
  5
320
330
1E
100
AcDbEntity
  8
0
100
AcDbLine
 10
62.15555999999999
 20
583.1644999999999
 30
0.0
 11
62.75555999999999
 21
583.1644999999999
 31
0.0
  0
LINE
  5
321
330
1E
100
AcDbEntity
  8
0
100
AcDbLine
 10
60.45556
 20
603.1645
 30
0.0
 11
62.15555999999999
 21
603.1645
 31
0.0
  0
LINE
  5
322
330
1E
100
AcDbEntity
  8
0
100
AcDbLine
 10
62.75555999999999
 20
603.1645
 30
0.0
 11
62.75555999999999
 21
583.1644999999999
 31
0.0
  0
LINE
  5
323
330
1E
100
AcDbEntity
  8
0
100
AcDbLine
 10
62.15555999999999
 20
603.1645
 30
0.0
 11
62.75555999999999
 21
603.1645
 31
0.0
  0
LINE
  5
324
330
1E
100
AcDbEntity
  8
0
100
AcDbLine
 10
62.75555999999999
 20
583.1644999999999
 30
0.0
 11
62.75555999999999
 21
603.1645
 31
0.0
  0
LINE
  5
325
330
1E
100
AcDbEntity
  8
0
100
AcDbLine
 10
59.75556
 20
583.1644999999999
 30
0.0
 11
60.45556
 21
583.1644999999999
 31
0.0
  0
LINE
  5
326
330
1E
100
AcDbEntity
  8
0
100
AcDbLine
 10
81.75556
 20
193.1644999999999
 30
0.0
 11
81.75556
 21
211.1645
 31
0.0
  0
LINE
  5
327
330
1E
100
AcDbEntity
  8
0
100
AcDbLine
 10
81.75556
 20
190.5644999999999
 30
0.0
 11
81.75556
 21
193.1644999999999
 31
0.0
  0
LINE
  5
328
330
1E
100
AcDbEntity
  8
0
100
AcDbLine
 10
81.75556
 20
188.1644999999999
 30
0.0
 11
81.75556
 21
190.5644999999999
 31
0.0
  0
LINE
  5
329
330
1E
100
AcDbEntity
  8
0
100
AcDbLine
 10
81.75556
 20
185.9645
 30
0.0
 11
81.75556
 21
188.1644999999999
 31
0.0
  0
LINE
  5
32A
330
1E
100
AcDbEntity
  8
0
100
AcDbLine
 10
81.75556
 20
184.4644999999999
 30
0.0
 11
81.75556
 21
185.9645
 31
0.0
  0
LINE
  5
32B
330
1E
100
AcDbEntity
  8
0
100
AcDbLine
 10
81.75556
 20
183.5645
 30
0.0
 11
81.75556
 21
184.4644999999999
 31
0.0
  0
LINE
  5
32C
330
1E
100
AcDbEntity
  8
0
100
AcDbLine
 10
59.75556
 20
994.1644999999999
 30
0.0
 11
59.75556
 21
995.1644999999999
 31
0.0
  0
LINE
  5
32D
330
1E
100
AcDbEntity
  8
0
100
AcDbLine
 10
59.75556
 20
1023.16269004525
 30
0.0
 11
59.75556
 21
1052.1645
 31
0.0
  0
LINE
  5
32E
330
1E
100
AcDbEntity
  8
0
100
AcDbLine
 10
59.75556
 20
1052.1645
 30
0.0
 11
59.75556
 21
1023.16269004525
 31
0.0
  0
LINE
  5
32F
330
1E
100
AcDbEntity
  8
0
100
AcDbLine
 10
59.75556
 20
995.1644999999999
 30
0.0
 11
81.75556
 21
995.1644999999999
 31
0.0
  0
LINE
  5
330
330
1E
100
AcDbEntity
  8
0
100
AcDbLine
 10
59.75556
 20
995.1644999999999
 30
0.0
 11
59.75556
 21
994.1644999999999
 31
0.0
  0
LINE
  5
331
330
1E
100
AcDbEntity
  8
0
100
AcDbLine
 10
81.75556
 20
1013.1645
 30
0.0
 11
81.75556
 21
995.1644999999999
 31
0.0
  0
LINE
  5
332
330
1E
100
AcDbEntity
  8
0
100
AcDbLine
 10
81.75556
 20
1015.7645
 30
0.0
 11
81.75556
 21
1013.1645
 31
0.0
  0
LINE
  5
333
330
1E
100
AcDbEntity
  8
0
100
AcDbLine
 10
81.75556
 20
1018.164499999999
 30
0.0
 11
81.75556
 21
1015.7645
 31
0.0
  0
LINE
  5
334
330
1E
100
AcDbEntity
  8
0
100
AcDbLine
 10
81.75556
 20
1020.3645
 30
0.0
 11
81.75556
 21
1018.164499999999
 31
0.0
  0
LINE
  5
335
330
1E
100
AcDbEntity
  8
0
100
AcDbLine
 10
81.75556
 20
1021.8645
 30
0.0
 11
81.75556
 21
1020.3645
 31
0.0
  0
LINE
  5
336
330
1E
100
AcDbEntity
  8
0
100
AcDbLine
 10
81.75556
 20
1022.7645
 30
0.0
 11
81.75556
 21
1021.8645
 31
0.0
  0
LINE
  5
337
330
1E
100
AcDbEntity
  8
0
100
AcDbLine
 10
81.75556
 20
1023.1645
 30
0.0
 11
81.75556
 21
1022.7645
 31
0.0
  0
LINE
  5
338
330
1E
100
AcDbEntity
  8
0
100
AcDbLine
 10
59.75556
 20
1023.1645
 30
0.0
 11
81.75556
 21
1023.1645
 31
0.0
  0
LINE
  5
339
330
1E
100
AcDbEntity
  8
0
100
AcDbLine
 10
59.75556
 20
603.1645
 30
0.0
 11
59.75556
 21
992.1644999999999
 31
0.0
  0
LINE
  5
33A
330
1E
100
AcDbEntity
  8
0
100
AcDbLine
 10
59.7555599999999
 20
212.1645
 30
0.0
 11
59.7555599999999
 21
211.1645
 31
0.0
  0
LINE
  5
33B
330
1E
100
AcDbEntity
  8
0
100
AcDbLine
 10
59.7555599999999
 20
183.1644999999999
 30
0.0
 11
81.75556
 21
183.1644999999999
 31
0.0
  0
LINE
  5
33C
330
1E
100
AcDbEntity
  8
0
100
AcDbLine
 10
42.3555599999999
 20
153.1645
 30
0.0
 11
45.75555999999989
 21
153.1645
 31
0.0
  0
ENDSEC
  0
SECTION
  2
OBJECTS
  0
DICTIONARY
  5
C
330
0
100
AcDbDictionary
281
     1
  3
ACAD_GROUP
350
D
  3
ACAD_LAYOUT
350
19
  3
ACAD_MLINESTYLE
350
16
  3
ACAD_PLOTSETTINGS
350
18
  3
ACAD_PLOTSTYLENAME
350
E
  3
AcDbVariableDictionary
350
341
  0
DICTIONARY
  5
D
102
{ACAD_REACTORS
330
C
102
}
330
C
100
AcDbDictionary
281
     1
  0
DICTIONARY
  5
19
102
{ACAD_REACTORS
330
C
102
}
330
C
100
AcDbDictionary
281
     1
  3
Layout1
350
1D
  3
Model
350
21
  0
DICTIONARY
  5
16
102
{ACAD_REACTORS
330
C
102
}
330
C
100
AcDbDictionary
281
     1
  3
Standard
350
17
  0
DICTIONARY
  5
18
102
{ACAD_REACTORS
330
C
102
}
330
C
100
AcDbDictionary
281
     1
  0
ACDBDICTIONARYWDFLT
  5
E
102
{ACAD_REACTORS
330
C
102
}
330
C
100
AcDbDictionary
281
     1
  3
Normal
350
F
100
AcDbDictionaryWithDefault
340
F
  0
DICTIONARY
  5
341
102
{ACAD_REACTORS
330
C
102
}
330
C
100
AcDbDictionary
281
     1
  3
DIMASSOC
350
342
  0
LAYOUT
  5
1D
102
{ACAD_REACTORS
330
19
102
}
330
19
100
AcDbPlotSettings
  1

  2
hp deskjet 980c series
  4

  6

 40
0.0
 41
0.0
 42
0.0
 43
0.0
 44
0.0
 45
0.0
 46
0.0
 47
0.0
 48
0.0
 49
0.0
140
0.0
141
0.0
142
1.0
143
1.0
 70
   688
 72
     0
 73
     0
 74
     5
  7

 75
    16
147
1.0
148
0.0
149
0.0
100
AcDbLayout
  1
Layout1
 70
     1
 71
     1
 10
0.0
 20
0.0
 11
12.0
 21
9.0
 12
0.0
 22
0.0
 32
0.0
 14
1.000000000000000E+20
 24
1.000000000000000E+20
 34
1.000000000000000E+20
 15
-1.000000000000000E+20
 25
-1.000000000000000E+20
 35
-1.000000000000000E+20
146
0.0
 13
0.0
 23
0.0
 33
0.0
 16
1.0
 26
0.0
 36
0.0
 17
0.0
 27
1.0
 37
0.0
 76
     0
330
1A
  0
LAYOUT
  5
21
102
{ACAD_REACTORS
330
19
102
}
330
19
100
AcDbPlotSettings
  1

  2
hp deskjet 980c series
  4

  6

 40
0.0
 41
0.0
 42
0.0
 43
0.0
 44
0.0
 45
0.0
 46
0.0
 47
0.0
 48
0.0
 49
0.0
140
0.0
141
0.0
142
1.0
143
1.0
 70
  1712
 72
     0
 73
     0
 74
     0
  7

 75
     0
147
1.0
148
0.0
149
0.0
100
AcDbLayout
  1
Model
 70
     1
 71
     0
 10
0.0
 20
0.0
 11
12.0
 21
9.0
 12
0.0
 22
0.0
 32
0.0
 14
0.0
 24
0.0
 34
0.0
 15
0.0
 25
0.0
 35
0.0
146
0.0
 13
0.0
 23
0.0
 33
0.0
 16
1.0
 26
0.0
 36
0.0
 17
0.0
 27
1.0
 37
0.0
 76
     0
330
1E
  0
MLINESTYLE
  5
17
102
{ACAD_REACTORS
330
16
102
}
330
16
100
AcDbMlineStyle
  2
STANDARD
 70
     0
  3

 62
   256
 51
90.0
 52
90.0
 71
     2
 49
0.5
 62
   256
  6
BYLAYER
 49
-0.5
 62
   256
  6
BYLAYER
  0
ACDBPLACEHOLDER
  5
F
102
{ACAD_REACTORS
330
E
102
}
330
E
  0
DICTIONARYVAR
  5
342
102
{ACAD_REACTORS
330
341
102
}
330
341
100
DictionaryVariables
280
     0
  1
1
  0
ENDSEC
  0
EOF
