  0
SECTION
  2
HEADER
  9
$ACADVER
  1
AC1015
  9
$ACADMAINTVER
 70
    13
  9
$DWGCODEPAGE
  3
ANSI_1252
  9
$INSBASE
 10
0.0
 20
0.0
 30
0.0
  9
$EXTMIN
 10
0.0
 20
-0.196999999999938
 30
0.0
  9
$EXTMAX
 10
240.0
 20
636.197
 30
0.0
  9
$LIMMIN
 10
0.0
 20
0.0
  9
$LIMMAX
 10
12.0
 20
9.0
  9
$ORTHOMODE
 70
     0
  9
$REGENMODE
 70
     1
  9
$FILLMODE
 70
     1
  9
$QTEXTMODE
 70
     0
  9
$MIRRTEXT
 70
     1
  9
$LTSCALE
 40
1.0
  9
$ATTMODE
 70
     1
  9
$TEXTSIZE
 40
0.2
  9
$TRACEWID
 40
0.05
  9
$TEXTSTYLE
  7
Standard
  9
$CLAYER
  8
0
  9
$CELTYPE
  6
Continuous
  9
$CECOLOR
 62
   256
  9
$CELTSCALE
 40
1.0
  9
$DISPSILH
 70
     0
  9
$DIMSCALE
 40
1.0
  9
$DIMASZ
 40
0.18
  9
$DIMEXO
 40
0.0625
  9
$DIMDLI
 40
0.38
  9
$DIMRND
 40
0.0
  9
$DIMDLE
 40
0.0
  9
$DIMEXE
 40
0.18
  9
$DIMTP
 40
0.0
  9
$DIMTM
 40
0.0
  9
$DIMTXT
 40
0.18
  9
$DIMCEN
 40
0.09
  9
$DIMTSZ
 40
0.0
  9
$DIMTOL
 70
     0
  9
$DIMLIM
 70
     0
  9
$DIMTIH
 70
     1
  9
$DIMTOH
 70
     1
  9
$DIMSE1
 70
     0
  9
$DIMSE2
 70
     0
  9
$DIMTAD
 70
     0
  9
$DIMZIN
 70
     0
  9
$DIMBLK
  1

  9
$DIMASO
 70
     1
  9
$DIMSHO
 70
     1
  9
$DIMPOST
  1

  9
$DIMAPOST
  1

  9
$DIMALT
 70
     0
  9
$DIMALTD
 70
     2
  9
$DIMALTF
 40
25.4
  9
$DIMLFAC
 40
1.0
  9
$DIMTOFL
 70
     0
  9
$DIMTVP
 40
0.0
  9
$DIMTIX
 70
     0
  9
$DIMSOXD
 70
     0
  9
$DIMSAH
 70
     0
  9
$DIMBLK1
  1

  9
$DIMBLK2
  1

  9
$DIMSTYLE
  2
Standard
  9
$DIMCLRD
 70
     0
  9
$DIMCLRE
 70
     0
  9
$DIMCLRT
 70
     0
  9
$DIMTFAC
 40
1.0
  9
$DIMGAP
 40
0.09
  9
$DIMJUST
 70
     0
  9
$DIMSD1
 70
     0
  9
$DIMSD2
 70
     0
  9
$DIMTOLJ
 70
     1
  9
$DIMTZIN
 70
     0
  9
$DIMALTZ
 70
     0
  9
$DIMALTTZ
 70
     0
  9
$DIMUPT
 70
     0
  9
$DIMDEC
 70
     4
  9
$DIMTDEC
 70
     4
  9
$DIMALTU
 70
     2
  9
$DIMALTTD
 70
     2
  9
$DIMTXSTY
  7
Standard
  9
$DIMAUNIT
 70
     0
  9
$DIMADEC
 70
     0
  9
$DIMALTRND
 40
0.0
  9
$DIMAZIN
 70
     0
  9
$DIMDSEP
 70
    46
  9
$DIMATFIT
 70
     3
  9
$DIMFRAC
 70
     0
  9
$DIMLDRBLK
  1

  9
$DIMLUNIT
 70
     2
  9
$DIMLWD
 70
    -2
  9
$DIMLWE
 70
    -2
  9
$DIMTMOVE
 70
     0
  9
$LUNITS
 70
     2
  9
$LUPREC
 70
     4
  9
$SKETCHINC
 40
0.1
  9
$FILLETRAD
 40
0.0
  9
$AUNITS
 70
     0
  9
$AUPREC
 70
     0
  9
$MENU
  1
.
  9
$ELEVATION
 40
0.0
  9
$PELEVATION
 40
0.0
  9
$THICKNESS
 40
0.0
  9
$LIMCHECK
 70
     0
  9
$CHAMFERA
 40
0.0
  9
$CHAMFERB
 40
0.0
  9
$CHAMFERC
 40
0.0
  9
$CHAMFERD
 40
0.0
  9
$SKPOLY
 70
     0
  9
$TDCREATE
 40
2454875.778762280
  9
$TDUCREATE
 40
2454875.737095613
  9
$TDUPDATE
 40
2454875.780477060
  9
$TDUUPDATE
 40
2454875.738810393
  9
$TDINDWG
 40
0.0017147801
  9
$TDUSRTIMER
 40
0.0017147801
  9
$USRTIMER
 70
     1
  9
$ANGBASE
 50
0.0
  9
$ANGDIR
 70
     0
  9
$PDMODE
 70
     0
  9
$PDSIZE
 40
0.0
  9
$PLINEWID
 40
0.0
  9
$SPLFRAME
 70
     0
  9
$SPLINETYPE
 70
     6
  9
$SPLINESEGS
 70
     8
  9
$HANDSEED
  5
349
  9
$SURFTAB1
 70
     6
  9
$SURFTAB2
 70
     6
  9
$SURFTYPE
 70
     6
  9
$SURFU
 70
     6
  9
$SURFV
 70
     6
  9
$UCSBASE
  2

  9
$UCSNAME
  2

  9
$UCSORG
 10
0.0
 20
0.0
 30
0.0
  9
$UCSXDIR
 10
1.0
 20
0.0
 30
0.0
  9
$UCSYDIR
 10
0.0
 20
1.0
 30
0.0
  9
$UCSORTHOREF
  2

  9
$UCSORTHOVIEW
 70
     1
  9
$UCSORGTOP
 10
0.0
 20
0.0
 30
0.0
  9
$UCSORGBOTTOM
 10
0.0
 20
0.0
 30
0.0
  9
$UCSORGLEFT
 10
0.0
 20
0.0
 30
0.0
  9
$UCSORGRIGHT
 10
0.0
 20
0.0
 30
0.0
  9
$UCSORGFRONT
 10
0.0
 20
0.0
 30
0.0
  9
$UCSORGBACK
 10
0.0
 20
0.0
 30
0.0
  9
$PUCSBASE
  2

  9
$PUCSNAME
  2

  9
$PUCSORG
 10
0.0
 20
0.0
 30
0.0
  9
$PUCSXDIR
 10
1.0
 20
0.0
 30
0.0
  9
$PUCSYDIR
 10
0.0
 20
1.0
 30
0.0
  9
$PUCSORTHOREF
  2

  9
$PUCSORTHOVIEW
 70
     0
  9
$PUCSORGTOP
 10
0.0
 20
0.0
 30
0.0
  9
$PUCSORGBOTTOM
 10
0.0
 20
0.0
 30
0.0
  9
$PUCSORGLEFT
 10
0.0
 20
0.0
 30
0.0
  9
$PUCSORGRIGHT
 10
0.0
 20
0.0
 30
0.0
  9
$PUCSORGFRONT
 10
0.0
 20
0.0
 30
0.0
  9
$PUCSORGBACK
 10
0.0
 20
0.0
 30
0.0
  9
$USERI1
 70
     0
  9
$USERI2
 70
     0
  9
$USERI3
 70
     0
  9
$USERI4
 70
     0
  9
$USERI5
 70
     0
  9
$USERR1
 40
0.0
  9
$USERR2
 40
0.0
  9
$USERR3
 40
0.0
  9
$USERR4
 40
0.0
  9
$USERR5
 40
0.0
  9
$WORLDVIEW
 70
     1
  9
$SHADEDGE
 70
     3
  9
$SHADEDIF
 70
    70
  9
$TILEMODE
 70
     1
  9
$MAXACTVP
 70
    64
  9
$PINSBASE
 10
0.0
 20
0.0
 30
0.0
  9
$PLIMCHECK
 70
     0
  9
$PEXTMIN
 10
1.000000000000000E+20
 20
1.000000000000000E+20
 30
1.000000000000000E+20
  9
$PEXTMAX
 10
-1.000000000000000E+20
 20
-1.000000000000000E+20
 30
-1.000000000000000E+20
  9
$PLIMMIN
 10
0.0
 20
0.0
  9
$PLIMMAX
 10
12.0
 20
9.0
  9
$UNITMODE
 70
     0
  9
$VISRETAIN
 70
     1
  9
$PLINEGEN
 70
     0
  9
$PSLTSCALE
 70
     1
  9
$TREEDEPTH
 70
  3020
  9
$CMLSTYLE
  2
Standard
  9
$CMLJUST
 70
     0
  9
$CMLSCALE
 40
1.0
  9
$PROXYGRAPHICS
 70
     1
  9
$MEASUREMENT
 70
     0
  9
$CELWEIGHT
370
    -1
  9
$ENDCAPS
280
     0
  9
$JOINSTYLE
280
     0
  9
$LWDISPLAY
290
     0
  9
$INSUNITS
 70
     0
  9
$HYPERLINKBASE
  1

  9
$STYLESHEET
  1

  9
$XEDIT
290
     1
  9
$CEPSNTYPE
380
     0
  9
$PSTYLEMODE
290
     1
  9
$FINGERPRINTGUID
  2
{13F6A97F-FB9B-46A5-9296-48A12255DFE8}
  9
$VERSIONGUID
  2
{56959783-23BF-4006-AAFA-4A3A57DBB5E5}
  9
$EXTNAMES
290
     1
  9
$PSVPSCALE
 40
0.0
  9
$OLESTARTUP
290
     0
  0
ENDSEC
  0
SECTION
  2
CLASSES
  0
CLASS
  1
ACDBDICTIONARYWDFLT
  2
AcDbDictionaryWithDefault
  3
AutoCAD 2000
 90
        0
280
     0
281
     0
  0
CLASS
  1
ACDBPLACEHOLDER
  2
AcDbPlaceHolder
  3
AutoCAD 2000
 90
        0
280
     0
281
     0
  0
CLASS
  1
LAYOUT
  2
AcDbLayout
  3
AutoCAD 2000
 90
        0
280
     0
281
     0
  0
CLASS
  1
DICTIONARYVAR
  2
AcDbDictionaryVar
  3
AutoCAD 2000
 90
        0
280
     0
281
     0
  0
ENDSEC
  0
SECTION
  2
TABLES
  0
TABLE
  2
VPORT
  5
8
330
0
100
AcDbSymbolTable
 70
     2
  0
VPORT
  5
348
330
8
100
AcDbSymbolTableRecord
100
AcDbViewportTableRecord
  2
*Active
 70
     0
 10
0.0
 20
0.0
 11
1.0
 21
1.0
 12
120.0
 22
318.0
 13
0.0
 23
0.0
 14
1.0
 24
1.0
 15
0.0
 25
0.0
 16
0.0
 26
0.0
 36
1.0
 17
0.0
 27
0.0
 37
0.0
 40
640.4133305263156
 41
1.968387776606954
 42
50.0
 43
0.0
 44
0.0
 50
0.0
 51
0.0
 71
     0
 72
   100
 73
     1
 74
     3
 75
     0
 76
     0
 77
     0
 78
     0
281
     0
 65
     1
110
0.0
120
0.0
130
0.0
111
1.0
121
0.0
131
0.0
112
0.0
122
1.0
132
0.0
 79
     1
146
0.0
  0
ENDTAB
  0
TABLE
  2
LTYPE
  5
5
330
0
100
AcDbSymbolTable
 70
     1
  0
LTYPE
  5
13
330
5
100
AcDbSymbolTableRecord
100
AcDbLinetypeTableRecord
  2
ByBlock
 70
     0
  3

 72
    65
 73
     0
 40
0.0
  0
LTYPE
  5
14
330
5
100
AcDbSymbolTableRecord
100
AcDbLinetypeTableRecord
  2
ByLayer
 70
     0
  3

 72
    65
 73
     0
 40
0.0
  0
LTYPE
  5
15
330
5
100
AcDbSymbolTableRecord
100
AcDbLinetypeTableRecord
  2
Continuous
 70
     0
  3
Solid line
 72
    65
 73
     0
 40
0.0
  0
ENDTAB
  0
TABLE
  2
LAYER
  5
2
330
0
100
AcDbSymbolTable
 70
     1
  0
LAYER
  5
10
330
2
100
AcDbSymbolTableRecord
100
AcDbLayerTableRecord
  2
0
 70
     0
 62
     7
  6
Continuous
370
    -3
390
F
  0
ENDTAB
  0
TABLE
  2
STYLE
  5
3
330
0
100
AcDbSymbolTable
 70
     1
  0
STYLE
  5
11
330
3
100
AcDbSymbolTableRecord
100
AcDbTextStyleTableRecord
  2
Standard
 70
     0
 40
0.0
 41
1.0
 50
0.0
 71
     0
 42
0.2
  3
txt
  4

  0
ENDTAB
  0
TABLE
  2
VIEW
  5
6
330
0
100
AcDbSymbolTable
 70
     0
  0
ENDTAB
  0
TABLE
  2
UCS
  5
7
330
0
100
AcDbSymbolTable
 70
     0
  0
ENDTAB
  0
TABLE
  2
APPID
  5
9
330
0
100
AcDbSymbolTable
 70
     1
  0
APPID
  5
12
330
9
100
AcDbSymbolTableRecord
100
AcDbRegAppTableRecord
  2
ACAD
 70
     0
  0
ENDTAB
  0
TABLE
  2
DIMSTYLE
  5
A
330
0
100
AcDbSymbolTable
 70
     1
100
AcDbDimStyleTable
 71
     0
  0
DIMSTYLE
105
33D
330
A
100
AcDbSymbolTableRecord
100
AcDbDimStyleTableRecord
  2
Standard
 70
     0
340
11
  0
ENDTAB
  0
TABLE
  2
BLOCK_RECORD
  5
1
330
0
100
AcDbSymbolTable
 70
     0
  0
BLOCK_RECORD
  5
1E
330
1
100
AcDbSymbolTableRecord
100
AcDbBlockTableRecord
  2
*Model_Space
340
21
  0
BLOCK_RECORD
  5
1A
330
1
100
AcDbSymbolTableRecord
100
AcDbBlockTableRecord
  2
*Paper_Space
340
1D
  0
ENDTAB
  0
ENDSEC
  0
SECTION
  2
BLOCKS
  0
BLOCK
  5
1F
330
1E
100
AcDbEntity
  8
0
100
AcDbBlockBegin
  2
*Model_Space
 70
     0
 10
0.0
 20
0.0
 30
0.0
  3
*Model_Space
  1

  0
ENDBLK
  5
20
330
1E
100
AcDbEntity
  8
0
100
AcDbBlockEnd
  0
BLOCK
  5
1B
330
1A
100
AcDbEntity
 67
     1
  8
0
100
AcDbBlockBegin
  2
*Paper_Space
 70
     0
 10
0.0
 20
0.0
 30
0.0
  3
*Paper_Space
  1

  0
ENDBLK
  5
1C
330
1A
100
AcDbEntity
 67
     1
  8
0
100
AcDbBlockEnd
  0
ENDSEC
  0
SECTION
  2
ENTITIES
  0
LINE
  5
22
330
1E
100
AcDbEntity
  8
0
100
AcDbLine
 10
2.2
 20
104.203
 30
0.0
 11
5.299999999999999
 21
89.1030000000001
 31
0.0
  0
LINE
  5
23
330
1E
100
AcDbEntity
  8
0
100
AcDbLine
 10
1.0
 20
119.8029999999999
 30
0.0
 11
2.2
 21
104.203
 31
0.0
  0
LINE
  5
24
330
1E
100
AcDbEntity
  8
0
100
AcDbLine
 10
1.0
 20
119.8029999999999
 30
0.0
 11
2.2
 21
135.4029999999999
 31
0.0
  0
LINE
  5
25
330
1E
100
AcDbEntity
  8
0
100
AcDbLine
 10
1.199999999999999
 20
104.203
 30
0.0
 11
4.299999999999999
 21
88.8030000000001
 31
0.0
  0
LINE
  5
26
330
1E
100
AcDbEntity
  8
0
100
AcDbLine
 10
89.0
 20
4.10300000000006
 30
0.0
 11
104.4
 21
1.00300000000006
 31
0.0
  0
LINE
  5
27
330
1E
100
AcDbEntity
  8
0
100
AcDbLine
 10
89.0
 20
4.10300000000006
 30
0.0
 11
104.4
 21
1.00300000000006
 31
0.0
  0
LINE
  5
28
330
1E
100
AcDbEntity
  8
0
100
AcDbLine
 10
60.3
 20
15.90300000000009
 30
0.0
 11
74.2
 21
9.203000000000061
 31
0.0
  0
LINE
  5
29
330
1E
100
AcDbEntity
  8
0
100
AcDbLine
 10
36.0
 20
35.8030000000001
 30
0.0
 11
47.7
 21
25.6030000000001
 31
0.0
  0
LINE
  5
2A
330
1E
100
AcDbEntity
  8
0
100
AcDbLine
 10
47.7
 20
25.6030000000001
 30
0.0
 11
60.8
 21
16.70300000000009
 31
0.0
  0
LINE
  5
2B
330
1E
100
AcDbEntity
  8
0
100
AcDbLine
 10
35.29999999999999
 20
35.1030000000001
 30
0.0
 11
47.09999999999999
 21
24.8030000000001
 31
0.0
  0
LINE
  5
2C
330
1E
100
AcDbEntity
  8
0
100
AcDbLine
 10
47.09999999999999
 20
24.8030000000001
 30
0.0
 11
60.3
 21
15.90300000000009
 31
0.0
  0
LINE
  5
2D
330
1E
100
AcDbEntity
  8
0
100
AcDbLine
 10
47.09999999999999
 20
24.8030000000001
 30
0.0
 11
60.3
 21
15.90300000000009
 31
0.0
  0
LINE
  5
2E
330
1E
100
AcDbEntity
  8
0
100
AcDbLine
 10
74.5
 20
10.1030000000001
 30
0.0
 11
89.29999999999999
 21
5.103000000000059
 31
0.0
  0
LINE
  5
2F
330
1E
100
AcDbEntity
  8
0
100
AcDbLine
 10
60.8
 20
16.70300000000009
 30
0.0
 11
74.5
 21
10.1030000000001
 31
0.0
  0
LINE
  5
30
330
1E
100
AcDbEntity
  8
0
100
AcDbLine
 10
60.3
 20
15.90300000000009
 30
0.0
 11
74.2
 21
9.203000000000061
 31
0.0
  0
LINE
  5
31
330
1E
100
AcDbEntity
  8
0
100
AcDbLine
 10
74.2
 20
9.203000000000061
 30
0.0
 11
89.0
 21
4.10300000000006
 31
0.0
  0
LINE
  5
32
330
1E
100
AcDbEntity
  8
0
100
AcDbLine
 10
74.2
 20
9.203000000000061
 30
0.0
 11
89.0
 21
4.10300000000006
 31
0.0
  0
LINE
  5
33
330
1E
100
AcDbEntity
  8
0
100
AcDbLine
 10
89.29999999999999
 20
5.103000000000059
 30
0.0
 11
104.4
 21
2.00300000000006
 31
0.0
  0
LINE
  5
34
330
1E
100
AcDbEntity
  8
0
100
AcDbLine
 10
89.29999999999999
 20
5.103000000000059
 30
0.0
 11
104.4
 21
2.00300000000006
 31
0.0
  0
LINE
  5
35
330
1E
100
AcDbEntity
  8
0
100
AcDbLine
 10
104.4
 20
2.00300000000006
 30
0.0
 11
120.0
 21
0.8030000000000619
 31
0.0
  0
LINE
  5
36
330
1E
100
AcDbEntity
  8
0
100
AcDbLine
 10
104.4
 20
1.00300000000006
 30
0.0
 11
120.0
 21
-0.196999999999938
 31
0.0
  0
LINE
  5
37
330
1E
100
AcDbEntity
  8
0
100
AcDbLine
 10
89.0
 20
4.10300000000006
 30
0.0
 11
104.4
 21
1.00300000000006
 31
0.0
  0
LINE
  5
38
330
1E
100
AcDbEntity
  8
0
100
AcDbLine
 10
89.0
 20
4.10300000000006
 30
0.0
 11
104.4
 21
1.00300000000006
 31
0.0
  0
LINE
  5
39
330
1E
100
AcDbEntity
  8
0
100
AcDbLine
 10
104.4
 20
1.00300000000006
 30
0.0
 11
120.0
 21
-0.196999999999938
 31
0.0
  0
LINE
  5
3A
330
1E
100
AcDbEntity
  8
0
100
AcDbLine
 10
100.9
 20
73.7030000000001
 30
0.0
 11
107.0999999999999
 21
71.6030000000001
 31
0.0
  0
LINE
  5
3B
330
1E
100
AcDbEntity
  8
0
100
AcDbLine
 10
107.0999999999999
 20
71.6030000000001
 30
0.0
 11
113.5
 21
70.30300000000011
 31
0.0
  0
LINE
  5
3C
330
1E
100
AcDbEntity
  8
0
100
AcDbLine
 10
25.8
 20
47.5030000000001
 30
0.0
 11
36.0
 21
35.8030000000001
 31
0.0
  0
LINE
  5
3D
330
1E
100
AcDbEntity
  8
0
100
AcDbLine
 10
16.89999999999999
 20
60.60300000000011
 30
0.0
 11
25.8
 21
47.5030000000001
 31
0.0
  0
LINE
  5
3E
330
1E
100
AcDbEntity
  8
0
100
AcDbLine
 10
25.0
 20
46.9030000000001
 30
0.0
 11
35.29999999999999
 21
35.1030000000001
 31
0.0
  0
LINE
  5
3F
330
1E
100
AcDbEntity
  8
0
100
AcDbLine
 10
25.0
 20
46.9030000000001
 30
0.0
 11
35.29999999999999
 21
35.1030000000001
 31
0.0
  0
LINE
  5
40
330
1E
100
AcDbEntity
  8
0
100
AcDbLine
 10
16.1
 20
60.10300000000011
 30
0.0
 11
25.0
 21
46.9030000000001
 31
0.0
  0
LINE
  5
41
330
1E
100
AcDbEntity
  8
0
100
AcDbLine
 10
16.1
 20
60.10300000000011
 30
0.0
 11
25.0
 21
46.9030000000001
 31
0.0
  0
LINE
  5
42
330
1E
100
AcDbEntity
  8
0
100
AcDbLine
 10
84.7
 20
84.50300000000011
 30
0.0
 11
89.59999999999999
 21
80.20300000000011
 31
0.0
  0
LINE
  5
43
330
1E
100
AcDbEntity
  8
0
100
AcDbLine
 10
89.59999999999999
 20
80.20300000000011
 30
0.0
 11
95.09999999999999
 21
76.5030000000001
 31
0.0
  0
LINE
  5
44
330
1E
100
AcDbEntity
  8
0
100
AcDbLine
 10
95.09999999999999
 20
76.5030000000001
 30
0.0
 11
100.9
 21
73.7030000000001
 31
0.0
  0
LINE
  5
45
330
1E
100
AcDbEntity
  8
0
100
AcDbLine
 10
80.4
 20
89.40299999999998
 30
0.0
 11
84.7
 21
84.50300000000011
 31
0.0
  0
LINE
  5
46
330
1E
100
AcDbEntity
  8
0
100
AcDbLine
 10
76.7
 20
94.90299999999999
 30
0.0
 11
80.4
 21
89.40299999999998
 31
0.0
  0
LINE
  5
47
330
1E
100
AcDbEntity
  8
0
100
AcDbLine
 10
106.112
 20
111.867
 30
0.0
 11
108.736
 21
108.539
 31
0.0
  0
LINE
  5
48
330
1E
100
AcDbEntity
  8
0
100
AcDbLine
 10
106.6879999999999
 20
112.187
 30
0.0
 11
109.1839999999999
 21
108.987
 31
0.0
  0
LINE
  5
49
330
1E
100
AcDbEntity
  8
0
100
AcDbLine
 10
73.9
 20
100.7029999999999
 30
0.0
 11
76.7
 21
94.90299999999999
 31
0.0
  0
LINE
  5
4A
330
1E
100
AcDbEntity
  8
0
100
AcDbLine
 10
71.79999999999999
 20
106.9029999999999
 30
0.0
 11
73.9
 21
100.7029999999999
 31
0.0
  0
LINE
  5
4B
330
1E
100
AcDbEntity
  8
0
100
AcDbLine
 10
104.576
 20
116.347
 30
0.0
 11
106.112
 21
111.867
 31
0.0
  0
LINE
  5
4C
330
1E
100
AcDbEntity
  8
0
100
AcDbLine
 10
104.0
 20
119.8029999999999
 30
0.0
 11
104.576
 21
116.347
 31
0.0
  0
LINE
  5
4D
330
1E
100
AcDbEntity
  8
0
100
AcDbLine
 10
105.216
 20
115.8349999999999
 30
0.0
 11
106.6879999999999
 21
112.187
 31
0.0
  0
LINE
  5
4E
330
1E
100
AcDbEntity
  8
0
100
AcDbLine
 10
70.5
 20
113.3029999999999
 30
0.0
 11
71.79999999999999
 21
106.9029999999999
 31
0.0
  0
LINE
  5
4F
330
1E
100
AcDbEntity
  8
0
100
AcDbLine
 10
70.0
 20
119.8029999999999
 30
0.0
 11
70.5
 21
113.3029999999999
 31
0.0
  0
LINE
  5
50
330
1E
100
AcDbEntity
  8
0
100
AcDbLine
 10
70.0
 20
119.8029999999999
 30
0.0
 11
70.5
 21
126.303
 31
0.0
  0
LINE
  5
51
330
1E
100
AcDbEntity
  8
0
100
AcDbLine
 10
10.3
 20
74.30300000000009
 30
0.0
 11
16.89999999999999
 21
60.60300000000011
 31
0.0
  0
LINE
  5
52
330
1E
100
AcDbEntity
  8
0
100
AcDbLine
 10
5.299999999999999
 20
89.1030000000001
 30
0.0
 11
10.3
 21
74.30300000000009
 31
0.0
  0
LINE
  5
53
330
1E
100
AcDbEntity
  8
0
100
AcDbLine
 10
9.4
 20
74.0030000000001
 30
0.0
 11
16.1
 21
60.10300000000011
 31
0.0
  0
LINE
  5
54
330
1E
100
AcDbEntity
  8
0
100
AcDbLine
 10
4.299999999999999
 20
88.8030000000001
 30
0.0
 11
9.4
 21
74.0030000000001
 31
0.0
  0
LINE
  5
55
330
1E
100
AcDbEntity
  8
0
100
AcDbLine
 10
2.2
 20
135.4029999999999
 30
0.0
 11
5.299999999999999
 21
150.5029999999999
 31
0.0
  0
LINE
  5
56
330
1E
100
AcDbEntity
  8
0
100
AcDbLine
 10
1.199999999999999
 20
135.4029999999999
 30
0.0
 11
4.299999999999999
 21
150.8029999999999
 31
0.0
  0
LINE
  5
57
330
1E
100
AcDbEntity
  8
0
100
AcDbLine
 10
10.3
 20
165.303
 30
0.0
 11
16.89999999999999
 21
179.0029999999999
 31
0.0
  0
LINE
  5
58
330
1E
100
AcDbEntity
  8
0
100
AcDbLine
 10
5.299999999999999
 20
150.5029999999999
 30
0.0
 11
10.3
 21
165.303
 31
0.0
  0
LINE
  5
59
330
1E
100
AcDbEntity
  8
0
100
AcDbLine
 10
9.4
 20
165.6029999999999
 30
0.0
 11
16.1
 21
179.5029999999999
 31
0.0
  0
LINE
  5
5A
330
1E
100
AcDbEntity
  8
0
100
AcDbLine
 10
4.299999999999999
 20
150.8029999999999
 30
0.0
 11
9.4
 21
165.6029999999999
 31
0.0
  0
LINE
  5
5B
330
1E
100
AcDbEntity
  8
0
100
AcDbLine
 10
16.89999999999999
 20
179.0029999999999
 30
0.0
 11
25.8
 21
192.1029999999999
 31
0.0
  0
LINE
  5
5C
330
1E
100
AcDbEntity
  8
0
100
AcDbLine
 10
25.8
 20
192.1029999999999
 30
0.0
 11
36.0
 21
203.803
 31
0.0
  0
LINE
  5
5D
330
1E
100
AcDbEntity
  8
0
100
AcDbLine
 10
25.0
 20
192.703
 30
0.0
 11
35.29999999999999
 21
204.5029999999999
 31
0.0
  0
LINE
  5
5E
330
1E
100
AcDbEntity
  8
0
100
AcDbLine
 10
16.1
 20
179.5029999999999
 30
0.0
 11
25.0
 21
192.703
 31
0.0
  0
LINE
  5
5F
330
1E
100
AcDbEntity
  8
0
100
AcDbLine
 10
36.0
 20
203.803
 30
0.0
 11
47.7
 21
214.0029999999999
 31
0.0
  0
LINE
  5
60
330
1E
100
AcDbEntity
  8
0
100
AcDbLine
 10
35.29999999999999
 20
204.5029999999999
 30
0.0
 11
47.09999999999999
 21
214.8029999999999
 31
0.0
  0
LINE
  5
61
330
1E
100
AcDbEntity
  8
0
100
AcDbLine
 10
47.7
 20
214.0029999999999
 30
0.0
 11
60.8
 21
222.9029999999999
 31
0.0
  0
LINE
  5
62
330
1E
100
AcDbEntity
  8
0
100
AcDbLine
 10
47.09999999999999
 20
214.8029999999999
 30
0.0
 11
60.3
 21
223.703
 31
0.0
  0
LINE
  5
63
330
1E
100
AcDbEntity
  8
0
100
AcDbLine
 10
71.79999999999999
 20
132.703
 30
0.0
 11
73.9
 21
138.9029999999999
 31
0.0
  0
LINE
  5
64
330
1E
100
AcDbEntity
  8
0
100
AcDbLine
 10
70.5
 20
126.303
 30
0.0
 11
71.79999999999999
 21
132.703
 31
0.0
  0
LINE
  5
65
330
1E
100
AcDbEntity
  8
0
100
AcDbLine
 10
73.9
 20
138.9029999999999
 30
0.0
 11
76.7
 21
144.7029999999999
 31
0.0
  0
LINE
  5
66
330
1E
100
AcDbEntity
  8
0
100
AcDbLine
 10
80.4
 20
150.2029999999999
 30
0.0
 11
84.7
 21
155.1029999999999
 31
0.0
  0
LINE
  5
67
330
1E
100
AcDbEntity
  8
0
100
AcDbLine
 10
76.7
 20
144.7029999999999
 30
0.0
 11
80.4
 21
150.2029999999999
 31
0.0
  0
LINE
  5
68
330
1E
100
AcDbEntity
  8
0
100
AcDbLine
 10
84.7
 20
155.1029999999999
 30
0.0
 11
89.59999999999999
 21
159.403
 31
0.0
  0
LINE
  5
69
330
1E
100
AcDbEntity
  8
0
100
AcDbLine
 10
89.59999999999999
 20
159.403
 30
0.0
 11
95.09999999999999
 21
163.1029999999999
 31
0.0
  0
LINE
  5
6A
330
1E
100
AcDbEntity
  8
0
100
AcDbLine
 10
95.09999999999999
 20
163.1029999999999
 30
0.0
 11
100.9
 21
165.903
 31
0.0
  0
LINE
  5
6B
330
1E
100
AcDbEntity
  8
0
100
AcDbLine
 10
100.9
 20
165.903
 30
0.0
 11
107.0999999999999
 21
168.0029999999999
 31
0.0
  0
LINE
  5
6C
330
1E
100
AcDbEntity
  8
0
100
AcDbLine
 10
60.8
 20
222.9029999999999
 30
0.0
 11
74.5
 21
229.503
 31
0.0
  0
LINE
  5
6D
330
1E
100
AcDbEntity
  8
0
100
AcDbLine
 10
74.5
 20
229.503
 30
0.0
 11
89.29999999999999
 21
234.5029999999999
 31
0.0
  0
LINE
  5
6E
330
1E
100
AcDbEntity
  8
0
100
AcDbLine
 10
74.2
 20
230.403
 30
0.0
 11
89.0
 21
235.5029999999999
 31
0.0
  0
LINE
  5
6F
330
1E
100
AcDbEntity
  8
0
100
AcDbLine
 10
60.3
 20
223.703
 30
0.0
 11
74.2
 21
230.403
 31
0.0
  0
LINE
  5
70
330
1E
100
AcDbEntity
  8
0
100
AcDbLine
 10
89.29999999999999
 20
234.5029999999999
 30
0.0
 11
104.4
 21
237.6029999999999
 31
0.0
  0
LINE
  5
71
330
1E
100
AcDbEntity
  8
0
100
AcDbLine
 10
89.0
 20
235.5029999999999
 30
0.0
 11
104.4
 21
238.6029999999999
 31
0.0
  0
LINE
  5
72
330
1E
100
AcDbEntity
  8
0
100
AcDbLine
 10
104.0
 20
119.8029999999999
 30
0.0
 11
104.576
 21
123.259
 31
0.0
  0
LINE
  5
73
330
1E
100
AcDbEntity
  8
0
100
AcDbLine
 10
104.576
 20
123.259
 30
0.0
 11
106.112
 21
127.739
 31
0.0
  0
LINE
  5
74
330
1E
100
AcDbEntity
  8
0
100
AcDbLine
 10
106.112
 20
127.739
 30
0.0
 11
108.736
 21
131.067
 31
0.0
  0
LINE
  5
75
330
1E
100
AcDbEntity
  8
0
100
AcDbLine
 10
106.6879999999999
 20
127.4189999999999
 30
0.0
 11
109.1839999999999
 21
130.6189999999999
 31
0.0
  0
LINE
  5
76
330
1E
100
AcDbEntity
  8
0
100
AcDbLine
 10
105.216
 20
123.771
 30
0.0
 11
106.6879999999999
 21
127.4189999999999
 31
0.0
  0
LINE
  5
77
330
1E
100
AcDbEntity
  8
0
100
AcDbLine
 10
104.6399999999999
 20
119.8029999999999
 30
0.0
 11
105.216
 21
115.8349999999999
 31
0.0
  0
LINE
  5
78
330
1E
100
AcDbEntity
  8
0
100
AcDbLine
 10
104.6399999999999
 20
119.8029999999999
 30
0.0
 11
105.216
 21
123.771
 31
0.0
  0
LINE
  5
79
330
1E
100
AcDbEntity
  8
0
100
AcDbLine
 10
107.0999999999999
 20
168.0029999999999
 30
0.0
 11
108.0
 21
168.1858124999999
 31
0.0
  0
LINE
  5
7A
330
1E
100
AcDbEntity
  8
0
100
AcDbLine
 10
104.4
 20
237.6029999999999
 30
0.0
 11
108.0
 21
237.8799230769229
 31
0.0
  0
LINE
  5
7B
330
1E
100
AcDbEntity
  8
0
100
AcDbLine
 10
104.4
 20
238.6029999999999
 30
0.0
 11
108.0
 21
238.8799230769229
 31
0.0
  0
LINE
  5
7C
330
1E
100
AcDbEntity
  8
0
100
AcDbLine
 10
0.0
 20
119.8029999999999
 30
0.0
 11
1.199999999999999
 21
104.203
 31
0.0
  0
LINE
  5
7D
330
1E
100
AcDbEntity
  8
0
100
AcDbLine
 10
0.0
 20
119.8029999999999
 30
0.0
 11
1.199999999999999
 21
135.4029999999999
 31
0.0
  0
LINE
  5
7E
330
1E
100
AcDbEntity
  8
0
100
AcDbLine
 10
108.0
 20
130.1335365853659
 30
0.0
 11
108.0
 21
505.3420769230769
 31
0.0
  0
LINE
  5
7F
330
1E
100
AcDbEntity
  8
0
100
AcDbLine
 10
107.4999999999999
 20
470.803
 30
0.0
 11
107.4999999999999
 21
488.19842800659
 31
0.0
  0
LINE
  5
80
330
1E
100
AcDbEntity
  8
0
100
AcDbLine
 10
44.01399999999999
 20
504.4389999999999
 30
0.0
 11
44.01399999999999
 21
503.8389999999999
 31
0.0
  0
LINE
  5
81
330
1E
100
AcDbEntity
  8
0
100
AcDbLine
 10
44.01399999999999
 20
504.4389999999999
 30
0.0
 11
44.01399999999999
 21
506.139
 31
0.0
  0
LINE
  5
82
330
1E
100
AcDbEntity
  8
0
100
AcDbLine
 10
85.014
 20
503.8389999999999
 30
0.0
 11
102.4999999999999
 21
503.8389999999999
 31
0.0
  0
LINE
  5
83
330
1E
100
AcDbEntity
  8
0
100
AcDbLine
 10
85.014
 20
503.8389999999999
 30
0.0
 11
85.014
 21
504.4389999999999
 31
0.0
  0
LINE
  5
84
330
1E
100
AcDbEntity
  8
0
100
AcDbLine
 10
84.014
 20
504.4389999999999
 30
0.0
 11
84.014
 21
503.8389999999999
 31
0.0
  0
LINE
  5
85
330
1E
100
AcDbEntity
  8
0
100
AcDbLine
 10
84.014
 20
504.4389999999999
 30
0.0
 11
84.014
 21
506.139
 31
0.0
  0
LINE
  5
86
330
1E
100
AcDbEntity
  8
0
100
AcDbLine
 10
85.014
 20
504.4389999999999
 30
0.0
 11
85.014
 21
503.8389999999999
 31
0.0
  0
LINE
  5
87
330
1E
100
AcDbEntity
  8
0
100
AcDbLine
 10
85.014
 20
504.4389999999999
 30
0.0
 11
85.014
 21
506.139
 31
0.0
  0
LINE
  5
88
330
1E
100
AcDbEntity
  8
0
100
AcDbLine
 10
84.51399999999999
 20
504.839
 30
0.0
 11
85.014
 21
503.8389999999999
 31
0.0
  0
LINE
  5
89
330
1E
100
AcDbEntity
  8
0
100
AcDbLine
 10
84.51399999999999
 20
504.839
 30
0.0
 11
84.51399999999999
 21
505.439
 31
0.0
  0
LINE
  5
8A
330
1E
100
AcDbEntity
  8
0
100
AcDbLine
 10
84.014
 20
503.8389999999999
 30
0.0
 11
84.51399999999999
 21
504.839
 31
0.0
  0
LINE
  5
8B
330
1E
100
AcDbEntity
  8
0
100
AcDbLine
 10
84.014
 20
503.8389999999999
 30
0.0
 11
84.014
 21
504.4389999999999
 31
0.0
  0
LINE
  5
8C
330
1E
100
AcDbEntity
  8
0
100
AcDbLine
 10
44.01399999999999
 20
503.8389999999999
 30
0.0
 11
84.014
 21
503.8389999999999
 31
0.0
  0
LINE
  5
8D
330
1E
100
AcDbEntity
  8
0
100
AcDbLine
 10
44.01399999999999
 20
503.8389999999999
 30
0.0
 11
44.01399999999999
 21
504.4389999999999
 31
0.0
  0
LINE
  5
8E
330
1E
100
AcDbEntity
  8
0
100
AcDbLine
 10
43.014
 20
517.039
 30
0.0
 11
43.014
 21
521.339
 31
0.0
  0
LINE
  5
8F
330
1E
100
AcDbEntity
  8
0
100
AcDbLine
 10
43.014
 20
517.039
 30
0.0
 11
43.014
 21
513.139
 31
0.0
  0
LINE
  5
90
330
1E
100
AcDbEntity
  8
0
100
AcDbLine
 10
43.014
 20
513.139
 30
0.0
 11
43.014
 21
517.039
 31
0.0
  0
LINE
  5
91
330
1E
100
AcDbEntity
  8
0
100
AcDbLine
 10
43.014
 20
513.139
 30
0.0
 11
43.014
 21
509.739
 31
0.0
  0
LINE
  5
92
330
1E
100
AcDbEntity
  8
0
100
AcDbLine
 10
43.014
 20
509.739
 30
0.0
 11
43.014
 21
513.139
 31
0.0
  0
LINE
  5
93
330
1E
100
AcDbEntity
  8
0
100
AcDbLine
 10
43.014
 20
509.739
 30
0.0
 11
43.014
 21
507.0389999999999
 31
0.0
  0
LINE
  5
94
330
1E
100
AcDbEntity
  8
0
100
AcDbLine
 10
43.014
 20
507.0389999999999
 30
0.0
 11
43.014
 21
509.739
 31
0.0
  0
LINE
  5
95
330
1E
100
AcDbEntity
  8
0
100
AcDbLine
 10
43.014
 20
507.0389999999999
 30
0.0
 11
43.014
 21
505.439
 31
0.0
  0
LINE
  5
96
330
1E
100
AcDbEntity
  8
0
100
AcDbLine
 10
85.014
 20
506.139
 30
0.0
 11
85.014
 21
504.4389999999999
 31
0.0
  0
LINE
  5
97
330
1E
100
AcDbEntity
  8
0
100
AcDbLine
 10
85.014
 20
506.139
 30
0.0
 11
85.014
 21
508.939
 31
0.0
  0
LINE
  5
98
330
1E
100
AcDbEntity
  8
0
100
AcDbLine
 10
84.51399999999999
 20
505.439
 30
0.0
 11
84.51399999999999
 21
504.839
 31
0.0
  0
LINE
  5
99
330
1E
100
AcDbEntity
  8
0
100
AcDbLine
 10
84.51399999999999
 20
505.439
 30
0.0
 11
84.51399999999999
 21
507.0389999999999
 31
0.0
  0
LINE
  5
9A
330
1E
100
AcDbEntity
  8
0
100
AcDbLine
 10
84.014
 20
506.139
 30
0.0
 11
84.014
 21
504.4389999999999
 31
0.0
  0
LINE
  5
9B
330
1E
100
AcDbEntity
  8
0
100
AcDbLine
 10
84.014
 20
506.139
 30
0.0
 11
84.014
 21
508.939
 31
0.0
  0
LINE
  5
9C
330
1E
100
AcDbEntity
  8
0
100
AcDbLine
 10
44.01399999999999
 20
516.839
 30
0.0
 11
44.01399999999999
 21
512.6389999999999
 31
0.0
  0
LINE
  5
9D
330
1E
100
AcDbEntity
  8
0
100
AcDbLine
 10
44.01399999999999
 20
516.839
 30
0.0
 11
44.01399999999999
 21
521.339
 31
0.0
  0
LINE
  5
9E
330
1E
100
AcDbEntity
  8
0
100
AcDbLine
 10
44.01399999999999
 20
512.6389999999999
 30
0.0
 11
44.01399999999999
 21
508.939
 31
0.0
  0
LINE
  5
9F
330
1E
100
AcDbEntity
  8
0
100
AcDbLine
 10
44.01399999999999
 20
512.6389999999999
 30
0.0
 11
44.01399999999999
 21
516.839
 31
0.0
  0
LINE
  5
A0
330
1E
100
AcDbEntity
  8
0
100
AcDbLine
 10
85.014
 20
508.939
 30
0.0
 11
85.014
 21
506.139
 31
0.0
  0
LINE
  5
A1
330
1E
100
AcDbEntity
  8
0
100
AcDbLine
 10
85.014
 20
508.939
 30
0.0
 11
85.014
 21
512.6389999999999
 31
0.0
  0
LINE
  5
A2
330
1E
100
AcDbEntity
  8
0
100
AcDbLine
 10
84.51399999999999
 20
507.0389999999999
 30
0.0
 11
84.51399999999999
 21
505.439
 31
0.0
  0
LINE
  5
A3
330
1E
100
AcDbEntity
  8
0
100
AcDbLine
 10
84.51399999999999
 20
507.0389999999999
 30
0.0
 11
84.51399999999999
 21
509.739
 31
0.0
  0
LINE
  5
A4
330
1E
100
AcDbEntity
  8
0
100
AcDbLine
 10
84.014
 20
516.839
 30
0.0
 11
84.014
 21
512.6389999999999
 31
0.0
  0
LINE
  5
A5
330
1E
100
AcDbEntity
  8
0
100
AcDbLine
 10
84.014
 20
516.839
 30
0.0
 11
84.014
 21
521.339
 31
0.0
  0
LINE
  5
A6
330
1E
100
AcDbEntity
  8
0
100
AcDbLine
 10
84.51399999999999
 20
517.039
 30
0.0
 11
84.51399999999999
 21
513.139
 31
0.0
  0
LINE
  5
A7
330
1E
100
AcDbEntity
  8
0
100
AcDbLine
 10
84.51399999999999
 20
517.039
 30
0.0
 11
84.51399999999999
 21
521.339
 31
0.0
  0
LINE
  5
A8
330
1E
100
AcDbEntity
  8
0
100
AcDbLine
 10
85.014
 20
516.839
 30
0.0
 11
85.014
 21
512.6389999999999
 31
0.0
  0
LINE
  5
A9
330
1E
100
AcDbEntity
  8
0
100
AcDbLine
 10
85.014
 20
516.839
 30
0.0
 11
85.014
 21
521.339
 31
0.0
  0
LINE
  5
AA
330
1E
100
AcDbEntity
  8
0
100
AcDbLine
 10
85.014
 20
512.6389999999999
 30
0.0
 11
85.014
 21
508.939
 31
0.0
  0
LINE
  5
AB
330
1E
100
AcDbEntity
  8
0
100
AcDbLine
 10
85.014
 20
512.6389999999999
 30
0.0
 11
85.014
 21
516.839
 31
0.0
  0
LINE
  5
AC
330
1E
100
AcDbEntity
  8
0
100
AcDbLine
 10
84.51399999999999
 20
513.139
 30
0.0
 11
84.51399999999999
 21
509.739
 31
0.0
  0
LINE
  5
AD
330
1E
100
AcDbEntity
  8
0
100
AcDbLine
 10
84.51399999999999
 20
513.139
 30
0.0
 11
84.51399999999999
 21
517.039
 31
0.0
  0
LINE
  5
AE
330
1E
100
AcDbEntity
  8
0
100
AcDbLine
 10
84.51399999999999
 20
509.739
 30
0.0
 11
84.51399999999999
 21
507.0389999999999
 31
0.0
  0
LINE
  5
AF
330
1E
100
AcDbEntity
  8
0
100
AcDbLine
 10
84.51399999999999
 20
509.739
 30
0.0
 11
84.51399999999999
 21
513.139
 31
0.0
  0
LINE
  5
B0
330
1E
100
AcDbEntity
  8
0
100
AcDbLine
 10
84.014
 20
512.6389999999999
 30
0.0
 11
84.014
 21
508.939
 31
0.0
  0
LINE
  5
B1
330
1E
100
AcDbEntity
  8
0
100
AcDbLine
 10
84.014
 20
512.6389999999999
 30
0.0
 11
84.014
 21
516.839
 31
0.0
  0
LINE
  5
B2
330
1E
100
AcDbEntity
  8
0
100
AcDbLine
 10
84.014
 20
508.939
 30
0.0
 11
84.014
 21
506.139
 31
0.0
  0
LINE
  5
B3
330
1E
100
AcDbEntity
  8
0
100
AcDbLine
 10
84.014
 20
508.939
 30
0.0
 11
84.014
 21
512.6389999999999
 31
0.0
  0
LINE
  5
B4
330
1E
100
AcDbEntity
  8
0
100
AcDbLine
 10
44.01399999999999
 20
508.939
 30
0.0
 11
44.01399999999999
 21
506.139
 31
0.0
  0
LINE
  5
B5
330
1E
100
AcDbEntity
  8
0
100
AcDbLine
 10
44.01399999999999
 20
508.939
 30
0.0
 11
44.01399999999999
 21
512.6389999999999
 31
0.0
  0
LINE
  5
B6
330
1E
100
AcDbEntity
  8
0
100
AcDbLine
 10
44.01399999999999
 20
506.139
 30
0.0
 11
44.01399999999999
 21
504.4389999999999
 31
0.0
  0
LINE
  5
B7
330
1E
100
AcDbEntity
  8
0
100
AcDbLine
 10
44.01399999999999
 20
506.139
 30
0.0
 11
44.01399999999999
 21
508.939
 31
0.0
  0
LINE
  5
B8
330
1E
100
AcDbEntity
  8
0
100
AcDbLine
 10
43.014
 20
505.439
 30
0.0
 11
43.014
 21
507.0389999999999
 31
0.0
  0
LINE
  5
B9
330
1E
100
AcDbEntity
  8
0
100
AcDbLine
 10
43.014
 20
505.439
 30
0.0
 11
43.014
 21
504.839
 31
0.0
  0
LINE
  5
BA
330
1E
100
AcDbEntity
  8
0
100
AcDbLine
 10
43.014
 20
504.839
 30
0.0
 11
43.014
 21
505.439
 31
0.0
  0
LINE
  5
BB
330
1E
100
AcDbEntity
  8
0
100
AcDbLine
 10
43.014
 20
504.839
 30
0.0
 11
44.01399999999999
 21
503.8389999999999
 31
0.0
  0
LINE
  5
C4
330
1E
100
AcDbEntity
  8
0
100
AcDbLine
 10
102.4999999999999
 20
512.4249999999999
 30
0.0
 11
102.4999999999999
 21
498.003
 31
0.0
  0
LINE
  5
C5
330
1E
100
AcDbEntity
  8
0
100
AcDbLine
 10
102.4999999999999
 20
498.003
 30
0.0
 11
102.4999999999999
 21
512.4249999999999
 31
0.0
  0
LINE
  5
C6
330
1E
100
AcDbEntity
  8
0
100
AcDbLine
 10
102.4999999999999
 20
498.003
 30
0.0
 11
102.8359999999999
 21
498.0
 31
0.0
  0
LINE
  5
C7
330
1E
100
AcDbEntity
  8
0
100
AcDbLine
 10
102.4999999999999
 20
498.003
 30
0.0
 11
103.0
 21
497.503
 31
0.0
  0
LINE
  5
C9
330
1E
100
AcDbEntity
  8
0
100
AcDbLine
 10
102.444
 20
515.091
 30
0.0
 11
104.192
 21
510.759
 31
0.0
  0
LINE
  5
CA
330
1E
100
AcDbEntity
  8
0
100
AcDbLine
 10
85.014
 20
521.339
 30
0.0
 11
85.014
 21
516.839
 31
0.0
  0
LINE
  5
CB
330
1E
100
AcDbEntity
  8
0
100
AcDbLine
 10
85.014
 20
521.339
 30
0.0
 11
85.014
 21
525.839
 31
0.0
  0
LINE
  5
CC
330
1E
100
AcDbEntity
  8
0
100
AcDbLine
 10
84.51399999999999
 20
521.339
 30
0.0
 11
84.51399999999999
 21
517.039
 31
0.0
  0
LINE
  5
CD
330
1E
100
AcDbEntity
  8
0
100
AcDbLine
 10
84.51399999999999
 20
521.339
 30
0.0
 11
84.51399999999999
 21
525.639
 31
0.0
  0
LINE
  5
CE
330
1E
100
AcDbEntity
  8
0
100
AcDbLine
 10
84.014
 20
521.339
 30
0.0
 11
84.014
 21
516.839
 31
0.0
  0
LINE
  5
CF
330
1E
100
AcDbEntity
  8
0
100
AcDbLine
 10
84.014
 20
521.339
 30
0.0
 11
84.014
 21
525.839
 31
0.0
  0
LINE
  5
D0
330
1E
100
AcDbEntity
  8
0
100
AcDbLine
 10
44.01399999999999
 20
521.339
 30
0.0
 11
44.01399999999999
 21
516.839
 31
0.0
  0
LINE
  5
D1
330
1E
100
AcDbEntity
  8
0
100
AcDbLine
 10
44.01399999999999
 20
521.339
 30
0.0
 11
44.01399999999999
 21
525.839
 31
0.0
  0
LINE
  5
D2
330
1E
100
AcDbEntity
  8
0
100
AcDbLine
 10
43.014
 20
521.339
 30
0.0
 11
43.014
 21
517.039
 31
0.0
  0
LINE
  5
D3
330
1E
100
AcDbEntity
  8
0
100
AcDbLine
 10
43.014
 20
521.339
 30
0.0
 11
43.014
 21
525.639
 31
0.0
  0
LINE
  5
D7
330
1E
100
AcDbEntity
  8
0
100
AcDbLine
 10
43.014
 20
525.639
 30
0.0
 11
43.014
 21
521.339
 31
0.0
  0
LINE
  5
D8
330
1E
100
AcDbEntity
  8
0
100
AcDbLine
 10
43.014
 20
525.639
 30
0.0
 11
43.014
 21
529.539
 31
0.0
  0
LINE
  5
D9
330
1E
100
AcDbEntity
  8
0
100
AcDbLine
 10
43.014
 20
529.539
 30
0.0
 11
43.014
 21
525.639
 31
0.0
  0
LINE
  5
DA
330
1E
100
AcDbEntity
  8
0
100
AcDbLine
 10
43.014
 20
529.539
 30
0.0
 11
43.014
 21
532.939
 31
0.0
  0
LINE
  5
DB
330
1E
100
AcDbEntity
  8
0
100
AcDbLine
 10
43.014
 20
532.939
 30
0.0
 11
43.014
 21
529.539
 31
0.0
  0
LINE
  5
DC
330
1E
100
AcDbEntity
  8
0
100
AcDbLine
 10
43.014
 20
532.939
 30
0.0
 11
43.014
 21
535.639
 31
0.0
  0
LINE
  5
DD
330
1E
100
AcDbEntity
  8
0
100
AcDbLine
 10
43.014
 20
535.639
 30
0.0
 11
43.014
 21
532.939
 31
0.0
  0
LINE
  5
DE
330
1E
100
AcDbEntity
  8
0
100
AcDbLine
 10
43.014
 20
535.639
 30
0.0
 11
43.014
 21
537.239
 31
0.0
  0
LINE
  5
DF
330
1E
100
AcDbEntity
  8
0
100
AcDbLine
 10
44.01399999999999
 20
525.839
 30
0.0
 11
44.01399999999999
 21
521.339
 31
0.0
  0
LINE
  5
E0
330
1E
100
AcDbEntity
  8
0
100
AcDbLine
 10
44.01399999999999
 20
525.839
 30
0.0
 11
44.01399999999999
 21
530.039
 31
0.0
  0
LINE
  5
E1
330
1E
100
AcDbEntity
  8
0
100
AcDbLine
 10
44.01399999999999
 20
530.039
 30
0.0
 11
44.01399999999999
 21
525.839
 31
0.0
  0
LINE
  5
E2
330
1E
100
AcDbEntity
  8
0
100
AcDbLine
 10
44.01399999999999
 20
530.039
 30
0.0
 11
44.01399999999999
 21
533.739
 31
0.0
  0
LINE
  5
E3
330
1E
100
AcDbEntity
  8
0
100
AcDbLine
 10
84.014
 20
525.839
 30
0.0
 11
84.014
 21
521.339
 31
0.0
  0
LINE
  5
E4
330
1E
100
AcDbEntity
  8
0
100
AcDbLine
 10
84.014
 20
525.839
 30
0.0
 11
84.014
 21
530.039
 31
0.0
  0
LINE
  5
E5
330
1E
100
AcDbEntity
  8
0
100
AcDbLine
 10
84.014
 20
530.039
 30
0.0
 11
84.014
 21
525.839
 31
0.0
  0
LINE
  5
E6
330
1E
100
AcDbEntity
  8
0
100
AcDbLine
 10
84.014
 20
530.039
 30
0.0
 11
84.014
 21
533.739
 31
0.0
  0
LINE
  5
E7
330
1E
100
AcDbEntity
  8
0
100
AcDbLine
 10
84.51399999999999
 20
525.639
 30
0.0
 11
84.51399999999999
 21
521.339
 31
0.0
  0
LINE
  5
E8
330
1E
100
AcDbEntity
  8
0
100
AcDbLine
 10
84.51399999999999
 20
525.639
 30
0.0
 11
84.51399999999999
 21
529.539
 31
0.0
  0
LINE
  5
E9
330
1E
100
AcDbEntity
  8
0
100
AcDbLine
 10
84.51399999999999
 20
529.539
 30
0.0
 11
84.51399999999999
 21
525.639
 31
0.0
  0
LINE
  5
EA
330
1E
100
AcDbEntity
  8
0
100
AcDbLine
 10
84.51399999999999
 20
529.539
 30
0.0
 11
84.51399999999999
 21
532.939
 31
0.0
  0
LINE
  5
EB
330
1E
100
AcDbEntity
  8
0
100
AcDbLine
 10
85.014
 20
525.839
 30
0.0
 11
85.014
 21
521.339
 31
0.0
  0
LINE
  5
EC
330
1E
100
AcDbEntity
  8
0
100
AcDbLine
 10
85.014
 20
525.839
 30
0.0
 11
85.014
 21
530.039
 31
0.0
  0
LINE
  5
ED
330
1E
100
AcDbEntity
  8
0
100
AcDbLine
 10
85.014
 20
530.039
 30
0.0
 11
85.014
 21
525.839
 31
0.0
  0
LINE
  5
EE
330
1E
100
AcDbEntity
  8
0
100
AcDbLine
 10
85.014
 20
530.039
 30
0.0
 11
85.014
 21
533.739
 31
0.0
  0
LINE
  5
EF
330
1E
100
AcDbEntity
  8
0
100
AcDbLine
 10
85.014
 20
533.739
 30
0.0
 11
85.014
 21
530.039
 31
0.0
  0
LINE
  5
F0
330
1E
100
AcDbEntity
  8
0
100
AcDbLine
 10
85.014
 20
533.739
 30
0.0
 11
85.014
 21
536.5389999999999
 31
0.0
  0
LINE
  5
F1
330
1E
100
AcDbEntity
  8
0
100
AcDbLine
 10
84.51399999999999
 20
532.939
 30
0.0
 11
84.51399999999999
 21
529.539
 31
0.0
  0
LINE
  5
F2
330
1E
100
AcDbEntity
  8
0
100
AcDbLine
 10
84.51399999999999
 20
532.939
 30
0.0
 11
84.51399999999999
 21
535.639
 31
0.0
  0
LINE
  5
F3
330
1E
100
AcDbEntity
  8
0
100
AcDbLine
 10
85.014
 20
536.5389999999999
 30
0.0
 11
85.014
 21
533.739
 31
0.0
  0
LINE
  5
F4
330
1E
100
AcDbEntity
  8
0
100
AcDbLine
 10
85.014
 20
536.5389999999999
 30
0.0
 11
85.014
 21
538.239
 31
0.0
  0
LINE
  5
F5
330
1E
100
AcDbEntity
  8
0
100
AcDbLine
 10
84.51399999999999
 20
535.639
 30
0.0
 11
84.51399999999999
 21
532.939
 31
0.0
  0
LINE
  5
F6
330
1E
100
AcDbEntity
  8
0
100
AcDbLine
 10
84.51399999999999
 20
535.639
 30
0.0
 11
84.51399999999999
 21
537.239
 31
0.0
  0
LINE
  5
F7
330
1E
100
AcDbEntity
  8
0
100
AcDbLine
 10
84.014
 20
533.739
 30
0.0
 11
84.014
 21
530.039
 31
0.0
  0
LINE
  5
F8
330
1E
100
AcDbEntity
  8
0
100
AcDbLine
 10
84.014
 20
533.739
 30
0.0
 11
84.014
 21
536.5389999999999
 31
0.0
  0
LINE
  5
F9
330
1E
100
AcDbEntity
  8
0
100
AcDbLine
 10
84.014
 20
536.5389999999999
 30
0.0
 11
84.014
 21
533.739
 31
0.0
  0
LINE
  5
FA
330
1E
100
AcDbEntity
  8
0
100
AcDbLine
 10
84.014
 20
536.5389999999999
 30
0.0
 11
84.014
 21
538.239
 31
0.0
  0
LINE
  5
FB
330
1E
100
AcDbEntity
  8
0
100
AcDbLine
 10
44.01399999999999
 20
533.739
 30
0.0
 11
44.01399999999999
 21
530.039
 31
0.0
  0
LINE
  5
FC
330
1E
100
AcDbEntity
  8
0
100
AcDbLine
 10
44.01399999999999
 20
533.739
 30
0.0
 11
44.01399999999999
 21
536.5389999999999
 31
0.0
  0
LINE
  5
FD
330
1E
100
AcDbEntity
  8
0
100
AcDbLine
 10
84.51399999999999
 20
537.239
 30
0.0
 11
84.51399999999999
 21
535.639
 31
0.0
  0
LINE
  5
FE
330
1E
100
AcDbEntity
  8
0
100
AcDbLine
 10
84.51399999999999
 20
537.239
 30
0.0
 11
84.51399999999999
 21
537.839
 31
0.0
  0
LINE
  5
FF
330
1E
100
AcDbEntity
  8
0
100
AcDbLine
 10
84.51399999999999
 20
537.839
 30
0.0
 11
84.51399999999999
 21
537.239
 31
0.0
  0
LINE
  5
100
330
1E
100
AcDbEntity
  8
0
100
AcDbLine
 10
84.51399999999999
 20
537.839
 30
0.0
 11
85.014
 21
538.839
 31
0.0
  0
LINE
  5
101
330
1E
100
AcDbEntity
  8
0
100
AcDbLine
 10
44.01399999999999
 20
536.5389999999999
 30
0.0
 11
44.01399999999999
 21
533.739
 31
0.0
  0
LINE
  5
102
330
1E
100
AcDbEntity
  8
0
100
AcDbLine
 10
44.01399999999999
 20
536.5389999999999
 30
0.0
 11
44.01399999999999
 21
538.239
 31
0.0
  0
LINE
  5
103
330
1E
100
AcDbEntity
  8
0
100
AcDbLine
 10
43.014
 20
537.239
 30
0.0
 11
43.014
 21
535.639
 31
0.0
  0
LINE
  5
104
330
1E
100
AcDbEntity
  8
0
100
AcDbLine
 10
43.014
 20
537.239
 30
0.0
 11
43.014
 21
537.839
 31
0.0
  0
LINE
  5
105
330
1E
100
AcDbEntity
  8
0
100
AcDbLine
 10
44.01399999999999
 20
538.239
 30
0.0
 11
44.01399999999999
 21
536.5389999999999
 31
0.0
  0
LINE
  5
106
330
1E
100
AcDbEntity
  8
0
100
AcDbLine
 10
44.01399999999999
 20
538.239
 30
0.0
 11
44.01399999999999
 21
538.839
 31
0.0
  0
LINE
  5
107
330
1E
100
AcDbEntity
  8
0
100
AcDbLine
 10
85.014
 20
538.239
 30
0.0
 11
85.014
 21
536.5389999999999
 31
0.0
  0
LINE
  5
108
330
1E
100
AcDbEntity
  8
0
100
AcDbLine
 10
85.014
 20
538.239
 30
0.0
 11
85.014
 21
538.839
 31
0.0
  0
LINE
  5
109
330
1E
100
AcDbEntity
  8
0
100
AcDbLine
 10
85.014
 20
538.839
 30
0.0
 11
85.014
 21
538.239
 31
0.0
  0
LINE
  5
10A
330
1E
100
AcDbEntity
  8
0
100
AcDbLine
 10
85.014
 20
538.839
 30
0.0
 11
102.5404501255549
 21
538.839
 31
0.0
  0
LINE
  5
10B
330
1E
100
AcDbEntity
  8
0
100
AcDbLine
 10
84.014
 20
538.239
 30
0.0
 11
84.014
 21
536.5389999999999
 31
0.0
  0
LINE
  5
10C
330
1E
100
AcDbEntity
  8
0
100
AcDbLine
 10
84.014
 20
538.239
 30
0.0
 11
84.014
 21
538.839
 31
0.0
  0
LINE
  5
10D
330
1E
100
AcDbEntity
  8
0
100
AcDbLine
 10
84.014
 20
538.839
 30
0.0
 11
84.014
 21
538.239
 31
0.0
  0
LINE
  5
10E
330
1E
100
AcDbEntity
  8
0
100
AcDbLine
 10
84.014
 20
538.839
 30
0.0
 11
84.51399999999999
 21
537.839
 31
0.0
  0
LINE
  5
10F
330
1E
100
AcDbEntity
  8
0
100
AcDbLine
 10
44.01399999999999
 20
538.839
 30
0.0
 11
44.01399999999999
 21
538.239
 31
0.0
  0
LINE
  5
110
330
1E
100
AcDbEntity
  8
0
100
AcDbLine
 10
44.01399999999999
 20
538.839
 30
0.0
 11
84.014
 21
538.839
 31
0.0
  0
LINE
  5
111
330
1E
100
AcDbEntity
  8
0
100
AcDbLine
 10
43.014
 20
537.839
 30
0.0
 11
43.014
 21
537.239
 31
0.0
  0
LINE
  5
112
330
1E
100
AcDbEntity
  8
0
100
AcDbLine
 10
43.014
 20
537.839
 30
0.0
 11
44.01399999999999
 21
538.839
 31
0.0
  0
LINE
  5
115
330
1E
100
AcDbEntity
  8
0
100
AcDbLine
 10
78.0
 20
600.2029999999999
 30
0.0
 11
78.0
 21
610.203
 31
0.0
  0
LINE
  5
117
330
1E
100
AcDbEntity
  8
0
100
AcDbLine
 10
78.0
 20
610.203
 30
0.0
 11
78.0
 21
600.2029999999999
 31
0.0
  0
LINE
  5
118
330
1E
100
AcDbEntity
  8
0
100
AcDbLine
 10
78.0
 20
610.203
 30
0.0
 11
81.19710000000001
 21
610.216
 31
0.0
  0
LINE
  5
119
330
1E
100
AcDbEntity
  8
0
100
AcDbLine
 10
78.0
 20
610.2009999999999
 30
0.0
 11
78.0
 21
600.201
 31
0.0
  0
LINE
  5
11C
330
1E
100
AcDbEntity
  8
0
100
AcDbLine
 10
90.3016
 20
610.2269999999999
 30
0.0
 11
103.927
 21
610.234
 31
0.0
  0
LINE
  5
11D
330
1E
100
AcDbEntity
  8
0
100
AcDbLine
 10
81.19710000000001
 20
610.216
 30
0.0
 11
90.3016
 21
610.2269999999999
 31
0.0
  0
LINE
  5
120
330
1E
100
AcDbEntity
  8
0
100
AcDbLine
 10
78.0
 20
600.201
 30
0.0
 11
78.0
 21
610.2009999999999
 31
0.0
  0
LINE
  5
121
330
1E
100
AcDbEntity
  8
0
100
AcDbLine
 10
78.0
 20
600.201
 30
0.0
 11
78.25576800000691
 21
600.2019599999999
 31
0.0
  0
LINE
  5
12D
330
1E
100
AcDbEntity
  8
0
100
AcDbLine
 10
102.4999999999999
 20
599.503
 30
0.0
 11
102.547
 21
529.0159999999999
 31
0.0
  0
LINE
  5
12F
330
1E
100
AcDbEntity
  8
0
100
AcDbLine
 10
102.444
 20
524.5149999999999
 30
0.0
 11
104.192
 21
528.847
 31
0.0
  0
LINE
  5
130
330
1E
100
AcDbEntity
  8
0
100
AcDbLine
 10
101.76
 20
519.803
 30
0.0
 11
102.444
 21
515.091
 31
0.0
  0
LINE
  5
131
330
1E
100
AcDbEntity
  8
0
100
AcDbLine
 10
101.76
 20
519.803
 30
0.0
 11
102.444
 21
524.5149999999999
 31
0.0
  0
LINE
  5
132
330
1E
100
AcDbEntity
  8
0
100
AcDbLine
 10
102.8359999999999
 20
498.0
 30
0.0
 11
103.832
 21
497.998
 31
0.0
  0
LINE
  5
133
330
1E
100
AcDbEntity
  8
0
100
AcDbLine
 10
103.832
 20
497.998
 30
0.0
 11
105.4489999999999
 21
497.995
 31
0.0
  0
LINE
  5
134
330
1E
100
AcDbEntity
  8
0
100
AcDbLine
 10
103.0
 20
497.503
 30
0.0
 11
103.327
 21
497.5
 31
0.0
  0
LINE
  5
135
330
1E
100
AcDbEntity
  8
0
100
AcDbLine
 10
103.327
 20
497.5
 30
0.0
 11
104.2939999999999
 21
497.498
 31
0.0
  0
LINE
  5
13F
330
1E
100
AcDbEntity
  8
0
100
AcDbLine
 10
103.927
 20
610.234
 30
0.0
 11
120.0
 21
610.236
 31
0.0
  0
LINE
  5
145
330
1E
100
AcDbEntity
  8
0
100
AcDbLine
 10
104.192
 20
528.847
 30
0.0
 11
107.156
 21
532.6469999999999
 31
0.0
  0
LINE
  5
147
330
1E
100
AcDbEntity
  8
0
100
AcDbLine
 10
105.4489999999999
 20
497.995
 30
0.0
 11
107.6259999999999
 21
497.993
 31
0.0
  0
LINE
  5
148
330
1E
100
AcDbEntity
  8
0
100
AcDbLine
 10
104.2939999999999
 20
497.498
 30
0.0
 11
105.8649999999999
 21
497.496
 31
0.0
  0
LINE
  5
149
330
1E
100
AcDbEntity
  8
0
100
AcDbLine
 10
106.0
 20
497.495808420057
 30
0.0
 11
106.0
 21
488.203
 31
0.0
  0
LINE
  5
14A
330
1E
100
AcDbEntity
  8
0
100
AcDbLine
 10
106.0
 20
488.203
 30
0.0
 11
107.0659999999999
 21
488.199
 31
0.0
  0
LINE
  5
14B
330
1E
100
AcDbEntity
  8
0
100
AcDbLine
 10
106.0
 20
488.203
 30
0.0
 11
106.0
 21
497.495808420057
 31
0.0
  0
LINE
  5
14C
330
1E
100
AcDbEntity
  8
0
100
AcDbLine
 10
106.0
 20
488.203
 30
0.0
 11
107.0659999999999
 21
488.2069999999999
 31
0.0
  0
LINE
  5
14D
330
1E
100
AcDbEntity
  8
0
100
AcDbLine
 10
105.8649999999999
 20
497.496
 30
0.0
 11
107.979
 21
497.493
 31
0.0
  0
LINE
  5
14F
330
1E
100
AcDbEntity
  8
0
100
AcDbLine
 10
107.0659999999999
 20
488.2069999999999
 30
0.0
 11
108.0
 21
488.208230971993
 31
0.0
  0
LINE
  5
150
330
1E
100
AcDbEntity
  8
0
100
AcDbLine
 10
107.0659999999999
 20
488.199
 30
0.0
 11
108.0
 21
488.1977690280069
 31
0.0
  0
LINE
  5
151
330
1E
100
AcDbEntity
  8
0
100
AcDbLine
 10
107.6259999999999
 20
497.993
 30
0.0
 11
108.0
 21
497.9927178423239
 31
0.0
  0
LINE
  5
152
330
1E
100
AcDbEntity
  8
0
100
AcDbLine
 10
108.0
 20
505.3420769230769
 30
0.0
 11
108.0
 21
130.1335365853659
 31
0.0
  0
LINE
  5
15F
330
1E
100
AcDbEntity
  8
0
100
AcDbLine
 10
107.156
 20
532.6469999999999
 30
0.0
 11
110.956
 21
535.611
 31
0.0
  0
LINE
  5
160
330
1E
100
AcDbEntity
  8
0
100
AcDbLine
 10
107.156
 20
506.9589999999999
 30
0.0
 11
110.956
 21
503.995
 31
0.0
  0
LINE
  5
161
330
1E
100
AcDbEntity
  8
0
100
AcDbLine
 10
104.192
 20
510.759
 30
0.0
 11
107.156
 21
506.9589999999999
 31
0.0
  0
LINE
  5
162
330
1E
100
AcDbEntity
  8
0
100
AcDbLine
 10
107.4999999999999
 20
488.19842800659
 30
0.0
 11
107.4999999999999
 21
470.803
 31
0.0
  0
LINE
  5
163
330
1E
100
AcDbEntity
  8
0
100
AcDbLine
 10
102.4999999999999
 20
503.8389999999999
 30
0.0
 11
102.4999999999999
 21
470.803
 31
0.0
  0
LINE
  5
164
330
1E
100
AcDbEntity
  8
0
100
AcDbLine
 10
102.4999999999999
 20
470.803
 30
0.0
 11
107.4999999999999
 21
470.803
 31
0.0
  0
LINE
  5
165
330
1E
100
AcDbEntity
  8
0
100
AcDbLine
 10
102.4999999999999
 20
470.803
 30
0.0
 11
102.4999999999999
 21
503.8389999999999
 31
0.0
  0
LINE
  5
166
330
1E
100
AcDbEntity
  8
0
100
AcDbLine
 10
108.736
 20
131.067
 30
0.0
 11
112.0639999999999
 21
133.691
 31
0.0
  0
LINE
  5
167
330
1E
100
AcDbEntity
  8
0
100
AcDbLine
 10
109.1839999999999
 20
130.6189999999999
 30
0.0
 11
112.3839999999999
 21
133.115
 31
0.0
  0
LINE
  5
168
330
1E
100
AcDbEntity
  8
0
100
AcDbLine
 10
108.736
 20
108.539
 30
0.0
 11
112.0639999999999
 21
105.915
 31
0.0
  0
LINE
  5
169
330
1E
100
AcDbEntity
  8
0
100
AcDbLine
 10
112.0639999999999
 20
105.915
 30
0.0
 11
115.904
 21
104.3789999999999
 31
0.0
  0
LINE
  5
16A
330
1E
100
AcDbEntity
  8
0
100
AcDbLine
 10
112.0639999999999
 20
133.691
 30
0.0
 11
115.904
 21
135.227
 31
0.0
  0
LINE
  5
16B
330
1E
100
AcDbEntity
  8
0
100
AcDbLine
 10
112.3839999999999
 20
133.115
 30
0.0
 11
116.032
 21
134.587
 31
0.0
  0
LINE
  5
16C
330
1E
100
AcDbEntity
  8
0
100
AcDbLine
 10
112.3839999999999
 20
106.491
 30
0.0
 11
116.032
 21
105.0189999999999
 31
0.0
  0
LINE
  5
16D
330
1E
100
AcDbEntity
  8
0
100
AcDbLine
 10
109.1839999999999
 20
108.987
 30
0.0
 11
112.3839999999999
 21
106.491
 31
0.0
  0
LINE
  5
16E
330
1E
100
AcDbEntity
  8
0
100
AcDbLine
 10
120.0
 20
103.803
 30
0.0
 11
124.096
 21
104.3789999999999
 31
0.0
  0
LINE
  5
16F
330
1E
100
AcDbEntity
  8
0
100
AcDbLine
 10
124.096
 20
104.3789999999999
 30
0.0
 11
127.936
 21
105.915
 31
0.0
  0
LINE
  5
170
330
1E
100
AcDbEntity
  8
0
100
AcDbLine
 10
120.0
 20
104.4429999999999
 30
0.0
 11
123.9679999999999
 21
105.0189999999999
 31
0.0
  0
LINE
  5
171
330
1E
100
AcDbEntity
  8
0
100
AcDbLine
 10
123.9679999999999
 20
105.0189999999999
 30
0.0
 11
127.6159999999999
 21
106.491
 31
0.0
  0
LINE
  5
172
330
1E
100
AcDbEntity
  8
0
100
AcDbLine
 10
115.904
 20
104.3789999999999
 30
0.0
 11
120.0
 21
103.803
 31
0.0
  0
LINE
  5
173
330
1E
100
AcDbEntity
  8
0
100
AcDbLine
 10
115.904
 20
135.227
 30
0.0
 11
120.0
 21
135.803
 31
0.0
  0
LINE
  5
174
330
1E
100
AcDbEntity
  8
0
100
AcDbLine
 10
120.0
 20
135.803
 30
0.0
 11
124.096
 21
135.227
 31
0.0
  0
LINE
  5
175
330
1E
100
AcDbEntity
  8
0
100
AcDbLine
 10
124.096
 20
135.227
 30
0.0
 11
127.936
 21
133.691
 31
0.0
  0
LINE
  5
176
330
1E
100
AcDbEntity
  8
0
100
AcDbLine
 10
120.0
 20
135.1629999999999
 30
0.0
 11
123.9679999999999
 21
134.587
 31
0.0
  0
LINE
  5
177
330
1E
100
AcDbEntity
  8
0
100
AcDbLine
 10
123.9679999999999
 20
134.587
 30
0.0
 11
127.6159999999999
 21
133.115
 31
0.0
  0
LINE
  5
178
330
1E
100
AcDbEntity
  8
0
100
AcDbLine
 10
116.032
 20
134.587
 30
0.0
 11
120.0
 21
135.1629999999999
 31
0.0
  0
LINE
  5
179
330
1E
100
AcDbEntity
  8
0
100
AcDbLine
 10
116.032
 20
105.0189999999999
 30
0.0
 11
120.0
 21
104.4429999999999
 31
0.0
  0
LINE
  5
17A
330
1E
100
AcDbEntity
  8
0
100
AcDbLine
 10
120.0
 20
69.80300000000011
 30
0.0
 11
126.5
 21
70.30300000000011
 31
0.0
  0
LINE
  5
17B
330
1E
100
AcDbEntity
  8
0
100
AcDbLine
 10
127.936
 20
133.691
 30
0.0
 11
131.264
 21
131.067
 31
0.0
  0
LINE
  5
17C
330
1E
100
AcDbEntity
  8
0
100
AcDbLine
 10
127.6159999999999
 20
133.115
 30
0.0
 11
130.8159999999999
 21
130.6189999999999
 31
0.0
  0
LINE
  5
17D
330
1E
100
AcDbEntity
  8
0
100
AcDbLine
 10
127.6159999999999
 20
106.491
 30
0.0
 11
130.8159999999999
 21
108.987
 31
0.0
  0
LINE
  5
17E
330
1E
100
AcDbEntity
  8
0
100
AcDbLine
 10
131.264
 20
108.539
 30
0.0
 11
133.888
 21
111.867
 31
0.0
  0
LINE
  5
17F
330
1E
100
AcDbEntity
  8
0
100
AcDbLine
 10
132.0
 20
130.1335365853659
 30
0.0
 11
132.0
 21
505.3420769230769
 31
0.0
  0
LINE
  5
180
330
1E
100
AcDbEntity
  8
0
100
AcDbLine
 10
131.264
 20
131.067
 30
0.0
 11
133.888
 21
127.739
 31
0.0
  0
LINE
  5
181
330
1E
100
AcDbEntity
  8
0
100
AcDbLine
 10
130.8159999999999
 20
130.6189999999999
 30
0.0
 11
133.312
 21
127.4189999999999
 31
0.0
  0
LINE
  5
182
330
1E
100
AcDbEntity
  8
0
100
AcDbLine
 10
130.8159999999999
 20
108.987
 30
0.0
 11
133.312
 21
112.187
 31
0.0
  0
LINE
  5
183
330
1E
100
AcDbEntity
  8
0
100
AcDbLine
 10
130.8159999999999
 20
108.987
 30
0.0
 11
133.312
 21
112.187
 31
0.0
  0
LINE
  5
184
330
1E
100
AcDbEntity
  8
0
100
AcDbLine
 10
132.0
 20
168.1858124999999
 30
0.0
 11
132.9
 21
168.0029999999999
 31
0.0
  0
LINE
  5
185
330
1E
100
AcDbEntity
  8
0
100
AcDbLine
 10
132.0
 20
237.8799230769229
 30
0.0
 11
135.5999999999999
 21
237.6029999999999
 31
0.0
  0
LINE
  5
186
330
1E
100
AcDbEntity
  8
0
100
AcDbLine
 10
132.9
 20
168.0029999999999
 30
0.0
 11
139.1
 21
165.903
 31
0.0
  0
LINE
  5
187
330
1E
100
AcDbEntity
  8
0
100
AcDbLine
 10
132.0
 20
238.8799230769229
 30
0.0
 11
135.5999999999999
 21
238.6029999999999
 31
0.0
  0
LINE
  5
188
330
1E
100
AcDbEntity
  8
0
100
AcDbLine
 10
133.888
 20
127.739
 30
0.0
 11
135.424
 21
123.259
 31
0.0
  0
LINE
  5
189
330
1E
100
AcDbEntity
  8
0
100
AcDbLine
 10
133.312
 20
127.4189999999999
 30
0.0
 11
134.7839999999999
 21
123.771
 31
0.0
  0
LINE
  5
18A
330
1E
100
AcDbEntity
  8
0
100
AcDbLine
 10
134.7839999999999
 20
123.771
 30
0.0
 11
135.36
 21
119.8029999999999
 31
0.0
  0
LINE
  5
18B
330
1E
100
AcDbEntity
  8
0
100
AcDbLine
 10
133.312
 20
112.187
 30
0.0
 11
134.7839999999999
 21
115.8349999999999
 31
0.0
  0
LINE
  5
18C
330
1E
100
AcDbEntity
  8
0
100
AcDbLine
 10
135.424
 20
123.259
 30
0.0
 11
136.0
 21
119.8029999999999
 31
0.0
  0
LINE
  5
18D
330
1E
100
AcDbEntity
  8
0
100
AcDbLine
 10
134.7839999999999
 20
115.8349999999999
 30
0.0
 11
135.36
 21
119.8029999999999
 31
0.0
  0
LINE
  5
18E
330
1E
100
AcDbEntity
  8
0
100
AcDbLine
 10
135.5999999999999
 20
237.6029999999999
 30
0.0
 11
150.6999999999999
 21
234.5029999999999
 31
0.0
  0
LINE
  5
18F
330
1E
100
AcDbEntity
  8
0
100
AcDbLine
 10
135.5999999999999
 20
238.6029999999999
 30
0.0
 11
151.0
 21
235.5029999999999
 31
0.0
  0
LINE
  5
190
330
1E
100
AcDbEntity
  8
0
100
AcDbLine
 10
132.9
 20
71.6030000000001
 30
0.0
 11
139.1
 21
73.7030000000001
 31
0.0
  0
LINE
  5
191
330
1E
100
AcDbEntity
  8
0
100
AcDbLine
 10
135.5999999999999
 20
2.00300000000006
 30
0.0
 11
150.6999999999999
 21
5.103000000000059
 31
0.0
  0
LINE
  5
192
330
1E
100
AcDbEntity
  8
0
100
AcDbLine
 10
126.5
 20
70.30300000000011
 30
0.0
 11
132.9
 21
71.6030000000001
 31
0.0
  0
LINE
  5
193
330
1E
100
AcDbEntity
  8
0
100
AcDbLine
 10
135.5999999999999
 20
2.00300000000006
 30
0.0
 11
150.6999999999999
 21
5.103000000000059
 31
0.0
  0
LINE
  5
194
330
1E
100
AcDbEntity
  8
0
100
AcDbLine
 10
135.5999999999999
 20
1.00300000000006
 30
0.0
 11
151.0
 21
4.10300000000006
 31
0.0
  0
LINE
  5
195
330
1E
100
AcDbEntity
  8
0
100
AcDbLine
 10
120.0
 20
0.8030000000000619
 30
0.0
 11
135.5999999999999
 21
2.00300000000006
 31
0.0
  0
LINE
  5
196
330
1E
100
AcDbEntity
  8
0
100
AcDbLine
 10
135.5999999999999
 20
1.00300000000006
 30
0.0
 11
151.0
 21
4.10300000000006
 31
0.0
  0
LINE
  5
197
330
1E
100
AcDbEntity
  8
0
100
AcDbLine
 10
120.0
 20
-0.196999999999938
 30
0.0
 11
135.5999999999999
 21
1.00300000000006
 31
0.0
  0
LINE
  5
198
330
1E
100
AcDbEntity
  8
0
100
AcDbLine
 10
113.5
 20
70.30300000000011
 30
0.0
 11
120.0
 21
69.80300000000011
 31
0.0
  0
LINE
  5
199
330
1E
100
AcDbEntity
  8
0
100
AcDbLine
 10
132.0
 20
461.584460396039
 30
0.0
 11
132.71
 21
459.0969999999999
 31
0.0
  0
LINE
  5
19B
330
1E
100
AcDbEntity
  8
0
100
AcDbLine
 10
134.1187363123959
 20
452.474067527282
 30
0.0
 11
135.932
 21
441.935
 31
0.0
  0
LINE
  5
19D
330
1E
100
AcDbEntity
  8
0
100
AcDbLine
 10
135.932
 20
441.935
 30
0.0
 11
137.68
 21
432.028
 31
0.0
  0
LINE
  5
19F
330
1E
100
AcDbEntity
  8
0
100
AcDbLine
 10
139.1
 20
165.903
 30
0.0
 11
144.9
 21
163.1029999999999
 31
0.0
  0
LINE
  5
1A0
330
1E
100
AcDbEntity
  8
0
100
AcDbLine
 10
144.9
 20
163.1029999999999
 30
0.0
 11
150.4
 21
159.403
 31
0.0
  0
LINE
  5
1A1
330
1E
100
AcDbEntity
  8
0
100
AcDbLine
 10
150.4
 20
159.403
 30
0.0
 11
155.3
 21
155.1029999999999
 31
0.0
  0
LINE
  5
1A2
330
1E
100
AcDbEntity
  8
0
100
AcDbLine
 10
144.9
 20
76.5030000000001
 30
0.0
 11
150.4
 21
80.20300000000011
 31
0.0
  0
LINE
  5
1A3
330
1E
100
AcDbEntity
  8
0
100
AcDbLine
 10
139.1
 20
73.7030000000001
 30
0.0
 11
144.9
 21
76.5030000000001
 31
0.0
  0
LINE
  5
1A4
330
1E
100
AcDbEntity
  8
0
100
AcDbLine
 10
150.6999999999999
 20
234.5029999999999
 30
0.0
 11
165.5
 21
229.503
 31
0.0
  0
LINE
  5
1A5
330
1E
100
AcDbEntity
  8
0
100
AcDbLine
 10
150.4
 20
80.20300000000011
 30
0.0
 11
155.3
 21
84.50300000000011
 31
0.0
  0
LINE
  5
1A6
330
1E
100
AcDbEntity
  8
0
100
AcDbLine
 10
150.6999999999999
 20
5.103000000000059
 30
0.0
 11
165.5
 21
10.1030000000001
 31
0.0
  0
LINE
  5
1A7
330
1E
100
AcDbEntity
  8
0
100
AcDbLine
 10
151.0
 20
235.5029999999999
 30
0.0
 11
165.8
 21
230.403
 31
0.0
  0
LINE
  5
1A8
330
1E
100
AcDbEntity
  8
0
100
AcDbLine
 10
151.0
 20
4.10300000000006
 30
0.0
 11
165.8
 21
9.203000000000061
 31
0.0
  0
LINE
  5
1A9
330
1E
100
AcDbEntity
  8
0
100
AcDbLine
 10
151.0
 20
4.10300000000006
 30
0.0
 11
165.8
 21
9.203000000000061
 31
0.0
  0
LINE
  5
1AA
330
1E
100
AcDbEntity
  8
0
100
AcDbLine
 10
150.6999999999999
 20
5.103000000000059
 30
0.0
 11
165.5
 21
10.1030000000001
 31
0.0
  0
LINE
  5
1AB
330
1E
100
AcDbEntity
  8
0
100
AcDbLine
 10
150.177
 20
406.728
 30
0.0
 11
153.275
 21
406.1969999999999
 31
0.0
  0
LINE
  5
1AC
330
1E
100
AcDbEntity
  8
0
100
AcDbLine
 10
155.3
 20
155.1029999999999
 30
0.0
 11
159.6
 21
150.2029999999999
 31
0.0
  0
LINE
  5
1AD
330
1E
100
AcDbEntity
  8
0
100
AcDbLine
 10
155.3
 20
84.50300000000011
 30
0.0
 11
159.6
 21
89.40299999999998
 31
0.0
  0
LINE
  5
1AE
330
1E
100
AcDbEntity
  8
0
100
AcDbLine
 10
153.275
 20
406.1969999999999
 30
0.0
 11
156.3729999999999
 21
406.728
 31
0.0
  0
LINE
  5
1AF
330
1E
100
AcDbEntity
  8
0
100
AcDbLine
 10
144.148
 20
411.593
 30
0.0
 11
145.9379999999999
 21
409.2929999999999
 31
0.0
  0
LINE
  5
1B0
330
1E
100
AcDbEntity
  8
0
100
AcDbLine
 10
142.1629999999999
 20
415.043
 30
0.0
 11
144.148
 21
411.593
 31
0.0
  0
LINE
  5
1B1
330
1E
100
AcDbEntity
  8
0
100
AcDbLine
 10
148.428
 20
407.789
 30
0.0
 11
150.177
 21
406.728
 31
0.0
  0
LINE
  5
1B2
330
1E
100
AcDbEntity
  8
0
100
AcDbLine
 10
145.9379999999999
 20
409.2929999999999
 30
0.0
 11
148.428
 21
407.789
 31
0.0
  0
LINE
  5
1B3
330
1E
100
AcDbEntity
  8
0
100
AcDbLine
 10
156.3729999999999
 20
406.728
 30
0.0
 11
158.122
 21
407.789
 31
0.0
  0
LINE
  5
1B4
330
1E
100
AcDbEntity
  8
0
100
AcDbLine
 10
159.6
 20
150.2029999999999
 30
0.0
 11
163.3
 21
144.7029999999999
 31
0.0
  0
LINE
  5
1B5
330
1E
100
AcDbEntity
  8
0
100
AcDbLine
 10
159.6
 20
89.40299999999998
 30
0.0
 11
163.3
 21
94.90299999999999
 31
0.0
  0
LINE
  5
1B6
330
1E
100
AcDbEntity
  8
0
100
AcDbLine
 10
163.3
 20
144.7029999999999
 30
0.0
 11
166.1
 21
138.9029999999999
 31
0.0
  0
LINE
  5
1B7
330
1E
100
AcDbEntity
  8
0
100
AcDbLine
 10
165.5
 20
229.503
 30
0.0
 11
179.1999999999999
 21
222.9029999999999
 31
0.0
  0
LINE
  5
1B8
330
1E
100
AcDbEntity
  8
0
100
AcDbLine
 10
163.3
 20
94.90299999999999
 30
0.0
 11
166.1
 21
100.7029999999999
 31
0.0
  0
LINE
  5
1B9
330
1E
100
AcDbEntity
  8
0
100
AcDbLine
 10
165.8
 20
230.403
 30
0.0
 11
179.6999999999999
 21
223.703
 31
0.0
  0
LINE
  5
1BA
330
1E
100
AcDbEntity
  8
0
100
AcDbLine
 10
166.1
 20
138.9029999999999
 30
0.0
 11
168.1999999999999
 21
132.703
 31
0.0
  0
LINE
  5
1BB
330
1E
100
AcDbEntity
  8
0
100
AcDbLine
 10
166.1
 20
100.7029999999999
 30
0.0
 11
168.1999999999999
 21
106.9029999999999
 31
0.0
  0
LINE
  5
1BC
330
1E
100
AcDbEntity
  8
0
100
AcDbLine
 10
165.5
 20
10.1030000000001
 30
0.0
 11
179.1999999999999
 21
16.70300000000009
 31
0.0
  0
LINE
  5
1BD
330
1E
100
AcDbEntity
  8
0
100
AcDbLine
 10
165.8
 20
9.203000000000061
 30
0.0
 11
179.6999999999999
 21
15.90300000000009
 31
0.0
  0
LINE
  5
1BE
330
1E
100
AcDbEntity
  8
0
100
AcDbLine
 10
160.6119999999999
 20
409.2929999999999
 30
0.0
 11
162.4029999999999
 21
411.593
 31
0.0
  0
LINE
  5
1BF
330
1E
100
AcDbEntity
  8
0
100
AcDbLine
 10
162.4029999999999
 20
411.593
 30
0.0
 11
164.388
 21
415.043
 31
0.0
  0
LINE
  5
1C0
330
1E
100
AcDbEntity
  8
0
100
AcDbLine
 10
158.122
 20
407.789
 30
0.0
 11
160.6119999999999
 21
409.2929999999999
 31
0.0
  0
LINE
  5
1C1
330
1E
100
AcDbEntity
  8
0
100
AcDbLine
 10
140.151
 20
420.6159999999999
 30
0.0
 11
142.1629999999999
 21
415.043
 31
0.0
  0
LINE
  5
1C2
330
1E
100
AcDbEntity
  8
0
100
AcDbLine
 10
138.149
 20
429.7279999999999
 30
0.0
 11
140.151
 21
420.6159999999999
 31
0.0
  0
LINE
  5
1C3
330
1E
100
AcDbEntity
  8
0
100
AcDbLine
 10
157.0429999999999
 20
420.3509999999999
 30
0.0
 11
158.9749999999999
 21
416.989
 31
0.0
  0
LINE
  5
1C4
330
1E
100
AcDbEntity
  8
0
100
AcDbLine
 10
155.127
 20
425.659
 30
0.0
 11
157.0429999999999
 21
420.3509999999999
 31
0.0
  0
LINE
  5
1C5
330
1E
100
AcDbEntity
  8
0
100
AcDbLine
 10
164.388
 20
415.043
 30
0.0
 11
166.4
 21
420.6159999999999
 31
0.0
  0
LINE
  5
1C6
330
1E
100
AcDbEntity
  8
0
100
AcDbLine
 10
168.1999999999999
 20
106.9029999999999
 30
0.0
 11
169.5
 21
113.3029999999999
 31
0.0
  0
LINE
  5
1C7
330
1E
100
AcDbEntity
  8
0
100
AcDbLine
 10
169.5
 20
113.3029999999999
 30
0.0
 11
170.0
 21
119.8029999999999
 31
0.0
  0
LINE
  5
1C8
330
1E
100
AcDbEntity
  8
0
100
AcDbLine
 10
168.1999999999999
 20
132.703
 30
0.0
 11
169.5
 21
126.303
 31
0.0
  0
LINE
  5
1C9
330
1E
100
AcDbEntity
  8
0
100
AcDbLine
 10
169.5
 20
126.303
 30
0.0
 11
170.0
 21
119.8029999999999
 31
0.0
  0
LINE
  5
1CA
330
1E
100
AcDbEntity
  8
0
100
AcDbLine
 10
166.4
 20
420.6159999999999
 30
0.0
 11
168.4009999999999
 21
429.7279999999999
 31
0.0
  0
LINE
  5
1CB
330
1E
100
AcDbEntity
  8
0
100
AcDbLine
 10
153.289972085179
 20
434.196375744078
 30
0.0
 11
153.338
 21
434.416
 31
0.0
  0
LINE
  5
1CC
330
1E
100
AcDbEntity
  8
0
100
AcDbLine
 10
153.2753863961129
 20
434.278947413547
 30
0.0
 11
154.6269999999999
 21
441.935
 31
0.0
  0
LINE
  5
1CD
330
1E
100
AcDbEntity
  8
0
100
AcDbLine
 10
137.68
 20
432.028
 30
0.0
 11
138.149
 21
429.7279999999999
 31
0.0
  0
LINE
  5
1CE
330
1E
100
AcDbEntity
  8
0
100
AcDbLine
 10
153.412027693465
 20
433.5054015090529
 30
0.0
 11
155.127
 21
425.659
 31
0.0
  0
LINE
  5
1D1
330
1E
100
AcDbEntity
  8
0
100
AcDbLine
 10
149.991
 20
453.1699999999999
 30
0.0
 11
151.923
 21
441.935
 31
0.0
  0
LINE
  5
1D2
330
1E
100
AcDbEntity
  8
0
100
AcDbLine
 10
154.6269999999999
 20
441.935
 30
0.0
 11
156.026
 21
455.116
 31
0.0
  0
LINE
  5
1D3
330
1E
100
AcDbEntity
  8
0
100
AcDbLine
 10
156.026
 20
455.116
 30
0.0
 11
157.46
 21
471.924
 31
0.0
  0
LINE
  5
1D4
330
1E
100
AcDbEntity
  8
0
100
AcDbLine
 10
151.923
 20
441.935
 30
0.0
 11
153.673
 21
432.028
 31
0.0
  0
LINE
  5
1D9
330
1E
100
AcDbEntity
  8
0
100
AcDbLine
 10
168.87
 20
432.028
 30
0.0
 11
170.62
 21
441.935
 31
0.0
  0
LINE
  5
1DA
330
1E
100
AcDbEntity
  8
0
100
AcDbLine
 10
168.4009999999999
 20
429.7279999999999
 30
0.0
 11
168.87
 21
432.028
 31
0.0
  0
LINE
  5
1DB
330
1E
100
AcDbEntity
  8
0
100
AcDbLine
 10
179.1999999999999
 20
222.9029999999999
 30
0.0
 11
192.3
 21
214.0029999999999
 31
0.0
  0
LINE
  5
1DC
330
1E
100
AcDbEntity
  8
0
100
AcDbLine
 10
179.6999999999999
 20
223.703
 30
0.0
 11
192.9
 21
214.8029999999999
 31
0.0
  0
LINE
  5
1DD
330
1E
100
AcDbEntity
  8
0
100
AcDbLine
 10
192.3
 20
214.0029999999999
 30
0.0
 11
204.0
 21
203.803
 31
0.0
  0
LINE
  5
1DE
330
1E
100
AcDbEntity
  8
0
100
AcDbLine
 10
192.9
 20
214.8029999999999
 30
0.0
 11
204.6999999999999
 21
204.5029999999999
 31
0.0
  0
LINE
  5
1DF
330
1E
100
AcDbEntity
  8
0
100
AcDbLine
 10
192.3
 20
25.6030000000001
 30
0.0
 11
204.0
 21
35.8030000000001
 31
0.0
  0
LINE
  5
1E0
330
1E
100
AcDbEntity
  8
0
100
AcDbLine
 10
179.1999999999999
 20
16.70300000000009
 30
0.0
 11
192.3
 21
25.6030000000001
 31
0.0
  0
LINE
  5
1E1
330
1E
100
AcDbEntity
  8
0
100
AcDbLine
 10
204.0
 20
35.8030000000001
 30
0.0
 11
214.1999999999999
 21
47.5030000000001
 31
0.0
  0
LINE
  5
1E2
330
1E
100
AcDbEntity
  8
0
100
AcDbLine
 10
204.6999999999999
 20
35.1030000000001
 30
0.0
 11
215.0
 21
46.9030000000001
 31
0.0
  0
LINE
  5
1E3
330
1E
100
AcDbEntity
  8
0
100
AcDbLine
 10
214.1999999999999
 20
47.5030000000001
 30
0.0
 11
223.0999999999999
 21
60.60300000000011
 31
0.0
  0
LINE
  5
1E4
330
1E
100
AcDbEntity
  8
0
100
AcDbLine
 10
223.0999999999999
 20
60.60300000000011
 30
0.0
 11
229.7
 21
74.30300000000009
 31
0.0
  0
LINE
  5
1E5
330
1E
100
AcDbEntity
  8
0
100
AcDbLine
 10
215.0
 20
46.9030000000001
 30
0.0
 11
223.9
 21
60.10300000000011
 31
0.0
  0
LINE
  5
1E6
330
1E
100
AcDbEntity
  8
0
100
AcDbLine
 10
223.9
 20
60.10300000000011
 30
0.0
 11
230.6
 21
74.0030000000001
 31
0.0
  0
LINE
  5
1E7
330
1E
100
AcDbEntity
  8
0
100
AcDbLine
 10
229.7
 20
74.30300000000009
 30
0.0
 11
234.6999999999999
 21
89.1030000000001
 31
0.0
  0
LINE
  5
1E8
330
1E
100
AcDbEntity
  8
0
100
AcDbLine
 10
234.6999999999999
 20
89.1030000000001
 30
0.0
 11
237.8
 21
104.203
 31
0.0
  0
LINE
  5
1E9
330
1E
100
AcDbEntity
  8
0
100
AcDbLine
 10
230.6
 20
74.0030000000001
 30
0.0
 11
235.6999999999999
 21
88.8030000000001
 31
0.0
  0
LINE
  5
1EA
330
1E
100
AcDbEntity
  8
0
100
AcDbLine
 10
237.8
 20
104.203
 30
0.0
 11
239.0
 21
119.8029999999999
 31
0.0
  0
LINE
  5
1EB
330
1E
100
AcDbEntity
  8
0
100
AcDbLine
 10
235.6999999999999
 20
88.8030000000001
 30
0.0
 11
238.8
 21
104.203
 31
0.0
  0
LINE
  5
1EC
330
1E
100
AcDbEntity
  8
0
100
AcDbLine
 10
234.6999999999999
 20
150.5029999999999
 30
0.0
 11
237.8
 21
135.4029999999999
 31
0.0
  0
LINE
  5
1ED
330
1E
100
AcDbEntity
  8
0
100
AcDbLine
 10
237.8
 20
135.4029999999999
 30
0.0
 11
239.0
 21
119.8029999999999
 31
0.0
  0
LINE
  5
1EE
330
1E
100
AcDbEntity
  8
0
100
AcDbLine
 10
229.7
 20
165.303
 30
0.0
 11
234.6999999999999
 21
150.5029999999999
 31
0.0
  0
LINE
  5
1EF
330
1E
100
AcDbEntity
  8
0
100
AcDbLine
 10
230.6
 20
165.6029999999999
 30
0.0
 11
235.6999999999999
 21
150.8029999999999
 31
0.0
  0
LINE
  5
1F0
330
1E
100
AcDbEntity
  8
0
100
AcDbLine
 10
235.6999999999999
 20
150.8029999999999
 30
0.0
 11
238.8
 21
135.4029999999999
 31
0.0
  0
LINE
  5
1F1
330
1E
100
AcDbEntity
  8
0
100
AcDbLine
 10
238.8
 20
135.4029999999999
 30
0.0
 11
240.0
 21
119.8029999999999
 31
0.0
  0
LINE
  5
1F2
330
1E
100
AcDbEntity
  8
0
100
AcDbLine
 10
214.1999999999999
 20
192.1029999999999
 30
0.0
 11
223.0999999999999
 21
179.0029999999999
 31
0.0
  0
LINE
  5
1F3
330
1E
100
AcDbEntity
  8
0
100
AcDbLine
 10
223.0999999999999
 20
179.0029999999999
 30
0.0
 11
229.7
 21
165.303
 31
0.0
  0
LINE
  5
1F4
330
1E
100
AcDbEntity
  8
0
100
AcDbLine
 10
215.0
 20
192.703
 30
0.0
 11
223.9
 21
179.5029999999999
 31
0.0
  0
LINE
  5
1F5
330
1E
100
AcDbEntity
  8
0
100
AcDbLine
 10
223.9
 20
179.5029999999999
 30
0.0
 11
230.6
 21
165.6029999999999
 31
0.0
  0
LINE
  5
1F6
330
1E
100
AcDbEntity
  8
0
100
AcDbLine
 10
204.0
 20
203.803
 30
0.0
 11
214.1999999999999
 21
192.1029999999999
 31
0.0
  0
LINE
  5
1F7
330
1E
100
AcDbEntity
  8
0
100
AcDbLine
 10
204.6999999999999
 20
204.5029999999999
 30
0.0
 11
215.0
 21
192.703
 31
0.0
  0
LINE
  5
1F8
330
1E
100
AcDbEntity
  8
0
100
AcDbLine
 10
238.8
 20
104.203
 30
0.0
 11
240.0
 21
119.8029999999999
 31
0.0
  0
LINE
  5
1F9
330
1E
100
AcDbEntity
  8
0
100
AcDbLine
 10
192.9
 20
24.8030000000001
 30
0.0
 11
204.6999999999999
 21
35.1030000000001
 31
0.0
  0
LINE
  5
1FA
330
1E
100
AcDbEntity
  8
0
100
AcDbLine
 10
179.6999999999999
 20
15.90300000000009
 30
0.0
 11
192.9
 21
24.8030000000001
 31
0.0
  0
LINE
  5
1FB
330
1E
100
AcDbEntity
  8
0
100
AcDbLine
 10
170.62
 20
441.935
 30
0.0
 11
172.018
 21
455.116
 31
0.0
  0
LINE
  5
1FC
330
1E
100
AcDbEntity
  8
0
100
AcDbLine
 10
147.791
 20
463.609
 30
0.0
 11
149.549
 21
455.3819999999999
 31
0.0
  0
LINE
  5
1FD
330
1E
100
AcDbEntity
  8
0
100
AcDbLine
 10
149.549
 20
455.3819999999999
 30
0.0
 11
149.991
 21
453.1699999999999
 31
0.0
  0
LINE
  5
1FE
330
1E
100
AcDbEntity
  8
0
100
AcDbLine
 10
172.018
 20
455.116
 30
0.0
 11
173.452
 21
471.924
 31
0.0
  0
LINE
  5
1FF
330
1E
100
AcDbEntity
  8
0
100
AcDbLine
 10
137.5
 20
470.803
 30
0.0
 11
137.5
 21
498.003
 31
0.0
  0
LINE
  5
200
330
1E
100
AcDbEntity
  8
0
100
AcDbLine
 10
120.0
 20
501.563
 30
0.0
 11
124.712
 21
502.2469999999999
 31
0.0
  0
LINE
  5
201
330
1E
100
AcDbEntity
  8
0
100
AcDbLine
 10
132.0
 20
488.197768622281
 30
0.0
 11
132.9339999999999
 21
488.199
 31
0.0
  0
LINE
  5
202
330
1E
100
AcDbEntity
  8
0
100
AcDbLine
 10
132.0
 20
488.2082313777189
 30
0.0
 11
132.9339999999999
 21
488.2069999999999
 31
0.0
  0
LINE
  5
203
330
1E
100
AcDbEntity
  8
0
100
AcDbLine
 10
132.0
 20
497.9927178423239
 30
0.0
 11
132.3739999999999
 21
497.993
 31
0.0
  0
LINE
  5
204
330
1E
100
AcDbEntity
  8
0
100
AcDbLine
 10
132.3739999999999
 20
497.993
 30
0.0
 11
134.551
 21
497.995
 31
0.0
  0
LINE
  5
205
330
1E
100
AcDbEntity
  8
0
100
AcDbLine
 10
132.021
 20
497.493
 30
0.0
 11
134.135
 21
497.496
 31
0.0
  0
LINE
  5
206
330
1E
100
AcDbEntity
  8
0
100
AcDbLine
 10
124.712
 20
502.2469999999999
 30
0.0
 11
129.0439999999999
 21
503.995
 31
0.0
  0
LINE
  5
207
330
1E
100
AcDbEntity
  8
0
100
AcDbLine
 10
129.0439999999999
 20
503.995
 30
0.0
 11
132.844
 21
506.9589999999999
 31
0.0
  0
LINE
  5
208
330
1E
100
AcDbEntity
  8
0
100
AcDbLine
 10
115.2879999999999
 20
502.2469999999999
 30
0.0
 11
120.0
 21
501.563
 31
0.0
  0
LINE
  5
20B
330
1E
100
AcDbEntity
  8
0
100
AcDbLine
 10
129.0439999999999
 20
535.611
 30
0.0
 11
132.844
 21
532.6469999999999
 31
0.0
  0
LINE
  5
22A
330
1E
100
AcDbEntity
  8
0
100
AcDbLine
 10
120.0
 20
610.236
 30
0.0
 11
136.0729999999999
 21
610.234
 31
0.0
  0
LINE
  5
239
330
1E
100
AcDbEntity
  8
0
100
AcDbLine
 10
120.0
 20
538.043
 30
0.0
 11
124.712
 21
537.359
 31
0.0
  0
LINE
  5
23A
330
1E
100
AcDbEntity
  8
0
100
AcDbLine
 10
124.712
 20
537.359
 30
0.0
 11
129.0439999999999
 21
535.611
 31
0.0
  0
LINE
  5
23B
330
1E
100
AcDbEntity
  8
0
100
AcDbLine
 10
115.2879999999999
 20
537.359
 30
0.0
 11
120.0
 21
538.043
 31
0.0
  0
LINE
  5
23C
330
1E
100
AcDbEntity
  8
0
100
AcDbLine
 10
110.956
 20
535.611
 30
0.0
 11
115.2879999999999
 21
537.359
 31
0.0
  0
LINE
  5
240
330
1E
100
AcDbEntity
  8
0
100
AcDbLine
 10
132.0
 20
505.3420769230769
 30
0.0
 11
132.0
 21
130.1335365853659
 31
0.0
  0
LINE
  5
241
330
1E
100
AcDbEntity
  8
0
100
AcDbLine
 10
110.956
 20
503.995
 30
0.0
 11
115.2879999999999
 21
502.2469999999999
 31
0.0
  0
LINE
  5
242
330
1E
100
AcDbEntity
  8
0
100
AcDbLine
 10
157.46
 20
471.924
 30
0.0
 11
158.291
 21
488.466
 31
0.0
  0
LINE
  5
243
330
1E
100
AcDbEntity
  8
0
100
AcDbLine
 10
145.7539999999999
 20
470.8619999999999
 30
0.0
 11
147.791
 21
463.609
 31
0.0
  0
LINE
  5
244
330
1E
100
AcDbEntity
  8
0
100
AcDbLine
 10
132.9339999999999
 20
488.199
 30
0.0
 11
134.0
 21
488.203
 31
0.0
  0
LINE
  5
245
330
1E
100
AcDbEntity
  8
0
100
AcDbLine
 10
134.0
 20
488.203
 30
0.0
 11
134.0
 21
497.495808420057
 31
0.0
  0
LINE
  5
246
330
1E
100
AcDbEntity
  8
0
100
AcDbLine
 10
134.0
 20
497.495808420057
 30
0.0
 11
134.0
 21
488.203
 31
0.0
  0
LINE
  5
247
330
1E
100
AcDbEntity
  8
0
100
AcDbLine
 10
132.9339999999999
 20
488.2069999999999
 30
0.0
 11
134.0
 21
488.203
 31
0.0
  0
LINE
  5
248
330
1E
100
AcDbEntity
  8
0
100
AcDbLine
 10
134.551
 20
497.995
 30
0.0
 11
136.168
 21
497.998
 31
0.0
  0
LINE
  5
249
330
1E
100
AcDbEntity
  8
0
100
AcDbLine
 10
137.0
 20
497.503
 30
0.0
 11
137.5
 21
498.003
 31
0.0
  0
LINE
  5
24A
330
1E
100
AcDbEntity
  8
0
100
AcDbLine
 10
136.168
 20
497.998
 30
0.0
 11
137.1639999999999
 21
498.0
 31
0.0
  0
LINE
  5
24B
330
1E
100
AcDbEntity
  8
0
100
AcDbLine
 10
137.1639999999999
 20
498.0
 30
0.0
 11
137.5
 21
498.003
 31
0.0
  0
LINE
  5
24C
330
1E
100
AcDbEntity
  8
0
100
AcDbLine
 10
136.673
 20
497.5
 30
0.0
 11
137.0
 21
497.503
 31
0.0
  0
LINE
  5
24D
330
1E
100
AcDbEntity
  8
0
100
AcDbLine
 10
135.706
 20
497.498
 30
0.0
 11
136.673
 21
497.5
 31
0.0
  0
LINE
  5
24E
330
1E
100
AcDbEntity
  8
0
100
AcDbLine
 10
134.135
 20
497.496
 30
0.0
 11
135.706
 21
497.498
 31
0.0
  0
LINE
  5
24F
330
1E
100
AcDbEntity
  8
0
100
AcDbLine
 10
137.536
 20
486.343
 30
0.0
 11
139.291
 21
484.1319999999999
 31
0.0
  0
LINE
  5
250
330
1E
100
AcDbEntity
  8
0
100
AcDbLine
 10
139.291
 20
484.1319999999999
 30
0.0
 11
141.3549999999999
 21
481.035
 31
0.0
  0
LINE
  5
251
330
1E
100
AcDbEntity
  8
0
100
AcDbLine
 10
141.3549999999999
 20
481.035
 30
0.0
 11
143.541
 21
476.7009999999999
 31
0.0
  0
LINE
  5
252
330
1E
100
AcDbEntity
  8
0
100
AcDbLine
 10
158.291
 20
488.466
 30
0.0
 11
158.753058898104
 21
503.8389999999999
 31
0.0
  0
LINE
  5
253
330
1E
100
AcDbEntity
  8
0
100
AcDbLine
 10
143.541
 20
476.7009999999999
 30
0.0
 11
145.7539999999999
 21
470.8619999999999
 31
0.0
  0
LINE
  5
254
330
1E
100
AcDbEntity
  8
0
100
AcDbLine
 10
173.452
 20
471.924
 30
0.0
 11
174.2829999999999
 21
488.466
 31
0.0
  0
LINE
  5
255
330
1E
100
AcDbEntity
  8
0
100
AcDbLine
 10
174.2829999999999
 20
488.466
 30
0.0
 11
174.7450588981039
 21
503.8389999999999
 31
0.0
  0
LINE
  5
256
330
1E
100
AcDbEntity
  8
0
100
AcDbLine
 10
137.5
 20
503.8389999999999
 30
0.0
 11
155.014
 21
503.8389999999999
 31
0.0
  0
LINE
  5
25A
330
1E
100
AcDbEntity
  8
0
100
AcDbLine
 10
132.844
 20
506.9589999999999
 30
0.0
 11
135.8079999999999
 21
510.759
 31
0.0
  0
LINE
  5
260
330
1E
100
AcDbEntity
  8
0
100
AcDbLine
 10
132.844
 20
532.6469999999999
 30
0.0
 11
135.8079999999999
 21
528.847
 31
0.0
  0
LINE
  5
263
330
1E
100
AcDbEntity
  8
0
100
AcDbLine
 10
137.5
 20
512.4249999999999
 30
0.0
 11
137.5
 21
498.003
 31
0.0
  0
LINE
  5
268
330
1E
100
AcDbEntity
  8
0
100
AcDbLine
 10
135.8079999999999
 20
528.847
 30
0.0
 11
137.556
 21
524.5149999999999
 31
0.0
  0
LINE
  5
269
330
1E
100
AcDbEntity
  8
0
100
AcDbLine
 10
135.8079999999999
 20
510.759
 30
0.0
 11
137.556
 21
515.091
 31
0.0
  0
LINE
  5
26A
330
1E
100
AcDbEntity
  8
0
100
AcDbLine
 10
137.517066336578
 20
538.839
 30
0.0
 11
155.014
 21
538.839
 31
0.0
  0
LINE
  5
27C
330
1E
100
AcDbEntity
  8
0
100
AcDbLine
 10
137.556
 20
524.5149999999999
 30
0.0
 11
138.24
 21
519.803
 31
0.0
  0
LINE
  5
27D
330
1E
100
AcDbEntity
  8
0
100
AcDbLine
 10
137.556
 20
515.091
 30
0.0
 11
138.24
 21
519.803
 31
0.0
  0
LINE
  5
27E
330
1E
100
AcDbEntity
  8
0
100
AcDbLine
 10
137.536
 20
556.0509999999999
 30
0.0
 11
139.291
 21
558.2619999999999
 31
0.0
  0
LINE
  5
27F
330
1E
100
AcDbEntity
  8
0
100
AcDbLine
 10
139.291
 20
558.2619999999999
 30
0.0
 11
141.3549999999999
 21
561.359
 31
0.0
  0
LINE
  5
280
330
1E
100
AcDbEntity
  8
0
100
AcDbLine
 10
141.3549999999999
 20
561.359
 30
0.0
 11
143.541
 21
565.693
 31
0.0
  0
LINE
  5
281
330
1E
100
AcDbEntity
  8
0
100
AcDbLine
 10
155.014
 20
516.839
 30
0.0
 11
155.014
 21
521.339
 31
0.0
  0
LINE
  5
282
330
1E
100
AcDbEntity
  8
0
100
AcDbLine
 10
155.014
 20
516.839
 30
0.0
 11
155.014
 21
512.6389999999999
 31
0.0
  0
LINE
  5
283
330
1E
100
AcDbEntity
  8
0
100
AcDbLine
 10
155.014
 20
512.6389999999999
 30
0.0
 11
155.014
 21
516.839
 31
0.0
  0
LINE
  5
284
330
1E
100
AcDbEntity
  8
0
100
AcDbLine
 10
155.014
 20
512.6389999999999
 30
0.0
 11
155.014
 21
508.939
 31
0.0
  0
LINE
  5
285
330
1E
100
AcDbEntity
  8
0
100
AcDbLine
 10
155.014
 20
508.939
 30
0.0
 11
155.014
 21
512.6389999999999
 31
0.0
  0
LINE
  5
286
330
1E
100
AcDbEntity
  8
0
100
AcDbLine
 10
155.014
 20
508.939
 30
0.0
 11
155.014
 21
506.139
 31
0.0
  0
LINE
  5
287
330
1E
100
AcDbEntity
  8
0
100
AcDbLine
 10
155.014
 20
506.139
 30
0.0
 11
155.014
 21
508.939
 31
0.0
  0
LINE
  5
288
330
1E
100
AcDbEntity
  8
0
100
AcDbLine
 10
155.014
 20
506.139
 30
0.0
 11
155.014
 21
504.4389999999999
 31
0.0
  0
LINE
  5
289
330
1E
100
AcDbEntity
  8
0
100
AcDbLine
 10
155.014
 20
504.4389999999999
 30
0.0
 11
155.014
 21
506.139
 31
0.0
  0
LINE
  5
28A
330
1E
100
AcDbEntity
  8
0
100
AcDbLine
 10
155.014
 20
504.4389999999999
 30
0.0
 11
155.014
 21
503.8389999999999
 31
0.0
  0
LINE
  5
28B
330
1E
100
AcDbEntity
  8
0
100
AcDbLine
 10
155.014
 20
503.8389999999999
 30
0.0
 11
155.014
 21
504.4389999999999
 31
0.0
  0
LINE
  5
28C
330
1E
100
AcDbEntity
  8
0
100
AcDbLine
 10
155.014
 20
503.8389999999999
 30
0.0
 11
155.514
 21
504.839
 31
0.0
  0
LINE
  5
28D
330
1E
100
AcDbEntity
  8
0
100
AcDbLine
 10
155.514
 20
517.039
 30
0.0
 11
155.514
 21
521.339
 31
0.0
  0
LINE
  5
28E
330
1E
100
AcDbEntity
  8
0
100
AcDbLine
 10
155.514
 20
517.039
 30
0.0
 11
155.514
 21
513.139
 31
0.0
  0
LINE
  5
28F
330
1E
100
AcDbEntity
  8
0
100
AcDbLine
 10
155.514
 20
513.139
 30
0.0
 11
155.514
 21
517.039
 31
0.0
  0
LINE
  5
290
330
1E
100
AcDbEntity
  8
0
100
AcDbLine
 10
155.514
 20
513.139
 30
0.0
 11
155.514
 21
509.739
 31
0.0
  0
LINE
  5
291
330
1E
100
AcDbEntity
  8
0
100
AcDbLine
 10
155.514
 20
509.739
 30
0.0
 11
155.514
 21
513.139
 31
0.0
  0
LINE
  5
292
330
1E
100
AcDbEntity
  8
0
100
AcDbLine
 10
155.514
 20
509.739
 30
0.0
 11
155.514
 21
507.0389999999999
 31
0.0
  0
LINE
  5
293
330
1E
100
AcDbEntity
  8
0
100
AcDbLine
 10
155.514
 20
507.0389999999999
 30
0.0
 11
155.514
 21
509.739
 31
0.0
  0
LINE
  5
294
330
1E
100
AcDbEntity
  8
0
100
AcDbLine
 10
155.514
 20
507.0389999999999
 30
0.0
 11
155.514
 21
505.439
 31
0.0
  0
LINE
  5
295
330
1E
100
AcDbEntity
  8
0
100
AcDbLine
 10
155.514
 20
505.439
 30
0.0
 11
155.514
 21
507.0389999999999
 31
0.0
  0
LINE
  5
296
330
1E
100
AcDbEntity
  8
0
100
AcDbLine
 10
155.514
 20
505.439
 30
0.0
 11
155.514
 21
504.839
 31
0.0
  0
LINE
  5
297
330
1E
100
AcDbEntity
  8
0
100
AcDbLine
 10
155.514
 20
504.839
 30
0.0
 11
155.514
 21
505.439
 31
0.0
  0
LINE
  5
298
330
1E
100
AcDbEntity
  8
0
100
AcDbLine
 10
155.514
 20
504.839
 30
0.0
 11
156.014
 21
503.8389999999999
 31
0.0
  0
LINE
  5
299
330
1E
100
AcDbEntity
  8
0
100
AcDbLine
 10
155.014
 20
521.339
 30
0.0
 11
155.014
 21
525.839
 31
0.0
  0
LINE
  5
29A
330
1E
100
AcDbEntity
  8
0
100
AcDbLine
 10
155.014
 20
521.339
 30
0.0
 11
155.014
 21
516.839
 31
0.0
  0
LINE
  5
29B
330
1E
100
AcDbEntity
  8
0
100
AcDbLine
 10
155.014
 20
525.839
 30
0.0
 11
155.014
 21
530.039
 31
0.0
  0
LINE
  5
29C
330
1E
100
AcDbEntity
  8
0
100
AcDbLine
 10
155.014
 20
525.839
 30
0.0
 11
155.014
 21
521.339
 31
0.0
  0
LINE
  5
29D
330
1E
100
AcDbEntity
  8
0
100
AcDbLine
 10
155.514
 20
521.339
 30
0.0
 11
155.514
 21
525.639
 31
0.0
  0
LINE
  5
29E
330
1E
100
AcDbEntity
  8
0
100
AcDbLine
 10
155.514
 20
521.339
 30
0.0
 11
155.514
 21
517.039
 31
0.0
  0
LINE
  5
29F
330
1E
100
AcDbEntity
  8
0
100
AcDbLine
 10
155.514
 20
525.639
 30
0.0
 11
155.514
 21
529.539
 31
0.0
  0
LINE
  5
2A0
330
1E
100
AcDbEntity
  8
0
100
AcDbLine
 10
155.514
 20
525.639
 30
0.0
 11
155.514
 21
521.339
 31
0.0
  0
LINE
  5
2A1
330
1E
100
AcDbEntity
  8
0
100
AcDbLine
 10
155.014
 20
530.039
 30
0.0
 11
155.014
 21
533.739
 31
0.0
  0
LINE
  5
2A2
330
1E
100
AcDbEntity
  8
0
100
AcDbLine
 10
155.014
 20
530.039
 30
0.0
 11
155.014
 21
525.839
 31
0.0
  0
LINE
  5
2A3
330
1E
100
AcDbEntity
  8
0
100
AcDbLine
 10
155.014
 20
533.739
 30
0.0
 11
155.014
 21
536.5389999999999
 31
0.0
  0
LINE
  5
2A4
330
1E
100
AcDbEntity
  8
0
100
AcDbLine
 10
155.014
 20
533.739
 30
0.0
 11
155.014
 21
530.039
 31
0.0
  0
LINE
  5
2A5
330
1E
100
AcDbEntity
  8
0
100
AcDbLine
 10
155.514
 20
529.539
 30
0.0
 11
155.514
 21
532.939
 31
0.0
  0
LINE
  5
2A6
330
1E
100
AcDbEntity
  8
0
100
AcDbLine
 10
155.514
 20
529.539
 30
0.0
 11
155.514
 21
525.639
 31
0.0
  0
LINE
  5
2A7
330
1E
100
AcDbEntity
  8
0
100
AcDbLine
 10
155.514
 20
532.939
 30
0.0
 11
155.514
 21
535.639
 31
0.0
  0
LINE
  5
2A8
330
1E
100
AcDbEntity
  8
0
100
AcDbLine
 10
155.514
 20
532.939
 30
0.0
 11
155.514
 21
529.539
 31
0.0
  0
LINE
  5
2A9
330
1E
100
AcDbEntity
  8
0
100
AcDbLine
 10
155.014
 20
536.5389999999999
 30
0.0
 11
155.014
 21
538.239
 31
0.0
  0
LINE
  5
2AA
330
1E
100
AcDbEntity
  8
0
100
AcDbLine
 10
155.014
 20
536.5389999999999
 30
0.0
 11
155.014
 21
533.739
 31
0.0
  0
LINE
  5
2AB
330
1E
100
AcDbEntity
  8
0
100
AcDbLine
 10
155.014
 20
538.239
 30
0.0
 11
155.014
 21
538.839
 31
0.0
  0
LINE
  5
2AC
330
1E
100
AcDbEntity
  8
0
100
AcDbLine
 10
155.014
 20
538.239
 30
0.0
 11
155.014
 21
536.5389999999999
 31
0.0
  0
LINE
  5
2AD
330
1E
100
AcDbEntity
  8
0
100
AcDbLine
 10
155.514
 20
535.639
 30
0.0
 11
155.514
 21
537.239
 31
0.0
  0
LINE
  5
2AE
330
1E
100
AcDbEntity
  8
0
100
AcDbLine
 10
155.514
 20
535.639
 30
0.0
 11
155.514
 21
532.939
 31
0.0
  0
LINE
  5
2AF
330
1E
100
AcDbEntity
  8
0
100
AcDbLine
 10
155.514
 20
537.239
 30
0.0
 11
155.514
 21
537.839
 31
0.0
  0
LINE
  5
2B0
330
1E
100
AcDbEntity
  8
0
100
AcDbLine
 10
155.514
 20
537.239
 30
0.0
 11
155.514
 21
535.639
 31
0.0
  0
LINE
  5
2B1
330
1E
100
AcDbEntity
  8
0
100
AcDbLine
 10
155.014
 20
538.839
 30
0.0
 11
155.514
 21
537.839
 31
0.0
  0
LINE
  5
2B2
330
1E
100
AcDbEntity
  8
0
100
AcDbLine
 10
155.014
 20
538.839
 30
0.0
 11
155.014
 21
538.239
 31
0.0
  0
LINE
  5
2B3
330
1E
100
AcDbEntity
  8
0
100
AcDbLine
 10
156.014
 20
516.839
 30
0.0
 11
156.014
 21
521.339
 31
0.0
  0
LINE
  5
2B4
330
1E
100
AcDbEntity
  8
0
100
AcDbLine
 10
156.014
 20
516.839
 30
0.0
 11
156.014
 21
512.6389999999999
 31
0.0
  0
LINE
  5
2B5
330
1E
100
AcDbEntity
  8
0
100
AcDbLine
 10
156.014
 20
512.6389999999999
 30
0.0
 11
156.014
 21
516.839
 31
0.0
  0
LINE
  5
2B6
330
1E
100
AcDbEntity
  8
0
100
AcDbLine
 10
156.014
 20
512.6389999999999
 30
0.0
 11
156.014
 21
508.939
 31
0.0
  0
LINE
  5
2B7
330
1E
100
AcDbEntity
  8
0
100
AcDbLine
 10
156.014
 20
508.939
 30
0.0
 11
156.014
 21
512.6389999999999
 31
0.0
  0
LINE
  5
2B8
330
1E
100
AcDbEntity
  8
0
100
AcDbLine
 10
156.014
 20
508.939
 30
0.0
 11
156.014
 21
506.139
 31
0.0
  0
LINE
  5
2B9
330
1E
100
AcDbEntity
  8
0
100
AcDbLine
 10
156.014
 20
506.139
 30
0.0
 11
156.014
 21
508.939
 31
0.0
  0
LINE
  5
2BA
330
1E
100
AcDbEntity
  8
0
100
AcDbLine
 10
156.014
 20
506.139
 30
0.0
 11
156.014
 21
504.4389999999999
 31
0.0
  0
LINE
  5
2BB
330
1E
100
AcDbEntity
  8
0
100
AcDbLine
 10
156.014
 20
504.4389999999999
 30
0.0
 11
156.014
 21
506.139
 31
0.0
  0
LINE
  5
2BC
330
1E
100
AcDbEntity
  8
0
100
AcDbLine
 10
156.014
 20
504.4389999999999
 30
0.0
 11
156.014
 21
503.8389999999999
 31
0.0
  0
LINE
  5
2BD
330
1E
100
AcDbEntity
  8
0
100
AcDbLine
 10
156.014
 20
503.8389999999999
 30
0.0
 11
156.014
 21
504.4389999999999
 31
0.0
  0
LINE
  5
2BE
330
1E
100
AcDbEntity
  8
0
100
AcDbLine
 10
156.014
 20
503.8389999999999
 30
0.0
 11
196.014
 21
503.8389999999999
 31
0.0
  0
LINE
  5
2BF
330
1E
100
AcDbEntity
  8
0
100
AcDbLine
 10
156.014
 20
521.339
 30
0.0
 11
156.014
 21
525.839
 31
0.0
  0
LINE
  5
2C0
330
1E
100
AcDbEntity
  8
0
100
AcDbLine
 10
156.014
 20
521.339
 30
0.0
 11
156.014
 21
516.839
 31
0.0
  0
LINE
  5
2C1
330
1E
100
AcDbEntity
  8
0
100
AcDbLine
 10
156.014
 20
525.839
 30
0.0
 11
156.014
 21
530.039
 31
0.0
  0
LINE
  5
2C2
330
1E
100
AcDbEntity
  8
0
100
AcDbLine
 10
156.014
 20
525.839
 30
0.0
 11
156.014
 21
521.339
 31
0.0
  0
LINE
  5
2C3
330
1E
100
AcDbEntity
  8
0
100
AcDbLine
 10
156.014
 20
530.039
 30
0.0
 11
156.014
 21
533.739
 31
0.0
  0
LINE
  5
2C4
330
1E
100
AcDbEntity
  8
0
100
AcDbLine
 10
156.014
 20
530.039
 30
0.0
 11
156.014
 21
525.839
 31
0.0
  0
LINE
  5
2C5
330
1E
100
AcDbEntity
  8
0
100
AcDbLine
 10
156.014
 20
533.739
 30
0.0
 11
156.014
 21
536.5389999999999
 31
0.0
  0
LINE
  5
2C6
330
1E
100
AcDbEntity
  8
0
100
AcDbLine
 10
156.014
 20
533.739
 30
0.0
 11
156.014
 21
530.039
 31
0.0
  0
LINE
  5
2C7
330
1E
100
AcDbEntity
  8
0
100
AcDbLine
 10
156.014
 20
536.5389999999999
 30
0.0
 11
156.014
 21
538.239
 31
0.0
  0
LINE
  5
2C8
330
1E
100
AcDbEntity
  8
0
100
AcDbLine
 10
156.014
 20
536.5389999999999
 30
0.0
 11
156.014
 21
533.739
 31
0.0
  0
LINE
  5
2C9
330
1E
100
AcDbEntity
  8
0
100
AcDbLine
 10
156.014
 20
538.239
 30
0.0
 11
156.014
 21
538.839
 31
0.0
  0
LINE
  5
2CA
330
1E
100
AcDbEntity
  8
0
100
AcDbLine
 10
156.014
 20
538.239
 30
0.0
 11
156.014
 21
536.5389999999999
 31
0.0
  0
LINE
  5
2CB
330
1E
100
AcDbEntity
  8
0
100
AcDbLine
 10
155.514
 20
537.839
 30
0.0
 11
156.014
 21
538.839
 31
0.0
  0
LINE
  5
2CC
330
1E
100
AcDbEntity
  8
0
100
AcDbLine
 10
155.514
 20
537.839
 30
0.0
 11
155.514
 21
537.239
 31
0.0
  0
LINE
  5
2CD
330
1E
100
AcDbEntity
  8
0
100
AcDbLine
 10
156.014
 20
538.839
 30
0.0
 11
196.014
 21
538.839
 31
0.0
  0
LINE
  5
2CE
330
1E
100
AcDbEntity
  8
0
100
AcDbLine
 10
156.014
 20
538.839
 30
0.0
 11
156.014
 21
538.239
 31
0.0
  0
LINE
  5
2CF
330
1E
100
AcDbEntity
  8
0
100
AcDbLine
 10
143.541
 20
565.693
 30
0.0
 11
145.7539999999999
 21
571.5319999999999
 31
0.0
  0
LINE
  5
2D0
330
1E
100
AcDbEntity
  8
0
100
AcDbLine
 10
157.46
 20
570.47
 30
0.0
 11
158.291
 21
553.9279999999999
 31
0.0
  0
LINE
  5
2D1
330
1E
100
AcDbEntity
  8
0
100
AcDbLine
 10
158.291
 20
553.9279999999999
 30
0.0
 11
158.7445228461249
 21
538.839
 31
0.0
  0
LINE
  5
2D2
330
1E
100
AcDbEntity
  8
0
100
AcDbLine
 10
145.7539999999999
 20
571.5319999999999
 30
0.0
 11
147.791
 21
578.7849999999999
 31
0.0
  0
LINE
  5
2D3
330
1E
100
AcDbEntity
  8
0
100
AcDbLine
 10
147.791
 20
578.7849999999999
 30
0.0
 11
149.549
 21
587.0119999999999
 31
0.0
  0
LINE
  5
2D6
330
1E
100
AcDbEntity
  8
0
100
AcDbLine
 10
137.5
 20
599.503
 30
0.0
 11
137.52
 21
528.4109999999999
 31
0.0
  0
LINE
  5
2DE
330
1E
100
AcDbEntity
  8
0
100
AcDbLine
 10
149.549
 20
587.0119999999999
 30
0.0
 11
149.991
 21
589.224
 31
0.0
  0
LINE
  5
2E0
330
1E
100
AcDbEntity
  8
0
100
AcDbLine
 10
149.991
 20
589.224
 30
0.0
 11
151.875302807935
 21
600.181630459186
 31
0.0
  0
LINE
  5
2E3
330
1E
100
AcDbEntity
  8
0
100
AcDbLine
 10
154.6560827703569
 20
600.1849899956591
 30
0.0
 11
156.026
 21
587.278
 31
0.0
  0
LINE
  5
2E4
330
1E
100
AcDbEntity
  8
0
100
AcDbLine
 10
162.0
 20
600.2029999999999
 30
0.0
 11
162.0
 21
610.203
 31
0.0
  0
LINE
  5
2E7
330
1E
100
AcDbEntity
  8
0
100
AcDbLine
 10
156.026
 20
587.278
 30
0.0
 11
157.46
 21
570.47
 31
0.0
  0
LINE
  5
2E8
330
1E
100
AcDbEntity
  8
0
100
AcDbLine
 10
149.6979999999999
 20
610.2269999999999
 30
0.0
 11
158.803
 21
610.216
 31
0.0
  0
LINE
  5
2E9
330
1E
100
AcDbEntity
  8
0
100
AcDbLine
 10
136.0729999999999
 20
610.234
 30
0.0
 11
149.6979999999999
 21
610.2269999999999
 31
0.0
  0
LINE
  5
2EA
330
1E
100
AcDbEntity
  8
0
100
AcDbLine
 10
138.149
 20
612.6659999999999
 30
0.0
 11
140.151
 21
621.778
 31
0.0
  0
LINE
  5
2EB
330
1E
100
AcDbEntity
  8
0
100
AcDbLine
 10
137.68
 20
610.3659999999999
 30
0.0
 11
138.149
 21
612.6659999999999
 31
0.0
  0
LINE
  5
2EC
330
1E
100
AcDbEntity
  8
0
100
AcDbLine
 10
137.656566253188
 20
610.233186424677
 30
0.0
 11
137.68
 21
610.3659999999999
 31
0.0
  0
LINE
  5
2ED
330
1E
100
AcDbEntity
  8
0
100
AcDbLine
 10
162.0
 20
610.203
 30
0.0
 11
162.0
 21
600.2029999999999
 31
0.0
  0
LINE
  5
2EE
330
1E
100
AcDbEntity
  8
0
100
AcDbLine
 10
158.803
 20
610.216
 30
0.0
 11
162.0
 21
610.203
 31
0.0
  0
LINE
  5
2EF
330
1E
100
AcDbEntity
  8
0
100
AcDbLine
 10
153.703501753408
 20
610.222160843571
 30
0.0
 11
155.127
 21
616.7349999999999
 31
0.0
  0
LINE
  5
2F0
330
1E
100
AcDbEntity
  8
0
100
AcDbLine
 10
153.647603780865
 20
610.2222283754429
 30
0.0
 11
153.673
 21
610.3659999999999
 31
0.0
  0
LINE
  5
2F1
330
1E
100
AcDbEntity
  8
0
100
AcDbLine
 10
142.1629999999999
 20
627.3509999999999
 30
0.0
 11
144.148
 21
630.8009999999999
 31
0.0
  0
LINE
  5
2F2
330
1E
100
AcDbEntity
  8
0
100
AcDbLine
 10
140.151
 20
621.778
 30
0.0
 11
142.1629999999999
 21
627.3509999999999
 31
0.0
  0
LINE
  5
2F3
330
1E
100
AcDbEntity
  8
0
100
AcDbLine
 10
157.0429999999999
 20
622.043
 30
0.0
 11
158.9749999999999
 21
625.4049999999999
 31
0.0
  0
LINE
  5
2F4
330
1E
100
AcDbEntity
  8
0
100
AcDbLine
 10
155.127
 20
616.7349999999999
 30
0.0
 11
157.0429999999999
 21
622.043
 31
0.0
  0
LINE
  5
2F5
330
1E
100
AcDbEntity
  8
0
100
AcDbLine
 10
144.148
 20
630.8009999999999
 30
0.0
 11
145.9379999999999
 21
633.101
 31
0.0
  0
LINE
  5
2F6
330
1E
100
AcDbEntity
  8
0
100
AcDbLine
 10
148.428
 20
634.6049999999999
 30
0.0
 11
150.177
 21
635.6659999999999
 31
0.0
  0
LINE
  5
2F7
330
1E
100
AcDbEntity
  8
0
100
AcDbLine
 10
145.9379999999999
 20
633.101
 30
0.0
 11
148.428
 21
634.6049999999999
 31
0.0
  0
LINE
  5
2F8
330
1E
100
AcDbEntity
  8
0
100
AcDbLine
 10
150.177
 20
635.6659999999999
 30
0.0
 11
153.275
 21
636.197
 31
0.0
  0
LINE
  5
2F9
330
1E
100
AcDbEntity
  8
0
100
AcDbLine
 10
156.3729999999999
 20
635.6659999999999
 30
0.0
 11
158.122
 21
634.6049999999999
 31
0.0
  0
LINE
  5
2FA
330
1E
100
AcDbEntity
  8
0
100
AcDbLine
 10
153.275
 20
636.197
 30
0.0
 11
156.3729999999999
 21
635.6659999999999
 31
0.0
  0
LINE
  5
2FB
330
1E
100
AcDbEntity
  8
0
100
AcDbLine
 10
162.4029999999999
 20
630.8009999999999
 30
0.0
 11
164.388
 21
627.3509999999999
 31
0.0
  0
LINE
  5
2FC
330
1E
100
AcDbEntity
  8
0
100
AcDbLine
 10
160.6119999999999
 20
633.101
 30
0.0
 11
162.4029999999999
 21
630.8009999999999
 31
0.0
  0
LINE
  5
2FD
330
1E
100
AcDbEntity
  8
0
100
AcDbLine
 10
158.122
 20
634.6049999999999
 30
0.0
 11
160.6119999999999
 21
633.101
 31
0.0
  0
LINE
  5
2FE
330
1E
100
AcDbEntity
  8
0
100
AcDbLine
 10
164.388
 20
627.3509999999999
 30
0.0
 11
166.4
 21
621.778
 31
0.0
  0
LINE
  5
2FF
330
1E
100
AcDbEntity
  8
0
100
AcDbLine
 10
166.4
 20
621.778
 30
0.0
 11
168.4009999999999
 21
612.6659999999999
 31
0.0
  0
LINE
  5
300
330
1E
100
AcDbEntity
  8
0
100
AcDbLine
 10
168.4009999999999
 20
612.6659999999999
 30
0.0
 11
168.87
 21
610.3659999999999
 31
0.0
  0
LINE
  5
301
330
1E
100
AcDbEntity
  8
0
100
AcDbLine
 10
168.87
 20
610.3659999999999
 30
0.0
 11
170.62
 21
600.459
 31
0.0
  0
LINE
  5
302
330
1E
100
AcDbEntity
  8
0
100
AcDbLine
 10
170.62
 20
600.459
 30
0.0
 11
172.018
 21
587.278
 31
0.0
  0
LINE
  5
303
330
1E
100
AcDbEntity
  8
0
100
AcDbLine
 10
172.018
 20
587.278
 30
0.0
 11
173.452
 21
570.47
 31
0.0
  0
LINE
  5
304
330
1E
100
AcDbEntity
  8
0
100
AcDbLine
 10
173.452
 20
570.47
 30
0.0
 11
174.2829999999999
 21
553.9279999999999
 31
0.0
  0
LINE
  5
305
330
1E
100
AcDbEntity
  8
0
100
AcDbLine
 10
196.014
 20
516.839
 30
0.0
 11
196.014
 21
521.339
 31
0.0
  0
LINE
  5
306
330
1E
100
AcDbEntity
  8
0
100
AcDbLine
 10
196.014
 20
516.839
 30
0.0
 11
196.014
 21
512.6389999999999
 31
0.0
  0
LINE
  5
307
330
1E
100
AcDbEntity
  8
0
100
AcDbLine
 10
196.014
 20
512.6389999999999
 30
0.0
 11
196.014
 21
516.839
 31
0.0
  0
LINE
  5
308
330
1E
100
AcDbEntity
  8
0
100
AcDbLine
 10
196.014
 20
512.6389999999999
 30
0.0
 11
196.014
 21
508.939
 31
0.0
  0
LINE
  5
309
330
1E
100
AcDbEntity
  8
0
100
AcDbLine
 10
196.014
 20
508.939
 30
0.0
 11
196.014
 21
512.6389999999999
 31
0.0
  0
LINE
  5
30A
330
1E
100
AcDbEntity
  8
0
100
AcDbLine
 10
196.014
 20
508.939
 30
0.0
 11
196.014
 21
506.139
 31
0.0
  0
LINE
  5
30B
330
1E
100
AcDbEntity
  8
0
100
AcDbLine
 10
196.014
 20
506.139
 30
0.0
 11
196.014
 21
508.939
 31
0.0
  0
LINE
  5
30C
330
1E
100
AcDbEntity
  8
0
100
AcDbLine
 10
196.014
 20
506.139
 30
0.0
 11
196.014
 21
504.4389999999999
 31
0.0
  0
LINE
  5
30D
330
1E
100
AcDbEntity
  8
0
100
AcDbLine
 10
196.014
 20
504.4389999999999
 30
0.0
 11
196.014
 21
506.139
 31
0.0
  0
LINE
  5
30E
330
1E
100
AcDbEntity
  8
0
100
AcDbLine
 10
196.014
 20
504.4389999999999
 30
0.0
 11
196.014
 21
503.8389999999999
 31
0.0
  0
LINE
  5
30F
330
1E
100
AcDbEntity
  8
0
100
AcDbLine
 10
196.014
 20
503.8389999999999
 30
0.0
 11
196.014
 21
504.4389999999999
 31
0.0
  0
LINE
  5
310
330
1E
100
AcDbEntity
  8
0
100
AcDbLine
 10
196.014
 20
503.8389999999999
 30
0.0
 11
197.014
 21
504.839
 31
0.0
  0
LINE
  5
311
330
1E
100
AcDbEntity
  8
0
100
AcDbLine
 10
197.014
 20
517.039
 30
0.0
 11
197.014
 21
521.339
 31
0.0
  0
LINE
  5
312
330
1E
100
AcDbEntity
  8
0
100
AcDbLine
 10
197.014
 20
517.039
 30
0.0
 11
197.014
 21
513.139
 31
0.0
  0
LINE
  5
313
330
1E
100
AcDbEntity
  8
0
100
AcDbLine
 10
197.014
 20
513.139
 30
0.0
 11
197.014
 21
517.039
 31
0.0
  0
LINE
  5
314
330
1E
100
AcDbEntity
  8
0
100
AcDbLine
 10
197.014
 20
513.139
 30
0.0
 11
197.014
 21
509.739
 31
0.0
  0
LINE
  5
315
330
1E
100
AcDbEntity
  8
0
100
AcDbLine
 10
197.014
 20
509.739
 30
0.0
 11
197.014
 21
513.139
 31
0.0
  0
LINE
  5
316
330
1E
100
AcDbEntity
  8
0
100
AcDbLine
 10
197.014
 20
509.739
 30
0.0
 11
197.014
 21
507.0389999999999
 31
0.0
  0
LINE
  5
317
330
1E
100
AcDbEntity
  8
0
100
AcDbLine
 10
197.014
 20
507.0389999999999
 30
0.0
 11
197.014
 21
509.739
 31
0.0
  0
LINE
  5
318
330
1E
100
AcDbEntity
  8
0
100
AcDbLine
 10
197.014
 20
507.0389999999999
 30
0.0
 11
197.014
 21
505.439
 31
0.0
  0
LINE
  5
319
330
1E
100
AcDbEntity
  8
0
100
AcDbLine
 10
197.014
 20
505.439
 30
0.0
 11
197.014
 21
507.0389999999999
 31
0.0
  0
LINE
  5
31A
330
1E
100
AcDbEntity
  8
0
100
AcDbLine
 10
197.014
 20
505.439
 30
0.0
 11
197.014
 21
504.839
 31
0.0
  0
LINE
  5
31B
330
1E
100
AcDbEntity
  8
0
100
AcDbLine
 10
197.014
 20
504.839
 30
0.0
 11
197.014
 21
505.439
 31
0.0
  0
LINE
  5
31C
330
1E
100
AcDbEntity
  8
0
100
AcDbLine
 10
196.014
 20
521.339
 30
0.0
 11
196.014
 21
525.839
 31
0.0
  0
LINE
  5
31D
330
1E
100
AcDbEntity
  8
0
100
AcDbLine
 10
196.014
 20
521.339
 30
0.0
 11
196.014
 21
516.839
 31
0.0
  0
LINE
  5
31E
330
1E
100
AcDbEntity
  8
0
100
AcDbLine
 10
196.014
 20
525.839
 30
0.0
 11
196.014
 21
530.039
 31
0.0
  0
LINE
  5
31F
330
1E
100
AcDbEntity
  8
0
100
AcDbLine
 10
196.014
 20
525.839
 30
0.0
 11
196.014
 21
521.339
 31
0.0
  0
LINE
  5
320
330
1E
100
AcDbEntity
  8
0
100
AcDbLine
 10
197.014
 20
521.339
 30
0.0
 11
197.014
 21
525.639
 31
0.0
  0
LINE
  5
321
330
1E
100
AcDbEntity
  8
0
100
AcDbLine
 10
197.014
 20
521.339
 30
0.0
 11
197.014
 21
517.039
 31
0.0
  0
LINE
  5
322
330
1E
100
AcDbEntity
  8
0
100
AcDbLine
 10
197.014
 20
525.639
 30
0.0
 11
197.014
 21
529.539
 31
0.0
  0
LINE
  5
323
330
1E
100
AcDbEntity
  8
0
100
AcDbLine
 10
197.014
 20
525.639
 30
0.0
 11
197.014
 21
521.339
 31
0.0
  0
LINE
  5
324
330
1E
100
AcDbEntity
  8
0
100
AcDbLine
 10
196.014
 20
530.039
 30
0.0
 11
196.014
 21
533.739
 31
0.0
  0
LINE
  5
325
330
1E
100
AcDbEntity
  8
0
100
AcDbLine
 10
196.014
 20
530.039
 30
0.0
 11
196.014
 21
525.839
 31
0.0
  0
LINE
  5
326
330
1E
100
AcDbEntity
  8
0
100
AcDbLine
 10
196.014
 20
533.739
 30
0.0
 11
196.014
 21
536.5389999999999
 31
0.0
  0
LINE
  5
327
330
1E
100
AcDbEntity
  8
0
100
AcDbLine
 10
196.014
 20
533.739
 30
0.0
 11
196.014
 21
530.039
 31
0.0
  0
LINE
  5
328
330
1E
100
AcDbEntity
  8
0
100
AcDbLine
 10
197.014
 20
529.539
 30
0.0
 11
197.014
 21
532.939
 31
0.0
  0
LINE
  5
329
330
1E
100
AcDbEntity
  8
0
100
AcDbLine
 10
197.014
 20
529.539
 30
0.0
 11
197.014
 21
525.639
 31
0.0
  0
LINE
  5
32A
330
1E
100
AcDbEntity
  8
0
100
AcDbLine
 10
197.014
 20
532.939
 30
0.0
 11
197.014
 21
535.639
 31
0.0
  0
LINE
  5
32B
330
1E
100
AcDbEntity
  8
0
100
AcDbLine
 10
197.014
 20
532.939
 30
0.0
 11
197.014
 21
529.539
 31
0.0
  0
LINE
  5
32C
330
1E
100
AcDbEntity
  8
0
100
AcDbLine
 10
196.014
 20
536.5389999999999
 30
0.0
 11
196.014
 21
538.239
 31
0.0
  0
LINE
  5
32D
330
1E
100
AcDbEntity
  8
0
100
AcDbLine
 10
196.014
 20
536.5389999999999
 30
0.0
 11
196.014
 21
533.739
 31
0.0
  0
LINE
  5
32E
330
1E
100
AcDbEntity
  8
0
100
AcDbLine
 10
197.014
 20
537.839
 30
0.0
 11
197.014
 21
537.239
 31
0.0
  0
LINE
  5
32F
330
1E
100
AcDbEntity
  8
0
100
AcDbLine
 10
196.014
 20
538.239
 30
0.0
 11
196.014
 21
538.839
 31
0.0
  0
LINE
  5
330
330
1E
100
AcDbEntity
  8
0
100
AcDbLine
 10
196.014
 20
538.239
 30
0.0
 11
196.014
 21
536.5389999999999
 31
0.0
  0
LINE
  5
331
330
1E
100
AcDbEntity
  8
0
100
AcDbLine
 10
197.014
 20
535.639
 30
0.0
 11
197.014
 21
537.239
 31
0.0
  0
LINE
  5
332
330
1E
100
AcDbEntity
  8
0
100
AcDbLine
 10
197.014
 20
535.639
 30
0.0
 11
197.014
 21
532.939
 31
0.0
  0
LINE
  5
333
330
1E
100
AcDbEntity
  8
0
100
AcDbLine
 10
197.014
 20
537.239
 30
0.0
 11
197.014
 21
537.839
 31
0.0
  0
LINE
  5
334
330
1E
100
AcDbEntity
  8
0
100
AcDbLine
 10
197.014
 20
537.239
 30
0.0
 11
197.014
 21
535.639
 31
0.0
  0
LINE
  5
335
330
1E
100
AcDbEntity
  8
0
100
AcDbLine
 10
196.014
 20
538.839
 30
0.0
 11
197.014
 21
537.839
 31
0.0
  0
LINE
  5
336
330
1E
100
AcDbEntity
  8
0
100
AcDbLine
 10
196.014
 20
538.839
 30
0.0
 11
196.014
 21
538.239
 31
0.0
  0
LINE
  5
337
330
1E
100
AcDbEntity
  8
0
100
AcDbLine
 10
174.2829999999999
 20
553.9279999999999
 30
0.0
 11
174.736522846125
 21
538.839
 31
0.0
  0
LINE
  5
338
330
1E
100
AcDbEntity
  8
0
100
AcDbLine
 10
137.5
 20
498.003
 30
0.0
 11
137.5
 21
470.803
 31
0.0
  0
LINE
  5
339
330
1E
100
AcDbEntity
  8
0
100
AcDbLine
 10
137.5
 20
498.003
 30
0.0
 11
137.5
 21
512.4249999999999
 31
0.0
  0
LINE
  5
33A
330
1E
100
AcDbEntity
  8
0
100
AcDbLine
 10
132.4999999999999
 20
488.1984278180619
 30
0.0
 11
132.4999999999999
 21
470.803
 31
0.0
  0
LINE
  5
33B
330
1E
100
AcDbEntity
  8
0
100
AcDbLine
 10
132.4999999999999
 20
470.803
 30
0.0
 11
132.4999999999999
 21
488.1984278180619
 31
0.0
  0
LINE
  5
33C
330
1E
100
AcDbEntity
  8
0
100
AcDbLine
 10
132.4999999999999
 20
470.803
 30
0.0
 11
137.5
 21
470.803
 31
0.0
  0
LINE
  5
341
330
1E
100
AcDbEntity
  8
0
100
AcDbLine
 10
132.71
 20
459.0969999999999
 30
0.0
 11
134.1187363123959
 21
452.474067527282
 31
0.0
  0
LINE
  5
342
330
1E
100
AcDbEntity
  8
0
100
AcDbLine
 10
136.0
 20
119.8029999999999
 30
0.0
 11
135.4655175489988
 21
115.8637253391909
 31
0.0
  0
LINE
  5
343
330
1E
100
AcDbEntity
  8
0
100
AcDbLine
 10
135.4655175489988
 20
115.8637253391909
 30
0.0
 11
133.888
 21
111.867
 31
0.0
  0
LINE
  5
344
330
1E
100
AcDbEntity
  8
0
100
AcDbLine
 10
127.936
 20
105.915
 30
0.0
 11
131.264
 21
108.539
 31
0.0
  0
LINE
  5
345
330
1E
100
AcDbEntity
  8
0
100
AcDbLine
 10
78.25576800000691
 20
600.2019599999999
 30
0.0
 11
162.0
 21
600.2029999999999
 31
0.0
  0
ENDSEC
  0
SECTION
  2
OBJECTS
  0
DICTIONARY
  5
C
330
0
100
AcDbDictionary
281
     1
  3
ACAD_GROUP
350
D
  3
ACAD_LAYOUT
350
19
  3
ACAD_MLINESTYLE
350
16
  3
ACAD_PLOTSETTINGS
350
18
  3
ACAD_PLOTSTYLENAME
350
E
  3
AcDbVariableDictionary
350
346
  0
DICTIONARY
  5
D
102
{ACAD_REACTORS
330
C
102
}
330
C
100
AcDbDictionary
281
     1
  0
DICTIONARY
  5
19
102
{ACAD_REACTORS
330
C
102
}
330
C
100
AcDbDictionary
281
     1
  3
Layout1
350
1D
  3
Model
350
21
  0
DICTIONARY
  5
16
102
{ACAD_REACTORS
330
C
102
}
330
C
100
AcDbDictionary
281
     1
  3
Standard
350
17
  0
DICTIONARY
  5
18
102
{ACAD_REACTORS
330
C
102
}
330
C
100
AcDbDictionary
281
     1
  0
ACDBDICTIONARYWDFLT
  5
E
102
{ACAD_REACTORS
330
C
102
}
330
C
100
AcDbDictionary
281
     1
  3
Normal
350
F
100
AcDbDictionaryWithDefault
340
F
  0
DICTIONARY
  5
346
102
{ACAD_REACTORS
330
C
102
}
330
C
100
AcDbDictionary
281
     1
  3
DIMASSOC
350
347
  0
LAYOUT
  5
1D
102
{ACAD_REACTORS
330
19
102
}
330
19
100
AcDbPlotSettings
  1

  2
hp deskjet 980c series
  4

  6

 40
0.0
 41
0.0
 42
0.0
 43
0.0
 44
0.0
 45
0.0
 46
0.0
 47
0.0
 48
0.0
 49
0.0
140
0.0
141
0.0
142
1.0
143
1.0
 70
   688
 72
     0
 73
     0
 74
     5
  7

 75
    16
147
1.0
148
0.0
149
0.0
100
AcDbLayout
  1
Layout1
 70
     1
 71
     1
 10
0.0
 20
0.0
 11
12.0
 21
9.0
 12
0.0
 22
0.0
 32
0.0
 14
1.000000000000000E+20
 24
1.000000000000000E+20
 34
1.000000000000000E+20
 15
-1.000000000000000E+20
 25
-1.000000000000000E+20
 35
-1.000000000000000E+20
146
0.0
 13
0.0
 23
0.0
 33
0.0
 16
1.0
 26
0.0
 36
0.0
 17
0.0
 27
1.0
 37
0.0
 76
     0
330
1A
  0
LAYOUT
  5
21
102
{ACAD_REACTORS
330
19
102
}
330
19
100
AcDbPlotSettings
  1

  2
hp deskjet 980c series
  4

  6

 40
0.0
 41
0.0
 42
0.0
 43
0.0
 44
0.0
 45
0.0
 46
0.0
 47
0.0
 48
0.0
 49
0.0
140
0.0
141
0.0
142
1.0
143
1.0
 70
  1712
 72
     0
 73
     0
 74
     0
  7

 75
     0
147
1.0
148
0.0
149
0.0
100
AcDbLayout
  1
Model
 70
     1
 71
     0
 10
0.0
 20
0.0
 11
12.0
 21
9.0
 12
0.0
 22
0.0
 32
0.0
 14
0.0
 24
0.0
 34
0.0
 15
0.0
 25
0.0
 35
0.0
146
0.0
 13
0.0
 23
0.0
 33
0.0
 16
1.0
 26
0.0
 36
0.0
 17
0.0
 27
1.0
 37
0.0
 76
     0
330
1E
  0
MLINESTYLE
  5
17
102
{ACAD_REACTORS
330
16
102
}
330
16
100
AcDbMlineStyle
  2
STANDARD
 70
     0
  3

 62
   256
 51
90.0
 52
90.0
 71
     2
 49
0.5
 62
   256
  6
BYLAYER
 49
-0.5
 62
   256
  6
BYLAYER
  0
ACDBPLACEHOLDER
  5
F
102
{ACAD_REACTORS
330
E
102
}
330
E
  0
DICTIONARYVAR
  5
347
102
{ACAD_REACTORS
330
346
102
}
330
346
100
DictionaryVariables
280
     0
  1
1
  0
ENDSEC
  0
EOF
