  0
SECTION
  2
HEADER
  9
$ACADVER
  1
AC1015
  9
$ACADMAINTVER
 70
    13
  9
$DWGCODEPAGE
  3
ANSI_1252
  9
$INSBASE
 10
0.0
 20
0.0
 30
0.0
  9
$EXTMIN
 10
-0.22249999999999
 20
-0.0000000000000133
 30
0.0
  9
$EXTMAX
 10
257.2225
 20
855.0
 30
0.0
  9
$LIMMIN
 10
0.0
 20
0.0
  9
$LIMMAX
 10
12.0
 20
9.0
  9
$ORTHOMODE
 70
     0
  9
$REGENMODE
 70
     1
  9
$FILLMODE
 70
     1
  9
$QTEXTMODE
 70
     0
  9
$MIRRTEXT
 70
     1
  9
$LTSCALE
 40
1.0
  9
$ATTMODE
 70
     1
  9
$TEXTSIZE
 40
0.2
  9
$TRACEWID
 40
0.05
  9
$TEXTSTYLE
  7
Standard
  9
$CLAYER
  8
0
  9
$CELTYPE
  6
Continuous
  9
$CECOLOR
 62
   256
  9
$CELTSCALE
 40
1.0
  9
$DISPSILH
 70
     0
  9
$DIMSCALE
 40
1.0
  9
$DIMASZ
 40
0.18
  9
$DIMEXO
 40
0.0625
  9
$DIMDLI
 40
0.38
  9
$DIMRND
 40
0.0
  9
$DIMDLE
 40
0.0
  9
$DIMEXE
 40
0.18
  9
$DIMTP
 40
0.0
  9
$DIMTM
 40
0.0
  9
$DIMTXT
 40
0.18
  9
$DIMCEN
 40
0.09
  9
$DIMTSZ
 40
0.0
  9
$DIMTOL
 70
     0
  9
$DIMLIM
 70
     0
  9
$DIMTIH
 70
     1
  9
$DIMTOH
 70
     1
  9
$DIMSE1
 70
     0
  9
$DIMSE2
 70
     0
  9
$DIMTAD
 70
     0
  9
$DIMZIN
 70
     0
  9
$DIMBLK
  1

  9
$DIMASO
 70
     1
  9
$DIMSHO
 70
     1
  9
$DIMPOST
  1

  9
$DIMAPOST
  1

  9
$DIMALT
 70
     0
  9
$DIMALTD
 70
     2
  9
$DIMALTF
 40
25.4
  9
$DIMLFAC
 40
1.0
  9
$DIMTOFL
 70
     0
  9
$DIMTVP
 40
0.0
  9
$DIMTIX
 70
     0
  9
$DIMSOXD
 70
     0
  9
$DIMSAH
 70
     0
  9
$DIMBLK1
  1

  9
$DIMBLK2
  1

  9
$DIMSTYLE
  2
Standard
  9
$DIMCLRD
 70
     0
  9
$DIMCLRE
 70
     0
  9
$DIMCLRT
 70
     0
  9
$DIMTFAC
 40
1.0
  9
$DIMGAP
 40
0.09
  9
$DIMJUST
 70
     0
  9
$DIMSD1
 70
     0
  9
$DIMSD2
 70
     0
  9
$DIMTOLJ
 70
     1
  9
$DIMTZIN
 70
     0
  9
$DIMALTZ
 70
     0
  9
$DIMALTTZ
 70
     0
  9
$DIMUPT
 70
     0
  9
$DIMDEC
 70
     4
  9
$DIMTDEC
 70
     4
  9
$DIMALTU
 70
     2
  9
$DIMALTTD
 70
     2
  9
$DIMTXSTY
  7
Standard
  9
$DIMAUNIT
 70
     0
  9
$DIMADEC
 70
     0
  9
$DIMALTRND
 40
0.0
  9
$DIMAZIN
 70
     0
  9
$DIMDSEP
 70
    46
  9
$DIMATFIT
 70
     3
  9
$DIMFRAC
 70
     0
  9
$DIMLDRBLK
  1

  9
$DIMLUNIT
 70
     2
  9
$DIMLWD
 70
    -2
  9
$DIMLWE
 70
    -2
  9
$DIMTMOVE
 70
     0
  9
$LUNITS
 70
     2
  9
$LUPREC
 70
     4
  9
$SKETCHINC
 40
0.1
  9
$FILLETRAD
 40
0.0
  9
$AUNITS
 70
     0
  9
$AUPREC
 70
     0
  9
$MENU
  1
.
  9
$ELEVATION
 40
0.0
  9
$PELEVATION
 40
0.0
  9
$THICKNESS
 40
0.0
  9
$LIMCHECK
 70
     0
  9
$CHAMFERA
 40
0.0
  9
$CHAMFERB
 40
0.0
  9
$CHAMFERC
 40
0.0
  9
$CHAMFERD
 40
0.0
  9
$SKPOLY
 70
     0
  9
$TDCREATE
 40
2454874.770895358
  9
$TDUCREATE
 40
2454874.729228692
  9
$TDUPDATE
 40
2454874.772567083
  9
$TDUUPDATE
 40
2454874.730900416
  9
$TDINDWG
 40
0.0016719097
  9
$TDUSRTIMER
 40
0.0016719097
  9
$USRTIMER
 70
     1
  9
$ANGBASE
 50
0.0
  9
$ANGDIR
 70
     0
  9
$PDMODE
 70
     0
  9
$PDSIZE
 40
0.0
  9
$PLINEWID
 40
0.0
  9
$SPLFRAME
 70
     0
  9
$SPLINETYPE
 70
     6
  9
$SPLINESEGS
 70
     8
  9
$HANDSEED
  5
375
  9
$SURFTAB1
 70
     6
  9
$SURFTAB2
 70
     6
  9
$SURFTYPE
 70
     6
  9
$SURFU
 70
     6
  9
$SURFV
 70
     6
  9
$UCSBASE
  2

  9
$UCSNAME
  2

  9
$UCSORG
 10
0.0
 20
0.0
 30
0.0
  9
$UCSXDIR
 10
1.0
 20
0.0
 30
0.0
  9
$UCSYDIR
 10
0.0
 20
1.0
 30
0.0
  9
$UCSORTHOREF
  2

  9
$UCSORTHOVIEW
 70
     1
  9
$UCSORGTOP
 10
0.0
 20
0.0
 30
0.0
  9
$UCSORGBOTTOM
 10
0.0
 20
0.0
 30
0.0
  9
$UCSORGLEFT
 10
0.0
 20
0.0
 30
0.0
  9
$UCSORGRIGHT
 10
0.0
 20
0.0
 30
0.0
  9
$UCSORGFRONT
 10
0.0
 20
0.0
 30
0.0
  9
$UCSORGBACK
 10
0.0
 20
0.0
 30
0.0
  9
$PUCSBASE
  2

  9
$PUCSNAME
  2

  9
$PUCSORG
 10
0.0
 20
0.0
 30
0.0
  9
$PUCSXDIR
 10
1.0
 20
0.0
 30
0.0
  9
$PUCSYDIR
 10
0.0
 20
1.0
 30
0.0
  9
$PUCSORTHOREF
  2

  9
$PUCSORTHOVIEW
 70
     0
  9
$PUCSORGTOP
 10
0.0
 20
0.0
 30
0.0
  9
$PUCSORGBOTTOM
 10
0.0
 20
0.0
 30
0.0
  9
$PUCSORGLEFT
 10
0.0
 20
0.0
 30
0.0
  9
$PUCSORGRIGHT
 10
0.0
 20
0.0
 30
0.0
  9
$PUCSORGFRONT
 10
0.0
 20
0.0
 30
0.0
  9
$PUCSORGBACK
 10
0.0
 20
0.0
 30
0.0
  9
$USERI1
 70
     0
  9
$USERI2
 70
     0
  9
$USERI3
 70
     0
  9
$USERI4
 70
     0
  9
$USERI5
 70
     0
  9
$USERR1
 40
0.0
  9
$USERR2
 40
0.0
  9
$USERR3
 40
0.0
  9
$USERR4
 40
0.0
  9
$USERR5
 40
0.0
  9
$WORLDVIEW
 70
     1
  9
$SHADEDGE
 70
     3
  9
$SHADEDIF
 70
    70
  9
$TILEMODE
 70
     1
  9
$MAXACTVP
 70
    64
  9
$PINSBASE
 10
0.0
 20
0.0
 30
0.0
  9
$PLIMCHECK
 70
     0
  9
$PEXTMIN
 10
1.000000000000000E+20
 20
1.000000000000000E+20
 30
1.000000000000000E+20
  9
$PEXTMAX
 10
-1.000000000000000E+20
 20
-1.000000000000000E+20
 30
-1.000000000000000E+20
  9
$PLIMMIN
 10
0.0
 20
0.0
  9
$PLIMMAX
 10
12.0
 20
9.0
  9
$UNITMODE
 70
     0
  9
$VISRETAIN
 70
     1
  9
$PLINEGEN
 70
     0
  9
$PSLTSCALE
 70
     1
  9
$TREEDEPTH
 70
  3020
  9
$CMLSTYLE
  2
Standard
  9
$CMLJUST
 70
     0
  9
$CMLSCALE
 40
1.0
  9
$PROXYGRAPHICS
 70
     1
  9
$MEASUREMENT
 70
     0
  9
$CELWEIGHT
370
    -1
  9
$ENDCAPS
280
     0
  9
$JOINSTYLE
280
     0
  9
$LWDISPLAY
290
     0
  9
$INSUNITS
 70
     0
  9
$HYPERLINKBASE
  1

  9
$STYLESHEET
  1

  9
$XEDIT
290
     1
  9
$CEPSNTYPE
380
     0
  9
$PSTYLEMODE
290
     1
  9
$FINGERPRINTGUID
  2
{E0C5080E-4455-4A7B-B9B0-4F6AE5C6AE5A}
  9
$VERSIONGUID
  2
{232EC966-57D4-4913-91EA-A6C8E19FBF74}
  9
$EXTNAMES
290
     1
  9
$PSVPSCALE
 40
0.0
  9
$OLESTARTUP
290
     0
  0
ENDSEC
  0
SECTION
  2
CLASSES
  0
CLASS
  1
ACDBDICTIONARYWDFLT
  2
AcDbDictionaryWithDefault
  3
AutoCAD 2000
 90
        0
280
     0
281
     0
  0
CLASS
  1
ACDBPLACEHOLDER
  2
AcDbPlaceHolder
  3
AutoCAD 2000
 90
        0
280
     0
281
     0
  0
CLASS
  1
LAYOUT
  2
AcDbLayout
  3
AutoCAD 2000
 90
        0
280
     0
281
     0
  0
CLASS
  1
DICTIONARYVAR
  2
AcDbDictionaryVar
  3
AutoCAD 2000
 90
        0
280
     0
281
     0
  0
ENDSEC
  0
SECTION
  2
TABLES
  0
TABLE
  2
VPORT
  5
8
330
0
100
AcDbSymbolTable
 70
     2
  0
VPORT
  5
374
330
8
100
AcDbSymbolTableRecord
100
AcDbViewportTableRecord
  2
*Active
 70
     0
 10
0.0
 20
0.0
 11
1.0
 21
1.0
 12
128.4999999999999
 22
427.5
 13
0.0
 23
0.0
 14
1.0
 24
1.0
 15
0.0
 25
0.0
 16
0.0
 26
0.0
 36
1.0
 17
0.0
 27
0.0
 37
0.0
 40
860.3999999999999
 41
1.968387776606954
 42
50.0
 43
0.0
 44
0.0
 50
0.0
 51
0.0
 71
     0
 72
   100
 73
     1
 74
     3
 75
     0
 76
     0
 77
     0
 78
     0
281
     0
 65
     1
110
0.0
120
0.0
130
0.0
111
1.0
121
0.0
131
0.0
112
0.0
122
1.0
132
0.0
 79
     1
146
0.0
  0
ENDTAB
  0
TABLE
  2
LTYPE
  5
5
330
0
100
AcDbSymbolTable
 70
     1
  0
LTYPE
  5
13
330
5
100
AcDbSymbolTableRecord
100
AcDbLinetypeTableRecord
  2
ByBlock
 70
     0
  3

 72
    65
 73
     0
 40
0.0
  0
LTYPE
  5
14
330
5
100
AcDbSymbolTableRecord
100
AcDbLinetypeTableRecord
  2
ByLayer
 70
     0
  3

 72
    65
 73
     0
 40
0.0
  0
LTYPE
  5
15
330
5
100
AcDbSymbolTableRecord
100
AcDbLinetypeTableRecord
  2
Continuous
 70
     0
  3
Solid line
 72
    65
 73
     0
 40
0.0
  0
ENDTAB
  0
TABLE
  2
LAYER
  5
2
330
0
100
AcDbSymbolTable
 70
     1
  0
LAYER
  5
10
330
2
100
AcDbSymbolTableRecord
100
AcDbLayerTableRecord
  2
0
 70
     0
 62
     7
  6
Continuous
370
    -3
390
F
  0
ENDTAB
  0
TABLE
  2
STYLE
  5
3
330
0
100
AcDbSymbolTable
 70
     1
  0
STYLE
  5
11
330
3
100
AcDbSymbolTableRecord
100
AcDbTextStyleTableRecord
  2
Standard
 70
     0
 40
0.0
 41
1.0
 50
0.0
 71
     0
 42
0.2
  3
txt
  4

  0
ENDTAB
  0
TABLE
  2
VIEW
  5
6
330
0
100
AcDbSymbolTable
 70
     0
  0
ENDTAB
  0
TABLE
  2
UCS
  5
7
330
0
100
AcDbSymbolTable
 70
     0
  0
ENDTAB
  0
TABLE
  2
APPID
  5
9
330
0
100
AcDbSymbolTable
 70
     1
  0
APPID
  5
12
330
9
100
AcDbSymbolTableRecord
100
AcDbRegAppTableRecord
  2
ACAD
 70
     0
  0
ENDTAB
  0
TABLE
  2
DIMSTYLE
  5
A
330
0
100
AcDbSymbolTable
 70
     1
100
AcDbDimStyleTable
 71
     0
  0
DIMSTYLE
105
36B
330
A
100
AcDbSymbolTableRecord
100
AcDbDimStyleTableRecord
  2
Standard
 70
     0
340
11
  0
ENDTAB
  0
TABLE
  2
BLOCK_RECORD
  5
1
330
0
100
AcDbSymbolTable
 70
     0
  0
BLOCK_RECORD
  5
1E
330
1
100
AcDbSymbolTableRecord
100
AcDbBlockTableRecord
  2
*Model_Space
340
21
  0
BLOCK_RECORD
  5
1A
330
1
100
AcDbSymbolTableRecord
100
AcDbBlockTableRecord
  2
*Paper_Space
340
1D
  0
ENDTAB
  0
ENDSEC
  0
SECTION
  2
BLOCKS
  0
BLOCK
  5
1F
330
1E
100
AcDbEntity
  8
0
100
AcDbBlockBegin
  2
*Model_Space
 70
     0
 10
0.0
 20
0.0
 30
0.0
  3
*Model_Space
  1

  0
ENDBLK
  5
20
330
1E
100
AcDbEntity
  8
0
100
AcDbBlockEnd
  0
BLOCK
  5
1B
330
1A
100
AcDbEntity
 67
     1
  8
0
100
AcDbBlockBegin
  2
*Paper_Space
 70
     0
 10
0.0
 20
0.0
 30
0.0
  3
*Paper_Space
  1

  0
ENDBLK
  5
1C
330
1A
100
AcDbEntity
 67
     1
  8
0
100
AcDbBlockEnd
  0
ENDSEC
  0
SECTION
  2
ENTITIES
  0
LINE
  5
22
330
1E
100
AcDbEntity
  8
0
100
AcDbLine
 10
9.79130000000001
 20
685.9689999999999
 30
0.0
 11
13.627
 21
679.338
 31
0.0
  0
LINE
  5
23
330
1E
100
AcDbEntity
  8
0
100
AcDbLine
 10
13.627
 20
679.338
 30
0.0
 11
16.8721
 21
673.7280000000001
 31
0.0
  0
LINE
  5
24
330
1E
100
AcDbEntity
  8
0
100
AcDbLine
 10
13.1445
 20
680.172
 30
0.0
 11
14.18399477579669
 21
678.375089552797
 31
0.0
  0
LINE
  5
25
330
1E
100
AcDbEntity
  8
0
100
AcDbLine
 10
13.1445
 20
680.172
 30
0.0
 11
14.1839947757986
 21
678.3750895527929
 31
0.0
  0
LINE
  5
26
330
1E
100
AcDbEntity
  8
0
100
AcDbLine
 10
13.68109999988349
 20
679.2444127064309
 30
0.0
 11
16.8723
 21
673.7269999999999
 31
0.0
  0
LINE
  5
27
330
1E
100
AcDbEntity
  8
0
100
AcDbLine
 10
13.6810999998852
 20
679.2444127064279
 30
0.0
 11
16.8723
 21
673.7269999999999
 31
0.0
  0
LINE
  5
28
330
1E
100
AcDbEntity
  8
0
100
AcDbLine
 10
11.9554
 20
687.2209999999999
 30
0.0
 11
15.3117
 21
681.4189999999999
 31
0.0
  0
LINE
  5
29
330
1E
100
AcDbEntity
  8
0
100
AcDbLine
 10
11.9554
 20
687.2209999999999
 30
0.0
 11
15.7911
 21
680.59
 31
0.0
  0
LINE
  5
2A
330
1E
100
AcDbEntity
  8
0
100
AcDbLine
 10
9.777390000000009
 20
685.993
 30
0.0
 11
13.1445
 21
680.172
 31
0.0
  0
LINE
  5
2B
330
1E
100
AcDbEntity
  8
0
100
AcDbLine
 10
8.810143153000391
 20
687.6652867750579
 30
0.0
 11
9.777390000000009
 21
685.993
 31
0.0
  0
LINE
  5
2C
330
1E
100
AcDbEntity
  8
0
100
AcDbLine
 10
8.81014315299998
 20
687.665286775059
 30
0.0
 11
9.777390000000009
 21
685.993
 31
0.0
  0
LINE
  5
2D
330
1E
100
AcDbEntity
  8
0
100
AcDbLine
 10
16.8721
 20
673.7280000000001
 30
0.0
 11
19.04279999999999
 21
669.975
 31
0.0
  0
LINE
  5
2E
330
1E
100
AcDbEntity
  8
0
100
AcDbLine
 10
19.04279999999999
 20
669.975
 30
0.0
 11
19.80509999999999
 21
668.6569999999999
 31
0.0
  0
LINE
  5
2F
330
1E
100
AcDbEntity
  8
0
100
AcDbLine
 10
18.2974414142686
 20
671.263565656346
 30
0.0
 11
18.5891703687449
 21
670.7592963127569
 31
0.0
  0
LINE
  5
30
330
1E
100
AcDbEntity
  8
0
100
AcDbLine
 10
17.8864
 20
671.9739999999999
 30
0.0
 11
18.4963694638133
 21
670.919743079333
 31
0.0
  0
LINE
  5
31
330
1E
100
AcDbEntity
  8
0
100
AcDbLine
 10
17.8864
 20
671.9739999999999
 30
0.0
 11
18.4963694638136
 21
670.919743079333
 31
0.0
  0
LINE
  5
32
330
1E
100
AcDbEntity
  8
0
100
AcDbLine
 10
18.2974414142655
 20
671.263565656351
 30
0.0
 11
18.5891703687453
 21
670.7592963127559
 31
0.0
  0
LINE
  5
33
330
1E
100
AcDbEntity
  8
0
100
AcDbLine
 10
16.8723
 20
673.7269999999999
 30
0.0
 11
17.70936377542799
 21
672.2800897975649
 31
0.0
  0
LINE
  5
34
330
1E
100
AcDbEntity
  8
0
100
AcDbLine
 10
16.8723
 20
673.7269999999999
 30
0.0
 11
17.709363775427
 21
672.280089797566
 31
0.0
  0
LINE
  5
35
330
1E
100
AcDbEntity
  8
0
100
AcDbLine
 10
14.98994758572449
 20
676.981790343621
 30
0.0
 11
15.987
 21
675.258
 31
0.0
  0
LINE
  5
36
330
1E
100
AcDbEntity
  8
0
100
AcDbLine
 10
14.9899475857208
 20
676.9817903436279
 30
0.0
 11
15.987
 21
675.258
 31
0.0
  0
LINE
  5
37
330
1E
100
AcDbEntity
  8
0
100
AcDbLine
 10
15.7911
 20
680.59
 30
0.0
 11
19.0362
 21
674.9789999999999
 31
0.0
  0
LINE
  5
38
330
1E
100
AcDbEntity
  8
0
100
AcDbLine
 10
15.3117
 20
681.4189999999999
 30
0.0
 11
18.15109999999999
 21
676.51
 31
0.0
  0
LINE
  5
39
330
1E
100
AcDbEntity
  8
0
100
AcDbLine
 10
15.987
 20
675.258
 30
0.0
 11
17.8864
 21
671.9739999999999
 31
0.0
  0
LINE
  5
3A
330
1E
100
AcDbEntity
  8
0
100
AcDbLine
 10
19.0362
 20
674.9789999999999
 30
0.0
 11
21.2069
 21
671.2260000000001
 31
0.0
  0
LINE
  5
3B
330
1E
100
AcDbEntity
  8
0
100
AcDbLine
 10
18.15109999999999
 20
676.51
 30
0.0
 11
20.0505
 21
673.2260000000001
 31
0.0
  0
LINE
  5
3C
330
1E
100
AcDbEntity
  8
0
100
AcDbLine
 10
19.4656944442966
 20
674.2366047590889
 30
0.0
 11
21.20699999999999
 21
671.2260000000001
 31
0.0
  0
LINE
  5
3D
330
1E
100
AcDbEntity
  8
0
100
AcDbLine
 10
20.0505
 20
673.2260000000001
 30
0.0
 11
20.7175
 21
672.0729999999999
 31
0.0
  0
LINE
  5
3E
330
1E
100
AcDbEntity
  8
0
100
AcDbLine
 10
19.80509999999999
 20
668.6569999999999
 30
0.0
 11
21.96919999999999
 21
669.9089999999999
 31
0.0
  0
LINE
  5
3F
330
1E
100
AcDbEntity
  8
0
100
AcDbLine
 10
47.29549999999999
 20
314.101
 30
0.0
 11
103.1804999999999
 21
650.063
 31
0.0
  0
LINE
  5
40
330
1E
100
AcDbEntity
  8
0
100
AcDbLine
 10
47.4425
 20
314.0
 30
0.0
 11
49.4418
 21
264.0
 31
0.0
  0
LINE
  5
43
330
1E
100
AcDbEntity
  8
0
100
AcDbLine
 10
37.6085
 20
315.413
 30
0.0
 11
39.6333
 21
262.332
 31
0.0
  0
LINE
  5
45
330
1E
100
AcDbEntity
  8
0
100
AcDbLine
 10
39.6333
 20
262.332
 30
0.0
 11
63.13559999999999
 21
160.341
 31
0.0
  0
LINE
  5
46
330
1E
100
AcDbEntity
  8
0
100
AcDbLine
 10
21.2069
 20
671.2260000000001
 30
0.0
 11
21.96919999999999
 21
669.9089999999999
 31
0.0
  0
LINE
  5
47
330
1E
100
AcDbEntity
  8
0
100
AcDbLine
 10
21.20699999999999
 20
671.2260000000001
 30
0.0
 11
21.96919999999999
 21
669.9089999999999
 31
0.0
  0
LINE
  5
48
330
1E
100
AcDbEntity
  8
0
100
AcDbLine
 10
20.7175
 20
672.0729999999999
 30
0.0
 11
57.50659999999999
 21
693.3519999999999
 31
0.0
  0
LINE
  5
49
330
1E
100
AcDbEntity
  8
0
100
AcDbLine
 10
19.4657620012537
 20
674.2368577181659
 30
0.0
 11
19.72219999999369
 21
673.7936198799729
 31
0.0
  0
LINE
  5
4A
330
1E
100
AcDbEntity
  8
0
100
AcDbLine
 10
19.4657620012537
 20
674.2368577181659
 30
0.0
 11
19.7221999999933
 21
673.793619879974
 31
0.0
  0
LINE
  5
4B
330
1E
100
AcDbEntity
  8
0
100
AcDbLine
 10
5.959250000000009
 20
692.5939999999999
 30
0.0
 11
6.54883028339959
 21
691.574789243194
 31
0.0
  0
LINE
  5
4C
330
1E
100
AcDbEntity
  8
0
100
AcDbLine
 10
5.959250000000009
 20
692.5939999999999
 30
0.0
 11
6.548830283398899
 21
691.574789243195
 31
0.0
  0
LINE
  5
4D
330
1E
100
AcDbEntity
  8
0
100
AcDbLine
 10
6.405840000000009
 20
691.8219999999999
 30
0.0
 11
9.79130000000001
 21
685.9689999999999
 31
0.0
  0
LINE
  5
4E
330
1E
100
AcDbEntity
  8
0
100
AcDbLine
 10
5.922260000000009
 20
692.659
 30
0.0
 11
9.79130000000001
 21
685.9689999999999
 31
0.0
  0
LINE
  5
4F
330
1E
100
AcDbEntity
  8
0
100
AcDbLine
 10
3.551027630307149
 20
696.7580625353109
 30
0.0
 11
3.595600000000009
 21
696.681
 31
0.0
  0
LINE
  5
50
330
1E
100
AcDbEntity
  8
0
100
AcDbLine
 10
2.956205384250539
 20
697.786309962743
 30
0.0
 11
5.959250000000009
 21
692.5939999999999
 31
0.0
  0
LINE
  5
51
330
1E
100
AcDbEntity
  8
0
100
AcDbLine
 10
2.95620538425147
 20
697.786309962742
 30
0.0
 11
5.959250000000009
 21
692.5939999999999
 31
0.0
  0
LINE
  5
52
330
1E
100
AcDbEntity
  8
0
100
AcDbLine
 10
3.55102763030541
 20
696.758062535314
 30
0.0
 11
3.595600000000009
 21
696.681
 31
0.0
  0
LINE
  5
53
330
1E
100
AcDbEntity
  8
0
100
AcDbLine
 10
3.595600000000009
 20
696.681
 30
0.0
 11
6.405840000000009
 21
691.8219999999999
 31
0.0
  0
LINE
  5
54
330
1E
100
AcDbEntity
  8
0
100
AcDbLine
 10
0.53974200000001
 20
701.9639999999999
 30
0.0
 11
2.710530000000009
 21
698.211
 31
0.0
  0
LINE
  5
55
330
1E
100
AcDbEntity
  8
0
100
AcDbLine
 10
-0.22249999999999
 20
703.2819999999999
 30
0.0
 11
1.941610000000009
 21
704.534
 31
0.0
  0
LINE
  5
56
330
1E
100
AcDbEntity
  8
0
100
AcDbLine
 10
-0.22249999999999
 20
703.2819999999999
 30
0.0
 11
0.53974200000001
 21
701.9639999999999
 31
0.0
  0
LINE
  5
57
330
1E
100
AcDbEntity
  8
0
100
AcDbLine
 10
-0.22249999999999
 20
703.2819999999999
 30
0.0
 11
1.941610000000009
 21
704.534
 31
0.0
  0
LINE
  5
58
330
1E
100
AcDbEntity
  8
0
100
AcDbLine
 10
-0.22249999999999
 20
703.2819999999999
 30
0.0
 11
0.53974200000001
 21
701.9639999999999
 31
0.0
  0
LINE
  5
59
330
1E
100
AcDbEntity
  8
0
100
AcDbLine
 10
1.941610000000009
 20
704.534
 30
0.0
 11
2.703800000000009
 21
703.216
 31
0.0
  0
LINE
  5
5A
330
1E
100
AcDbEntity
  8
0
100
AcDbLine
 10
1.941610000000009
 20
704.534
 30
0.0
 11
2.703850000000009
 21
703.216
 31
0.0
  0
LINE
  5
5B
330
1E
100
AcDbEntity
  8
0
100
AcDbLine
 10
0.53974200000001
 20
701.9639999999999
 30
0.0
 11
2.710530000000009
 21
698.211
 31
0.0
  0
LINE
  5
5C
330
1E
100
AcDbEntity
  8
0
100
AcDbLine
 10
3.19362511968318
 20
702.369159138299
 30
0.0
 11
39.9382910054502
 21
723.623485902625
 31
0.0
  0
LINE
  5
5D
330
1E
100
AcDbEntity
  8
0
100
AcDbLine
 10
2.703850000000009
 20
703.216
 30
0.0
 11
3.193662584819499
 21
702.3691808093699
 31
0.0
  0
LINE
  5
5E
330
1E
100
AcDbEntity
  8
0
100
AcDbLine
 10
2.703850000000009
 20
703.216
 30
0.0
 11
3.193662584819499
 21
702.3691808093699
 31
0.0
  0
LINE
  5
5F
330
1E
100
AcDbEntity
  8
0
100
AcDbLine
 10
3.19362511968318
 20
702.369159138299
 30
0.0
 11
39.9382910054502
 21
723.623485902625
 31
0.0
  0
LINE
  5
60
330
1E
100
AcDbEntity
  8
0
100
AcDbLine
 10
2.703800000000009
 20
703.216
 30
0.0
 11
4.874590000000009
 21
699.463
 31
0.0
  0
LINE
  5
61
330
1E
100
AcDbEntity
  8
0
100
AcDbLine
 10
2.710530000000009
 20
698.211
 30
0.0
 11
5.922260000000009
 21
692.659
 31
0.0
  0
LINE
  5
62
330
1E
100
AcDbEntity
  8
0
100
AcDbLine
 10
5.19419931611021
 20
698.910405290478
 30
0.0
 11
5.759710000000009
 21
697.933
 31
0.0
  0
LINE
  5
63
330
1E
100
AcDbEntity
  8
0
100
AcDbLine
 10
5.19419931611059
 20
698.910405290477
 30
0.0
 11
5.759710000000009
 21
697.933
 31
0.0
  0
LINE
  5
64
330
1E
100
AcDbEntity
  8
0
100
AcDbLine
 10
4.874590000000009
 20
699.463
 30
0.0
 11
8.086330000000009
 21
693.9099999999999
 31
0.0
  0
LINE
  5
65
330
1E
100
AcDbEntity
  8
0
100
AcDbLine
 10
5.759710000000009
 20
697.933
 30
0.0
 11
8.569910000000009
 21
693.074
 31
0.0
  0
LINE
  5
66
330
1E
100
AcDbEntity
  8
0
100
AcDbLine
 10
8.086330000000009
 20
693.9099999999999
 30
0.0
 11
11.9554
 21
687.2209999999999
 31
0.0
  0
LINE
  5
67
330
1E
100
AcDbEntity
  8
0
100
AcDbLine
 10
8.569910000000009
 20
693.074
 30
0.0
 11
11.9554
 21
687.2209999999999
 31
0.0
  0
LINE
  5
68
330
1E
100
AcDbEntity
  8
0
100
AcDbLine
 10
49.4418
 20
264.0
 30
0.0
 11
72.44119999999999
 21
164.0
 31
0.0
  0
LINE
  5
69
330
1E
100
AcDbEntity
  8
0
100
AcDbLine
 10
48.7445
 20
708.4999999999999
 30
0.0
 11
52.1007
 21
702.698
 31
0.0
  0
LINE
  5
6A
330
1E
100
AcDbEntity
  8
0
100
AcDbLine
 10
48.5863
 20
709.671
 30
0.0
 11
51.9394
 21
703.8739999999998
 31
0.0
  0
LINE
  5
6B
330
1E
100
AcDbEntity
  8
0
100
AcDbLine
 10
56.83959999999999
 20
694.505
 30
0.0
 11
57.50659999999999
 21
693.3519999999999
 31
0.0
  0
LINE
  5
6C
330
1E
100
AcDbEntity
  8
0
100
AcDbLine
 10
56.73401170547149
 20
694.687568293177
 30
0.0
 11
56.83959999999999
 21
694.505
 31
0.0
  0
LINE
  5
6D
330
1E
100
AcDbEntity
  8
0
100
AcDbLine
 10
69.24930500416761
 20
505.686559398738
 30
0.0
 11
93.3844
 21
651.579
 31
0.0
  0
LINE
  5
6E
330
1E
100
AcDbEntity
  8
0
100
AcDbLine
 10
69.2493050041649
 20
505.6865593987209
 30
0.0
 11
93.3844
 21
651.579
 31
0.0
  0
LINE
  5
6F
330
1E
100
AcDbEntity
  8
0
100
AcDbLine
 10
72.44119999999999
 20
164.0
 30
0.0
 11
102.4405
 21
129.0
 31
0.0
  0
LINE
  5
70
330
1E
100
AcDbEntity
  8
0
100
AcDbLine
 10
63.13559999999999
 20
160.341
 30
0.0
 11
96.24030000000001
 21
121.156
 31
0.0
  0
LINE
  5
71
330
1E
100
AcDbEntity
  8
0
100
AcDbLine
 10
57.3484
 20
694.523
 30
0.0
 11
84.9247
 21
710.5119999999999
 31
0.0
  0
LINE
  5
72
330
1E
100
AcDbEntity
  8
0
100
AcDbLine
 10
54.94019999999999
 20
697.789
 30
0.0
 11
56.83959999999999
 21
694.505
 31
0.0
  0
LINE
  5
73
330
1E
100
AcDbEntity
  8
0
100
AcDbLine
 10
56.6814
 20
695.676
 30
0.0
 11
57.3484
 21
694.523
 31
0.0
  0
LINE
  5
74
330
1E
100
AcDbEntity
  8
0
100
AcDbLine
 10
56.7340051269843
 20
694.6875700552721
 30
0.0
 11
57.3484
 21
694.523
 31
0.0
  0
LINE
  5
75
330
1E
100
AcDbEntity
  8
0
100
AcDbLine
 10
84.7445
 20
700.0010000000001
 30
0.0
 11
88.74070000000001
 21
660.0010000000001
 31
0.0
  0
LINE
  5
76
330
1E
100
AcDbEntity
  8
0
100
AcDbLine
 10
84.7445
 20
700.0010000000001
 30
0.0
 11
85.7338
 21
700.0010000000001
 31
0.0
  0
LINE
  5
77
330
1E
100
AcDbEntity
  8
0
100
AcDbLine
 10
52.1007
 20
702.698
 30
0.0
 11
54.94019999999999
 21
697.789
 31
0.0
  0
LINE
  5
78
330
1E
100
AcDbEntity
  8
0
100
AcDbLine
 10
84.88710000000001
 20
700.95
 30
0.0
 11
84.9247
 21
710.5119999999999
 31
0.0
  0
LINE
  5
79
330
1E
100
AcDbEntity
  8
0
100
AcDbLine
 10
84.88710000000001
 20
700.95
 30
0.0
 11
85.87670000000001
 21
700.951
 31
0.0
  0
LINE
  5
7A
330
1E
100
AcDbEntity
  8
0
100
AcDbLine
 10
54.782
 20
698.9589999999999
 30
0.0
 11
56.6814
 21
695.676
 31
0.0
  0
LINE
  5
7B
330
1E
100
AcDbEntity
  8
0
100
AcDbLine
 10
51.9394
 20
703.8739999999998
 30
0.0
 11
54.782
 21
698.9589999999999
 31
0.0
  0
LINE
  5
7C
330
1E
100
AcDbEntity
  8
0
100
AcDbLine
 10
42.1355
 20
719.826
 30
0.0
 11
44.8955
 21
715.052
 31
0.0
  0
LINE
  5
7D
330
1E
100
AcDbEntity
  8
0
100
AcDbLine
 10
40.2895
 20
723.0169999999999
 30
0.0
 11
42.1355
 21
719.826
 31
0.0
  0
LINE
  5
7E
330
1E
100
AcDbEntity
  8
0
100
AcDbLine
 10
40.4915
 20
723.6669999999999
 30
0.0
 11
42.3905
 21
720.383
 31
0.0
  0
LINE
  5
7F
330
1E
100
AcDbEntity
  8
0
100
AcDbLine
 10
39.6415
 20
724.1360000000001
 30
0.0
 11
39.8245
 21
724.819
 31
0.0
  0
LINE
  5
80
330
1E
100
AcDbEntity
  8
0
100
AcDbLine
 10
39.6415
 20
724.1360000000001
 30
0.0
 11
39.9382910054502
 21
723.623485902625
 31
0.0
  0
LINE
  5
81
330
1E
100
AcDbEntity
  8
0
100
AcDbLine
 10
39.6415
 20
724.1360000000001
 30
0.0
 11
40.2895
 21
723.0169999999999
 31
0.0
  0
LINE
  5
82
330
1E
100
AcDbEntity
  8
0
100
AcDbLine
 10
39.8245
 20
724.819
 30
0.0
 11
129.168911762279
 21
776.4984442311121
 31
0.0
  0
LINE
  5
83
330
1E
100
AcDbEntity
  8
0
100
AcDbLine
 10
39.8245
 20
724.819
 30
0.0
 11
129.168911762279
 21
776.4984442311121
 31
0.0
  0
LINE
  5
84
330
1E
100
AcDbEntity
  8
0
100
AcDbLine
 10
39.8245
 20
724.819
 30
0.0
 11
40.4915
 21
723.6669999999999
 31
0.0
  0
LINE
  5
85
330
1E
100
AcDbEntity
  8
0
100
AcDbLine
 10
85.2781
 20
711.018
 30
0.0
 11
87.35600000000001
 21
713.906
 31
0.0
  0
LINE
  5
86
330
1E
100
AcDbEntity
  8
0
100
AcDbLine
 10
44.9300594258565
 20
715.094636924799
 30
0.0
 11
45.35899999999999
 21
714.3530000000001
 31
0.0
  0
LINE
  5
87
330
1E
100
AcDbEntity
  8
0
100
AcDbLine
 10
45.35899999999999
 20
714.3530000000001
 30
0.0
 11
48.7445
 21
708.4999999999999
 31
0.0
  0
LINE
  5
88
330
1E
100
AcDbEntity
  8
0
100
AcDbLine
 10
45.23349999999999
 20
715.4689999999999
 30
0.0
 11
48.5863
 21
709.671
 31
0.0
  0
LINE
  5
89
330
1E
100
AcDbEntity
  8
0
100
AcDbLine
 10
42.3905
 20
720.383
 30
0.0
 11
45.23349999999999
 21
715.4689999999999
 31
0.0
  0
LINE
  5
8A
330
1E
100
AcDbEntity
  8
0
100
AcDbLine
 10
84.9247
 20
710.5119999999999
 30
0.0
 11
85.2781
 21
711.018
 31
0.0
  0
LINE
  5
8B
330
1E
100
AcDbEntity
  8
0
100
AcDbLine
 10
88.5522
 20
700.0010000000001
 30
0.0
 11
92.76940000000001
 21
700.0
 31
0.0
  0
LINE
  5
8C
330
1E
100
AcDbEntity
  8
0
100
AcDbLine
 10
85.7338
 20
700.0010000000001
 30
0.0
 11
88.5522
 21
700.0010000000001
 31
0.0
  0
LINE
  5
8D
330
1E
100
AcDbEntity
  8
0
100
AcDbLine
 10
85.87670000000001
 20
700.951
 30
0.0
 11
88.69469999999999
 21
700.9529999999999
 31
0.0
  0
LINE
  5
8E
330
1E
100
AcDbEntity
  8
0
100
AcDbLine
 10
88.74070000000001
 20
660.0010000000001
 30
0.0
 11
89.4256
 21
660.0010000000001
 31
0.0
  0
LINE
  5
8F
330
1E
100
AcDbEntity
  8
0
100
AcDbLine
 10
89.4256
 20
660.0010000000001
 30
0.0
 11
91.37680000000001
 21
660.0010000000001
 31
0.0
  0
LINE
  5
90
330
1E
100
AcDbEntity
  8
0
100
AcDbLine
 10
88.69469999999999
 20
700.9529999999999
 30
0.0
 11
92.9122
 21
700.957
 31
0.0
  0
LINE
  5
91
330
1E
100
AcDbEntity
  8
0
100
AcDbLine
 10
87.35600000000001
 20
713.906
 30
0.0
 11
90.36599999999999
 21
717.763
 31
0.0
  0
LINE
  5
92
330
1E
100
AcDbEntity
  8
0
100
AcDbLine
 10
85.44259999999999
 20
10.00029999999999
 30
0.0
 11
85.44259999999999
 21
0.0003289999999941
 31
0.0
  0
LINE
  5
93
330
1E
100
AcDbEntity
  8
0
100
AcDbLine
 10
85.44259999999999
 20
10.00029999999999
 30
0.0
 11
90.16209999999999
 21
10.00029999999999
 31
0.0
  0
LINE
  5
94
330
1E
100
AcDbEntity
  8
0
100
AcDbLine
 10
85.44259999999999
 20
0.0003289999999948
 30
0.0
 11
90.16209999999999
 21
0.0003169999999945
 31
0.0
  0
LINE
  5
95
330
1E
100
AcDbEntity
  8
0
100
AcDbLine
 10
85.44259999999999
 20
0.0003289999999948
 30
0.0
 11
85.44259999999999
 21
10.00029999999999
 31
0.0
  0
LINE
  5
96
330
1E
100
AcDbEntity
  8
0
100
AcDbLine
 10
93.38930000000001
 20
660.0
 30
0.0
 11
94.25499999999999
 21
660.0
 31
0.0
  0
LINE
  5
97
330
1E
100
AcDbEntity
  8
0
100
AcDbLine
 10
94.25499999999999
 20
660.0
 30
0.0
 11
95.7239
 21
660.0
 31
0.0
  0
LINE
  5
98
330
1E
100
AcDbEntity
  8
0
100
AcDbLine
 10
93.2585
 20
660.0
 30
0.0
 11
93.38930000000001
 21
660.0
 31
0.0
  0
LINE
  5
99
330
1E
100
AcDbEntity
  8
0
100
AcDbLine
 10
93.2585
 20
660.0
 30
0.0
 11
93.3844
 21
651.579
 31
0.0
  0
LINE
  5
9A
330
1E
100
AcDbEntity
  8
0
100
AcDbLine
 10
95.7239
 20
660.0
 30
0.0
 11
97.5722
 21
660.0
 31
0.0
  0
LINE
  5
9B
330
1E
100
AcDbEntity
  8
0
100
AcDbLine
 10
97.5722
 20
660.0
 30
0.0
 11
99.5188
 21
660.0
 31
0.0
  0
LINE
  5
9C
330
1E
100
AcDbEntity
  8
0
100
AcDbLine
 10
96.24030000000001
 20
121.156
 30
0.0
 11
126.5705
 21
109.6289999999999
 31
0.0
  0
LINE
  5
9D
330
1E
100
AcDbEntity
  8
0
100
AcDbLine
 10
94.2964
 20
660.0
 30
0.0
 11
97.74070000000001
 21
660.0
 31
0.0
  0
LINE
  5
9E
330
1E
100
AcDbEntity
  8
0
100
AcDbLine
 10
92.76940000000001
 20
700.0
 30
0.0
 11
97.74450000000001
 21
700.0
 31
0.0
  0
LINE
  5
9F
330
1E
100
AcDbEntity
  8
0
100
AcDbLine
 10
91.37680000000001
 20
660.0010000000001
 30
0.0
 11
94.2964
 21
660.0
 31
0.0
  0
LINE
  5
A0
330
1E
100
AcDbEntity
  8
0
100
AcDbLine
 10
97.74070000000001
 20
660.0
 30
0.0
 11
101.1845
 21
660.0
 31
0.0
  0
LINE
  5
A1
330
1E
100
AcDbEntity
  8
0
100
AcDbLine
 10
97.74450000000001
 20
700.0
 30
0.0
 11
102.7195
 21
700.0
 31
0.0
  0
LINE
  5
A2
330
1E
100
AcDbEntity
  8
0
100
AcDbLine
 10
92.9122
 20
700.957
 30
0.0
 11
97.88710000000001
 21
700.961
 31
0.0
  0
LINE
  5
A3
330
1E
100
AcDbEntity
  8
0
100
AcDbLine
 10
99.5188
 20
660.0
 30
0.0
 11
101.1845
 21
660.0
 31
0.0
  0
LINE
  5
A4
330
1E
100
AcDbEntity
  8
0
100
AcDbLine
 10
102.4405
 20
129.0
 30
0.0
 11
129.3274999999999
 21
119.112
 31
0.0
  0
LINE
  5
A5
330
1E
100
AcDbEntity
  8
0
100
AcDbLine
 10
101.1845
 20
660.0
 30
0.0
 11
104.1044999999999
 21
659.9989999999999
 31
0.0
  0
LINE
  5
A6
330
1E
100
AcDbEntity
  8
0
100
AcDbLine
 10
103.175500343086
 20
659.9993181505669
 30
0.0
 11
103.1804999999999
 21
650.063
 31
0.0
  0
LINE
  5
A7
330
1E
100
AcDbEntity
  8
0
100
AcDbLine
 10
102.7195
 20
700.0
 30
0.0
 11
106.9364999999999
 21
699.9989999999999
 31
0.0
  0
LINE
  5
A8
330
1E
100
AcDbEntity
  8
0
100
AcDbLine
 10
102.8615
 20
700.965
 30
0.0
 11
107.0794999999999
 21
700.9680000000001
 31
0.0
  0
LINE
  5
A9
330
1E
100
AcDbEntity
  8
0
100
AcDbLine
 10
97.88710000000001
 20
700.961
 30
0.0
 11
102.8615
 21
700.965
 31
0.0
  0
LINE
  5
AB
330
1E
100
AcDbEntity
  8
0
100
AcDbLine
 10
93.9897
 20
721.646
 30
0.0
 11
97.87799999999998
 21
724.4810000000001
 31
0.0
  0
LINE
  5
AF
330
1E
100
AcDbEntity
  8
0
100
AcDbLine
 10
101.7644999999999
 20
726.141
 30
0.0
 11
104.1365
 21
726.452
 31
0.0
  0
LINE
  5
B1
330
1E
100
AcDbEntity
  8
0
100
AcDbLine
 10
101.4815
 20
726.1039999999999
 30
0.0
 11
101.7644999999999
 21
726.141
 31
0.0
  0
LINE
  5
B3
330
1E
100
AcDbEntity
  8
0
100
AcDbLine
 10
90.36599999999999
 20
717.763
 30
0.0
 11
93.9897
 21
721.646
 31
0.0
  0
LINE
  5
B4
330
1E
100
AcDbEntity
  8
0
100
AcDbLine
 10
90.16209999999999
 20
10.00029999999999
 30
0.0
 11
103.6024999999999
 21
10.00029999999999
 31
0.0
  0
LINE
  5
B5
330
1E
100
AcDbEntity
  8
0
100
AcDbLine
 10
90.16209999999999
 20
0.0003169999999945
 30
0.0
 11
103.6024999999999
 21
0.0002809999999936
 31
0.0
  0
LINE
  5
B6
330
1E
100
AcDbEntity
  8
0
100
AcDbLine
 10
106.0554999999999
 20
659.9989999999999
 30
0.0
 11
106.7404999999999
 21
659.9989999999999
 31
0.0
  0
LINE
  5
B7
330
1E
100
AcDbEntity
  8
0
100
AcDbLine
 10
106.7404999999999
 20
659.9989999999999
 30
0.0
 11
110.7445
 21
699.9989999999999
 31
0.0
  0
LINE
  5
B8
330
1E
100
AcDbEntity
  8
0
100
AcDbLine
 10
104.1044999999999
 20
659.9989999999999
 30
0.0
 11
106.0554999999999
 21
659.9989999999999
 31
0.0
  0
LINE
  5
B9
330
1E
100
AcDbEntity
  8
0
100
AcDbLine
 10
106.9364999999999
 20
699.9989999999999
 30
0.0
 11
109.7555
 21
699.9989999999999
 31
0.0
  0
LINE
  5
BA
330
1E
100
AcDbEntity
  8
0
100
AcDbLine
 10
109.7555
 20
699.9989999999999
 30
0.0
 11
110.7445
 21
699.9989999999999
 31
0.0
  0
LINE
  5
BB
330
1E
100
AcDbEntity
  8
0
100
AcDbLine
 10
109.8975
 20
700.97
 30
0.0
 11
110.8875
 21
700.971
 31
0.0
  0
LINE
  5
BC
330
1E
100
AcDbEntity
  8
0
100
AcDbLine
 10
107.0794999999999
 20
700.9680000000001
 30
0.0
 11
109.8975
 21
700.97
 31
0.0
  0
LINE
  5
BD
330
1E
100
AcDbEntity
  8
0
100
AcDbLine
 10
109.5764999999999
 20
725.7919999999999
 30
0.0
 11
110.6635
 21
725.536
 31
0.0
  0
LINE
  5
BE
330
1E
100
AcDbEntity
  8
0
100
AcDbLine
 10
108.3875
 20
726.071
 30
0.0
 11
109.5764999999999
 21
725.7919999999999
 31
0.0
  0
LINE
  5
BF
330
1E
100
AcDbEntity
  8
0
100
AcDbLine
 10
121.8625
 20
731.8389999999999
 30
0.0
 11
124.3624999999999
 21
732.5110000000001
 31
0.0
  0
LINE
  5
C0
330
1E
100
AcDbEntity
  8
0
100
AcDbLine
 10
104.1365
 20
726.452
 30
0.0
 11
108.3875
 21
726.071
 31
0.0
  0
LINE
  5
C1
330
1E
100
AcDbEntity
  8
0
100
AcDbLine
 10
110.6635
 20
725.536
 30
0.0
 11
121.8625
 21
731.8389999999999
 31
0.0
  0
LINE
  5
C2
330
1E
100
AcDbEntity
  8
0
100
AcDbLine
 10
110.6635
 20
725.536
 30
0.0
 11
110.8875
 21
700.971
 31
0.0
  0
LINE
  5
C3
330
1E
100
AcDbEntity
  8
0
100
AcDbLine
 10
103.6024999999999
 20
10.00029999999999
 30
0.0
 11
123.7165
 21
10.00019999999999
 31
0.0
  0
LINE
  5
C4
330
1E
100
AcDbEntity
  8
0
100
AcDbLine
 10
103.6024999999999
 20
0.0002809999999936
 30
0.0
 11
123.7165
 21
0.0002269999999924
 31
0.0
  0
LINE
  5
C5
330
1E
100
AcDbEntity
  8
0
100
AcDbLine
 10
129.3274999999999
 20
119.112
 30
0.0
 11
147.4404999999999
 21
115.0949999999999
 31
0.0
  0
LINE
  5
C6
330
1E
100
AcDbEntity
  8
0
100
AcDbLine
 10
126.5705
 20
109.6289999999999
 30
0.0
 11
147.4404999999999
 21
105.2039999999999
 31
0.0
  0
LINE
  5
C7
330
1E
100
AcDbEntity
  8
0
100
AcDbLine
 10
129.856919285922
 20
108.932190927637
 30
0.0
 11
129.9353536614549
 21
10.00019999999999
 31
0.0
  0
LINE
  5
C8
330
1E
100
AcDbEntity
  8
0
100
AcDbLine
 10
126.8624999999999
 20
731.8430000000001
 30
0.0
 11
128.6945
 21
730.0139999999998
 31
0.0
  0
LINE
  5
C9
330
1E
100
AcDbEntity
  8
0
100
AcDbLine
 10
128.6945
 20
730.0139999999998
 30
0.0
 11
129.3665
 21
727.515
 31
0.0
  0
LINE
  5
CA
330
1E
100
AcDbEntity
  8
0
100
AcDbLine
 10
124.3624999999999
 20
732.5110000000001
 30
0.0
 11
126.8624999999999
 21
731.8430000000001
 31
0.0
  0
LINE
  5
CB
330
1E
100
AcDbEntity
  8
0
100
AcDbLine
 10
129.3665
 20
727.515
 30
0.0
 11
129.848940303159
 21
118.9963578812019
 31
0.0
  0
LINE
  5
CC
330
1E
100
AcDbEntity
  8
0
100
AcDbLine
 10
129.3665
 20
727.515
 30
0.0
 11
129.848940303159
 21
118.9963578812019
 31
0.0
  0
LINE
  5
CD
330
1E
100
AcDbEntity
  8
0
100
AcDbLine
 10
147.4404999999999
 20
115.0949999999999
 30
0.0
 11
165.5985
 21
118.7079999999999
 31
0.0
  0
LINE
  5
CE
330
1E
100
AcDbEntity
  8
0
100
AcDbLine
 10
147.4404999999999
 20
105.2039999999999
 30
0.0
 11
152.171765822972
 21
106.2370899777689
 31
0.0
  0
LINE
  5
CF
330
1E
100
AcDbEntity
  8
0
100
AcDbLine
 10
147.4404999999999
 20
105.2989999999999
 30
0.0
 11
168.4215
 21
109.4589999999999
 31
0.0
  0
LINE
  5
D2
330
1E
100
AcDbEntity
  8
0
100
AcDbLine
 10
129.856919285922
 20
108.9321909276379
 30
0.0
 11
129.9353536614549
 21
10.00019999999999
 31
0.0
  0
LINE
  5
D4
330
1E
100
AcDbEntity
  8
0
100
AcDbLine
 10
129.168911762279
 20
776.4984442311121
 30
0.0
 11
129.3294850765449
 21
776.8274039907059
 31
0.0
  0
LINE
  5
DA
330
1E
100
AcDbEntity
  8
0
100
AcDbLine
 10
135.0705
 20
782.5499999999999
 30
0.0
 11
140.7474999999999
 21
779.868
 31
0.0
  0
LINE
  5
DB
330
1E
100
AcDbEntity
  8
0
100
AcDbLine
 10
140.7474999999999
 20
779.868
 30
0.0
 11
147.4445
 21
778.926
 31
0.0
  0
LINE
  5
EA
330
1E
100
AcDbEntity
  8
0
100
AcDbLine
 10
130.6505
 20
787.561
 30
0.0
 11
135.0705
 21
782.5499999999999
 31
0.0
  0
LINE
  5
EB
330
1E
100
AcDbEntity
  8
0
100
AcDbLine
 10
129.9445
 20
794.542221385542
 30
0.0
 11
129.9445
 21
820.9989999999999
 31
0.0
  0
LINE
  5
EC
330
1E
100
AcDbEntity
  8
0
100
AcDbLine
 10
131.2764999999999
 20
825.7339999999999
 30
0.0
 11
135.0705
 21
829.7489999999999
 31
0.0
  0
LINE
  5
ED
330
1E
100
AcDbEntity
  8
0
100
AcDbLine
 10
129.9445
 20
820.9989999999999
 30
0.0
 11
129.9445
 21
794.542221385542
 31
0.0
  0
LINE
  5
EE
330
1E
100
AcDbEntity
  8
0
100
AcDbLine
 10
129.9445
 20
820.9989999999999
 30
0.0
 11
131.2764999999999
 21
816.263
 31
0.0
  0
LINE
  5
EF
330
1E
100
AcDbEntity
  8
0
100
AcDbLine
 10
129.9445
 20
820.9989999999999
 30
0.0
 11
131.2764999999999
 21
825.7339999999999
 31
0.0
  0
LINE
  5
F0
330
1E
100
AcDbEntity
  8
0
100
AcDbLine
 10
129.9445
 20
820.9989999999999
 30
0.0
 11
129.9445
 21
794.542221385542
 31
0.0
  0
LINE
  5
F1
330
1E
100
AcDbEntity
  8
0
100
AcDbLine
 10
140.7474999999999
 20
832.431
 30
0.0
 11
147.4445
 21
833.373
 31
0.0
  0
LINE
  5
F2
330
1E
100
AcDbEntity
  8
0
100
AcDbLine
 10
135.0705
 20
829.7489999999999
 30
0.0
 11
140.7474999999999
 21
832.431
 31
0.0
  0
LINE
  5
F3
330
1E
100
AcDbEntity
  8
0
100
AcDbLine
 10
131.2764999999999
 20
816.263
 30
0.0
 11
135.0705
 21
812.2489999999999
 31
0.0
  0
LINE
  5
F4
330
1E
100
AcDbEntity
  8
0
100
AcDbLine
 10
135.0705
 20
812.2489999999999
 30
0.0
 11
140.7474999999999
 21
809.566
 31
0.0
  0
LINE
  5
F5
330
1E
100
AcDbEntity
  8
0
100
AcDbLine
 10
140.7474999999999
 20
809.566
 30
0.0
 11
147.4445
 21
808.624
 31
0.0
  0
LINE
  5
F8
330
1E
100
AcDbEntity
  8
0
100
AcDbLine
 10
129.3145
 20
792.295
 30
0.0
 11
129.9445
 21
794.542221385542
 31
0.0
  0
LINE
  5
F9
330
1E
100
AcDbEntity
  8
0
100
AcDbLine
 10
129.3145
 20
792.295
 30
0.0
 11
130.6505
 21
787.561
 31
0.0
  0
LINE
  5
FA
330
1E
100
AcDbEntity
  8
0
100
AcDbLine
 10
129.3145
 20
792.295
 30
0.0
 11
129.3295
 21
776.812
 31
0.0
  0
LINE
  5
FD
330
1E
100
AcDbEntity
  8
0
100
AcDbLine
 10
123.7165
 20
10.00019999999999
 30
0.0
 11
147.4424999999999
 21
10.00019999999999
 31
0.0
  0
LINE
  5
FE
330
1E
100
AcDbEntity
  8
0
100
AcDbLine
 10
123.7165
 20
0.0002269999999924
 30
0.0
 11
147.4424999999999
 21
0.000164999999991
 31
0.0
  0
LINE
  5
FF
330
1E
100
AcDbEntity
  8
0
100
AcDbLine
 10
151.527125427744
 20
115.908138983943
 30
0.0
 11
165.4404999999999
 21
119.0
 31
0.0
  0
LINE
  5
100
330
1E
100
AcDbEntity
  8
0
100
AcDbLine
 10
157.989134008865
 20
649.996038266889
 30
0.0
 11
159.4425
 21
649.995
 31
0.0
  0
LINE
  5
101
330
1E
100
AcDbEntity
  8
0
100
AcDbLine
 10
159.4425
 20
649.995
 30
0.0
 11
160.4435
 21
650.994
 31
0.0
  0
LINE
  5
102
330
1E
100
AcDbEntity
  8
0
100
AcDbLine
 10
159.4425
 20
649.995
 30
0.0
 11
191.4424999999999
 21
649.9690000000001
 31
0.0
  0
LINE
  5
103
330
1E
100
AcDbEntity
  8
0
100
AcDbLine
 10
160.4734999999999
 20
688.9939999999999
 30
0.0
 11
191.4735
 21
688.9689999999999
 31
0.0
  0
LINE
  5
104
330
1E
100
AcDbEntity
  8
0
100
AcDbLine
 10
160.4435
 20
650.994
 30
0.0
 11
160.4734999999999
 21
688.9939999999999
 31
0.0
  0
LINE
  5
105
330
1E
100
AcDbEntity
  8
0
100
AcDbLine
 10
160.4435
 20
650.994
 30
0.0
 11
191.4435
 21
650.969
 31
0.0
  0
LINE
  5
106
330
1E
100
AcDbEntity
  8
0
100
AcDbLine
 10
159.4745
 20
689.995
 30
0.0
 11
160.4734999999999
 21
688.9939999999999
 31
0.0
  0
LINE
  5
107
330
1E
100
AcDbEntity
  8
0
100
AcDbLine
 10
159.4745
 20
689.995
 30
0.0
 11
191.4745
 21
689.9689999999999
 31
0.0
  0
LINE
  5
108
330
1E
100
AcDbEntity
  8
0
100
AcDbLine
 10
157.8764431001719
 20
689.9961416323038
 30
0.0
 11
159.4745
 21
689.995
 31
0.0
  0
LINE
  5
10B
330
1E
100
AcDbEntity
  8
0
100
AcDbLine
 10
164.3961785915929
 20
689.9910035736439
 30
0.0
 11
170.4374999999999
 21
689.9860949999999
 31
0.0
  0
LINE
  5
10C
330
1E
100
AcDbEntity
  8
0
100
AcDbLine
 10
165.4404999999999
 20
119.0
 30
0.0
 11
192.4404999999999
 21
129.0
 31
0.0
  0
LINE
  5
10D
330
1E
100
AcDbEntity
  8
0
100
AcDbLine
 10
170.4374999999999
 20
689.9860925624999
 30
0.0
 11
170.4374999999999
 21
763.0
 31
0.0
  0
LINE
  5
10E
330
1E
100
AcDbEntity
  8
0
100
AcDbLine
 10
168.4215
 20
109.4589999999999
 30
0.0
 11
198.6415
 21
121.156
 31
0.0
  0
LINE
  5
10F
330
1E
100
AcDbEntity
  8
0
100
AcDbLine
 10
164.857069431641
 20
108.752263849942
 30
0.0
 11
164.935374528211
 21
10.0001262743941
 31
0.0
  0
LINE
  5
110
330
1E
100
AcDbEntity
  8
0
100
AcDbLine
 10
164.4278964681319
 20
649.99094936537
 30
0.0
 11
164.8490477518139
 21
118.8685661670699
 31
0.0
  0
LINE
  5
111
330
1E
100
AcDbEntity
  8
0
100
AcDbLine
 10
164.4278964681319
 20
649.99094936537
 30
0.0
 11
164.8490477518139
 21
118.8685661670699
 31
0.0
  0
LINE
  5
112
330
1E
100
AcDbEntity
  8
0
100
AcDbLine
 10
164.857069431641
 20
108.752263849942
 30
0.0
 11
164.935374528211
 21
10.00012627439399
 31
0.0
  0
LINE
  5
114
330
1E
100
AcDbEntity
  8
0
100
AcDbLine
 10
147.4445
 20
778.926
 30
0.0
 11
154.1415
 21
779.868
 31
0.0
  0
LINE
  5
115
330
1E
100
AcDbEntity
  8
0
100
AcDbLine
 10
154.1415
 20
779.868
 30
0.0
 11
159.8195
 21
782.5499999999999
 31
0.0
  0
LINE
  5
116
330
1E
100
AcDbEntity
  8
0
100
AcDbLine
 10
147.4445
 20
808.624
 30
0.0
 11
154.1415
 21
809.566
 31
0.0
  0
LINE
  5
117
330
1E
100
AcDbEntity
  8
0
100
AcDbLine
 10
154.1415
 20
809.566
 30
0.0
 11
159.8195
 21
812.2489999999999
 31
0.0
  0
LINE
  5
118
330
1E
100
AcDbEntity
  8
0
100
AcDbLine
 10
159.8195
 20
782.5499999999999
 30
0.0
 11
163.6125
 21
786.565
 31
0.0
  0
LINE
  5
119
330
1E
100
AcDbEntity
  8
0
100
AcDbLine
 10
159.8195
 20
812.2489999999999
 30
0.0
 11
163.6125
 21
816.263
 31
0.0
  0
LINE
  5
11A
330
1E
100
AcDbEntity
  8
0
100
AcDbLine
 10
163.6125
 20
825.7339999999999
 30
0.0
 11
164.9445
 21
820.9989999999999
 31
0.0
  0
LINE
  5
11B
330
1E
100
AcDbEntity
  8
0
100
AcDbLine
 10
159.8195
 20
829.7489999999999
 30
0.0
 11
163.6125
 21
825.7339999999999
 31
0.0
  0
LINE
  5
11C
330
1E
100
AcDbEntity
  8
0
100
AcDbLine
 10
154.1415
 20
832.431
 30
0.0
 11
159.8195
 21
829.7489999999999
 31
0.0
  0
LINE
  5
11D
330
1E
100
AcDbEntity
  8
0
100
AcDbLine
 10
147.4445
 20
833.373
 30
0.0
 11
154.1415
 21
832.431
 31
0.0
  0
LINE
  5
11E
330
1E
100
AcDbEntity
  8
0
100
AcDbLine
 10
163.6125
 20
816.263
 30
0.0
 11
164.9445
 21
820.9989999999999
 31
0.0
  0
LINE
  5
11F
330
1E
100
AcDbEntity
  8
0
100
AcDbLine
 10
163.6125
 20
786.565
 30
0.0
 11
164.9445
 21
791.2999999999999
 31
0.0
  0
LINE
  5
121
330
1E
100
AcDbEntity
  8
0
100
AcDbLine
 10
169.9375
 20
765.0
 30
0.0
 11
169.9375
 21
764.5
 31
0.0
  0
LINE
  5
122
330
1E
100
AcDbEntity
  8
0
100
AcDbLine
 10
169.9375
 20
765.0
 30
0.0
 11
170.4374999999999
 21
765.0
 31
0.0
  0
LINE
  5
123
330
1E
100
AcDbEntity
  8
0
100
AcDbLine
 10
169.9375
 20
764.5
 30
0.0
 11
169.9375
 21
763.4999999999999
 31
0.0
  0
LINE
  5
124
330
1E
100
AcDbEntity
  8
0
100
AcDbLine
 10
169.9375
 20
764.5
 30
0.0
 11
169.9375
 21
765.0
 31
0.0
  0
LINE
  5
125
330
1E
100
AcDbEntity
  8
0
100
AcDbLine
 10
169.9375
 20
764.5
 30
0.0
 11
170.5885
 21
764.5
 31
0.0
  0
LINE
  5
126
330
1E
100
AcDbEntity
  8
0
100
AcDbLine
 10
169.9375
 20
763.4999999999999
 30
0.0
 11
169.9375
 21
763.0
 31
0.0
  0
LINE
  5
127
330
1E
100
AcDbEntity
  8
0
100
AcDbLine
 10
169.9375
 20
763.4999999999999
 30
0.0
 11
169.9375
 21
764.5
 31
0.0
  0
LINE
  5
128
330
1E
100
AcDbEntity
  8
0
100
AcDbLine
 10
169.9375
 20
763.4999999999999
 30
0.0
 11
170.5885
 21
763.4999999999999
 31
0.0
  0
LINE
  5
129
330
1E
100
AcDbEntity
  8
0
100
AcDbLine
 10
169.9375
 20
763.0
 30
0.0
 11
169.9375
 21
763.4999999999999
 31
0.0
  0
LINE
  5
12A
330
1E
100
AcDbEntity
  8
0
100
AcDbLine
 10
169.9375
 20
763.0
 30
0.0
 11
170.4374999999999
 21
763.0
 31
0.0
  0
LINE
  5
12B
330
1E
100
AcDbEntity
  8
0
100
AcDbLine
 10
171.0475
 20
763.0
 30
0.0
 11
171.2004999999999
 21
763.4999999999999
 31
0.0
  0
LINE
  5
12C
330
1E
100
AcDbEntity
  8
0
100
AcDbLine
 10
171.0475
 20
763.0
 30
0.0
 11
171.8345
 21
763.0
 31
0.0
  0
LINE
  5
12D
330
1E
100
AcDbEntity
  8
0
100
AcDbLine
 10
170.7415
 20
763.0
 30
0.0
 11
171.0475
 21
763.0
 31
0.0
  0
LINE
  5
12E
330
1E
100
AcDbEntity
  8
0
100
AcDbLine
 10
170.7415
 20
763.0
 30
0.0
 11
171.4785423452769
 21
763.0
 31
0.0
  0
LINE
  5
12F
330
1E
100
AcDbEntity
  8
0
100
AcDbLine
 10
170.5885
 20
764.5
 30
0.0
 11
170.7415
 21
765.0
 31
0.0
  0
LINE
  5
130
330
1E
100
AcDbEntity
  8
0
100
AcDbLine
 10
170.5885
 20
764.5
 30
0.0
 11
170.5885
 21
763.4999999999999
 31
0.0
  0
LINE
  5
131
330
1E
100
AcDbEntity
  8
0
100
AcDbLine
 10
170.7415
 20
765.0
 30
0.0
 11
171.0475
 21
765.0
 31
0.0
  0
LINE
  5
132
330
1E
100
AcDbEntity
  8
0
100
AcDbLine
 10
171.0475
 20
765.0
 30
0.0
 11
171.2004999999999
 21
764.5
 31
0.0
  0
LINE
  5
133
330
1E
100
AcDbEntity
  8
0
100
AcDbLine
 10
171.0475
 20
765.0
 30
0.0
 11
171.8345
 21
765.0
 31
0.0
  0
LINE
  5
134
330
1E
100
AcDbEntity
  8
0
100
AcDbLine
 10
170.5885
 20
763.4999999999999
 30
0.0
 11
170.7415
 21
763.0
 31
0.0
  0
LINE
  5
135
330
1E
100
AcDbEntity
  8
0
100
AcDbLine
 10
170.5885
 20
763.4999999999999
 30
0.0
 11
170.5885
 21
764.5
 31
0.0
  0
LINE
  5
136
330
1E
100
AcDbEntity
  8
0
100
AcDbLine
 10
170.4374999999999
 20
765.0
 30
0.0
 11
170.4374999999999
 21
769.7999999999999
 31
0.0
  0
LINE
  5
137
330
1E
100
AcDbEntity
  8
0
100
AcDbLine
 10
164.9445
 20
820.9989999999999
 30
0.0
 11
164.9445
 21
791.2999999999999
 31
0.0
  0
LINE
  5
138
330
1E
100
AcDbEntity
  8
0
100
AcDbLine
 10
169.9375
 20
769.7999999999999
 30
0.0
 11
170.4374999999999
 21
769.7999999999999
 31
0.0
  0
LINE
  5
139
330
1E
100
AcDbEntity
  8
0
100
AcDbLine
 10
169.9375
 20
769.7999999999999
 30
0.0
 11
169.9375
 21
770.2999999999999
 31
0.0
  0
LINE
  5
13A
330
1E
100
AcDbEntity
  8
0
100
AcDbLine
 10
169.9375
 20
770.2999999999999
 30
0.0
 11
169.9375
 21
769.7999999999999
 31
0.0
  0
LINE
  5
13B
330
1E
100
AcDbEntity
  8
0
100
AcDbLine
 10
169.9375
 20
770.2999999999999
 30
0.0
 11
170.5885
 21
770.2999999999999
 31
0.0
  0
LINE
  5
13C
330
1E
100
AcDbEntity
  8
0
100
AcDbLine
 10
169.9375
 20
770.2999999999999
 30
0.0
 11
169.9375
 21
771.3
 31
0.0
  0
LINE
  5
13D
330
1E
100
AcDbEntity
  8
0
100
AcDbLine
 10
169.9375
 20
771.7999999999999
 30
0.0
 11
170.4374999999999
 21
771.7999999999999
 31
0.0
  0
LINE
  5
13E
330
1E
100
AcDbEntity
  8
0
100
AcDbLine
 10
169.9375
 20
771.7999999999999
 30
0.0
 11
169.9375
 21
771.3
 31
0.0
  0
LINE
  5
13F
330
1E
100
AcDbEntity
  8
0
100
AcDbLine
 10
169.9375
 20
771.3
 30
0.0
 11
169.9375
 21
771.7999999999999
 31
0.0
  0
LINE
  5
140
330
1E
100
AcDbEntity
  8
0
100
AcDbLine
 10
169.9375
 20
771.3
 30
0.0
 11
170.5885
 21
771.3
 31
0.0
  0
LINE
  5
141
330
1E
100
AcDbEntity
  8
0
100
AcDbLine
 10
169.9375
 20
771.3
 30
0.0
 11
169.9375
 21
770.2999999999999
 31
0.0
  0
LINE
  5
142
330
1E
100
AcDbEntity
  8
0
100
AcDbLine
 10
170.5885
 20
770.2999999999999
 30
0.0
 11
170.7415
 21
769.7999999999999
 31
0.0
  0
LINE
  5
143
330
1E
100
AcDbEntity
  8
0
100
AcDbLine
 10
170.5885
 20
770.2999999999999
 30
0.0
 11
170.5885
 21
771.3
 31
0.0
  0
LINE
  5
144
330
1E
100
AcDbEntity
  8
0
100
AcDbLine
 10
170.5885
 20
771.3
 30
0.0
 11
170.7415
 21
771.7999999999999
 31
0.0
  0
LINE
  5
145
330
1E
100
AcDbEntity
  8
0
100
AcDbLine
 10
170.5885
 20
771.3
 30
0.0
 11
170.5885
 21
770.2999999999999
 31
0.0
  0
LINE
  5
146
330
1E
100
AcDbEntity
  8
0
100
AcDbLine
 10
170.7415
 20
769.7999999999999
 30
0.0
 11
171.0475
 21
769.7999999999999
 31
0.0
  0
LINE
  5
148
330
1E
100
AcDbEntity
  8
0
100
AcDbLine
 10
171.0475
 20
769.7999999999999
 30
0.0
 11
171.2004999999999
 21
770.2999999999999
 31
0.0
  0
LINE
  5
14A
330
1E
100
AcDbEntity
  8
0
100
AcDbLine
 10
170.7415
 20
771.7999999999999
 30
0.0
 11
171.0475
 21
771.7999999999999
 31
0.0
  0
LINE
  5
14C
330
1E
100
AcDbEntity
  8
0
100
AcDbLine
 10
171.0475
 20
771.7999999999999
 30
0.0
 11
171.2004999999999
 21
771.3
 31
0.0
  0
LINE
  5
14D
330
1E
100
AcDbEntity
  8
0
100
AcDbLine
 10
170.4374999999999
 20
769.7999999999999
 30
0.0
 11
170.4374999999999
 21
765.0
 31
0.0
  0
LINE
  5
14E
330
1E
100
AcDbEntity
  8
0
100
AcDbLine
 10
169.9375
 20
776.6
 30
0.0
 11
170.4374999999999
 21
776.6
 31
0.0
  0
LINE
  5
14F
330
1E
100
AcDbEntity
  8
0
100
AcDbLine
 10
169.9375
 20
776.6
 30
0.0
 11
169.9375
 21
777.1
 31
0.0
  0
LINE
  5
150
330
1E
100
AcDbEntity
  8
0
100
AcDbLine
 10
169.9375
 20
777.1
 30
0.0
 11
169.9375
 21
776.6
 31
0.0
  0
LINE
  5
151
330
1E
100
AcDbEntity
  8
0
100
AcDbLine
 10
169.9375
 20
777.1
 30
0.0
 11
170.5885
 21
777.1
 31
0.0
  0
LINE
  5
152
330
1E
100
AcDbEntity
  8
0
100
AcDbLine
 10
169.9375
 20
777.1
 30
0.0
 11
169.9375
 21
778.1
 31
0.0
  0
LINE
  5
153
330
1E
100
AcDbEntity
  8
0
100
AcDbLine
 10
169.9375
 20
783.3999999999999
 30
0.0
 11
169.9375
 21
783.8999999999999
 31
0.0
  0
LINE
  5
154
330
1E
100
AcDbEntity
  8
0
100
AcDbLine
 10
169.9375
 20
783.3999999999999
 30
0.0
 11
170.4374999999999
 21
783.3999999999999
 31
0.0
  0
LINE
  5
155
330
1E
100
AcDbEntity
  8
0
100
AcDbLine
 10
169.9375
 20
778.6
 30
0.0
 11
170.4374999999999
 21
778.6
 31
0.0
  0
LINE
  5
156
330
1E
100
AcDbEntity
  8
0
100
AcDbLine
 10
169.9375
 20
778.6
 30
0.0
 11
169.9375
 21
778.1
 31
0.0
  0
LINE
  5
157
330
1E
100
AcDbEntity
  8
0
100
AcDbLine
 10
169.9375
 20
778.1
 30
0.0
 11
169.9375
 21
778.6
 31
0.0
  0
LINE
  5
158
330
1E
100
AcDbEntity
  8
0
100
AcDbLine
 10
169.9375
 20
778.1
 30
0.0
 11
170.5885
 21
778.1
 31
0.0
  0
LINE
  5
159
330
1E
100
AcDbEntity
  8
0
100
AcDbLine
 10
169.9375
 20
778.1
 30
0.0
 11
169.9375
 21
777.1
 31
0.0
  0
LINE
  5
15A
330
1E
100
AcDbEntity
  8
0
100
AcDbLine
 10
169.9375
 20
785.4
 30
0.0
 11
169.9375
 21
784.9
 31
0.0
  0
LINE
  5
15B
330
1E
100
AcDbEntity
  8
0
100
AcDbLine
 10
169.9375
 20
785.4
 30
0.0
 11
170.4374999999999
 21
785.4
 31
0.0
  0
LINE
  5
15C
330
1E
100
AcDbEntity
  8
0
100
AcDbLine
 10
169.9375
 20
784.9
 30
0.0
 11
169.9375
 21
785.4
 31
0.0
  0
LINE
  5
15D
330
1E
100
AcDbEntity
  8
0
100
AcDbLine
 10
169.9375
 20
784.9
 30
0.0
 11
169.9375
 21
783.8999999999999
 31
0.0
  0
LINE
  5
15E
330
1E
100
AcDbEntity
  8
0
100
AcDbLine
 10
169.9375
 20
784.9
 30
0.0
 11
170.5885
 21
784.9
 31
0.0
  0
LINE
  5
15F
330
1E
100
AcDbEntity
  8
0
100
AcDbLine
 10
169.9375
 20
783.8999999999999
 30
0.0
 11
169.9375
 21
784.9
 31
0.0
  0
LINE
  5
160
330
1E
100
AcDbEntity
  8
0
100
AcDbLine
 10
169.9375
 20
783.8999999999999
 30
0.0
 11
170.5885
 21
783.8999999999999
 31
0.0
  0
LINE
  5
161
330
1E
100
AcDbEntity
  8
0
100
AcDbLine
 10
169.9375
 20
783.8999999999999
 30
0.0
 11
169.9375
 21
783.3999999999999
 31
0.0
  0
LINE
  5
162
330
1E
100
AcDbEntity
  8
0
100
AcDbLine
 10
170.4374999999999
 20
783.3999999999999
 30
0.0
 11
170.4374999999999
 21
778.6
 31
0.0
  0
LINE
  5
163
330
1E
100
AcDbEntity
  8
0
100
AcDbLine
 10
170.4374999999999
 20
776.6
 30
0.0
 11
170.4374999999999
 21
771.7999999999999
 31
0.0
  0
LINE
  5
164
330
1E
100
AcDbEntity
  8
0
100
AcDbLine
 10
169.9375
 20
790.2000000000001
 30
0.0
 11
170.4374999999999
 21
790.2000000000001
 31
0.0
  0
LINE
  5
165
330
1E
100
AcDbEntity
  8
0
100
AcDbLine
 10
169.9375
 20
790.2000000000001
 30
0.0
 11
169.9375
 21
790.7
 31
0.0
  0
LINE
  5
166
330
1E
100
AcDbEntity
  8
0
100
AcDbLine
 10
169.9375
 20
790.7
 30
0.0
 11
169.9375
 21
790.2000000000001
 31
0.0
  0
LINE
  5
167
330
1E
100
AcDbEntity
  8
0
100
AcDbLine
 10
169.9375
 20
790.7
 30
0.0
 11
170.4374999999999
 21
790.7
 31
0.0
  0
LINE
  5
168
330
1E
100
AcDbEntity
  8
0
100
AcDbLine
 10
169.9375
 20
790.7
 30
0.0
 11
169.9375
 21
791.7
 31
0.0
  0
LINE
  5
169
330
1E
100
AcDbEntity
  8
0
100
AcDbLine
 10
169.9375
 20
797.0
 30
0.0
 11
169.9375
 21
797.5
 31
0.0
  0
LINE
  5
16A
330
1E
100
AcDbEntity
  8
0
100
AcDbLine
 10
169.9375
 20
797.0
 30
0.0
 11
170.4374999999999
 21
797.0
 31
0.0
  0
LINE
  5
16B
330
1E
100
AcDbEntity
  8
0
100
AcDbLine
 10
169.9375
 20
792.2
 30
0.0
 11
170.4374999999999
 21
792.2
 31
0.0
  0
LINE
  5
16C
330
1E
100
AcDbEntity
  8
0
100
AcDbLine
 10
169.9375
 20
792.2
 30
0.0
 11
169.9375
 21
791.7
 31
0.0
  0
LINE
  5
16D
330
1E
100
AcDbEntity
  8
0
100
AcDbLine
 10
169.9375
 20
791.7
 30
0.0
 11
169.9375
 21
792.2
 31
0.0
  0
LINE
  5
16E
330
1E
100
AcDbEntity
  8
0
100
AcDbLine
 10
169.9375
 20
791.7
 30
0.0
 11
170.4374999999999
 21
791.7
 31
0.0
  0
LINE
  5
16F
330
1E
100
AcDbEntity
  8
0
100
AcDbLine
 10
169.9375
 20
791.7
 30
0.0
 11
169.9375
 21
790.7
 31
0.0
  0
LINE
  5
170
330
1E
100
AcDbEntity
  8
0
100
AcDbLine
 10
169.9375
 20
799.0
 30
0.0
 11
169.9375
 21
798.5
 31
0.0
  0
LINE
  5
171
330
1E
100
AcDbEntity
  8
0
100
AcDbLine
 10
169.9375
 20
799.0
 30
0.0
 11
170.4374999999999
 21
799.0
 31
0.0
  0
LINE
  5
172
330
1E
100
AcDbEntity
  8
0
100
AcDbLine
 10
169.9375
 20
798.5
 30
0.0
 11
169.9375
 21
799.0
 31
0.0
  0
LINE
  5
173
330
1E
100
AcDbEntity
  8
0
100
AcDbLine
 10
169.9375
 20
798.5
 30
0.0
 11
169.9375
 21
797.5
 31
0.0
  0
LINE
  5
174
330
1E
100
AcDbEntity
  8
0
100
AcDbLine
 10
169.9375
 20
798.5
 30
0.0
 11
170.4374999999999
 21
798.5
 31
0.0
  0
LINE
  5
175
330
1E
100
AcDbEntity
  8
0
100
AcDbLine
 10
169.9375
 20
797.5
 30
0.0
 11
169.9375
 21
798.5
 31
0.0
  0
LINE
  5
176
330
1E
100
AcDbEntity
  8
0
100
AcDbLine
 10
169.9375
 20
797.5
 30
0.0
 11
170.4374999999999
 21
797.5
 31
0.0
  0
LINE
  5
177
330
1E
100
AcDbEntity
  8
0
100
AcDbLine
 10
169.9375
 20
797.5
 30
0.0
 11
169.9375
 21
797.0
 31
0.0
  0
LINE
  5
178
330
1E
100
AcDbEntity
  8
0
100
AcDbLine
 10
170.4374999999999
 20
797.0
 30
0.0
 11
170.4374999999999
 21
792.2
 31
0.0
  0
LINE
  5
179
330
1E
100
AcDbEntity
  8
0
100
AcDbLine
 10
170.4374999999999
 20
790.2000000000001
 30
0.0
 11
170.4374999999999
 21
785.4
 31
0.0
  0
LINE
  5
17A
330
1E
100
AcDbEntity
  8
0
100
AcDbLine
 10
169.9375
 20
803.8
 30
0.0
 11
169.9375
 21
804.2999999999999
 31
0.0
  0
LINE
  5
17B
330
1E
100
AcDbEntity
  8
0
100
AcDbLine
 10
169.9375
 20
803.8
 30
0.0
 11
170.4374999999999
 21
803.8
 31
0.0
  0
LINE
  5
17C
330
1E
100
AcDbEntity
  8
0
100
AcDbLine
 10
169.9375
 20
810.5999999999999
 30
0.0
 11
170.4374999999999
 21
810.5999999999999
 31
0.0
  0
LINE
  5
17D
330
1E
100
AcDbEntity
  8
0
100
AcDbLine
 10
169.9375
 20
810.5999999999999
 30
0.0
 11
169.9375
 21
811.1
 31
0.0
  0
LINE
  5
17E
330
1E
100
AcDbEntity
  8
0
100
AcDbLine
 10
169.9375
 20
805.7999999999999
 30
0.0
 11
169.9375
 21
805.2999999999999
 31
0.0
  0
LINE
  5
17F
330
1E
100
AcDbEntity
  8
0
100
AcDbLine
 10
169.9375
 20
805.7999999999999
 30
0.0
 11
170.4374999999999
 21
805.7999999999999
 31
0.0
  0
LINE
  5
180
330
1E
100
AcDbEntity
  8
0
100
AcDbLine
 10
169.9375
 20
805.2999999999999
 30
0.0
 11
169.9375
 21
805.7999999999999
 31
0.0
  0
LINE
  5
181
330
1E
100
AcDbEntity
  8
0
100
AcDbLine
 10
169.9375
 20
805.2999999999999
 30
0.0
 11
169.9375
 21
804.2999999999999
 31
0.0
  0
LINE
  5
182
330
1E
100
AcDbEntity
  8
0
100
AcDbLine
 10
169.9375
 20
805.2999999999999
 30
0.0
 11
170.4374999999999
 21
805.2999999999999
 31
0.0
  0
LINE
  5
183
330
1E
100
AcDbEntity
  8
0
100
AcDbLine
 10
169.9375
 20
804.2999999999999
 30
0.0
 11
169.9375
 21
805.2999999999999
 31
0.0
  0
LINE
  5
184
330
1E
100
AcDbEntity
  8
0
100
AcDbLine
 10
169.9375
 20
804.2999999999999
 30
0.0
 11
170.4374999999999
 21
804.2999999999999
 31
0.0
  0
LINE
  5
185
330
1E
100
AcDbEntity
  8
0
100
AcDbLine
 10
169.9375
 20
804.2999999999999
 30
0.0
 11
169.9375
 21
803.8
 31
0.0
  0
LINE
  5
186
330
1E
100
AcDbEntity
  8
0
100
AcDbLine
 10
169.9375
 20
811.1
 30
0.0
 11
169.9375
 21
810.5999999999999
 31
0.0
  0
LINE
  5
187
330
1E
100
AcDbEntity
  8
0
100
AcDbLine
 10
169.9375
 20
811.1
 30
0.0
 11
170.4374999999999
 21
811.1
 31
0.0
  0
LINE
  5
188
330
1E
100
AcDbEntity
  8
0
100
AcDbLine
 10
169.9375
 20
811.1
 30
0.0
 11
169.9375
 21
812.1
 31
0.0
  0
LINE
  5
189
330
1E
100
AcDbEntity
  8
0
100
AcDbLine
 10
169.9375
 20
812.6000000000001
 30
0.0
 11
170.4374999999999
 21
812.6000000000001
 31
0.0
  0
LINE
  5
18A
330
1E
100
AcDbEntity
  8
0
100
AcDbLine
 10
169.9375
 20
812.6000000000001
 30
0.0
 11
169.9375
 21
812.1
 31
0.0
  0
LINE
  5
18B
330
1E
100
AcDbEntity
  8
0
100
AcDbLine
 10
169.9375
 20
812.1
 30
0.0
 11
169.9375
 21
812.6000000000001
 31
0.0
  0
LINE
  5
18C
330
1E
100
AcDbEntity
  8
0
100
AcDbLine
 10
169.9375
 20
812.1
 30
0.0
 11
170.4374999999999
 21
812.1
 31
0.0
  0
LINE
  5
18D
330
1E
100
AcDbEntity
  8
0
100
AcDbLine
 10
169.9375
 20
812.1
 30
0.0
 11
169.9375
 21
811.1
 31
0.0
  0
LINE
  5
18E
330
1E
100
AcDbEntity
  8
0
100
AcDbLine
 10
170.4374999999999
 20
810.5999999999999
 30
0.0
 11
170.4374999999999
 21
805.7999999999999
 31
0.0
  0
LINE
  5
18F
330
1E
100
AcDbEntity
  8
0
100
AcDbLine
 10
170.4374999999999
 20
803.8
 30
0.0
 11
170.4374999999999
 21
799.0
 31
0.0
  0
LINE
  5
190
330
1E
100
AcDbEntity
  8
0
100
AcDbLine
 10
169.9375
 20
819.3999999999999
 30
0.0
 11
169.9375
 21
818.9
 31
0.0
  0
LINE
  5
191
330
1E
100
AcDbEntity
  8
0
100
AcDbLine
 10
169.9375
 20
819.3999999999999
 30
0.0
 11
170.4374999999999
 21
819.3999999999999
 31
0.0
  0
LINE
  5
192
330
1E
100
AcDbEntity
  8
0
100
AcDbLine
 10
169.9375
 20
818.9
 30
0.0
 11
169.9375
 21
817.9
 31
0.0
  0
LINE
  5
193
330
1E
100
AcDbEntity
  8
0
100
AcDbLine
 10
169.9375
 20
818.9
 30
0.0
 11
169.9375
 21
819.3999999999999
 31
0.0
  0
LINE
  5
194
330
1E
100
AcDbEntity
  8
0
100
AcDbLine
 10
169.9375
 20
818.9
 30
0.0
 11
170.4374999999999
 21
818.9
 31
0.0
  0
LINE
  5
195
330
1E
100
AcDbEntity
  8
0
100
AcDbLine
 10
169.9375
 20
817.9
 30
0.0
 11
169.9375
 21
817.3999999999999
 31
0.0
  0
LINE
  5
196
330
1E
100
AcDbEntity
  8
0
100
AcDbLine
 10
169.9375
 20
817.9
 30
0.0
 11
170.4374999999999
 21
817.9
 31
0.0
  0
LINE
  5
197
330
1E
100
AcDbEntity
  8
0
100
AcDbLine
 10
169.9375
 20
817.9
 30
0.0
 11
169.9375
 21
818.9
 31
0.0
  0
LINE
  5
198
330
1E
100
AcDbEntity
  8
0
100
AcDbLine
 10
169.9375
 20
817.3999999999999
 30
0.0
 11
169.9375
 21
817.9
 31
0.0
  0
LINE
  5
199
330
1E
100
AcDbEntity
  8
0
100
AcDbLine
 10
169.9375
 20
817.3999999999999
 30
0.0
 11
170.4374999999999
 21
817.3999999999999
 31
0.0
  0
LINE
  5
19A
330
1E
100
AcDbEntity
  8
0
100
AcDbLine
 10
170.4374999999999
 20
817.3999999999999
 30
0.0
 11
170.4374999999999
 21
812.6000000000001
 31
0.0
  0
LINE
  5
19B
330
1E
100
AcDbEntity
  8
0
100
AcDbLine
 10
169.9375
 20
831.0
 30
0.0
 11
169.9375
 21
831.4999999999999
 31
0.0
  0
LINE
  5
19C
330
1E
100
AcDbEntity
  8
0
100
AcDbLine
 10
169.9375
 20
831.0
 30
0.0
 11
170.4374999999999
 21
831.0
 31
0.0
  0
LINE
  5
19D
330
1E
100
AcDbEntity
  8
0
100
AcDbLine
 10
169.9375
 20
826.2
 30
0.0
 11
170.4374999999999
 21
826.2
 31
0.0
  0
LINE
  5
19E
330
1E
100
AcDbEntity
  8
0
100
AcDbLine
 10
169.9375
 20
826.2
 30
0.0
 11
169.9375
 21
825.7000000000001
 31
0.0
  0
LINE
  5
19F
330
1E
100
AcDbEntity
  8
0
100
AcDbLine
 10
169.9375
 20
825.7000000000001
 30
0.0
 11
169.9375
 21
824.6999999999999
 31
0.0
  0
LINE
  5
1A0
330
1E
100
AcDbEntity
  8
0
100
AcDbLine
 10
169.9375
 20
825.7000000000001
 30
0.0
 11
170.4374999999999
 21
825.7000000000001
 31
0.0
  0
LINE
  5
1A1
330
1E
100
AcDbEntity
  8
0
100
AcDbLine
 10
169.9375
 20
825.7000000000001
 30
0.0
 11
169.9375
 21
826.2
 31
0.0
  0
LINE
  5
1A2
330
1E
100
AcDbEntity
  8
0
100
AcDbLine
 10
169.9375
 20
824.6999999999999
 30
0.0
 11
169.9375
 21
824.2
 31
0.0
  0
LINE
  5
1A3
330
1E
100
AcDbEntity
  8
0
100
AcDbLine
 10
169.9375
 20
824.6999999999999
 30
0.0
 11
169.9375
 21
825.7000000000001
 31
0.0
  0
LINE
  5
1A4
330
1E
100
AcDbEntity
  8
0
100
AcDbLine
 10
169.9375
 20
824.6999999999999
 30
0.0
 11
170.4374999999999
 21
824.6999999999999
 31
0.0
  0
LINE
  5
1A5
330
1E
100
AcDbEntity
  8
0
100
AcDbLine
 10
169.9375
 20
824.2
 30
0.0
 11
169.9375
 21
824.6999999999999
 31
0.0
  0
LINE
  5
1A6
330
1E
100
AcDbEntity
  8
0
100
AcDbLine
 10
169.9375
 20
824.2
 30
0.0
 11
170.4374999999999
 21
824.2
 31
0.0
  0
LINE
  5
1A7
330
1E
100
AcDbEntity
  8
0
100
AcDbLine
 10
169.9375
 20
833.0
 30
0.0
 11
169.9375
 21
832.4999999999999
 31
0.0
  0
LINE
  5
1A8
330
1E
100
AcDbEntity
  8
0
100
AcDbLine
 10
169.9375
 20
833.0
 30
0.0
 11
170.4374999999999
 21
833.0
 31
0.0
  0
LINE
  5
1A9
330
1E
100
AcDbEntity
  8
0
100
AcDbLine
 10
169.9375
 20
832.4999999999999
 30
0.0
 11
169.9375
 21
833.0
 31
0.0
  0
LINE
  5
1AA
330
1E
100
AcDbEntity
  8
0
100
AcDbLine
 10
169.9375
 20
832.4999999999999
 30
0.0
 11
169.9375
 21
831.4999999999999
 31
0.0
  0
LINE
  5
1AB
330
1E
100
AcDbEntity
  8
0
100
AcDbLine
 10
169.9375
 20
832.4999999999999
 30
0.0
 11
170.4374999999999
 21
832.4999999999999
 31
0.0
  0
LINE
  5
1AC
330
1E
100
AcDbEntity
  8
0
100
AcDbLine
 10
169.9375
 20
831.4999999999999
 30
0.0
 11
169.9375
 21
832.4999999999999
 31
0.0
  0
LINE
  5
1AD
330
1E
100
AcDbEntity
  8
0
100
AcDbLine
 10
169.9375
 20
831.4999999999999
 30
0.0
 11
170.4374999999999
 21
831.4999999999999
 31
0.0
  0
LINE
  5
1AE
330
1E
100
AcDbEntity
  8
0
100
AcDbLine
 10
169.9375
 20
831.4999999999999
 30
0.0
 11
169.9375
 21
831.0
 31
0.0
  0
LINE
  5
1AF
330
1E
100
AcDbEntity
  8
0
100
AcDbLine
 10
170.4374999999999
 20
831.0
 30
0.0
 11
170.4374999999999
 21
826.2
 31
0.0
  0
LINE
  5
1B0
330
1E
100
AcDbEntity
  8
0
100
AcDbLine
 10
170.4374999999999
 20
824.2
 30
0.0
 11
170.4374999999999
 21
819.3999999999999
 31
0.0
  0
LINE
  5
1B1
330
1E
100
AcDbEntity
  8
0
100
AcDbLine
 10
170.4374999999999
 20
854.4999999999999
 30
0.0
 11
170.9375
 21
855.0
 31
0.0
  0
LINE
  5
1B2
330
1E
100
AcDbEntity
  8
0
100
AcDbLine
 10
170.4374999999999
 20
854.4999999999999
 30
0.0
 11
170.4374999999999
 21
835.5
 31
0.0
  0
LINE
  5
1B3
330
1E
100
AcDbEntity
  8
0
100
AcDbLine
 10
170.4374999999999
 20
854.4999999999999
 30
0.0
 11
170.8375
 21
854.4999999999999
 31
0.0
  0
LINE
  5
1B4
330
1E
100
AcDbEntity
  8
0
100
AcDbLine
 10
170.4374999999999
 20
835.5
 30
0.0
 11
171.4374999999999
 21
835.0
 31
0.0
  0
LINE
  5
1B5
330
1E
100
AcDbEntity
  8
0
100
AcDbLine
 10
170.4374999999999
 20
835.5
 30
0.0
 11
170.4374999999999
 21
854.4999999999999
 31
0.0
  0
LINE
  5
1B6
330
1E
100
AcDbEntity
  8
0
100
AcDbLine
 10
170.4374999999999
 20
835.5
 30
0.0
 11
170.8375
 21
835.5
 31
0.0
  0
LINE
  5
1B7
330
1E
100
AcDbEntity
  8
0
100
AcDbLine
 10
170.4374999999999
 20
834.5
 30
0.0
 11
171.4374999999999
 21
835.0
 31
0.0
  0
LINE
  5
1B8
330
1E
100
AcDbEntity
  8
0
100
AcDbLine
 10
170.4374999999999
 20
834.5
 30
0.0
 11
170.4374999999999
 21
833.0
 31
0.0
  0
LINE
  5
1B9
330
1E
100
AcDbEntity
  8
0
100
AcDbLine
 10
170.4374999999999
 20
834.5
 30
0.0
 11
170.8375
 21
834.5
 31
0.0
  0
LINE
  5
1BA
330
1E
100
AcDbEntity
  8
0
100
AcDbLine
 10
170.4374999999999
 20
833.0
 30
0.0
 11
170.4374999999999
 21
834.5
 31
0.0
  0
LINE
  5
1BB
330
1E
100
AcDbEntity
  8
0
100
AcDbLine
 10
170.4374999999999
 20
819.3999999999999
 30
0.0
 11
170.4374999999999
 21
824.2
 31
0.0
  0
LINE
  5
1BC
330
1E
100
AcDbEntity
  8
0
100
AcDbLine
 10
170.4374999999999
 20
826.2
 30
0.0
 11
170.4374999999999
 21
831.0
 31
0.0
  0
LINE
  5
1BD
330
1E
100
AcDbEntity
  8
0
100
AcDbLine
 10
170.4374999999999
 20
812.6000000000001
 30
0.0
 11
170.4374999999999
 21
817.3999999999999
 31
0.0
  0
LINE
  5
1BE
330
1E
100
AcDbEntity
  8
0
100
AcDbLine
 10
170.4374999999999
 20
805.7999999999999
 30
0.0
 11
170.4374999999999
 21
810.5999999999999
 31
0.0
  0
LINE
  5
1BF
330
1E
100
AcDbEntity
  8
0
100
AcDbLine
 10
170.4374999999999
 20
799.0
 30
0.0
 11
170.4374999999999
 21
803.8
 31
0.0
  0
LINE
  5
1C0
330
1E
100
AcDbEntity
  8
0
100
AcDbLine
 10
170.4374999999999
 20
792.2
 30
0.0
 11
170.4374999999999
 21
797.0
 31
0.0
  0
LINE
  5
1C1
330
1E
100
AcDbEntity
  8
0
100
AcDbLine
 10
170.4374999999999
 20
785.4
 30
0.0
 11
170.4374999999999
 21
790.2000000000001
 31
0.0
  0
LINE
  5
1C2
330
1E
100
AcDbEntity
  8
0
100
AcDbLine
 10
170.5885
 20
777.1
 30
0.0
 11
170.7415
 21
776.6
 31
0.0
  0
LINE
  5
1C3
330
1E
100
AcDbEntity
  8
0
100
AcDbLine
 10
170.5885
 20
777.1
 30
0.0
 11
170.5885
 21
778.1
 31
0.0
  0
LINE
  5
1C4
330
1E
100
AcDbEntity
  8
0
100
AcDbLine
 10
170.5885
 20
778.1
 30
0.0
 11
170.7415
 21
778.6
 31
0.0
  0
LINE
  5
1C5
330
1E
100
AcDbEntity
  8
0
100
AcDbLine
 10
170.5885
 20
778.1
 30
0.0
 11
170.5885
 21
777.1
 31
0.0
  0
LINE
  5
1C6
330
1E
100
AcDbEntity
  8
0
100
AcDbLine
 10
170.7415
 20
776.6
 30
0.0
 11
171.0475
 21
776.6
 31
0.0
  0
LINE
  5
1C8
330
1E
100
AcDbEntity
  8
0
100
AcDbLine
 10
171.0475
 20
776.6
 30
0.0
 11
171.2004999999999
 21
777.1
 31
0.0
  0
LINE
  5
1CA
330
1E
100
AcDbEntity
  8
0
100
AcDbLine
 10
170.5885
 20
783.8999999999999
 30
0.0
 11
170.5885
 21
784.9
 31
0.0
  0
LINE
  5
1CB
330
1E
100
AcDbEntity
  8
0
100
AcDbLine
 10
170.5885
 20
783.8999999999999
 30
0.0
 11
170.7415
 21
783.3999999999999
 31
0.0
  0
LINE
  5
1CC
330
1E
100
AcDbEntity
  8
0
100
AcDbLine
 10
170.5885
 20
784.9
 30
0.0
 11
170.7415
 21
785.4
 31
0.0
  0
LINE
  5
1CD
330
1E
100
AcDbEntity
  8
0
100
AcDbLine
 10
170.5885
 20
784.9
 30
0.0
 11
170.5885
 21
783.8999999999999
 31
0.0
  0
LINE
  5
1CE
330
1E
100
AcDbEntity
  8
0
100
AcDbLine
 10
171.0475
 20
783.3999999999999
 30
0.0
 11
171.2004999999999
 21
783.8999999999999
 31
0.0
  0
LINE
  5
1D0
330
1E
100
AcDbEntity
  8
0
100
AcDbLine
 10
170.7415
 20
783.3999999999999
 30
0.0
 11
171.0475
 21
783.3999999999999
 31
0.0
  0
LINE
  5
1D2
330
1E
100
AcDbEntity
  8
0
100
AcDbLine
 10
170.5885
 20
790.7
 30
0.0
 11
170.7415
 21
790.2000000000001
 31
0.0
  0
LINE
  5
1D3
330
1E
100
AcDbEntity
  8
0
100
AcDbLine
 10
170.5885
 20
790.7
 30
0.0
 11
170.5885
 21
791.7
 31
0.0
  0
LINE
  5
1D4
330
1E
100
AcDbEntity
  8
0
100
AcDbLine
 10
170.5885
 20
791.7
 30
0.0
 11
170.7415
 21
792.2
 31
0.0
  0
LINE
  5
1D5
330
1E
100
AcDbEntity
  8
0
100
AcDbLine
 10
170.5885
 20
791.7
 30
0.0
 11
170.5885
 21
790.7
 31
0.0
  0
LINE
  5
1D6
330
1E
100
AcDbEntity
  8
0
100
AcDbLine
 10
170.7415
 20
790.2000000000001
 30
0.0
 11
171.0475
 21
790.2000000000001
 31
0.0
  0
LINE
  5
1D8
330
1E
100
AcDbEntity
  8
0
100
AcDbLine
 10
171.0475
 20
790.2000000000001
 30
0.0
 11
171.2004999999999
 21
790.7
 31
0.0
  0
LINE
  5
1DA
330
1E
100
AcDbEntity
  8
0
100
AcDbLine
 10
170.5885
 20
797.5
 30
0.0
 11
170.5885
 21
798.5
 31
0.0
  0
LINE
  5
1DB
330
1E
100
AcDbEntity
  8
0
100
AcDbLine
 10
170.5885
 20
797.5
 30
0.0
 11
170.7415
 21
797.0
 31
0.0
  0
LINE
  5
1DC
330
1E
100
AcDbEntity
  8
0
100
AcDbLine
 10
170.5885
 20
798.5
 30
0.0
 11
170.7415
 21
799.0
 31
0.0
  0
LINE
  5
1DD
330
1E
100
AcDbEntity
  8
0
100
AcDbLine
 10
170.5885
 20
798.5
 30
0.0
 11
170.5885
 21
797.5
 31
0.0
  0
LINE
  5
1DE
330
1E
100
AcDbEntity
  8
0
100
AcDbLine
 10
171.0475
 20
797.0
 30
0.0
 11
171.2004999999999
 21
797.5
 31
0.0
  0
LINE
  5
1E0
330
1E
100
AcDbEntity
  8
0
100
AcDbLine
 10
170.7415
 20
797.0
 30
0.0
 11
171.0475
 21
797.0
 31
0.0
  0
LINE
  5
1E2
330
1E
100
AcDbEntity
  8
0
100
AcDbLine
 10
170.5885
 20
804.2999999999999
 30
0.0
 11
170.5885
 21
805.2999999999999
 31
0.0
  0
LINE
  5
1E3
330
1E
100
AcDbEntity
  8
0
100
AcDbLine
 10
170.5885
 20
804.2999999999999
 30
0.0
 11
170.7415
 21
803.8
 31
0.0
  0
LINE
  5
1E4
330
1E
100
AcDbEntity
  8
0
100
AcDbLine
 10
170.5885
 20
805.2999999999999
 30
0.0
 11
170.7415
 21
805.7999999999999
 31
0.0
  0
LINE
  5
1E5
330
1E
100
AcDbEntity
  8
0
100
AcDbLine
 10
170.5885
 20
805.2999999999999
 30
0.0
 11
170.5885
 21
804.2999999999999
 31
0.0
  0
LINE
  5
1E6
330
1E
100
AcDbEntity
  8
0
100
AcDbLine
 10
171.0475
 20
803.8
 30
0.0
 11
171.2004999999999
 21
804.2999999999999
 31
0.0
  0
LINE
  5
1E8
330
1E
100
AcDbEntity
  8
0
100
AcDbLine
 10
170.7415
 20
803.8
 30
0.0
 11
171.0475
 21
803.8
 31
0.0
  0
LINE
  5
1EA
330
1E
100
AcDbEntity
  8
0
100
AcDbLine
 10
170.5885
 20
811.1
 30
0.0
 11
170.7415
 21
810.5999999999999
 31
0.0
  0
LINE
  5
1EB
330
1E
100
AcDbEntity
  8
0
100
AcDbLine
 10
170.5885
 20
811.1
 30
0.0
 11
170.5885
 21
812.1
 31
0.0
  0
LINE
  5
1EC
330
1E
100
AcDbEntity
  8
0
100
AcDbLine
 10
170.5885
 20
812.1
 30
0.0
 11
170.7415
 21
812.6000000000001
 31
0.0
  0
LINE
  5
1ED
330
1E
100
AcDbEntity
  8
0
100
AcDbLine
 10
170.5885
 20
812.1
 30
0.0
 11
170.5885
 21
811.1
 31
0.0
  0
LINE
  5
1EE
330
1E
100
AcDbEntity
  8
0
100
AcDbLine
 10
170.7415
 20
810.5999999999999
 30
0.0
 11
171.0475
 21
810.5999999999999
 31
0.0
  0
LINE
  5
1F0
330
1E
100
AcDbEntity
  8
0
100
AcDbLine
 10
171.0475
 20
810.5999999999999
 30
0.0
 11
171.2004999999999
 21
811.1
 31
0.0
  0
LINE
  5
1F2
330
1E
100
AcDbEntity
  8
0
100
AcDbLine
 10
170.5885
 20
818.9
 30
0.0
 11
170.7415
 21
819.3999999999999
 31
0.0
  0
LINE
  5
1F3
330
1E
100
AcDbEntity
  8
0
100
AcDbLine
 10
170.5885
 20
818.9
 30
0.0
 11
170.5885
 21
817.9
 31
0.0
  0
LINE
  5
1F4
330
1E
100
AcDbEntity
  8
0
100
AcDbLine
 10
170.5885
 20
831.4999999999999
 30
0.0
 11
170.5885
 21
832.4999999999999
 31
0.0
  0
LINE
  5
1F5
330
1E
100
AcDbEntity
  8
0
100
AcDbLine
 10
170.5885
 20
831.4999999999999
 30
0.0
 11
170.7415
 21
831.0
 31
0.0
  0
LINE
  5
1F6
330
1E
100
AcDbEntity
  8
0
100
AcDbLine
 10
170.5885
 20
832.4999999999999
 30
0.0
 11
170.7415
 21
833.0
 31
0.0
  0
LINE
  5
1F7
330
1E
100
AcDbEntity
  8
0
100
AcDbLine
 10
170.5885
 20
832.4999999999999
 30
0.0
 11
170.5885
 21
831.4999999999999
 31
0.0
  0
LINE
  5
1F8
330
1E
100
AcDbEntity
  8
0
100
AcDbLine
 10
170.5885
 20
825.7000000000001
 30
0.0
 11
170.5885
 21
824.6999999999999
 31
0.0
  0
LINE
  5
1F9
330
1E
100
AcDbEntity
  8
0
100
AcDbLine
 10
170.5885
 20
825.7000000000001
 30
0.0
 11
170.7415
 21
826.2
 31
0.0
  0
LINE
  5
1FA
330
1E
100
AcDbEntity
  8
0
100
AcDbLine
 10
170.5885
 20
824.6999999999999
 30
0.0
 11
170.7415
 21
824.2
 31
0.0
  0
LINE
  5
1FB
330
1E
100
AcDbEntity
  8
0
100
AcDbLine
 10
170.5885
 20
824.6999999999999
 30
0.0
 11
170.5885
 21
825.7000000000001
 31
0.0
  0
LINE
  5
1FC
330
1E
100
AcDbEntity
  8
0
100
AcDbLine
 10
171.0475
 20
817.3999999999999
 30
0.0
 11
171.2004999999999
 21
817.9
 31
0.0
  0
LINE
  5
1FE
330
1E
100
AcDbEntity
  8
0
100
AcDbLine
 10
170.7415
 20
819.3999999999999
 30
0.0
 11
171.0475
 21
819.3999999999999
 31
0.0
  0
LINE
  5
1FF
330
1E
100
AcDbEntity
  8
0
100
AcDbLine
 10
171.0475
 20
819.3999999999999
 30
0.0
 11
171.2004999999999
 21
818.9
 31
0.0
  0
LINE
  5
201
330
1E
100
AcDbEntity
  8
0
100
AcDbLine
 10
171.0475
 20
831.0
 30
0.0
 11
171.2004999999999
 21
831.4999999999999
 31
0.0
  0
LINE
  5
203
330
1E
100
AcDbEntity
  8
0
100
AcDbLine
 10
170.7415
 20
831.0
 30
0.0
 11
171.0475
 21
831.0
 31
0.0
  0
LINE
  5
205
330
1E
100
AcDbEntity
  8
0
100
AcDbLine
 10
170.7415
 20
833.0
 30
0.0
 11
171.0475
 21
833.0
 31
0.0
  0
LINE
  5
206
330
1E
100
AcDbEntity
  8
0
100
AcDbLine
 10
171.0475
 20
833.0
 30
0.0
 11
171.2004999999999
 21
832.4999999999999
 31
0.0
  0
LINE
  5
208
330
1E
100
AcDbEntity
  8
0
100
AcDbLine
 10
170.7415
 20
826.2
 30
0.0
 11
171.0475
 21
826.2
 31
0.0
  0
LINE
  5
20A
330
1E
100
AcDbEntity
  8
0
100
AcDbLine
 10
171.0475
 20
826.2
 30
0.0
 11
171.2004999999999
 21
825.7000000000001
 31
0.0
  0
LINE
  5
20B
330
1E
100
AcDbEntity
  8
0
100
AcDbLine
 10
170.7415
 20
824.2
 30
0.0
 11
171.0475
 21
824.2
 31
0.0
  0
LINE
  5
20D
330
1E
100
AcDbEntity
  8
0
100
AcDbLine
 10
171.0475
 20
824.2
 30
0.0
 11
171.2004999999999
 21
824.6999999999999
 31
0.0
  0
LINE
  5
210
330
1E
100
AcDbEntity
  8
0
100
AcDbLine
 10
170.7415
 20
817.3999999999999
 30
0.0
 11
171.0475
 21
817.3999999999999
 31
0.0
  0
LINE
  5
211
330
1E
100
AcDbEntity
  8
0
100
AcDbLine
 10
170.5885
 20
817.9
 30
0.0
 11
170.7415
 21
817.3999999999999
 31
0.0
  0
LINE
  5
212
330
1E
100
AcDbEntity
  8
0
100
AcDbLine
 10
170.5885
 20
817.9
 30
0.0
 11
170.5885
 21
818.9
 31
0.0
  0
LINE
  5
213
330
1E
100
AcDbEntity
  8
0
100
AcDbLine
 10
170.7415
 20
812.6000000000001
 30
0.0
 11
171.0475
 21
812.6000000000001
 31
0.0
  0
LINE
  5
215
330
1E
100
AcDbEntity
  8
0
100
AcDbLine
 10
171.0475
 20
812.6000000000001
 30
0.0
 11
171.2004999999999
 21
812.1
 31
0.0
  0
LINE
  5
216
330
1E
100
AcDbEntity
  8
0
100
AcDbLine
 10
170.7415
 20
805.7999999999999
 30
0.0
 11
171.0475
 21
805.7999999999999
 31
0.0
  0
LINE
  5
217
330
1E
100
AcDbEntity
  8
0
100
AcDbLine
 10
171.0475
 20
805.7999999999999
 30
0.0
 11
171.2004999999999
 21
805.2999999999999
 31
0.0
  0
LINE
  5
219
330
1E
100
AcDbEntity
  8
0
100
AcDbLine
 10
170.7415
 20
799.0
 30
0.0
 11
171.0475
 21
799.0
 31
0.0
  0
LINE
  5
21A
330
1E
100
AcDbEntity
  8
0
100
AcDbLine
 10
171.0475
 20
799.0
 30
0.0
 11
171.2004999999999
 21
798.5
 31
0.0
  0
LINE
  5
21C
330
1E
100
AcDbEntity
  8
0
100
AcDbLine
 10
170.7415
 20
792.2
 30
0.0
 11
171.0475
 21
792.2
 31
0.0
  0
LINE
  5
21E
330
1E
100
AcDbEntity
  8
0
100
AcDbLine
 10
171.0475
 20
792.2
 30
0.0
 11
171.2004999999999
 21
791.7
 31
0.0
  0
LINE
  5
21F
330
1E
100
AcDbEntity
  8
0
100
AcDbLine
 10
170.7415
 20
785.4
 30
0.0
 11
171.0475
 21
785.4
 31
0.0
  0
LINE
  5
220
330
1E
100
AcDbEntity
  8
0
100
AcDbLine
 10
171.0475
 20
785.4
 30
0.0
 11
171.2004999999999
 21
784.9
 31
0.0
  0
LINE
  5
222
330
1E
100
AcDbEntity
  8
0
100
AcDbLine
 10
170.7415
 20
778.6
 30
0.0
 11
171.0475
 21
778.6
 31
0.0
  0
LINE
  5
224
330
1E
100
AcDbEntity
  8
0
100
AcDbLine
 10
171.0475
 20
778.6
 30
0.0
 11
171.2004999999999
 21
778.1
 31
0.0
  0
LINE
  5
225
330
1E
100
AcDbEntity
  8
0
100
AcDbLine
 10
170.8375
 20
854.4999999999999
 30
0.0
 11
172.0374999999999
 21
854.4999999999999
 31
0.0
  0
LINE
  5
226
330
1E
100
AcDbEntity
  8
0
100
AcDbLine
 10
170.9375
 20
855.0
 30
0.0
 11
171.3375
 21
855.0
 31
0.0
  0
LINE
  5
227
330
1E
100
AcDbEntity
  8
0
100
AcDbLine
 10
170.8375
 20
835.5
 30
0.0
 11
172.0374999999999
 21
835.5
 31
0.0
  0
LINE
  5
228
330
1E
100
AcDbEntity
  8
0
100
AcDbLine
 10
170.8375
 20
834.5
 30
0.0
 11
172.0374999999999
 21
834.5
 31
0.0
  0
LINE
  5
229
330
1E
100
AcDbEntity
  8
0
100
AcDbLine
 10
170.4374999999999
 20
778.6
 30
0.0
 11
170.4374999999999
 21
783.3999999999999
 31
0.0
  0
LINE
  5
22A
330
1E
100
AcDbEntity
  8
0
100
AcDbLine
 10
170.4374999999999
 20
771.7999999999999
 30
0.0
 11
170.4374999999999
 21
776.6
 31
0.0
  0
LINE
  5
22B
330
1E
100
AcDbEntity
  8
0
100
AcDbLine
 10
164.9445
 20
791.2999999999999
 30
0.0
 11
164.9445
 21
820.9989999999999
 31
0.0
  0
LINE
  5
22C
330
1E
100
AcDbEntity
  8
0
100
AcDbLine
 10
164.3354999999999
 20
766.5139999999999
 30
0.0
 11
164.3961785935259
 21
689.991001136143
 31
0.0
  0
LINE
  5
22D
330
1E
100
AcDbEntity
  8
0
100
AcDbLine
 10
164.3354999999999
 20
766.5139999999999
 30
0.0
 11
164.3961785935259
 21
689.991001136143
 31
0.0
  0
LINE
  5
22E
330
1E
100
AcDbEntity
  8
0
100
AcDbLine
 10
164.317146963051
 20
789.069882409946
 30
0.0
 11
164.3354999999999
 21
766.5139999999999
 31
0.0
  0
LINE
  5
231
330
1E
100
AcDbEntity
  8
0
100
AcDbLine
 10
147.4424999999999
 20
10.00019999999999
 30
0.0
 11
171.1694999999999
 21
10.0001
 31
0.0
  0
LINE
  5
232
330
1E
100
AcDbEntity
  8
0
100
AcDbLine
 10
147.4424999999999
 20
0.000164999999991
 30
0.0
 11
171.1694999999999
 21
0.0001019999999895
 31
0.0
  0
LINE
  5
233
330
1E
100
AcDbEntity
  8
0
100
AcDbLine
 10
178.6995
 20
630.0779999999999
 30
0.0
 11
178.70749164293
 21
649.979188806686
 31
0.0
  0
LINE
  5
234
330
1E
100
AcDbEntity
  8
0
100
AcDbLine
 10
178.6995
 20
630.0779999999999
 30
0.0
 11
247.4425
 21
314.0
 31
0.0
  0
LINE
  5
235
330
1E
100
AcDbEntity
  8
0
100
AcDbLine
 10
188.3514999999999
 20
631.971
 30
0.0
 11
188.5501833776699
 21
649.971314653298
 31
0.0
  0
LINE
  5
236
330
1E
100
AcDbEntity
  8
0
100
AcDbLine
 10
188.3514999999999
 20
631.971
 30
0.0
 11
257.2225
 21
315.8259999999999
 31
0.0
  0
LINE
  5
237
330
1E
100
AcDbEntity
  8
0
100
AcDbLine
 10
171.2004999999999
 20
763.4999999999999
 30
0.0
 11
171.9875
 21
763.4999999999999
 31
0.0
  0
LINE
  5
238
330
1E
100
AcDbEntity
  8
0
100
AcDbLine
 10
171.2004999999999
 20
763.4999999999999
 30
0.0
 11
171.2004999999999
 21
764.5
 31
0.0
  0
LINE
  5
239
330
1E
100
AcDbEntity
  8
0
100
AcDbLine
 10
171.2004999999999
 20
818.9
 30
0.0
 11
171.2004999999999
 21
817.9
 31
0.0
  0
LINE
  5
23B
330
1E
100
AcDbEntity
  8
0
100
AcDbLine
 10
171.2004999999999
 20
832.4999999999999
 30
0.0
 11
171.2004999999999
 21
831.4999999999999
 31
0.0
  0
LINE
  5
23E
330
1E
100
AcDbEntity
  8
0
100
AcDbLine
 10
171.2004999999999
 20
831.4999999999999
 30
0.0
 11
171.2004999999999
 21
832.4999999999999
 31
0.0
  0
LINE
  5
23F
330
1E
100
AcDbEntity
  8
0
100
AcDbLine
 10
171.2004999999999
 20
825.7000000000001
 30
0.0
 11
171.2004999999999
 21
824.6999999999999
 31
0.0
  0
LINE
  5
242
330
1E
100
AcDbEntity
  8
0
100
AcDbLine
 10
171.2004999999999
 20
824.6999999999999
 30
0.0
 11
171.2004999999999
 21
825.7000000000001
 31
0.0
  0
LINE
  5
244
330
1E
100
AcDbEntity
  8
0
100
AcDbLine
 10
171.2004999999999
 20
817.9
 30
0.0
 11
171.2004999999999
 21
818.9
 31
0.0
  0
LINE
  5
246
330
1E
100
AcDbEntity
  8
0
100
AcDbLine
 10
171.2004999999999
 20
811.1
 30
0.0
 11
171.2004999999999
 21
812.1
 31
0.0
  0
LINE
  5
248
330
1E
100
AcDbEntity
  8
0
100
AcDbLine
 10
171.2004999999999
 20
812.1
 30
0.0
 11
171.2004999999999
 21
811.1
 31
0.0
  0
LINE
  5
24A
330
1E
100
AcDbEntity
  8
0
100
AcDbLine
 10
171.2004999999999
 20
805.2999999999999
 30
0.0
 11
171.2004999999999
 21
804.2999999999999
 31
0.0
  0
LINE
  5
24B
330
1E
100
AcDbEntity
  8
0
100
AcDbLine
 10
171.2004999999999
 20
804.2999999999999
 30
0.0
 11
171.2004999999999
 21
805.2999999999999
 31
0.0
  0
LINE
  5
24E
330
1E
100
AcDbEntity
  8
0
100
AcDbLine
 10
171.2004999999999
 20
798.5
 30
0.0
 11
171.2004999999999
 21
797.5
 31
0.0
  0
LINE
  5
24F
330
1E
100
AcDbEntity
  8
0
100
AcDbLine
 10
171.2004999999999
 20
797.5
 30
0.0
 11
171.2004999999999
 21
798.5
 31
0.0
  0
LINE
  5
252
330
1E
100
AcDbEntity
  8
0
100
AcDbLine
 10
171.2004999999999
 20
790.7
 30
0.0
 11
171.2004999999999
 21
791.7
 31
0.0
  0
LINE
  5
254
330
1E
100
AcDbEntity
  8
0
100
AcDbLine
 10
171.2004999999999
 20
791.7
 30
0.0
 11
171.2004999999999
 21
790.7
 31
0.0
  0
LINE
  5
256
330
1E
100
AcDbEntity
  8
0
100
AcDbLine
 10
171.2004999999999
 20
784.9
 30
0.0
 11
171.2004999999999
 21
783.8999999999999
 31
0.0
  0
LINE
  5
257
330
1E
100
AcDbEntity
  8
0
100
AcDbLine
 10
171.2004999999999
 20
783.8999999999999
 30
0.0
 11
171.2004999999999
 21
784.9
 31
0.0
  0
LINE
  5
25A
330
1E
100
AcDbEntity
  8
0
100
AcDbLine
 10
171.2004999999999
 20
777.1
 30
0.0
 11
171.2004999999999
 21
778.1
 31
0.0
  0
LINE
  5
25C
330
1E
100
AcDbEntity
  8
0
100
AcDbLine
 10
171.2004999999999
 20
778.1
 30
0.0
 11
171.2004999999999
 21
777.1
 31
0.0
  0
LINE
  5
25E
330
1E
100
AcDbEntity
  8
0
100
AcDbLine
 10
171.2004999999999
 20
770.2999999999999
 30
0.0
 11
171.2004999999999
 21
771.3
 31
0.0
  0
LINE
  5
260
330
1E
100
AcDbEntity
  8
0
100
AcDbLine
 10
171.2004999999999
 20
771.3
 30
0.0
 11
171.2004999999999
 21
770.2999999999999
 31
0.0
  0
LINE
  5
261
330
1E
100
AcDbEntity
  8
0
100
AcDbLine
 10
171.2004999999999
 20
764.5
 30
0.0
 11
171.2004999999999
 21
763.4999999999999
 31
0.0
  0
LINE
  5
262
330
1E
100
AcDbEntity
  8
0
100
AcDbLine
 10
171.2004999999999
 20
764.5
 30
0.0
 11
171.9875
 21
764.5
 31
0.0
  0
LINE
  5
263
330
1E
100
AcDbEntity
  8
0
100
AcDbLine
 10
171.8374999999999
 20
835.0
 30
0.0
 11
172.9375
 21
835.0
 31
0.0
  0
LINE
  5
264
330
1E
100
AcDbEntity
  8
0
100
AcDbLine
 10
171.3375
 20
855.0
 30
0.0
 11
172.4375
 21
855.0
 31
0.0
  0
LINE
  5
265
330
1E
100
AcDbEntity
  8
0
100
AcDbLine
 10
172.0374999999999
 20
854.4999999999999
 30
0.0
 11
173.9375
 21
854.4999999999999
 31
0.0
  0
LINE
  5
266
330
1E
100
AcDbEntity
  8
0
100
AcDbLine
 10
172.0374999999999
 20
835.5
 30
0.0
 11
173.9375
 21
835.5
 31
0.0
  0
LINE
  5
267
330
1E
100
AcDbEntity
  8
0
100
AcDbLine
 10
171.4374999999999
 20
835.0
 30
0.0
 11
171.8374999999999
 21
835.0
 31
0.0
  0
LINE
  5
268
330
1E
100
AcDbEntity
  8
0
100
AcDbLine
 10
173.9295
 20
763.4999999999999
 30
0.0
 11
174.5425
 21
763.4999999999999
 31
0.0
  0
LINE
  5
269
330
1E
100
AcDbEntity
  8
0
100
AcDbLine
 10
173.9295
 20
763.4999999999999
 30
0.0
 11
173.9295
 21
764.5
 31
0.0
  0
LINE
  5
26A
330
1E
100
AcDbEntity
  8
0
100
AcDbLine
 10
173.6385
 20
763.0
 30
0.0
 11
173.9295
 21
763.4999999999999
 31
0.0
  0
LINE
  5
26B
330
1E
100
AcDbEntity
  8
0
100
AcDbLine
 10
173.6385
 20
763.0
 30
0.0
 11
173.9375
 21
763.0
 31
0.0
  0
LINE
  5
26C
330
1E
100
AcDbEntity
  8
0
100
AcDbLine
 10
173.0574999999999
 20
763.0
 30
0.0
 11
173.6385
 21
763.0
 31
0.0
  0
LINE
  5
26D
330
1E
100
AcDbEntity
  8
0
100
AcDbLine
 10
173.0574999999999
 20
763.0
 30
0.0
 11
173.6705
 21
763.0
 31
0.0
  0
LINE
  5
26E
330
1E
100
AcDbEntity
  8
0
100
AcDbLine
 10
172.7675
 20
764.5
 30
0.0
 11
173.0574999999999
 21
765.0
 31
0.0
  0
LINE
  5
26F
330
1E
100
AcDbEntity
  8
0
100
AcDbLine
 10
172.7675
 20
764.5
 30
0.0
 11
172.7675
 21
763.4999999999999
 31
0.0
  0
LINE
  5
270
330
1E
100
AcDbEntity
  8
0
100
AcDbLine
 10
173.0574999999999
 20
765.0
 30
0.0
 11
173.6385
 21
765.0
 31
0.0
  0
LINE
  5
271
330
1E
100
AcDbEntity
  8
0
100
AcDbLine
 10
172.7675
 20
818.9
 30
0.0
 11
173.0574999999999
 21
819.3999999999999
 31
0.0
  0
LINE
  5
272
330
1E
100
AcDbEntity
  8
0
100
AcDbLine
 10
172.7675
 20
818.9
 30
0.0
 11
172.7675
 21
817.9
 31
0.0
  0
LINE
  5
273
330
1E
100
AcDbEntity
  8
0
100
AcDbLine
 10
172.7675
 20
831.4999999999999
 30
0.0
 11
172.7675
 21
832.4999999999999
 31
0.0
  0
LINE
  5
274
330
1E
100
AcDbEntity
  8
0
100
AcDbLine
 10
172.7675
 20
831.4999999999999
 30
0.0
 11
173.0574999999999
 21
831.0
 31
0.0
  0
LINE
  5
275
330
1E
100
AcDbEntity
  8
0
100
AcDbLine
 10
172.7675
 20
832.4999999999999
 30
0.0
 11
173.0574999999999
 21
833.0
 31
0.0
  0
LINE
  5
276
330
1E
100
AcDbEntity
  8
0
100
AcDbLine
 10
172.7675
 20
832.4999999999999
 30
0.0
 11
172.7675
 21
831.4999999999999
 31
0.0
  0
LINE
  5
277
330
1E
100
AcDbEntity
  8
0
100
AcDbLine
 10
172.7675
 20
825.7000000000001
 30
0.0
 11
172.7675
 21
824.6999999999999
 31
0.0
  0
LINE
  5
278
330
1E
100
AcDbEntity
  8
0
100
AcDbLine
 10
172.7675
 20
825.7000000000001
 30
0.0
 11
173.0574999999999
 21
826.2
 31
0.0
  0
LINE
  5
279
330
1E
100
AcDbEntity
  8
0
100
AcDbLine
 10
172.7675
 20
824.6999999999999
 30
0.0
 11
173.0574999999999
 21
824.2
 31
0.0
  0
LINE
  5
27A
330
1E
100
AcDbEntity
  8
0
100
AcDbLine
 10
172.7675
 20
824.6999999999999
 30
0.0
 11
172.7675
 21
825.7000000000001
 31
0.0
  0
LINE
  5
27B
330
1E
100
AcDbEntity
  8
0
100
AcDbLine
 10
172.7675
 20
817.9
 30
0.0
 11
173.0574999999999
 21
817.3999999999999
 31
0.0
  0
LINE
  5
27C
330
1E
100
AcDbEntity
  8
0
100
AcDbLine
 10
172.7675
 20
817.9
 30
0.0
 11
172.7675
 21
818.9
 31
0.0
  0
LINE
  5
27D
330
1E
100
AcDbEntity
  8
0
100
AcDbLine
 10
172.7675
 20
811.1
 30
0.0
 11
173.0574999999999
 21
810.5999999999999
 31
0.0
  0
LINE
  5
27E
330
1E
100
AcDbEntity
  8
0
100
AcDbLine
 10
172.7675
 20
811.1
 30
0.0
 11
172.7675
 21
812.1
 31
0.0
  0
LINE
  5
27F
330
1E
100
AcDbEntity
  8
0
100
AcDbLine
 10
172.7675
 20
812.1
 30
0.0
 11
173.0574999999999
 21
812.6000000000001
 31
0.0
  0
LINE
  5
280
330
1E
100
AcDbEntity
  8
0
100
AcDbLine
 10
172.7675
 20
812.1
 30
0.0
 11
172.7675
 21
811.1
 31
0.0
  0
LINE
  5
281
330
1E
100
AcDbEntity
  8
0
100
AcDbLine
 10
172.7675
 20
805.2999999999999
 30
0.0
 11
173.0574999999999
 21
805.7999999999999
 31
0.0
  0
LINE
  5
282
330
1E
100
AcDbEntity
  8
0
100
AcDbLine
 10
172.7675
 20
805.2999999999999
 30
0.0
 11
172.7675
 21
804.2999999999999
 31
0.0
  0
LINE
  5
283
330
1E
100
AcDbEntity
  8
0
100
AcDbLine
 10
172.7675
 20
804.2999999999999
 30
0.0
 11
173.0574999999999
 21
803.8
 31
0.0
  0
LINE
  5
284
330
1E
100
AcDbEntity
  8
0
100
AcDbLine
 10
172.7675
 20
804.2999999999999
 30
0.0
 11
172.7675
 21
805.2999999999999
 31
0.0
  0
LINE
  5
285
330
1E
100
AcDbEntity
  8
0
100
AcDbLine
 10
172.7675
 20
798.5
 30
0.0
 11
173.0574999999999
 21
799.0
 31
0.0
  0
LINE
  5
286
330
1E
100
AcDbEntity
  8
0
100
AcDbLine
 10
172.7675
 20
798.5
 30
0.0
 11
172.7675
 21
797.5
 31
0.0
  0
LINE
  5
287
330
1E
100
AcDbEntity
  8
0
100
AcDbLine
 10
172.7675
 20
797.5
 30
0.0
 11
173.0574999999999
 21
797.0
 31
0.0
  0
LINE
  5
288
330
1E
100
AcDbEntity
  8
0
100
AcDbLine
 10
172.7675
 20
797.5
 30
0.0
 11
172.7675
 21
798.5
 31
0.0
  0
LINE
  5
289
330
1E
100
AcDbEntity
  8
0
100
AcDbLine
 10
172.7675
 20
790.7
 30
0.0
 11
173.0574999999999
 21
790.2000000000001
 31
0.0
  0
LINE
  5
28A
330
1E
100
AcDbEntity
  8
0
100
AcDbLine
 10
172.7675
 20
790.7
 30
0.0
 11
172.7675
 21
791.7
 31
0.0
  0
LINE
  5
28B
330
1E
100
AcDbEntity
  8
0
100
AcDbLine
 10
172.7675
 20
791.7
 30
0.0
 11
173.0574999999999
 21
792.2
 31
0.0
  0
LINE
  5
28C
330
1E
100
AcDbEntity
  8
0
100
AcDbLine
 10
172.7675
 20
791.7
 30
0.0
 11
172.7675
 21
790.7
 31
0.0
  0
LINE
  5
28D
330
1E
100
AcDbEntity
  8
0
100
AcDbLine
 10
172.7675
 20
784.9
 30
0.0
 11
173.0574999999999
 21
785.4
 31
0.0
  0
LINE
  5
28E
330
1E
100
AcDbEntity
  8
0
100
AcDbLine
 10
172.7675
 20
784.9
 30
0.0
 11
172.7675
 21
783.8999999999999
 31
0.0
  0
LINE
  5
28F
330
1E
100
AcDbEntity
  8
0
100
AcDbLine
 10
172.7675
 20
783.8999999999999
 30
0.0
 11
173.0574999999999
 21
783.3999999999999
 31
0.0
  0
LINE
  5
290
330
1E
100
AcDbEntity
  8
0
100
AcDbLine
 10
172.7675
 20
783.8999999999999
 30
0.0
 11
172.7675
 21
784.9
 31
0.0
  0
LINE
  5
291
330
1E
100
AcDbEntity
  8
0
100
AcDbLine
 10
172.7675
 20
777.1
 30
0.0
 11
173.0574999999999
 21
776.6
 31
0.0
  0
LINE
  5
292
330
1E
100
AcDbEntity
  8
0
100
AcDbLine
 10
172.7675
 20
777.1
 30
0.0
 11
172.7675
 21
778.1
 31
0.0
  0
LINE
  5
293
330
1E
100
AcDbEntity
  8
0
100
AcDbLine
 10
172.7675
 20
778.1
 30
0.0
 11
173.0574999999999
 21
778.6
 31
0.0
  0
LINE
  5
294
330
1E
100
AcDbEntity
  8
0
100
AcDbLine
 10
172.7675
 20
778.1
 30
0.0
 11
172.7675
 21
777.1
 31
0.0
  0
LINE
  5
295
330
1E
100
AcDbEntity
  8
0
100
AcDbLine
 10
172.7675
 20
770.2999999999999
 30
0.0
 11
173.0574999999999
 21
769.7999999999999
 31
0.0
  0
LINE
  5
296
330
1E
100
AcDbEntity
  8
0
100
AcDbLine
 10
172.7675
 20
770.2999999999999
 30
0.0
 11
172.7675
 21
771.3
 31
0.0
  0
LINE
  5
297
330
1E
100
AcDbEntity
  8
0
100
AcDbLine
 10
173.0574999999999
 20
769.7999999999999
 30
0.0
 11
173.6385
 21
769.7999999999999
 31
0.0
  0
LINE
  5
298
330
1E
100
AcDbEntity
  8
0
100
AcDbLine
 10
173.0574999999999
 20
769.7999999999999
 30
0.0
 11
173.6705
 21
769.7999999999999
 31
0.0
  0
LINE
  5
29A
330
1E
100
AcDbEntity
  8
0
100
AcDbLine
 10
173.9295
 20
771.3
 30
0.0
 11
173.9295
 21
770.2999999999999
 31
0.0
  0
LINE
  5
29B
330
1E
100
AcDbEntity
  8
0
100
AcDbLine
 10
173.9295
 20
770.2999999999999
 30
0.0
 11
173.9295
 21
771.3
 31
0.0
  0
LINE
  5
29D
330
1E
100
AcDbEntity
  8
0
100
AcDbLine
 10
173.6385
 20
769.7999999999999
 30
0.0
 11
173.9375
 21
769.7999999999999
 31
0.0
  0
LINE
  5
29E
330
1E
100
AcDbEntity
  8
0
100
AcDbLine
 10
173.6385
 20
769.7999999999999
 30
0.0
 11
173.9295
 21
770.2999999999999
 31
0.0
  0
LINE
  5
29F
330
1E
100
AcDbEntity
  8
0
100
AcDbLine
 10
173.0574999999999
 20
771.7999999999999
 30
0.0
 11
173.6385
 21
771.7999999999999
 31
0.0
  0
LINE
  5
2A0
330
1E
100
AcDbEntity
  8
0
100
AcDbLine
 10
173.6385
 20
776.6
 30
0.0
 11
173.9375
 21
776.6
 31
0.0
  0
LINE
  5
2A1
330
1E
100
AcDbEntity
  8
0
100
AcDbLine
 10
173.6385
 20
776.6
 30
0.0
 11
173.9295
 21
777.1
 31
0.0
  0
LINE
  5
2A2
330
1E
100
AcDbEntity
  8
0
100
AcDbLine
 10
173.0574999999999
 20
776.6
 30
0.0
 11
173.6385
 21
776.6
 31
0.0
  0
LINE
  5
2A3
330
1E
100
AcDbEntity
  8
0
100
AcDbLine
 10
173.0574999999999
 20
776.6
 30
0.0
 11
173.6705
 21
776.6
 31
0.0
  0
LINE
  5
2A4
330
1E
100
AcDbEntity
  8
0
100
AcDbLine
 10
173.0574999999999
 20
819.3999999999999
 30
0.0
 11
173.6385
 21
819.3999999999999
 31
0.0
  0
LINE
  5
2A5
330
1E
100
AcDbEntity
  8
0
100
AcDbLine
 10
173.0574999999999
 20
831.0
 30
0.0
 11
173.6385
 21
831.0
 31
0.0
  0
LINE
  5
2A6
330
1E
100
AcDbEntity
  8
0
100
AcDbLine
 10
173.0574999999999
 20
831.0
 30
0.0
 11
173.6705
 21
831.0
 31
0.0
  0
LINE
  5
2A7
330
1E
100
AcDbEntity
  8
0
100
AcDbLine
 10
173.0574999999999
 20
833.0
 30
0.0
 11
173.6385
 21
833.0
 31
0.0
  0
LINE
  5
2A8
330
1E
100
AcDbEntity
  8
0
100
AcDbLine
 10
173.0574999999999
 20
826.2
 30
0.0
 11
173.6385
 21
826.2
 31
0.0
  0
LINE
  5
2A9
330
1E
100
AcDbEntity
  8
0
100
AcDbLine
 10
173.0574999999999
 20
824.2
 30
0.0
 11
173.6385
 21
824.2
 31
0.0
  0
LINE
  5
2AA
330
1E
100
AcDbEntity
  8
0
100
AcDbLine
 10
173.0574999999999
 20
824.2
 30
0.0
 11
173.6705
 21
824.2
 31
0.0
  0
LINE
  5
2AB
330
1E
100
AcDbEntity
  8
0
100
AcDbLine
 10
173.0574999999999
 20
817.3999999999999
 30
0.0
 11
173.6385
 21
817.3999999999999
 31
0.0
  0
LINE
  5
2AC
330
1E
100
AcDbEntity
  8
0
100
AcDbLine
 10
173.0574999999999
 20
817.3999999999999
 30
0.0
 11
173.6705
 21
817.3999999999999
 31
0.0
  0
LINE
  5
2AD
330
1E
100
AcDbEntity
  8
0
100
AcDbLine
 10
173.0574999999999
 20
810.5999999999999
 30
0.0
 11
173.6385
 21
810.5999999999999
 31
0.0
  0
LINE
  5
2AE
330
1E
100
AcDbEntity
  8
0
100
AcDbLine
 10
173.0574999999999
 20
810.5999999999999
 30
0.0
 11
173.641669381108
 21
810.5999999999999
 31
0.0
  0
LINE
  5
2AF
330
1E
100
AcDbEntity
  8
0
100
AcDbLine
 10
173.0574999999999
 20
812.6000000000001
 30
0.0
 11
173.6385
 21
812.6000000000001
 31
0.0
  0
LINE
  5
2B0
330
1E
100
AcDbEntity
  8
0
100
AcDbLine
 10
173.0574999999999
 20
805.7999999999999
 30
0.0
 11
173.6385
 21
805.7999999999999
 31
0.0
  0
LINE
  5
2B1
330
1E
100
AcDbEntity
  8
0
100
AcDbLine
 10
173.0574999999999
 20
803.8
 30
0.0
 11
173.6385
 21
803.8
 31
0.0
  0
LINE
  5
2B2
330
1E
100
AcDbEntity
  8
0
100
AcDbLine
 10
173.0574999999999
 20
803.8
 30
0.0
 11
173.5575
 21
803.8
 31
0.0
  0
LINE
  5
2B3
330
1E
100
AcDbEntity
  8
0
100
AcDbLine
 10
173.0574999999999
 20
799.0
 30
0.0
 11
173.6385
 21
799.0
 31
0.0
  0
LINE
  5
2B4
330
1E
100
AcDbEntity
  8
0
100
AcDbLine
 10
173.0574999999999
 20
797.0
 30
0.0
 11
173.6385
 21
797.0
 31
0.0
  0
LINE
  5
2B5
330
1E
100
AcDbEntity
  8
0
100
AcDbLine
 10
173.0574999999999
 20
797.0
 30
0.0
 11
173.473330618893
 21
797.0
 31
0.0
  0
LINE
  5
2B6
330
1E
100
AcDbEntity
  8
0
100
AcDbLine
 10
173.0574999999999
 20
790.2000000000001
 30
0.0
 11
173.6385
 21
790.2000000000001
 31
0.0
  0
LINE
  5
2B7
330
1E
100
AcDbEntity
  8
0
100
AcDbLine
 10
173.0574999999999
 20
790.2000000000001
 30
0.0
 11
173.389161237785
 21
790.2000000000001
 31
0.0
  0
LINE
  5
2B8
330
1E
100
AcDbEntity
  8
0
100
AcDbLine
 10
173.0574999999999
 20
792.2
 30
0.0
 11
173.6385
 21
792.2
 31
0.0
  0
LINE
  5
2B9
330
1E
100
AcDbEntity
  8
0
100
AcDbLine
 10
173.0574999999999
 20
785.4
 30
0.0
 11
173.6385
 21
785.4
 31
0.0
  0
LINE
  5
2BA
330
1E
100
AcDbEntity
  8
0
100
AcDbLine
 10
173.6385
 20
790.2000000000001
 30
0.0
 11
173.9375
 21
790.2000000000001
 31
0.0
  0
LINE
  5
2BB
330
1E
100
AcDbEntity
  8
0
100
AcDbLine
 10
173.6385
 20
790.2000000000001
 30
0.0
 11
173.9295
 21
790.7
 31
0.0
  0
LINE
  5
2BC
330
1E
100
AcDbEntity
  8
0
100
AcDbLine
 10
173.6385
 20
819.3999999999999
 30
0.0
 11
173.9295
 21
818.9
 31
0.0
  0
LINE
  5
2BD
330
1E
100
AcDbEntity
  8
0
100
AcDbLine
 10
173.6385
 20
819.3999999999999
 30
0.0
 11
173.9375
 21
819.3999999999999
 31
0.0
  0
LINE
  5
2BE
330
1E
100
AcDbEntity
  8
0
100
AcDbLine
 10
173.6385
 20
831.0
 30
0.0
 11
173.9295
 21
831.4999999999999
 31
0.0
  0
LINE
  5
2BF
330
1E
100
AcDbEntity
  8
0
100
AcDbLine
 10
173.6385
 20
831.0
 30
0.0
 11
173.9375
 21
831.0
 31
0.0
  0
LINE
  5
2C0
330
1E
100
AcDbEntity
  8
0
100
AcDbLine
 10
173.6385
 20
833.0
 30
0.0
 11
173.9295
 21
832.4999999999999
 31
0.0
  0
LINE
  5
2C1
330
1E
100
AcDbEntity
  8
0
100
AcDbLine
 10
173.6385
 20
833.0
 30
0.0
 11
173.9375
 21
833.0
 31
0.0
  0
LINE
  5
2C2
330
1E
100
AcDbEntity
  8
0
100
AcDbLine
 10
173.6385
 20
826.2
 30
0.0
 11
173.9375
 21
826.2
 31
0.0
  0
LINE
  5
2C3
330
1E
100
AcDbEntity
  8
0
100
AcDbLine
 10
173.6385
 20
826.2
 30
0.0
 11
173.9295
 21
825.7000000000001
 31
0.0
  0
LINE
  5
2C4
330
1E
100
AcDbEntity
  8
0
100
AcDbLine
 10
173.6385
 20
824.2
 30
0.0
 11
173.9295
 21
824.6999999999999
 31
0.0
  0
LINE
  5
2C5
330
1E
100
AcDbEntity
  8
0
100
AcDbLine
 10
173.6385
 20
824.2
 30
0.0
 11
173.9375
 21
824.2
 31
0.0
  0
LINE
  5
2C6
330
1E
100
AcDbEntity
  8
0
100
AcDbLine
 10
173.6385
 20
817.3999999999999
 30
0.0
 11
173.9295
 21
817.9
 31
0.0
  0
LINE
  5
2C7
330
1E
100
AcDbEntity
  8
0
100
AcDbLine
 10
173.6385
 20
817.3999999999999
 30
0.0
 11
173.9375
 21
817.3999999999999
 31
0.0
  0
LINE
  5
2C8
330
1E
100
AcDbEntity
  8
0
100
AcDbLine
 10
173.6385
 20
810.5999999999999
 30
0.0
 11
173.9375
 21
810.5999999999999
 31
0.0
  0
LINE
  5
2C9
330
1E
100
AcDbEntity
  8
0
100
AcDbLine
 10
173.6385
 20
810.5999999999999
 30
0.0
 11
173.9295
 21
811.1
 31
0.0
  0
LINE
  5
2CA
330
1E
100
AcDbEntity
  8
0
100
AcDbLine
 10
173.6385
 20
812.6000000000001
 30
0.0
 11
173.9375
 21
812.6000000000001
 31
0.0
  0
LINE
  5
2CB
330
1E
100
AcDbEntity
  8
0
100
AcDbLine
 10
173.6385
 20
812.6000000000001
 30
0.0
 11
173.9295
 21
812.1
 31
0.0
  0
LINE
  5
2CC
330
1E
100
AcDbEntity
  8
0
100
AcDbLine
 10
173.6385
 20
805.7999999999999
 30
0.0
 11
173.9295
 21
805.2999999999999
 31
0.0
  0
LINE
  5
2CD
330
1E
100
AcDbEntity
  8
0
100
AcDbLine
 10
173.6385
 20
805.7999999999999
 30
0.0
 11
173.9375
 21
805.7999999999999
 31
0.0
  0
LINE
  5
2CE
330
1E
100
AcDbEntity
  8
0
100
AcDbLine
 10
173.6385
 20
803.8
 30
0.0
 11
173.9295
 21
804.2999999999999
 31
0.0
  0
LINE
  5
2CF
330
1E
100
AcDbEntity
  8
0
100
AcDbLine
 10
173.6385
 20
803.8
 30
0.0
 11
173.9375
 21
803.8
 31
0.0
  0
LINE
  5
2D0
330
1E
100
AcDbEntity
  8
0
100
AcDbLine
 10
173.6385
 20
799.0
 30
0.0
 11
173.9295
 21
798.5
 31
0.0
  0
LINE
  5
2D1
330
1E
100
AcDbEntity
  8
0
100
AcDbLine
 10
173.6385
 20
799.0
 30
0.0
 11
173.9375
 21
799.0
 31
0.0
  0
LINE
  5
2D2
330
1E
100
AcDbEntity
  8
0
100
AcDbLine
 10
173.6385
 20
797.0
 30
0.0
 11
173.9295
 21
797.5
 31
0.0
  0
LINE
  5
2D3
330
1E
100
AcDbEntity
  8
0
100
AcDbLine
 10
173.6385
 20
797.0
 30
0.0
 11
173.9375
 21
797.0
 31
0.0
  0
LINE
  5
2D4
330
1E
100
AcDbEntity
  8
0
100
AcDbLine
 10
173.6385
 20
792.2
 30
0.0
 11
173.9375
 21
792.2
 31
0.0
  0
LINE
  5
2D5
330
1E
100
AcDbEntity
  8
0
100
AcDbLine
 10
173.6385
 20
792.2
 30
0.0
 11
173.9295
 21
791.7
 31
0.0
  0
LINE
  5
2D6
330
1E
100
AcDbEntity
  8
0
100
AcDbLine
 10
173.6385
 20
785.4
 30
0.0
 11
173.9295
 21
784.9
 31
0.0
  0
LINE
  5
2D7
330
1E
100
AcDbEntity
  8
0
100
AcDbLine
 10
173.6385
 20
785.4
 30
0.0
 11
173.9375
 21
785.4
 31
0.0
  0
LINE
  5
2D8
330
1E
100
AcDbEntity
  8
0
100
AcDbLine
 10
173.6385
 20
783.3999999999999
 30
0.0
 11
173.9295
 21
783.8999999999999
 31
0.0
  0
LINE
  5
2D9
330
1E
100
AcDbEntity
  8
0
100
AcDbLine
 10
173.6385
 20
783.3999999999999
 30
0.0
 11
173.9375
 21
783.3999999999999
 31
0.0
  0
LINE
  5
2DA
330
1E
100
AcDbEntity
  8
0
100
AcDbLine
 10
173.0574999999999
 20
783.3999999999999
 30
0.0
 11
173.6385
 21
783.3999999999999
 31
0.0
  0
LINE
  5
2DB
330
1E
100
AcDbEntity
  8
0
100
AcDbLine
 10
173.0574999999999
 20
783.3999999999999
 30
0.0
 11
173.304991856678
 21
783.3999999999999
 31
0.0
  0
LINE
  5
2DC
330
1E
100
AcDbEntity
  8
0
100
AcDbLine
 10
173.0574999999999
 20
778.6
 30
0.0
 11
173.6385
 21
778.6
 31
0.0
  0
LINE
  5
2DD
330
1E
100
AcDbEntity
  8
0
100
AcDbLine
 10
173.9295
 20
783.8999999999999
 30
0.0
 11
173.9295
 21
784.9
 31
0.0
  0
LINE
  5
2DF
330
1E
100
AcDbEntity
  8
0
100
AcDbLine
 10
173.9295
 20
818.9
 30
0.0
 11
173.9295
 21
817.9
 31
0.0
  0
LINE
  5
2E1
330
1E
100
AcDbEntity
  8
0
100
AcDbLine
 10
173.9295
 20
825.7000000000001
 30
0.0
 11
173.9295
 21
824.6999999999999
 31
0.0
  0
LINE
  5
2E4
330
1E
100
AcDbEntity
  8
0
100
AcDbLine
 10
173.9295
 20
824.6999999999999
 30
0.0
 11
173.9295
 21
825.7000000000001
 31
0.0
  0
LINE
  5
2E6
330
1E
100
AcDbEntity
  8
0
100
AcDbLine
 10
173.9295
 20
817.9
 30
0.0
 11
173.9295
 21
818.9
 31
0.0
  0
LINE
  5
2E7
330
1E
100
AcDbEntity
  8
0
100
AcDbLine
 10
173.9295
 20
832.4999999999999
 30
0.0
 11
173.9295
 21
831.4999999999999
 31
0.0
  0
LINE
  5
2EA
330
1E
100
AcDbEntity
  8
0
100
AcDbLine
 10
173.9295
 20
831.4999999999999
 30
0.0
 11
173.9295
 21
832.4999999999999
 31
0.0
  0
LINE
  5
2EC
330
1E
100
AcDbEntity
  8
0
100
AcDbLine
 10
173.9295
 20
812.1
 30
0.0
 11
173.9295
 21
811.1
 31
0.0
  0
LINE
  5
2ED
330
1E
100
AcDbEntity
  8
0
100
AcDbLine
 10
173.9295
 20
811.1
 30
0.0
 11
173.9295
 21
812.1
 31
0.0
  0
LINE
  5
2EF
330
1E
100
AcDbEntity
  8
0
100
AcDbLine
 10
173.9295
 20
804.2999999999999
 30
0.0
 11
173.9295
 21
805.2999999999999
 31
0.0
  0
LINE
  5
2F1
330
1E
100
AcDbEntity
  8
0
100
AcDbLine
 10
173.9295
 20
805.2999999999999
 30
0.0
 11
173.9295
 21
804.2999999999999
 31
0.0
  0
LINE
  5
2F3
330
1E
100
AcDbEntity
  8
0
100
AcDbLine
 10
173.9295
 20
797.5
 30
0.0
 11
173.9295
 21
798.5
 31
0.0
  0
LINE
  5
2F5
330
1E
100
AcDbEntity
  8
0
100
AcDbLine
 10
173.9295
 20
798.5
 30
0.0
 11
173.9295
 21
797.5
 31
0.0
  0
LINE
  5
2F8
330
1E
100
AcDbEntity
  8
0
100
AcDbLine
 10
173.9295
 20
791.7
 30
0.0
 11
173.9295
 21
790.7
 31
0.0
  0
LINE
  5
2F9
330
1E
100
AcDbEntity
  8
0
100
AcDbLine
 10
173.9295
 20
790.7
 30
0.0
 11
173.9295
 21
791.7
 31
0.0
  0
LINE
  5
2FB
330
1E
100
AcDbEntity
  8
0
100
AcDbLine
 10
173.9295
 20
784.9
 30
0.0
 11
173.9295
 21
783.8999999999999
 31
0.0
  0
LINE
  5
2FE
330
1E
100
AcDbEntity
  8
0
100
AcDbLine
 10
173.9295
 20
778.1
 30
0.0
 11
173.9295
 21
777.1
 31
0.0
  0
LINE
  5
2FF
330
1E
100
AcDbEntity
  8
0
100
AcDbLine
 10
173.9295
 20
777.1
 30
0.0
 11
173.9295
 21
778.1
 31
0.0
  0
LINE
  5
301
330
1E
100
AcDbEntity
  8
0
100
AcDbLine
 10
173.6385
 20
778.6
 30
0.0
 11
173.9375
 21
778.6
 31
0.0
  0
LINE
  5
302
330
1E
100
AcDbEntity
  8
0
100
AcDbLine
 10
173.6385
 20
778.6
 30
0.0
 11
173.9295
 21
778.1
 31
0.0
  0
LINE
  5
303
330
1E
100
AcDbEntity
  8
0
100
AcDbLine
 10
173.6385
 20
771.7999999999999
 30
0.0
 11
173.9375
 21
771.7999999999999
 31
0.0
  0
LINE
  5
304
330
1E
100
AcDbEntity
  8
0
100
AcDbLine
 10
173.6385
 20
771.7999999999999
 30
0.0
 11
173.9295
 21
771.3
 31
0.0
  0
LINE
  5
305
330
1E
100
AcDbEntity
  8
0
100
AcDbLine
 10
172.7675
 20
771.3
 30
0.0
 11
173.0574999999999
 21
771.7999999999999
 31
0.0
  0
LINE
  5
306
330
1E
100
AcDbEntity
  8
0
100
AcDbLine
 10
172.7675
 20
771.3
 30
0.0
 11
172.7675
 21
770.2999999999999
 31
0.0
  0
LINE
  5
307
330
1E
100
AcDbEntity
  8
0
100
AcDbLine
 10
173.6385
 20
765.0
 30
0.0
 11
173.9295
 21
764.5
 31
0.0
  0
LINE
  5
308
330
1E
100
AcDbEntity
  8
0
100
AcDbLine
 10
173.6385
 20
765.0
 30
0.0
 11
173.9375
 21
765.0
 31
0.0
  0
LINE
  5
309
330
1E
100
AcDbEntity
  8
0
100
AcDbLine
 10
173.9295
 20
764.5
 30
0.0
 11
173.9295
 21
763.4999999999999
 31
0.0
  0
LINE
  5
30A
330
1E
100
AcDbEntity
  8
0
100
AcDbLine
 10
173.9295
 20
764.5
 30
0.0
 11
174.5425
 21
764.5
 31
0.0
  0
LINE
  5
30B
330
1E
100
AcDbEntity
  8
0
100
AcDbLine
 10
172.7675
 20
763.4999999999999
 30
0.0
 11
173.0574999999999
 21
763.0
 31
0.0
  0
LINE
  5
30C
330
1E
100
AcDbEntity
  8
0
100
AcDbLine
 10
172.7675
 20
763.4999999999999
 30
0.0
 11
172.7675
 21
764.5
 31
0.0
  0
LINE
  5
30D
330
1E
100
AcDbEntity
  8
0
100
AcDbLine
 10
173.9375
 20
834.5
 30
0.0
 11
176.4375
 21
834.5
 31
0.0
  0
LINE
  5
30E
330
1E
100
AcDbEntity
  8
0
100
AcDbLine
 10
174.6375
 20
835.0
 30
0.0
 11
176.9375
 21
835.0
 31
0.0
  0
LINE
  5
30F
330
1E
100
AcDbEntity
  8
0
100
AcDbLine
 10
176.9375
 20
835.0
 30
0.0
 11
179.6374999999999
 21
835.0
 31
0.0
  0
LINE
  5
310
330
1E
100
AcDbEntity
  8
0
100
AcDbLine
 10
176.4375
 20
834.5
 30
0.0
 11
179.3375
 21
834.5
 31
0.0
  0
LINE
  5
311
330
1E
100
AcDbEntity
  8
0
100
AcDbLine
 10
182.4375
 20
835.0
 30
0.0
 11
185.2375
 21
835.0
 31
0.0
  0
LINE
  5
312
330
1E
100
AcDbEntity
  8
0
100
AcDbLine
 10
190.9375
 20
834.5
 30
0.0
 11
192.8375
 21
834.5
 31
0.0
  0
LINE
  5
313
330
1E
100
AcDbEntity
  8
0
100
AcDbLine
 10
188.4375
 20
834.5
 30
0.0
 11
190.9375
 21
834.5
 31
0.0
  0
LINE
  5
314
330
1E
100
AcDbEntity
  8
0
100
AcDbLine
 10
190.2375
 20
835.0
 30
0.0
 11
191.9375
 21
835.0
 31
0.0
  0
LINE
  5
315
330
1E
100
AcDbEntity
  8
0
100
AcDbLine
 10
187.9374999999999
 20
835.0
 30
0.0
 11
190.2375
 21
835.0
 31
0.0
  0
LINE
  5
316
330
1E
100
AcDbEntity
  8
0
100
AcDbLine
 10
185.2375
 20
835.0
 30
0.0
 11
187.9374999999999
 21
835.0
 31
0.0
  0
LINE
  5
317
330
1E
100
AcDbEntity
  8
0
100
AcDbLine
 10
185.5375
 20
834.5
 30
0.0
 11
188.4375
 21
834.5
 31
0.0
  0
LINE
  5
318
330
1E
100
AcDbEntity
  8
0
100
AcDbLine
 10
182.4375
 20
834.5
 30
0.0
 11
185.5375
 21
834.5
 31
0.0
  0
LINE
  5
319
330
1E
100
AcDbEntity
  8
0
100
AcDbLine
 10
179.6374999999999
 20
835.0
 30
0.0
 11
182.4375
 21
835.0
 31
0.0
  0
LINE
  5
31A
330
1E
100
AcDbEntity
  8
0
100
AcDbLine
 10
179.3375
 20
834.5
 30
0.0
 11
182.4375
 21
834.5
 31
0.0
  0
LINE
  5
31B
330
1E
100
AcDbEntity
  8
0
100
AcDbLine
 10
173.9375
 20
835.5
 30
0.0
 11
176.4375
 21
835.5
 31
0.0
  0
LINE
  5
31C
330
1E
100
AcDbEntity
  8
0
100
AcDbLine
 10
190.9375
 20
835.5
 30
0.0
 11
192.8375
 21
835.5
 31
0.0
  0
LINE
  5
31D
330
1E
100
AcDbEntity
  8
0
100
AcDbLine
 10
188.4375
 20
835.5
 30
0.0
 11
190.9375
 21
835.5
 31
0.0
  0
LINE
  5
31E
330
1E
100
AcDbEntity
  8
0
100
AcDbLine
 10
185.5375
 20
835.5
 30
0.0
 11
188.4375
 21
835.5
 31
0.0
  0
LINE
  5
31F
330
1E
100
AcDbEntity
  8
0
100
AcDbLine
 10
182.4375
 20
835.5
 30
0.0
 11
185.5375
 21
835.5
 31
0.0
  0
LINE
  5
320
330
1E
100
AcDbEntity
  8
0
100
AcDbLine
 10
176.4375
 20
835.5
 30
0.0
 11
179.3375
 21
835.5
 31
0.0
  0
LINE
  5
321
330
1E
100
AcDbEntity
  8
0
100
AcDbLine
 10
173.9375
 20
854.4999999999999
 30
0.0
 11
176.4375
 21
854.4999999999999
 31
0.0
  0
LINE
  5
322
330
1E
100
AcDbEntity
  8
0
100
AcDbLine
 10
174.3375
 20
855.0
 30
0.0
 11
176.7375
 21
855.0
 31
0.0
  0
LINE
  5
323
330
1E
100
AcDbEntity
  8
0
100
AcDbLine
 10
176.7375
 20
855.0
 30
0.0
 11
179.4375
 21
855.0
 31
0.0
  0
LINE
  5
324
330
1E
100
AcDbEntity
  8
0
100
AcDbLine
 10
176.4375
 20
854.4999999999999
 30
0.0
 11
179.3375
 21
854.4999999999999
 31
0.0
  0
LINE
  5
325
330
1E
100
AcDbEntity
  8
0
100
AcDbLine
 10
182.4375
 20
855.0
 30
0.0
 11
185.4375
 21
855.0
 31
0.0
  0
LINE
  5
326
330
1E
100
AcDbEntity
  8
0
100
AcDbLine
 10
190.9375
 20
854.4999999999999
 30
0.0
 11
192.8375
 21
854.4999999999999
 31
0.0
  0
LINE
  5
327
330
1E
100
AcDbEntity
  8
0
100
AcDbLine
 10
188.4375
 20
854.4999999999999
 30
0.0
 11
190.9375
 21
854.4999999999999
 31
0.0
  0
LINE
  5
328
330
1E
100
AcDbEntity
  8
0
100
AcDbLine
 10
190.5375
 20
855.0
 30
0.0
 11
192.4374999999999
 21
855.0
 31
0.0
  0
LINE
  5
329
330
1E
100
AcDbEntity
  8
0
100
AcDbLine
 10
188.1375
 20
855.0
 30
0.0
 11
190.5375
 21
855.0
 31
0.0
  0
LINE
  5
32A
330
1E
100
AcDbEntity
  8
0
100
AcDbLine
 10
185.4375
 20
855.0
 30
0.0
 11
188.1375
 21
855.0
 31
0.0
  0
LINE
  5
32B
330
1E
100
AcDbEntity
  8
0
100
AcDbLine
 10
185.5375
 20
854.4999999999999
 30
0.0
 11
188.4375
 21
854.4999999999999
 31
0.0
  0
LINE
  5
32C
330
1E
100
AcDbEntity
  8
0
100
AcDbLine
 10
182.4375
 20
854.4999999999999
 30
0.0
 11
185.5375
 21
854.4999999999999
 31
0.0
  0
LINE
  5
32D
330
1E
100
AcDbEntity
  8
0
100
AcDbLine
 10
179.4375
 20
855.0
 30
0.0
 11
182.4375
 21
855.0
 31
0.0
  0
LINE
  5
32E
330
1E
100
AcDbEntity
  8
0
100
AcDbLine
 10
179.3375
 20
854.4999999999999
 30
0.0
 11
182.4375
 21
854.4999999999999
 31
0.0
  0
LINE
  5
32F
330
1E
100
AcDbEntity
  8
0
100
AcDbLine
 10
179.3375
 20
835.5
 30
0.0
 11
182.4375
 21
835.5
 31
0.0
  0
LINE
  5
330
330
1E
100
AcDbEntity
  8
0
100
AcDbLine
 10
172.4375
 20
855.0
 30
0.0
 11
174.3375
 21
855.0
 31
0.0
  0
LINE
  5
331
330
1E
100
AcDbEntity
  8
0
100
AcDbLine
 10
172.9375
 20
835.0
 30
0.0
 11
174.6375
 21
835.0
 31
0.0
  0
LINE
  5
332
330
1E
100
AcDbEntity
  8
0
100
AcDbLine
 10
172.0374999999999
 20
834.5
 30
0.0
 11
173.9375
 21
834.5
 31
0.0
  0
LINE
  5
333
330
1E
100
AcDbEntity
  8
0
100
AcDbLine
 10
171.4434999999999
 20
649.985
 30
0.0
 11
191.3784999999849
 21
649.9690519999999
 31
0.0
  0
LINE
  5
334
330
1E
100
AcDbEntity
  8
0
100
AcDbLine
 10
171.1694999999999
 20
10.0001
 30
0.0
 11
191.2835
 21
9.999999999999991
 31
0.0
  0
LINE
  5
335
330
1E
100
AcDbEntity
  8
0
100
AcDbLine
 10
171.1694999999999
 20
0.0001019999999895
 30
0.0
 11
191.2835
 21
0.0000479999999883
 31
0.0
  0
LINE
  5
336
330
1E
100
AcDbEntity
  8
0
100
AcDbLine
 10
191.4435
 20
649.9690000000001
 30
0.0
 11
191.9435
 21
650.469
 31
0.0
  0
LINE
  5
337
330
1E
100
AcDbEntity
  8
0
100
AcDbLine
 10
192.4404999999999
 20
129.0
 30
0.0
 11
222.4415
 21
164.0
 31
0.0
  0
LINE
  5
338
330
1E
100
AcDbEntity
  8
0
100
AcDbLine
 10
198.6415
 20
121.156
 30
0.0
 11
231.7464999999999
 21
160.341
 31
0.0
  0
LINE
  5
339
330
1E
100
AcDbEntity
  8
0
100
AcDbLine
 10
191.4455
 20
649.9690000000001
 30
0.0
 11
191.484578
 21
650.008
 31
0.0
  0
LINE
  5
33A
330
1E
100
AcDbEntity
  8
0
100
AcDbLine
 10
191.4455
 20
649.9690000000001
 30
0.0
 11
191.4844999999999
 21
650.008
 31
0.0
  0
LINE
  5
33B
330
1E
100
AcDbEntity
  8
0
100
AcDbLine
 10
192.9395
 20
650.008
 30
0.0
 11
193.9395
 21
680.008
 31
0.0
  0
LINE
  5
33C
330
1E
100
AcDbEntity
  8
0
100
AcDbLine
 10
192.5395
 20
650.008
 30
0.0
 11
192.9395
 21
650.008
 31
0.0
  0
LINE
  5
33D
330
1E
100
AcDbEntity
  8
0
100
AcDbLine
 10
191.5395
 20
650.008
 30
0.0
 11
192.5395
 21
650.008
 31
0.0
  0
LINE
  5
33E
330
1E
100
AcDbEntity
  8
0
100
AcDbLine
 10
191.4825
 20
650.008
 30
0.0
 11
191.5395
 21
650.008
 31
0.0
  0
LINE
  5
33F
330
1E
100
AcDbEntity
  8
0
100
AcDbLine
 10
192.4435
 20
650.9680000000001
 30
0.0
 11
192.4745
 21
688.9680000000001
 31
0.0
  0
LINE
  5
340
330
1E
100
AcDbEntity
  8
0
100
AcDbLine
 10
192.4435
 20
650.9680000000001
 30
0.0
 11
192.4735
 21
688.9680000000001
 31
0.0
  0
LINE
  5
341
330
1E
100
AcDbEntity
  8
0
100
AcDbLine
 10
191.9435
 20
650.469
 30
0.0
 11
192.4435
 21
650.9680000000001
 31
0.0
  0
LINE
  5
342
330
1E
100
AcDbEntity
  8
0
100
AcDbLine
 10
191.4424999999999
 20
649.9690000000001
 30
0.0
 11
191.9435
 21
650.469
 31
0.0
  0
LINE
  5
343
330
1E
100
AcDbEntity
  8
0
100
AcDbLine
 10
191.4735
 20
688.9689999999999
 30
0.0
 11
191.9744999999999
 21
689.4689999999999
 31
0.0
  0
LINE
  5
344
330
1E
100
AcDbEntity
  8
0
100
AcDbLine
 10
191.9375
 20
835.0
 30
0.0
 11
193.0374999999999
 21
835.0
 31
0.0
  0
LINE
  5
345
330
1E
100
AcDbEntity
  8
0
100
AcDbLine
 10
191.4745
 20
689.9689999999999
 30
0.0
 11
191.9744999999999
 21
689.4689999999999
 31
0.0
  0
LINE
  5
346
330
1E
100
AcDbEntity
  8
0
100
AcDbLine
 10
193.5394999999999
 20
680.008
 30
0.0
 11
193.9395
 21
680.008
 31
0.0
  0
LINE
  5
347
330
1E
100
AcDbEntity
  8
0
100
AcDbLine
 10
192.467190526316
 20
680.008
 30
0.0
 11
193.5394999999999
 21
680.008
 31
0.0
  0
LINE
  5
348
330
1E
100
AcDbEntity
  8
0
100
AcDbLine
 10
192.467999789474
 20
681.0
 30
0.0
 11
192.8375
 21
681.0
 31
0.0
  0
LINE
  5
349
330
1E
100
AcDbEntity
  8
0
100
AcDbLine
 10
192.8375
 20
681.0
 30
0.0
 11
194.0374999999999
 21
681.0
 31
0.0
  0
LINE
  5
34A
330
1E
100
AcDbEntity
  8
0
100
AcDbLine
 10
193.4454999999999
 20
680.008
 30
0.0
 11
194.4374999999999
 21
681.0
 31
0.0
  0
LINE
  5
34B
330
1E
100
AcDbEntity
  8
0
100
AcDbLine
 10
194.4374999999999
 20
681.0
 30
0.0
 11
194.4374999999999
 21
834.5
 31
0.0
  0
LINE
  5
34C
330
1E
100
AcDbEntity
  8
0
100
AcDbLine
 10
194.0374999999999
 20
681.0
 30
0.0
 11
194.4374999999999
 21
681.0
 31
0.0
  0
LINE
  5
34D
330
1E
100
AcDbEntity
  8
0
100
AcDbLine
 10
192.4374999999999
 20
855.0
 30
0.0
 11
193.5375
 21
855.0
 31
0.0
  0
LINE
  5
34E
330
1E
100
AcDbEntity
  8
0
100
AcDbLine
 10
192.8375
 20
854.4999999999999
 30
0.0
 11
194.0374999999999
 21
854.4999999999999
 31
0.0
  0
LINE
  5
34F
330
1E
100
AcDbEntity
  8
0
100
AcDbLine
 10
192.8375
 20
835.5
 30
0.0
 11
194.0374999999999
 21
835.5
 31
0.0
  0
LINE
  5
350
330
1E
100
AcDbEntity
  8
0
100
AcDbLine
 10
193.9375
 20
855.0
 30
0.0
 11
194.4374999999999
 21
854.4999999999999
 31
0.0
  0
LINE
  5
351
330
1E
100
AcDbEntity
  8
0
100
AcDbLine
 10
193.5375
 20
855.0
 30
0.0
 11
193.9375
 21
855.0
 31
0.0
  0
LINE
  5
352
330
1E
100
AcDbEntity
  8
0
100
AcDbLine
 10
194.0374999999999
 20
854.4999999999999
 30
0.0
 11
194.4374999999999
 21
854.4999999999999
 31
0.0
  0
LINE
  5
353
330
1E
100
AcDbEntity
  8
0
100
AcDbLine
 10
194.0374999999999
 20
835.5
 30
0.0
 11
194.4374999999999
 21
835.5
 31
0.0
  0
LINE
  5
354
330
1E
100
AcDbEntity
  8
0
100
AcDbLine
 10
193.4375
 20
835.0
 30
0.0
 11
194.4374999999999
 21
834.5
 31
0.0
  0
LINE
  5
355
330
1E
100
AcDbEntity
  8
0
100
AcDbLine
 10
193.4375
 20
835.0
 30
0.0
 11
194.4374999999999
 21
835.5
 31
0.0
  0
LINE
  5
356
330
1E
100
AcDbEntity
  8
0
100
AcDbLine
 10
193.0374999999999
 20
835.0
 30
0.0
 11
193.4375
 21
835.0
 31
0.0
  0
LINE
  5
357
330
1E
100
AcDbEntity
  8
0
100
AcDbLine
 10
192.8375
 20
834.5
 30
0.0
 11
194.0374999999999
 21
834.5
 31
0.0
  0
LINE
  5
358
330
1E
100
AcDbEntity
  8
0
100
AcDbLine
 10
194.4374999999999
 20
854.4999999999999
 30
0.0
 11
194.4374999999999
 21
835.5
 31
0.0
  0
LINE
  5
359
330
1E
100
AcDbEntity
  8
0
100
AcDbLine
 10
194.4374999999999
 20
835.5
 30
0.0
 11
194.4374999999999
 21
854.4999999999999
 31
0.0
  0
LINE
  5
35A
330
1E
100
AcDbEntity
  8
0
100
AcDbLine
 10
194.0374999999999
 20
834.5
 30
0.0
 11
194.4374999999999
 21
834.5
 31
0.0
  0
LINE
  5
35B
330
1E
100
AcDbEntity
  8
0
100
AcDbLine
 10
191.9744999999999
 20
689.4689999999999
 30
0.0
 11
192.4745
 21
688.9680000000001
 31
0.0
  0
LINE
  5
35C
330
1E
100
AcDbEntity
  8
0
100
AcDbLine
 10
191.9744999999999
 20
689.4689999999999
 30
0.0
 11
192.4735
 21
688.9680000000001
 31
0.0
  0
LINE
  5
35D
330
1E
100
AcDbEntity
  8
0
100
AcDbLine
 10
191.4435
 20
650.969
 30
0.0
 11
191.4735
 21
688.9689999999999
 31
0.0
  0
LINE
  5
35E
330
1E
100
AcDbEntity
  8
0
100
AcDbLine
 10
191.4435
 20
650.969
 30
0.0
 11
191.9435
 21
650.469
 31
0.0
  0
LINE
  5
35F
330
1E
100
AcDbEntity
  8
0
100
AcDbLine
 10
191.2835
 20
9.999999999999991
 30
0.0
 11
204.7235
 21
9.999999999999991
 31
0.0
  0
LINE
  5
360
330
1E
100
AcDbEntity
  8
0
100
AcDbLine
 10
191.2835
 20
0.0000479999999883
 30
0.0
 11
204.7235
 21
0.0000129999999875
 31
0.0
  0
LINE
  5
361
330
1E
100
AcDbEntity
  8
0
100
AcDbLine
 10
191.2835
 20
0.0000479999999883
 30
0.0
 11
204.7235
 21
0.0000129999999875
 31
0.0
  0
LINE
  5
362
330
1E
100
AcDbEntity
  8
0
100
AcDbLine
 10
209.4425
 20
9.999999999999991
 30
0.0
 11
209.4425
 21
-0.0000000000000133
 31
0.0
  0
LINE
  5
363
330
1E
100
AcDbEntity
  8
0
100
AcDbLine
 10
204.7235
 20
9.999999999999991
 30
0.0
 11
209.4425
 21
9.999999999999991
 31
0.0
  0
LINE
  5
364
330
1E
100
AcDbEntity
  8
0
100
AcDbLine
 10
204.7235
 20
0.0000129999999875
 30
0.0
 11
209.4425
 21
-0.0000000000000128
 31
0.0
  0
LINE
  5
365
330
1E
100
AcDbEntity
  8
0
100
AcDbLine
 10
204.7235
 20
0.0000129999999875
 30
0.0
 11
209.4425
 21
-0.0000000000000128
 31
0.0
  0
LINE
  5
366
330
1E
100
AcDbEntity
  8
0
100
AcDbLine
 10
222.4415
 20
164.0
 30
0.0
 11
245.4415
 21
264.0
 31
0.0
  0
LINE
  5
367
330
1E
100
AcDbEntity
  8
0
100
AcDbLine
 10
231.7464999999999
 20
160.341
 30
0.0
 11
255.2505
 21
262.332
 31
0.0
  0
LINE
  5
368
330
1E
100
AcDbEntity
  8
0
100
AcDbLine
 10
245.4415
 20
264.0
 30
0.0
 11
247.4425
 21
314.0
 31
0.0
  0
LINE
  5
369
330
1E
100
AcDbEntity
  8
0
100
AcDbLine
 10
255.2505
 20
262.332
 30
0.0
 11
257.2225
 21
315.8259999999999
 31
0.0
  0
LINE
  5
36A
330
1E
100
AcDbEntity
  8
0
100
AcDbLine
 10
209.4425
 20
-0.0000000000000128
 30
0.0
 11
209.4425
 21
9.999999999999991
 31
0.0
  0
LINE
  5
36F
330
1E
100
AcDbEntity
  8
0
100
AcDbLine
 10
69.24930500416761
 20
505.686559398738
 30
0.0
 11
37.6085
 21
315.413
 31
0.0
  0
LINE
  5
370
330
1E
100
AcDbEntity
  8
0
100
AcDbLine
 10
101.4815
 20
726.1039999999999
 30
0.0
 11
97.87799999999998
 21
724.4810000000001
 31
0.0
  0
LINE
  5
371
330
1E
100
AcDbEntity
  8
0
100
AcDbLine
 10
157.8764431001719
 20
689.9961416323038
 30
0.0
 11
157.989134008865
 21
649.996038266889
 31
0.0
  0
ENDSEC
  0
SECTION
  2
OBJECTS
  0
DICTIONARY
  5
C
330
0
100
AcDbDictionary
281
     1
  3
ACAD_GROUP
350
D
  3
ACAD_LAYOUT
350
19
  3
ACAD_MLINESTYLE
350
16
  3
ACAD_PLOTSETTINGS
350
18
  3
ACAD_PLOTSTYLENAME
350
E
  3
AcDbVariableDictionary
350
372
  0
DICTIONARY
  5
D
102
{ACAD_REACTORS
330
C
102
}
330
C
100
AcDbDictionary
281
     1
  0
DICTIONARY
  5
19
102
{ACAD_REACTORS
330
C
102
}
330
C
100
AcDbDictionary
281
     1
  3
Layout1
350
1D
  3
Model
350
21
  0
DICTIONARY
  5
16
102
{ACAD_REACTORS
330
C
102
}
330
C
100
AcDbDictionary
281
     1
  3
Standard
350
17
  0
DICTIONARY
  5
18
102
{ACAD_REACTORS
330
C
102
}
330
C
100
AcDbDictionary
281
     1
  0
ACDBDICTIONARYWDFLT
  5
E
102
{ACAD_REACTORS
330
C
102
}
330
C
100
AcDbDictionary
281
     1
  3
Normal
350
F
100
AcDbDictionaryWithDefault
340
F
  0
DICTIONARY
  5
372
102
{ACAD_REACTORS
330
C
102
}
330
C
100
AcDbDictionary
281
     1
  3
DIMASSOC
350
373
  0
LAYOUT
  5
1D
102
{ACAD_REACTORS
330
19
102
}
330
19
100
AcDbPlotSettings
  1

  2
hp deskjet 980c series
  4

  6

 40
0.0
 41
0.0
 42
0.0
 43
0.0
 44
0.0
 45
0.0
 46
0.0
 47
0.0
 48
0.0
 49
0.0
140
0.0
141
0.0
142
1.0
143
1.0
 70
   688
 72
     0
 73
     0
 74
     5
  7

 75
    16
147
1.0
148
0.0
149
0.0
100
AcDbLayout
  1
Layout1
 70
     1
 71
     1
 10
0.0
 20
0.0
 11
12.0
 21
9.0
 12
0.0
 22
0.0
 32
0.0
 14
1.000000000000000E+20
 24
1.000000000000000E+20
 34
1.000000000000000E+20
 15
-1.000000000000000E+20
 25
-1.000000000000000E+20
 35
-1.000000000000000E+20
146
0.0
 13
0.0
 23
0.0
 33
0.0
 16
1.0
 26
0.0
 36
0.0
 17
0.0
 27
1.0
 37
0.0
 76
     0
330
1A
  0
LAYOUT
  5
21
102
{ACAD_REACTORS
330
19
102
}
330
19
100
AcDbPlotSettings
  1

  2
hp deskjet 980c series
  4

  6

 40
0.0
 41
0.0
 42
0.0
 43
0.0
 44
0.0
 45
0.0
 46
0.0
 47
0.0
 48
0.0
 49
0.0
140
0.0
141
0.0
142
1.0
143
1.0
 70
  1712
 72
     0
 73
     0
 74
     0
  7

 75
     0
147
1.0
148
0.0
149
0.0
100
AcDbLayout
  1
Model
 70
     1
 71
     0
 10
0.0
 20
0.0
 11
12.0
 21
9.0
 12
0.0
 22
0.0
 32
0.0
 14
0.0
 24
0.0
 34
0.0
 15
0.0
 25
0.0
 35
0.0
146
0.0
 13
0.0
 23
0.0
 33
0.0
 16
1.0
 26
0.0
 36
0.0
 17
0.0
 27
1.0
 37
0.0
 76
     0
330
1E
  0
MLINESTYLE
  5
17
102
{ACAD_REACTORS
330
16
102
}
330
16
100
AcDbMlineStyle
  2
STANDARD
 70
     0
  3

 62
   256
 51
90.0
 52
90.0
 71
     2
 49
0.5
 62
   256
  6
BYLAYER
 49
-0.5
 62
   256
  6
BYLAYER
  0
ACDBPLACEHOLDER
  5
F
102
{ACAD_REACTORS
330
E
102
}
330
E
  0
DICTIONARYVAR
  5
373
102
{ACAD_REACTORS
330
372
102
}
330
372
100
DictionaryVariables
280
     0
  1
1
  0
ENDSEC
  0
EOF
