  0
SECTION
  2
HEADER
  9
$ACADVER
  1
AC1015
  9
$ACADMAINTVER
 70
    13
  9
$DWGCODEPAGE
  3
ANSI_1252
  9
$INSBASE
 10
0.0
 20
0.0
 30
0.0
  9
$EXTMIN
 10
0.0
 20
0.0000000000000145
 30
0.0
  9
$EXTMAX
 10
142.0
 20
292.0
 30
0.0
  9
$LIMMIN
 10
0.0
 20
0.0
  9
$LIMMAX
 10
12.0
 20
9.0
  9
$ORTHOMODE
 70
     0
  9
$REGENMODE
 70
     1
  9
$FILLMODE
 70
     1
  9
$QTEXTMODE
 70
     0
  9
$MIRRTEXT
 70
     1
  9
$LTSCALE
 40
1.0
  9
$ATTMODE
 70
     1
  9
$TEXTSIZE
 40
0.2
  9
$TRACEWID
 40
0.05
  9
$TEXTSTYLE
  7
Standard
  9
$CLAYER
  8
0
  9
$CELTYPE
  6
Continuous
  9
$CECOLOR
 62
   256
  9
$CELTSCALE
 40
1.0
  9
$DISPSILH
 70
     0
  9
$DIMSCALE
 40
1.0
  9
$DIMASZ
 40
0.18
  9
$DIMEXO
 40
0.0625
  9
$DIMDLI
 40
0.38
  9
$DIMRND
 40
0.0
  9
$DIMDLE
 40
0.0
  9
$DIMEXE
 40
0.18
  9
$DIMTP
 40
0.0
  9
$DIMTM
 40
0.0
  9
$DIMTXT
 40
0.18
  9
$DIMCEN
 40
0.09
  9
$DIMTSZ
 40
0.0
  9
$DIMTOL
 70
     0
  9
$DIMLIM
 70
     0
  9
$DIMTIH
 70
     1
  9
$DIMTOH
 70
     1
  9
$DIMSE1
 70
     0
  9
$DIMSE2
 70
     0
  9
$DIMTAD
 70
     0
  9
$DIMZIN
 70
     0
  9
$DIMBLK
  1

  9
$DIMASO
 70
     1
  9
$DIMSHO
 70
     1
  9
$DIMPOST
  1

  9
$DIMAPOST
  1

  9
$DIMALT
 70
     0
  9
$DIMALTD
 70
     2
  9
$DIMALTF
 40
25.4
  9
$DIMLFAC
 40
1.0
  9
$DIMTOFL
 70
     0
  9
$DIMTVP
 40
0.0
  9
$DIMTIX
 70
     0
  9
$DIMSOXD
 70
     0
  9
$DIMSAH
 70
     0
  9
$DIMBLK1
  1

  9
$DIMBLK2
  1

  9
$DIMSTYLE
  2
Standard
  9
$DIMCLRD
 70
     0
  9
$DIMCLRE
 70
     0
  9
$DIMCLRT
 70
     0
  9
$DIMTFAC
 40
1.0
  9
$DIMGAP
 40
0.09
  9
$DIMJUST
 70
     0
  9
$DIMSD1
 70
     0
  9
$DIMSD2
 70
     0
  9
$DIMTOLJ
 70
     1
  9
$DIMTZIN
 70
     0
  9
$DIMALTZ
 70
     0
  9
$DIMALTTZ
 70
     0
  9
$DIMUPT
 70
     0
  9
$DIMDEC
 70
     4
  9
$DIMTDEC
 70
     4
  9
$DIMALTU
 70
     2
  9
$DIMALTTD
 70
     2
  9
$DIMTXSTY
  7
Standard
  9
$DIMAUNIT
 70
     0
  9
$DIMADEC
 70
     0
  9
$DIMALTRND
 40
0.0
  9
$DIMAZIN
 70
     0
  9
$DIMDSEP
 70
    46
  9
$DIMATFIT
 70
     3
  9
$DIMFRAC
 70
     0
  9
$DIMLDRBLK
  1

  9
$DIMLUNIT
 70
     2
  9
$DIMLWD
 70
    -2
  9
$DIMLWE
 70
    -2
  9
$DIMTMOVE
 70
     0
  9
$LUNITS
 70
     2
  9
$LUPREC
 70
     4
  9
$SKETCHINC
 40
0.1
  9
$FILLETRAD
 40
0.0
  9
$AUNITS
 70
     0
  9
$AUPREC
 70
     0
  9
$MENU
  1
.
  9
$ELEVATION
 40
0.0
  9
$PELEVATION
 40
0.0
  9
$THICKNESS
 40
0.0
  9
$LIMCHECK
 70
     0
  9
$CHAMFERA
 40
0.0
  9
$CHAMFERB
 40
0.0
  9
$CHAMFERC
 40
0.0
  9
$CHAMFERD
 40
0.0
  9
$SKPOLY
 70
     0
  9
$TDCREATE
 40
2454874.770889571
  9
$TDUCREATE
 40
2454874.729222904
  9
$TDUPDATE
 40
2454874.774350034
  9
$TDUUPDATE
 40
2454874.732683368
  9
$TDINDWG
 40
0.0034604630
  9
$TDUSRTIMER
 40
0.0034604630
  9
$USRTIMER
 70
     1
  9
$ANGBASE
 50
0.0
  9
$ANGDIR
 70
     0
  9
$PDMODE
 70
     0
  9
$PDSIZE
 40
0.0
  9
$PLINEWID
 40
0.0
  9
$SPLFRAME
 70
     0
  9
$SPLINETYPE
 70
     6
  9
$SPLINESEGS
 70
     8
  9
$HANDSEED
  5
350
  9
$SURFTAB1
 70
     6
  9
$SURFTAB2
 70
     6
  9
$SURFTYPE
 70
     6
  9
$SURFU
 70
     6
  9
$SURFV
 70
     6
  9
$UCSBASE
  2

  9
$UCSNAME
  2

  9
$UCSORG
 10
0.0
 20
0.0
 30
0.0
  9
$UCSXDIR
 10
1.0
 20
0.0
 30
0.0
  9
$UCSYDIR
 10
0.0
 20
1.0
 30
0.0
  9
$UCSORTHOREF
  2

  9
$UCSORTHOVIEW
 70
     1
  9
$UCSORGTOP
 10
0.0
 20
0.0
 30
0.0
  9
$UCSORGBOTTOM
 10
0.0
 20
0.0
 30
0.0
  9
$UCSORGLEFT
 10
0.0
 20
0.0
 30
0.0
  9
$UCSORGRIGHT
 10
0.0
 20
0.0
 30
0.0
  9
$UCSORGFRONT
 10
0.0
 20
0.0
 30
0.0
  9
$UCSORGBACK
 10
0.0
 20
0.0
 30
0.0
  9
$PUCSBASE
  2

  9
$PUCSNAME
  2

  9
$PUCSORG
 10
0.0
 20
0.0
 30
0.0
  9
$PUCSXDIR
 10
1.0
 20
0.0
 30
0.0
  9
$PUCSYDIR
 10
0.0
 20
1.0
 30
0.0
  9
$PUCSORTHOREF
  2

  9
$PUCSORTHOVIEW
 70
     0
  9
$PUCSORGTOP
 10
0.0
 20
0.0
 30
0.0
  9
$PUCSORGBOTTOM
 10
0.0
 20
0.0
 30
0.0
  9
$PUCSORGLEFT
 10
0.0
 20
0.0
 30
0.0
  9
$PUCSORGRIGHT
 10
0.0
 20
0.0
 30
0.0
  9
$PUCSORGFRONT
 10
0.0
 20
0.0
 30
0.0
  9
$PUCSORGBACK
 10
0.0
 20
0.0
 30
0.0
  9
$USERI1
 70
     0
  9
$USERI2
 70
     0
  9
$USERI3
 70
     0
  9
$USERI4
 70
     0
  9
$USERI5
 70
     0
  9
$USERR1
 40
0.0
  9
$USERR2
 40
0.0
  9
$USERR3
 40
0.0
  9
$USERR4
 40
0.0
  9
$USERR5
 40
0.0
  9
$WORLDVIEW
 70
     1
  9
$SHADEDGE
 70
     3
  9
$SHADEDIF
 70
    70
  9
$TILEMODE
 70
     1
  9
$MAXACTVP
 70
    64
  9
$PINSBASE
 10
0.0
 20
0.0
 30
0.0
  9
$PLIMCHECK
 70
     0
  9
$PEXTMIN
 10
1.000000000000000E+20
 20
1.000000000000000E+20
 30
1.000000000000000E+20
  9
$PEXTMAX
 10
-1.000000000000000E+20
 20
-1.000000000000000E+20
 30
-1.000000000000000E+20
  9
$PLIMMIN
 10
0.0
 20
0.0
  9
$PLIMMAX
 10
12.0
 20
9.0
  9
$UNITMODE
 70
     0
  9
$VISRETAIN
 70
     1
  9
$PLINEGEN
 70
     0
  9
$PSLTSCALE
 70
     1
  9
$TREEDEPTH
 70
  3020
  9
$CMLSTYLE
  2
Standard
  9
$CMLJUST
 70
     0
  9
$CMLSCALE
 40
1.0
  9
$PROXYGRAPHICS
 70
     1
  9
$MEASUREMENT
 70
     0
  9
$CELWEIGHT
370
    -1
  9
$ENDCAPS
280
     0
  9
$JOINSTYLE
280
     0
  9
$LWDISPLAY
290
     0
  9
$INSUNITS
 70
     0
  9
$HYPERLINKBASE
  1

  9
$STYLESHEET
  1

  9
$XEDIT
290
     1
  9
$CEPSNTYPE
380
     0
  9
$PSTYLEMODE
290
     1
  9
$FINGERPRINTGUID
  2
{0F44501A-774D-41D5-A2F0-BC383C2AF773}
  9
$VERSIONGUID
  2
{ECC22A6A-A67F-450C-A7D9-56D30142DF01}
  9
$EXTNAMES
290
     1
  9
$PSVPSCALE
 40
0.0
  9
$OLESTARTUP
290
     0
  0
ENDSEC
  0
SECTION
  2
CLASSES
  0
CLASS
  1
ACDBDICTIONARYWDFLT
  2
AcDbDictionaryWithDefault
  3
AutoCAD 2000
 90
        0
280
     0
281
     0
  0
CLASS
  1
ACDBPLACEHOLDER
  2
AcDbPlaceHolder
  3
AutoCAD 2000
 90
        0
280
     0
281
     0
  0
CLASS
  1
LAYOUT
  2
AcDbLayout
  3
AutoCAD 2000
 90
        0
280
     0
281
     0
  0
CLASS
  1
DICTIONARYVAR
  2
AcDbDictionaryVar
  3
AutoCAD 2000
 90
        0
280
     0
281
     0
  0
ENDSEC
  0
SECTION
  2
TABLES
  0
TABLE
  2
VPORT
  5
8
330
0
100
AcDbSymbolTable
 70
     2
  0
VPORT
  5
34F
330
8
100
AcDbSymbolTableRecord
100
AcDbViewportTableRecord
  2
*Active
 70
     0
 10
0.0
 20
0.0
 11
1.0
 21
1.0
 12
71.0
 22
146.0
 13
0.0
 23
0.0
 14
1.0
 24
1.0
 15
0.0
 25
0.0
 16
0.0
 26
0.0
 36
1.0
 17
0.0
 27
0.0
 37
0.0
 40
293.8442105263158
 41
1.968387776606954
 42
50.0
 43
0.0
 44
0.0
 50
0.0
 51
0.0
 71
     0
 72
   100
 73
     1
 74
     3
 75
     0
 76
     0
 77
     0
 78
     0
281
     0
 65
     1
110
0.0
120
0.0
130
0.0
111
1.0
121
0.0
131
0.0
112
0.0
122
1.0
132
0.0
 79
     1
146
0.0
  0
ENDTAB
  0
TABLE
  2
LTYPE
  5
5
330
0
100
AcDbSymbolTable
 70
     1
  0
LTYPE
  5
13
330
5
100
AcDbSymbolTableRecord
100
AcDbLinetypeTableRecord
  2
ByBlock
 70
     0
  3

 72
    65
 73
     0
 40
0.0
  0
LTYPE
  5
14
330
5
100
AcDbSymbolTableRecord
100
AcDbLinetypeTableRecord
  2
ByLayer
 70
     0
  3

 72
    65
 73
     0
 40
0.0
  0
LTYPE
  5
15
330
5
100
AcDbSymbolTableRecord
100
AcDbLinetypeTableRecord
  2
Continuous
 70
     0
  3
Solid line
 72
    65
 73
     0
 40
0.0
  0
ENDTAB
  0
TABLE
  2
LAYER
  5
2
330
0
100
AcDbSymbolTable
 70
     1
  0
LAYER
  5
10
330
2
100
AcDbSymbolTableRecord
100
AcDbLayerTableRecord
  2
0
 70
     0
 62
     7
  6
Continuous
370
    -3
390
F
  0
ENDTAB
  0
TABLE
  2
STYLE
  5
3
330
0
100
AcDbSymbolTable
 70
     1
  0
STYLE
  5
11
330
3
100
AcDbSymbolTableRecord
100
AcDbTextStyleTableRecord
  2
Standard
 70
     0
 40
0.0
 41
1.0
 50
0.0
 71
     0
 42
0.2
  3
txt
  4

  0
ENDTAB
  0
TABLE
  2
VIEW
  5
6
330
0
100
AcDbSymbolTable
 70
     0
  0
ENDTAB
  0
TABLE
  2
UCS
  5
7
330
0
100
AcDbSymbolTable
 70
     0
  0
ENDTAB
  0
TABLE
  2
APPID
  5
9
330
0
100
AcDbSymbolTable
 70
     1
  0
APPID
  5
12
330
9
100
AcDbSymbolTableRecord
100
AcDbRegAppTableRecord
  2
ACAD
 70
     0
  0
ENDTAB
  0
TABLE
  2
DIMSTYLE
  5
A
330
0
100
AcDbSymbolTable
 70
     1
100
AcDbDimStyleTable
 71
     0
  0
DIMSTYLE
105
343
330
A
100
AcDbSymbolTableRecord
100
AcDbDimStyleTableRecord
  2
Standard
 70
     0
340
11
  0
ENDTAB
  0
TABLE
  2
BLOCK_RECORD
  5
1
330
0
100
AcDbSymbolTable
 70
     0
  0
BLOCK_RECORD
  5
1E
330
1
100
AcDbSymbolTableRecord
100
AcDbBlockTableRecord
  2
*Model_Space
340
21
  0
BLOCK_RECORD
  5
1A
330
1
100
AcDbSymbolTableRecord
100
AcDbBlockTableRecord
  2
*Paper_Space
340
1D
  0
ENDTAB
  0
ENDSEC
  0
SECTION
  2
BLOCKS
  0
BLOCK
  5
1F
330
1E
100
AcDbEntity
  8
0
100
AcDbBlockBegin
  2
*Model_Space
 70
     0
 10
0.0
 20
0.0
 30
0.0
  3
*Model_Space
  1

  0
ENDBLK
  5
20
330
1E
100
AcDbEntity
  8
0
100
AcDbBlockEnd
  0
BLOCK
  5
1B
330
1A
100
AcDbEntity
 67
     1
  8
0
100
AcDbBlockBegin
  2
*Paper_Space
 70
     0
 10
0.0
 20
0.0
 30
0.0
  3
*Paper_Space
  1

  0
ENDBLK
  5
1C
330
1A
100
AcDbEntity
 67
     1
  8
0
100
AcDbBlockEnd
  0
ENDSEC
  0
SECTION
  2
ENTITIES
  0
LINE
  5
22
330
1E
100
AcDbEntity
  8
0
100
AcDbLine
 10
2.556
 20
147.8239999999999
 30
0.0
 11
9.371999999999999
 21
130.7839999999999
 31
0.0
  0
LINE
  5
23
330
1E
100
AcDbEntity
  8
0
100
AcDbLine
 10
0.0
 20
166.0
 30
0.0
 11
2.556
 21
184.1759999999999
 31
0.0
  0
LINE
  5
24
330
1E
100
AcDbEntity
  8
0
100
AcDbLine
 10
0.0
 20
166.0
 30
0.0
 11
2.556
 21
147.8239999999999
 31
0.0
  0
LINE
  5
25
330
1E
100
AcDbEntity
  8
0
100
AcDbLine
 10
2.556
 20
147.8239999999999
 30
0.0
 11
9.371999999999999
 21
130.7839999999999
 31
0.0
  0
LINE
  5
26
330
1E
100
AcDbEntity
  8
0
100
AcDbLine
 10
22.366
 20
64.40000000000001
 30
0.0
 11
24.11
 21
53.2
 31
0.0
  0
LINE
  5
27
330
1E
100
AcDbEntity
  8
0
100
AcDbLine
 10
42.7411
 20
24.6
 30
0.0
 11
44.4842
 21
25.8
 31
0.0
  0
LINE
  5
28
330
1E
100
AcDbEntity
  8
0
100
AcDbLine
 10
46.966
 20
27.5
 30
0.0
 11
48.7504
 21
30.1
 31
0.0
  0
LINE
  5
29
330
1E
100
AcDbEntity
  8
0
100
AcDbLine
 10
44.4842
 20
25.8
 30
0.0
 11
46.966
 21
27.5
 31
0.0
  0
LINE
  5
2A
330
1E
100
AcDbEntity
  8
0
100
AcDbLine
 10
39.653
 20
24.0
 30
0.0
 11
42.7411
 21
24.6
 31
0.0
  0
LINE
  5
2B
330
1E
100
AcDbEntity
  8
0
100
AcDbLine
 10
36.56499999999999
 20
24.6
 30
0.0
 11
39.653
 21
24.0
 31
0.0
  0
LINE
  5
2C
330
1E
100
AcDbEntity
  8
0
100
AcDbLine
 10
48.7504
 20
30.1
 30
0.0
 11
50.72890000000001
 21
34.0
 31
0.0
  0
LINE
  5
2D
330
1E
100
AcDbEntity
  8
0
100
AcDbLine
 10
33.972
 20
36.2
 30
0.0
 11
35.898
 21
40.0
 31
0.0
  0
LINE
  5
2E
330
1E
100
AcDbEntity
  8
0
100
AcDbLine
 10
35.898
 20
40.0
 30
0.0
 11
37.80699999999999
 21
46.0
 31
0.0
  0
LINE
  5
2F
330
1E
100
AcDbEntity
  8
0
100
AcDbLine
 10
37.80699999999999
 20
46.0
 30
0.0
 11
39.5188175011494
 21
54.88207193992579
 31
0.0
  0
LINE
  5
30
330
1E
100
AcDbEntity
  8
0
100
AcDbLine
 10
37.80699999999999
 20
46.0
 30
0.0
 11
39.5188175011494
 21
54.88207193992579
 31
0.0
  0
LINE
  5
31
330
1E
100
AcDbEntity
  8
0
100
AcDbLine
 10
30.555
 20
30.1
 30
0.0
 11
32.34
 21
27.5
 31
0.0
  0
LINE
  5
32
330
1E
100
AcDbEntity
  8
0
100
AcDbLine
 10
28.57699999999999
 20
34.0
 30
0.0
 11
30.555
 21
30.1
 31
0.0
  0
LINE
  5
33
330
1E
100
AcDbEntity
  8
0
100
AcDbLine
 10
26.572
 20
40.3
 30
0.0
 11
28.57699999999999
 21
34.0
 31
0.0
  0
LINE
  5
39
330
1E
100
AcDbEntity
  8
0
100
AcDbLine
 10
39.59
 20
55.89999999999999
 30
0.0
 11
39.6382855598478
 21
55.64960607485549
 31
0.0
  0
LINE
  5
3A
330
1E
100
AcDbEntity
  8
0
100
AcDbLine
 10
42.9264
 20
77.09999999999999
 30
0.0
 11
43.3673
 21
79.59999999999999
 31
0.0
  0
LINE
  5
3B
330
1E
100
AcDbEntity
  8
0
100
AcDbLine
 10
41.0003
 20
64.40000000000001
 30
0.0
 11
42.9264
 21
77.09999999999999
 31
0.0
  0
LINE
  5
3D
330
1E
100
AcDbEntity
  8
0
100
AcDbLine
 10
38.306
 20
64.40000000000001
 30
0.0
 11
39.6530340762413
 21
55.7443593494536
 31
0.0
  0
LINE
  5
3E
330
1E
100
AcDbEntity
  8
0
100
AcDbLine
 10
36.911
 20
79.29999999999999
 30
0.0
 11
38.306
 21
64.40000000000001
 31
0.0
  0
LINE
  5
3F
330
1E
100
AcDbEntity
  8
0
100
AcDbLine
 10
24.57699999999999
 20
50.6
 30
0.0
 11
26.572
 21
40.3
 31
0.0
  0
LINE
  5
40
330
1E
100
AcDbEntity
  8
0
100
AcDbLine
 10
24.11
 20
53.2
 30
0.0
 11
24.57699999999999
 21
50.6
 31
0.0
  0
LINE
  5
41
330
1E
100
AcDbEntity
  8
0
100
AcDbLine
 10
49.3549
 20
103.7
 30
0.0
 11
51.5338
 21
108.6
 31
0.0
  0
LINE
  5
42
330
1E
100
AcDbEntity
  8
0
100
AcDbLine
 10
47.14979999999999
 20
97.1
 30
0.0
 11
49.3549
 21
103.7
 31
0.0
  0
LINE
  5
43
330
1E
100
AcDbEntity
  8
0
100
AcDbLine
 10
45.1191
 20
88.9
 30
0.0
 11
47.14979999999999
 21
97.1
 31
0.0
  0
LINE
  5
44
330
1E
100
AcDbEntity
  8
0
100
AcDbLine
 10
43.3673
 20
79.59999999999999
 30
0.0
 11
45.1191
 21
88.9
 31
0.0
  0
LINE
  5
45
330
1E
100
AcDbEntity
  8
0
100
AcDbLine
 10
35.482
 20
98.3
 30
0.0
 11
36.911
 21
79.29999999999999
 31
0.0
  0
LINE
  5
46
330
1E
100
AcDbEntity
  8
0
100
AcDbLine
 10
20.97199999999999
 20
79.29999999999999
 30
0.0
 11
22.366
 21
64.40000000000001
 31
0.0
  0
LINE
  5
47
330
1E
100
AcDbEntity
  8
0
100
AcDbLine
 10
19.54299999999999
 20
98.3
 30
0.0
 11
20.97199999999999
 21
79.29999999999999
 31
0.0
  0
LINE
  5
48
330
1E
100
AcDbEntity
  8
0
100
AcDbLine
 10
34.654
 20
117.0
 30
0.0
 11
35.482
 21
98.3
 31
0.0
  0
LINE
  5
49
330
1E
100
AcDbEntity
  8
0
100
AcDbLine
 10
34.08699999999999
 20
138.4
 30
0.0
 11
34.654
 21
117.0
 31
0.0
  0
LINE
  5
4A
330
1E
100
AcDbEntity
  8
0
100
AcDbLine
 10
33.939
 20
157.0
 30
0.0
 11
34.08699999999999
 21
138.4
 31
0.0
  0
LINE
  5
4B
330
1E
100
AcDbEntity
  8
0
100
AcDbLine
 10
33.939
 20
157.0
 30
0.0
 11
34.08699999999999
 21
177.5999999999999
 31
0.0
  0
LINE
  5
4C
330
1E
100
AcDbEntity
  8
0
100
AcDbLine
 10
18.715
 20
117.0
 30
0.0
 11
19.54299999999999
 21
98.3
 31
0.0
  0
LINE
  5
4D
330
1E
100
AcDbEntity
  8
0
100
AcDbLine
 10
18.14799999999999
 20
138.4
 30
0.0
 11
18.715
 21
117.0
 31
0.0
  0
LINE
  5
4E
330
1E
100
AcDbEntity
  8
0
100
AcDbLine
 10
34.08699999999999
 20
177.5999999999999
 30
0.0
 11
34.654
 21
199.0
 31
0.0
  0
LINE
  5
4F
330
1E
100
AcDbEntity
  8
0
100
AcDbLine
 10
18.14799999999999
 20
177.5999999999999
 30
0.0
 11
18.715
 21
199.0
 31
0.0
  0
LINE
  5
50
330
1E
100
AcDbEntity
  8
0
100
AcDbLine
 10
18.0
 20
157.0
 30
0.0
 11
18.14799999999999
 21
138.4
 31
0.0
  0
LINE
  5
51
330
1E
100
AcDbEntity
  8
0
100
AcDbLine
 10
18.0
 20
157.0
 30
0.0
 11
18.14799999999999
 21
177.5999999999999
 31
0.0
  0
LINE
  5
52
330
1E
100
AcDbEntity
  8
0
100
AcDbLine
 10
50.0
 20
166.0
 30
0.0
 11
50.756
 21
160.6239999999999
 31
0.0
  0
LINE
  5
53
330
1E
100
AcDbEntity
  8
0
100
AcDbLine
 10
50.0
 20
166.0
 30
0.0
 11
50.756
 21
160.6239999999999
 31
0.0
  0
LINE
  5
54
330
1E
100
AcDbEntity
  8
0
100
AcDbLine
 10
50.0
 20
166.0
 30
0.0
 11
50.756
 21
160.6239999999999
 31
0.0
  0
LINE
  5
55
330
1E
100
AcDbEntity
  8
0
100
AcDbLine
 10
35.1934074531827
 20
104.817730224013
 30
0.0
 11
35.784
 21
104.372
 31
0.0
  0
LINE
  5
56
330
1E
100
AcDbEntity
  8
0
100
AcDbLine
 10
35.784
 20
104.372
 30
0.0
 11
47.9531099218929
 21
99.50435603124279
 31
0.0
  0
LINE
  5
57
330
1E
100
AcDbEntity
  8
0
100
AcDbLine
 10
9.371999999999999
 20
130.7839999999999
 30
0.0
 11
18.67643269499689
 21
118.455626679129
 31
0.0
  0
LINE
  5
58
330
1E
100
AcDbEntity
  8
0
100
AcDbLine
 10
9.371999999999999
 20
130.7839999999999
 30
0.0
 11
18.67643269499689
 21
118.455626679129
 31
0.0
  0
LINE
  5
59
330
1E
100
AcDbEntity
  8
0
100
AcDbLine
 10
34.654
 20
199.0
 30
0.0
 11
35.482
 21
217.7
 31
0.0
  0
LINE
  5
5A
330
1E
100
AcDbEntity
  8
0
100
AcDbLine
 10
18.715
 20
199.0
 30
0.0
 11
19.54299999999999
 21
217.7
 31
0.0
  0
LINE
  5
5B
330
1E
100
AcDbEntity
  8
0
100
AcDbLine
 10
2.556
 20
184.1759999999999
 30
0.0
 11
9.371999999999999
 21
201.2159999999999
 31
0.0
  0
LINE
  5
5C
330
1E
100
AcDbEntity
  8
0
100
AcDbLine
 10
2.556
 20
184.1759999999999
 30
0.0
 11
9.371999999999999
 21
201.2159999999999
 31
0.0
  0
LINE
  5
5D
330
1E
100
AcDbEntity
  8
0
100
AcDbLine
 10
35.482
 20
217.7
 30
0.0
 11
36.911
 21
236.6999999999999
 31
0.0
  0
LINE
  5
5E
330
1E
100
AcDbEntity
  8
0
100
AcDbLine
 10
33.972
 20
279.8
 30
0.0
 11
35.898
 21
276.0
 31
0.0
  0
LINE
  5
5F
330
1E
100
AcDbEntity
  8
0
100
AcDbLine
 10
35.898
 20
276.0
 30
0.0
 11
37.80699999999999
 21
270.0
 31
0.0
  0
LINE
  5
60
330
1E
100
AcDbEntity
  8
0
100
AcDbLine
 10
28.57699999999999
 20
282.0
 30
0.0
 11
30.555
 21
285.8999999999999
 31
0.0
  0
LINE
  5
61
330
1E
100
AcDbEntity
  8
0
100
AcDbLine
 10
30.555
 20
285.8999999999999
 30
0.0
 11
32.34
 21
288.5
 31
0.0
  0
LINE
  5
62
330
1E
100
AcDbEntity
  8
0
100
AcDbLine
 10
26.572
 20
275.7
 30
0.0
 11
28.57699999999999
 21
282.0
 31
0.0
  0
LINE
  5
63
330
1E
100
AcDbEntity
  8
0
100
AcDbLine
 10
24.57699999999999
 20
265.3999999999999
 30
0.0
 11
26.572
 21
275.7
 31
0.0
  0
LINE
  5
64
330
1E
100
AcDbEntity
  8
0
100
AcDbLine
 10
24.11
 20
262.8
 30
0.0
 11
24.57699999999999
 21
265.3999999999999
 31
0.0
  0
LINE
  5
65
330
1E
100
AcDbEntity
  8
0
100
AcDbLine
 10
22.366
 20
251.6
 30
0.0
 11
24.11
 21
262.8
 31
0.0
  0
LINE
  5
66
330
1E
100
AcDbEntity
  8
0
100
AcDbLine
 10
20.97199999999999
 20
236.6999999999999
 30
0.0
 11
22.366
 21
251.6
 31
0.0
  0
LINE
  5
67
330
1E
100
AcDbEntity
  8
0
100
AcDbLine
 10
19.54299999999999
 20
217.7
 30
0.0
 11
20.97199999999999
 21
236.6999999999999
 31
0.0
  0
LINE
  5
68
330
1E
100
AcDbEntity
  8
0
100
AcDbLine
 10
38.306
 20
251.6
 30
0.0
 11
39.6530340762413
 21
260.255640650546
 31
0.0
  0
LINE
  5
69
330
1E
100
AcDbEntity
  8
0
100
AcDbLine
 10
36.911
 20
236.6999999999999
 30
0.0
 11
38.306
 21
251.6
 31
0.0
  0
LINE
  5
6A
330
1E
100
AcDbEntity
  8
0
100
AcDbLine
 10
41.0003
 20
251.6
 30
0.0
 11
42.9264
 21
238.9
 31
0.0
  0
LINE
  5
6C
330
1E
100
AcDbEntity
  8
0
100
AcDbLine
 10
45.1191
 20
227.0999999999999
 30
0.0
 11
47.14979999999999
 21
218.9
 31
0.0
  0
LINE
  5
6D
330
1E
100
AcDbEntity
  8
0
100
AcDbLine
 10
43.3673
 20
236.4
 30
0.0
 11
45.1191
 21
227.0999999999999
 31
0.0
  0
LINE
  5
6E
330
1E
100
AcDbEntity
  8
0
100
AcDbLine
 10
42.9264
 20
238.9
 30
0.0
 11
43.3673
 21
236.4
 31
0.0
  0
LINE
  5
70
330
1E
100
AcDbEntity
  8
0
100
AcDbLine
 10
37.80699999999999
 20
270.0
 30
0.0
 11
39.5188175011494
 21
261.117928060074
 31
0.0
  0
LINE
  5
71
330
1E
100
AcDbEntity
  8
0
100
AcDbLine
 10
39.59
 20
260.1
 30
0.0
 11
39.6382855598478
 21
260.350393925144
 31
0.0
  0
LINE
  5
72
330
1E
100
AcDbEntity
  8
0
100
AcDbLine
 10
42.7411
 20
291.3999999999999
 30
0.0
 11
44.4842
 21
290.2
 31
0.0
  0
LINE
  5
73
330
1E
100
AcDbEntity
  8
0
100
AcDbLine
 10
44.4842
 20
290.2
 30
0.0
 11
46.966
 21
288.5
 31
0.0
  0
LINE
  5
74
330
1E
100
AcDbEntity
  8
0
100
AcDbLine
 10
39.25699999999999
 20
262.8
 30
0.0
 11
41.0003
 21
251.6
 31
0.0
  0
LINE
  5
76
330
1E
100
AcDbEntity
  8
0
100
AcDbLine
 10
49.3549
 20
212.3
 30
0.0
 11
51.5338
 21
207.4
 31
0.0
  0
LINE
  5
77
330
1E
100
AcDbEntity
  8
0
100
AcDbLine
 10
48.7504
 20
285.8999999999999
 30
0.0
 11
50.72890000000001
 21
282.0
 31
0.0
  0
LINE
  5
78
330
1E
100
AcDbEntity
  8
0
100
AcDbLine
 10
46.966
 20
288.5
 30
0.0
 11
48.7504
 21
285.8999999999999
 31
0.0
  0
LINE
  5
7A
330
1E
100
AcDbEntity
  8
0
100
AcDbLine
 10
47.14979999999999
 20
218.9
 30
0.0
 11
49.3549
 21
212.3
 31
0.0
  0
LINE
  5
7C
330
1E
100
AcDbEntity
  8
0
100
AcDbLine
 10
39.653
 20
292.0
 30
0.0
 11
42.7411
 21
291.3999999999999
 31
0.0
  0
LINE
  5
7D
330
1E
100
AcDbEntity
  8
0
100
AcDbLine
 10
36.56499999999999
 20
291.3999999999999
 30
0.0
 11
39.653
 21
292.0
 31
0.0
  0
LINE
  5
7E
330
1E
100
AcDbEntity
  8
0
100
AcDbLine
 10
36.2424832106965
 20
227.8113932842789
 30
0.0
 11
44.3725295858698
 21
231.0634118343479
 31
0.0
  0
LINE
  5
7F
330
1E
100
AcDbEntity
  8
0
100
AcDbLine
 10
9.371999999999999
 20
201.2159999999999
 30
0.0
 11
19.4015376330037
 21
214.50513736373
 31
0.0
  0
LINE
  5
80
330
1E
100
AcDbEntity
  8
0
100
AcDbLine
 10
50.72890000000001
 20
34.0
 30
0.0
 11
52.7335
 21
40.3
 31
0.0
  0
LINE
  5
81
330
1E
100
AcDbEntity
  8
0
100
AcDbLine
 10
50.756
 20
160.6239999999999
 30
0.0
 11
52.772
 21
155.584
 31
0.0
  0
LINE
  5
82
330
1E
100
AcDbEntity
  8
0
100
AcDbLine
 10
50.756
 20
160.6239999999999
 30
0.0
 11
52.772
 21
155.584
 31
0.0
  0
LINE
  5
83
330
1E
100
AcDbEntity
  8
0
100
AcDbLine
 10
50.756
 20
160.6239999999999
 30
0.0
 11
52.772
 21
155.584
 31
0.0
  0
LINE
  5
84
330
1E
100
AcDbEntity
  8
0
100
AcDbLine
 10
50.10299295774649
 20
166.7323943661969
 30
0.0
 11
50.756
 21
171.3759999999999
 31
0.0
  0
LINE
  5
85
330
1E
100
AcDbEntity
  8
0
100
AcDbLine
 10
50.72890000000001
 20
282.0
 30
0.0
 11
52.7335
 21
275.7
 31
0.0
  0
LINE
  5
86
330
1E
100
AcDbEntity
  8
0
100
AcDbLine
 10
50.756
 20
171.3759999999999
 30
0.0
 11
52.772
 21
176.4159999999999
 31
0.0
  0
LINE
  5
87
330
1E
100
AcDbEntity
  8
0
100
AcDbLine
 10
51.2
 20
170.775
 30
0.0
 11
53.3
 21
175.859
 31
0.0
  0
LINE
  5
88
330
1E
100
AcDbEntity
  8
0
100
AcDbLine
 10
50.75
 20
170.925
 30
0.0
 11
52.925
 21
176.0839999999999
 31
0.0
  0
LINE
  5
89
330
1E
100
AcDbEntity
  8
0
100
AcDbLine
 10
51.2
 20
161.3539999999999
 30
0.0
 11
53.3
 21
156.27
 31
0.0
  0
LINE
  5
8A
330
1E
100
AcDbEntity
  8
0
100
AcDbLine
 10
50.45
 20
166.0649999999999
 30
0.0
 11
51.2
 21
161.3539999999999
 31
0.0
  0
LINE
  5
8B
330
1E
100
AcDbEntity
  8
0
100
AcDbLine
 10
50.45
 20
166.0649999999999
 30
0.0
 11
51.2
 21
170.775
 31
0.0
  0
LINE
  5
8C
330
1E
100
AcDbEntity
  8
0
100
AcDbLine
 10
50.75
 20
161.205
 30
0.0
 11
52.925
 21
156.0459999999999
 31
0.0
  0
LINE
  5
8D
330
1E
100
AcDbEntity
  8
0
100
AcDbLine
 10
50.0
 20
166.0649999999999
 30
0.0
 11
50.75
 21
161.205
 31
0.0
  0
LINE
  5
8E
330
1E
100
AcDbEntity
  8
0
100
AcDbLine
 10
50.0
 20
166.0649999999999
 30
0.0
 11
50.75
 21
170.925
 31
0.0
  0
LINE
  5
8F
330
1E
100
AcDbEntity
  8
0
100
AcDbLine
 10
51.5
 20
11.4821
 30
0.0
 11
52.2
 21
13.9821
 31
0.0
  0
LINE
  5
90
330
1E
100
AcDbEntity
  8
0
100
AcDbLine
 10
51.5
 20
11.4821
 30
0.0
 11
51.5
 21
9.750000000000008
 31
0.0
  0
LINE
  5
91
330
1E
100
AcDbEntity
  8
0
100
AcDbLine
 10
51.5
 20
11.4821
 30
0.0
 11
52.2
 21
8.982050000000018
 31
0.0
  0
LINE
  5
92
330
1E
100
AcDbEntity
  8
0
100
AcDbLine
 10
52.2
 20
8.982050000000018
 30
0.0
 11
54.1
 21
6.632050000000009
 31
0.0
  0
LINE
  5
93
330
1E
100
AcDbEntity
  8
0
100
AcDbLine
 10
52.2
 20
7.250000000000009
 30
0.0
 11
54.1
 21
4.900000000000009
 31
0.0
  0
LINE
  5
94
330
1E
100
AcDbEntity
  8
0
100
AcDbLine
 10
57.2
 20
4.582050000000009
 30
0.0
 11
61.29999999999999
 21
3.032050000000009
 31
0.0
  0
LINE
  5
95
330
1E
100
AcDbEntity
  8
0
100
AcDbLine
 10
71.0
 20
0.0000000000000145
 30
0.0
 11
76.0
 21
0.3500000000000151
 31
0.0
  0
LINE
  5
96
330
1E
100
AcDbEntity
  8
0
100
AcDbLine
 10
71.0
 20
0.0000000000000146
 30
0.0
 11
76.0
 21
0.3500000000000151
 31
0.0
  0
LINE
  5
97
330
1E
100
AcDbEntity
  8
0
100
AcDbLine
 10
76.0
 20
0.3500000000000151
 30
0.0
 11
80.7
 21
1.30000000000001
 31
0.0
  0
LINE
  5
98
330
1E
100
AcDbEntity
  8
0
100
AcDbLine
 10
80.7
 20
1.30000000000001
 30
0.0
 11
84.8
 21
2.850000000000009
 31
0.0
  0
LINE
  5
99
330
1E
100
AcDbEntity
  8
0
100
AcDbLine
 10
66.0
 20
0.3500000000000151
 30
0.0
 11
71.0
 21
0.0000000000000145
 31
0.0
  0
LINE
  5
9A
330
1E
100
AcDbEntity
  8
0
100
AcDbLine
 10
66.0
 20
0.3500000000000151
 30
0.0
 11
71.0
 21
0.0000000000000146
 31
0.0
  0
LINE
  5
9B
330
1E
100
AcDbEntity
  8
0
100
AcDbLine
 10
71.0
 20
1.73205000000001
 30
0.0
 11
76.0
 21
2.082050000000009
 31
0.0
  0
LINE
  5
9C
330
1E
100
AcDbEntity
  8
0
100
AcDbLine
 10
76.0
 20
2.082050000000009
 30
0.0
 11
80.7
 21
3.032050000000009
 31
0.0
  0
LINE
  5
9D
330
1E
100
AcDbEntity
  8
0
100
AcDbLine
 10
71.0
 20
2.732050000000009
 30
0.0
 11
75.5
 21
3.032050000000009
 31
0.0
  0
LINE
  5
9E
330
1E
100
AcDbEntity
  8
0
100
AcDbLine
 10
75.5
 20
3.032050000000009
 30
0.0
 11
79.7
 21
3.882050000000009
 31
0.0
  0
LINE
  5
9F
330
1E
100
AcDbEntity
  8
0
100
AcDbLine
 10
80.7
 20
3.032050000000009
 30
0.0
 11
84.8
 21
4.582050000000009
 31
0.0
  0
LINE
  5
A0
330
1E
100
AcDbEntity
  8
0
100
AcDbLine
 10
84.8
 20
2.850000000000009
 30
0.0
 11
87.9
 21
4.900000000000009
 31
0.0
  0
LINE
  5
A1
330
1E
100
AcDbEntity
  8
0
100
AcDbLine
 10
79.7
 20
3.882050000000009
 30
0.0
 11
83.40000000000001
 21
5.282050000000009
 31
0.0
  0
LINE
  5
A2
330
1E
100
AcDbEntity
  8
0
100
AcDbLine
 10
84.8
 20
4.582050000000009
 30
0.0
 11
87.9
 21
6.632050000000009
 31
0.0
  0
LINE
  5
A3
330
1E
100
AcDbEntity
  8
0
100
AcDbLine
 10
87.9
 20
4.900000000000009
 30
0.0
 11
89.8
 21
7.250000000000009
 31
0.0
  0
LINE
  5
A4
330
1E
100
AcDbEntity
  8
0
100
AcDbLine
 10
66.5
 20
3.032050000000009
 30
0.0
 11
71.0
 21
2.732050000000009
 31
0.0
  0
LINE
  5
A5
330
1E
100
AcDbEntity
  8
0
100
AcDbLine
 10
62.3
 20
3.882050000000009
 30
0.0
 11
66.5
 21
3.032050000000009
 31
0.0
  0
LINE
  5
A6
330
1E
100
AcDbEntity
  8
0
100
AcDbLine
 10
66.0
 20
2.082050000000009
 30
0.0
 11
71.0
 21
1.73205000000001
 31
0.0
  0
LINE
  5
A7
330
1E
100
AcDbEntity
  8
0
100
AcDbLine
 10
61.29999999999999
 20
3.032050000000009
 30
0.0
 11
66.0
 21
2.082050000000009
 31
0.0
  0
LINE
  5
A8
330
1E
100
AcDbEntity
  8
0
100
AcDbLine
 10
61.29999999999999
 20
1.30000000000001
 30
0.0
 11
66.0
 21
0.3500000000000151
 31
0.0
  0
LINE
  5
A9
330
1E
100
AcDbEntity
  8
0
100
AcDbLine
 10
57.2
 20
2.850000000000009
 30
0.0
 11
61.29999999999999
 21
1.30000000000001
 31
0.0
  0
LINE
  5
AA
330
1E
100
AcDbEntity
  8
0
100
AcDbLine
 10
54.1
 20
9.232050000000009
 30
0.0
 11
55.8
 21
7.132050000000009
 31
0.0
  0
LINE
  5
AB
330
1E
100
AcDbEntity
  8
0
100
AcDbLine
 10
83.40000000000001
 20
5.282050000000009
 30
0.0
 11
86.2
 21
7.132050000000009
 31
0.0
  0
LINE
  5
AC
330
1E
100
AcDbEntity
  8
0
100
AcDbLine
 10
86.2
 20
7.132050000000009
 30
0.0
 11
87.9
 21
9.232050000000009
 31
0.0
  0
LINE
  5
AD
330
1E
100
AcDbEntity
  8
0
100
AcDbLine
 10
87.9
 20
6.632050000000009
 30
0.0
 11
89.8
 21
8.982050000000018
 31
0.0
  0
LINE
  5
AE
330
1E
100
AcDbEntity
  8
0
100
AcDbLine
 10
58.6
 20
5.282050000000009
 30
0.0
 11
62.3
 21
3.882050000000009
 31
0.0
  0
LINE
  5
AF
330
1E
100
AcDbEntity
  8
0
100
AcDbLine
 10
89.8
 20
13.9821
 30
0.0
 11
90.5
 21
11.4821
 31
0.0
  0
LINE
  5
B0
330
1E
100
AcDbEntity
  8
0
100
AcDbLine
 10
88.49999999999999
 20
11.4821
 30
0.0
 11
88.49999999999999
 21
50.4532
 31
0.0
  0
LINE
  5
B1
330
1E
100
AcDbEntity
  8
0
100
AcDbLine
 10
87.9
 20
9.232050000000009
 30
0.0
 11
88.49999999999999
 21
11.4821
 31
0.0
  0
LINE
  5
B2
330
1E
100
AcDbEntity
  8
0
100
AcDbLine
 10
89.8
 20
8.982050000000018
 30
0.0
 11
90.5
 21
11.4821
 31
0.0
  0
LINE
  5
B3
330
1E
100
AcDbEntity
  8
0
100
AcDbLine
 10
90.5
 20
11.4821
 30
0.0
 11
90.5
 21
9.750000000000008
 31
0.0
  0
LINE
  5
B4
330
1E
100
AcDbEntity
  8
0
100
AcDbLine
 10
90.5
 20
9.750000000000008
 30
0.0
 11
90.5
 21
11.4821
 31
0.0
  0
LINE
  5
B5
330
1E
100
AcDbEntity
  8
0
100
AcDbLine
 10
89.8
 20
7.250000000000009
 30
0.0
 11
90.5
 21
9.750000000000008
 31
0.0
  0
LINE
  5
B6
330
1E
100
AcDbEntity
  8
0
100
AcDbLine
 10
55.8
 20
7.132050000000009
 30
0.0
 11
58.6
 21
5.282050000000009
 31
0.0
  0
LINE
  5
B7
330
1E
100
AcDbEntity
  8
0
100
AcDbLine
 10
54.1
 20
6.632050000000009
 30
0.0
 11
57.2
 21
4.582050000000009
 31
0.0
  0
LINE
  5
B8
330
1E
100
AcDbEntity
  8
0
100
AcDbLine
 10
54.1
 20
4.900000000000009
 30
0.0
 11
57.2
 21
2.850000000000009
 31
0.0
  0
LINE
  5
B9
330
1E
100
AcDbEntity
  8
0
100
AcDbLine
 10
53.5
 20
11.4821
 30
0.0
 11
53.5
 21
50.4532
 31
0.0
  0
LINE
  5
BA
330
1E
100
AcDbEntity
  8
0
100
AcDbLine
 10
53.5
 20
11.4821
 30
0.0
 11
54.1
 21
9.232050000000009
 31
0.0
  0
LINE
  5
BB
330
1E
100
AcDbEntity
  8
0
100
AcDbLine
 10
52.7335
 20
40.3
 30
0.0
 11
53.5
 21
44.25578214249919
 31
0.0
  0
LINE
  5
BD
330
1E
100
AcDbEntity
  8
0
100
AcDbLine
 10
51.5338
 20
108.6
 30
0.0
 11
53.5
 21
111.9456658077689
 31
0.0
  0
LINE
  5
BE
330
1E
100
AcDbEntity
  8
0
100
AcDbLine
 10
52.772
 20
155.584
 30
0.0
 11
55.91026689241189
 21
151.4257963675539
 31
0.0
  0
LINE
  5
BF
330
1E
100
AcDbEntity
  8
0
100
AcDbLine
 10
52.772
 20
155.584
 30
0.0
 11
56.13199999999999
 21
151.1319999999999
 31
0.0
  0
LINE
  5
C0
330
1E
100
AcDbEntity
  8
0
100
AcDbLine
 10
52.772
 20
155.584
 30
0.0
 11
53.5
 21
154.365
 31
0.0
  0
LINE
  5
C1
330
1E
100
AcDbEntity
  8
0
100
AcDbLine
 10
53.3
 20
175.859
 30
0.0
 11
56.75
 21
180.2709999999999
 31
0.0
  0
LINE
  5
C2
330
1E
100
AcDbEntity
  8
0
100
AcDbLine
 10
52.7335
 20
275.7
 30
0.0
 11
54.7293
 21
265.3999999999999
 31
0.0
  0
LINE
  5
C4
330
1E
100
AcDbEntity
  8
0
100
AcDbLine
 10
51.5338
 20
207.4
 30
0.0
 11
53.5907
 21
203.9
 31
0.0
  0
LINE
  5
C5
330
1E
100
AcDbEntity
  8
0
100
AcDbLine
 10
52.772
 20
176.4159999999999
 30
0.0
 11
56.13199999999999
 21
180.868
 31
0.0
  0
LINE
  5
C6
330
1E
100
AcDbEntity
  8
0
100
AcDbLine
 10
52.9250000000002
 20
176.0839999999999
 30
0.0
 11
56.375
 21
180.6459999999999
 31
0.0
  0
LINE
  5
C7
330
1E
100
AcDbEntity
  8
0
100
AcDbLine
 10
53.3
 20
156.27
 30
0.0
 11
56.75
 21
151.859
 31
0.0
  0
LINE
  5
C8
330
1E
100
AcDbEntity
  8
0
100
AcDbLine
 10
52.925
 20
156.0459999999999
 30
0.0
 11
56.375
 21
151.485
 31
0.0
  0
LINE
  5
C9
330
1E
100
AcDbEntity
  8
0
100
AcDbLine
 10
53.5
 20
154.365
 30
0.0
 11
53.5
 21
51.3192
 31
0.0
  0
LINE
  5
CA
330
1E
100
AcDbEntity
  8
0
100
AcDbLine
 10
53.5
 20
154.365
 30
0.0
 11
54.1
 21
153.8189999999999
 31
0.0
  0
LINE
  5
CB
330
1E
100
AcDbEntity
  8
0
100
AcDbLine
 10
53.5
 20
51.3192
 30
0.0
 11
53.5
 21
154.365
 31
0.0
  0
LINE
  5
CC
330
1E
100
AcDbEntity
  8
0
100
AcDbLine
 10
53.5
 20
51.3192
 30
0.0
 11
54.1
 21
49.0692
 31
0.0
  0
LINE
  5
CD
330
1E
100
AcDbEntity
  8
0
100
AcDbLine
 10
55.8
 20
46.1032
 30
0.0
 11
58.6
 21
44.2532
 31
0.0
  0
LINE
  5
CE
330
1E
100
AcDbEntity
  8
0
100
AcDbLine
 10
54.1
 20
48.2032
 30
0.0
 11
55.8
 21
46.1032
 31
0.0
  0
LINE
  5
CF
330
1E
100
AcDbEntity
  8
0
100
AcDbLine
 10
62.3
 20
42.8532
 30
0.0
 11
66.5
 21
42.0032
 31
0.0
  0
LINE
  5
D0
330
1E
100
AcDbEntity
  8
0
100
AcDbLine
 10
58.6
 20
44.2532
 30
0.0
 11
62.3
 21
42.8532
 31
0.0
  0
LINE
  5
D1
330
1E
100
AcDbEntity
  8
0
100
AcDbLine
 10
71.0
 20
41.7032
 30
0.0
 11
75.5
 21
42.0032
 31
0.0
  0
LINE
  5
D2
330
1E
100
AcDbEntity
  8
0
100
AcDbLine
 10
88.49999999999999
 20
15.5899947368421
 30
0.0
 11
89.8
 21
13.9821
 31
0.0
  0
LINE
  5
D3
330
1E
100
AcDbEntity
  8
0
100
AcDbLine
 10
75.5
 20
42.0032
 30
0.0
 11
79.7
 21
42.8532
 31
0.0
  0
LINE
  5
D4
330
1E
100
AcDbEntity
  8
0
100
AcDbLine
 10
79.7
 20
42.8532
 30
0.0
 11
83.40000000000001
 21
44.2532
 31
0.0
  0
LINE
  5
D5
330
1E
100
AcDbEntity
  8
0
100
AcDbLine
 10
71.0
 20
42.5692
 30
0.0
 11
75.5
 21
42.8692
 31
0.0
  0
LINE
  5
D6
330
1E
100
AcDbEntity
  8
0
100
AcDbLine
 10
75.5
 20
42.8692
 30
0.0
 11
79.7
 21
43.7192
 31
0.0
  0
LINE
  5
D7
330
1E
100
AcDbEntity
  8
0
100
AcDbLine
 10
66.5
 20
42.0032
 30
0.0
 11
71.0
 21
41.7032
 31
0.0
  0
LINE
  5
D8
330
1E
100
AcDbEntity
  8
0
100
AcDbLine
 10
83.40000000000001
 20
44.2532
 30
0.0
 11
86.2
 21
46.1032
 31
0.0
  0
LINE
  5
D9
330
1E
100
AcDbEntity
  8
0
100
AcDbLine
 10
79.7
 20
43.7192
 30
0.0
 11
83.40000000000001
 21
45.11919999999999
 31
0.0
  0
LINE
  5
DA
330
1E
100
AcDbEntity
  8
0
100
AcDbLine
 10
83.40000000000001
 20
45.11919999999999
 30
0.0
 11
86.2
 21
46.9692
 31
0.0
  0
LINE
  5
DB
330
1E
100
AcDbEntity
  8
0
100
AcDbLine
 10
66.5
 20
42.8692
 30
0.0
 11
71.0
 21
42.5692
 31
0.0
  0
LINE
  5
DC
330
1E
100
AcDbEntity
  8
0
100
AcDbLine
 10
62.3
 20
43.7192
 30
0.0
 11
66.5
 21
42.8692
 31
0.0
  0
LINE
  5
DD
330
1E
100
AcDbEntity
  8
0
100
AcDbLine
 10
86.2
 20
46.1032
 30
0.0
 11
87.9
 21
48.2032
 31
0.0
  0
LINE
  5
DE
330
1E
100
AcDbEntity
  8
0
100
AcDbLine
 10
87.9
 20
48.2032
 30
0.0
 11
88.49999999999999
 21
50.4532
 31
0.0
  0
LINE
  5
DF
330
1E
100
AcDbEntity
  8
0
100
AcDbLine
 10
86.2
 20
46.9692
 30
0.0
 11
87.9
 21
49.0692
 31
0.0
  0
LINE
  5
E0
330
1E
100
AcDbEntity
  8
0
100
AcDbLine
 10
87.9
 20
49.0692
 30
0.0
 11
88.49999999999999
 21
51.3192
 31
0.0
  0
LINE
  5
E1
330
1E
100
AcDbEntity
  8
0
100
AcDbLine
 10
58.6
 20
45.11919999999999
 30
0.0
 11
62.3
 21
43.7192
 31
0.0
  0
LINE
  5
E2
330
1E
100
AcDbEntity
  8
0
100
AcDbLine
 10
55.8
 20
46.9692
 30
0.0
 11
58.6
 21
45.11919999999999
 31
0.0
  0
LINE
  5
E3
330
1E
100
AcDbEntity
  8
0
100
AcDbLine
 10
56.8857498162907
 20
150.5631322141199
 30
0.0
 11
58.6
 21
149.065
 31
0.0
  0
LINE
  5
E4
330
1E
100
AcDbEntity
  8
0
100
AcDbLine
 10
56.13199999999999
 20
151.1319999999999
 30
0.0
 11
60.58399999999999
 21
147.772
 31
0.0
  0
LINE
  5
E5
330
1E
100
AcDbEntity
  8
0
100
AcDbLine
 10
56.75
 20
180.2709999999999
 30
0.0
 11
61.17499999999999
 21
183.71
 31
0.0
  0
LINE
  5
E7
330
1E
100
AcDbEntity
  8
0
100
AcDbLine
 10
54.7293
 20
265.3999999999999
 30
0.0
 11
55.1963
 21
262.8
 31
0.0
  0
LINE
  5
E9
330
1E
100
AcDbEntity
  8
0
100
AcDbLine
 10
53.5907
 20
203.9
 30
0.0
 11
55.3402
 21
201.4
 31
0.0
  0
LINE
  5
EA
330
1E
100
AcDbEntity
  8
0
100
AcDbLine
 10
55.1963
 20
262.8
 30
0.0
 11
56.9394
 21
251.6
 31
0.0
  0
LINE
  5
EB
330
1E
100
AcDbEntity
  8
0
100
AcDbLine
 10
56.13199999999999
 20
180.868
 30
0.0
 11
60.58399999999999
 21
184.2279999999999
 31
0.0
  0
LINE
  5
EC
330
1E
100
AcDbEntity
  8
0
100
AcDbLine
 10
56.375
 20
180.6459999999999
 30
0.0
 11
60.95
 21
184.085
 31
0.0
  0
LINE
  5
ED
330
1E
100
AcDbEntity
  8
0
100
AcDbLine
 10
56.75
 20
151.859
 30
0.0
 11
61.17499999999999
 21
148.4189999999999
 31
0.0
  0
LINE
  5
EE
330
1E
100
AcDbEntity
  8
0
100
AcDbLine
 10
56.375
 20
151.485
 30
0.0
 11
60.95
 21
148.0459999999999
 31
0.0
  0
LINE
  5
EF
330
1E
100
AcDbEntity
  8
0
100
AcDbLine
 10
71.0
 20
75.0
 30
0.0
 11
72.0
 21
75.0
 31
0.0
  0
LINE
  5
F0
330
1E
100
AcDbEntity
  8
0
100
AcDbLine
 10
72.0
 20
75.0
 30
0.0
 11
73.0
 21
75.0
 31
0.0
  0
LINE
  5
F1
330
1E
100
AcDbEntity
  8
0
100
AcDbLine
 10
73.0
 20
75.0
 30
0.0
 11
73.9
 21
75.0
 31
0.0
  0
LINE
  5
F2
330
1E
100
AcDbEntity
  8
0
100
AcDbLine
 10
73.9
 20
75.0
 30
0.0
 11
74.5
 21
75.0
 31
0.0
  0
LINE
  5
F3
330
1E
100
AcDbEntity
  8
0
100
AcDbLine
 10
74.5
 20
75.0
 30
0.0
 11
74.90000000000001
 21
75.0
 31
0.0
  0
LINE
  5
F4
330
1E
100
AcDbEntity
  8
0
100
AcDbLine
 10
88.38453333333339
 20
50.8862
 30
0.0
 11
88.49999999999999
 21
50.4532
 31
0.0
  0
LINE
  5
F5
330
1E
100
AcDbEntity
  8
0
100
AcDbLine
 10
88.49999999999999
 20
50.4532
 30
0.0
 11
88.49999999999999
 21
11.4821
 31
0.0
  0
LINE
  5
F6
330
1E
100
AcDbEntity
  8
0
100
AcDbLine
 10
88.49999999999999
 20
51.3192
 30
0.0
 11
88.49999999999999
 21
154.365
 31
0.0
  0
LINE
  5
F7
330
1E
100
AcDbEntity
  8
0
100
AcDbLine
 10
74.90000000000001
 20
75.0
 30
0.0
 11
75.0
 21
75.0
 31
0.0
  0
LINE
  5
F8
330
1E
100
AcDbEntity
  8
0
100
AcDbLine
 10
75.0
 20
75.0
 30
0.0
 11
75.0
 21
145.7429230769229
 31
0.0
  0
LINE
  5
F9
330
1E
100
AcDbEntity
  8
0
100
AcDbLine
 10
70.0
 20
75.0
 30
0.0
 11
71.0
 21
75.0
 31
0.0
  0
LINE
  5
FA
330
1E
100
AcDbEntity
  8
0
100
AcDbLine
 10
69.0
 20
75.0
 30
0.0
 11
70.0
 21
75.0
 31
0.0
  0
LINE
  5
FB
330
1E
100
AcDbEntity
  8
0
100
AcDbLine
 10
68.09999999999999
 20
75.0
 30
0.0
 11
69.0
 21
75.0
 31
0.0
  0
LINE
  5
FC
330
1E
100
AcDbEntity
  8
0
100
AcDbLine
 10
67.5
 20
75.0
 30
0.0
 11
68.09999999999999
 21
75.0
 31
0.0
  0
LINE
  5
FD
330
1E
100
AcDbEntity
  8
0
100
AcDbLine
 10
67.09999999999999
 20
75.0
 30
0.0
 11
67.5
 21
75.0
 31
0.0
  0
LINE
  5
FE
330
1E
100
AcDbEntity
  8
0
100
AcDbLine
 10
106.2159999999999
 20
104.372
 30
0.0
 11
121.2679999999999
 21
115.732
 31
0.0
  0
LINE
  5
FF
330
1E
100
AcDbEntity
  8
0
100
AcDbLine
 10
89.176
 20
97.55600000000001
 30
0.0
 11
106.2159999999999
 21
104.372
 31
0.0
  0
LINE
  5
100
330
1E
100
AcDbEntity
  8
0
100
AcDbLine
 10
88.49999999999999
 20
97.4609375
 30
0.0
 11
89.176
 21
97.55600000000001
 31
0.0
  0
LINE
  5
101
330
1E
100
AcDbEntity
  8
0
100
AcDbLine
 10
132.6279999999999
 20
130.7839999999999
 30
0.0
 11
139.4439999999999
 21
147.8239999999999
 31
0.0
  0
LINE
  5
102
330
1E
100
AcDbEntity
  8
0
100
AcDbLine
 10
121.2679999999999
 20
115.732
 30
0.0
 11
132.6279999999999
 21
130.7839999999999
 31
0.0
  0
LINE
  5
103
330
1E
100
AcDbEntity
  8
0
100
AcDbLine
 10
75.0
 20
145.5624999999999
 30
0.0
 11
76.376
 21
145.7559999999999
 31
0.0
  0
LINE
  5
104
330
1E
100
AcDbEntity
  8
0
100
AcDbLine
 10
75.0
 20
145.548444444444
 30
0.0
 11
75.5
 21
145.617
 31
0.0
  0
LINE
  5
105
330
1E
100
AcDbEntity
  8
0
100
AcDbLine
 10
71.0
 20
145.578
 30
0.0
 11
75.72499999999999
 21
146.326
 31
0.0
  0
LINE
  5
106
330
1E
100
AcDbEntity
  8
0
100
AcDbLine
 10
67.0
 20
75.0
 30
0.0
 11
67.09999999999999
 21
75.0
 31
0.0
  0
LINE
  5
107
330
1E
100
AcDbEntity
  8
0
100
AcDbLine
 10
67.0
 20
75.0
 30
0.0
 11
67.0
 21
145.7429230769229
 31
0.0
  0
LINE
  5
108
330
1E
100
AcDbEntity
  8
0
100
AcDbLine
 10
66.5
 20
145.617
 30
0.0
 11
67.0
 21
145.548444444444
 31
0.0
  0
LINE
  5
109
330
1E
100
AcDbEntity
  8
0
100
AcDbLine
 10
60.58399999999999
 20
147.772
 30
0.0
 11
65.624
 21
145.7559999999999
 31
0.0
  0
LINE
  5
10A
330
1E
100
AcDbEntity
  8
0
100
AcDbLine
 10
60.58399999999999
 20
147.772
 30
0.0
 11
62.3
 21
146.924
 31
0.0
  0
LINE
  5
10B
330
1E
100
AcDbEntity
  8
0
100
AcDbLine
 10
65.624
 20
145.7559999999999
 30
0.0
 11
67.0
 21
145.5624999999999
 31
0.0
  0
LINE
  5
10C
330
1E
100
AcDbEntity
  8
0
100
AcDbLine
 10
66.27500000000001
 20
146.326
 30
0.0
 11
71.0
 21
145.578
 31
0.0
  0
LINE
  5
10D
330
1E
100
AcDbEntity
  8
0
100
AcDbLine
 10
58.6
 20
149.065
 30
0.0
 11
60.58399999999999
 21
147.772
 31
0.0
  0
LINE
  5
10E
330
1E
100
AcDbEntity
  8
0
100
AcDbLine
 10
61.17499999999999
 20
183.71
 30
0.0
 11
66.27500000000001
 21
185.804
 31
0.0
  0
LINE
  5
10F
330
1E
100
AcDbEntity
  8
0
100
AcDbLine
 10
57.5
 20
201.4
 30
0.0
 11
58.9
 21
198.0
 31
0.0
  0
LINE
  5
110
330
1E
100
AcDbEntity
  8
0
100
AcDbLine
 10
57.5
 20
208.5999999999999
 30
0.0
 11
58.9
 21
212.0999999999999
 31
0.0
  0
LINE
  5
111
330
1E
100
AcDbEntity
  8
0
100
AcDbLine
 10
57.0
 20
205.0
 30
0.0
 11
57.5
 21
208.5999999999999
 31
0.0
  0
LINE
  5
112
330
1E
100
AcDbEntity
  8
0
100
AcDbLine
 10
57.0
 20
205.0
 30
0.0
 11
57.5
 21
201.4
 31
0.0
  0
LINE
  5
113
330
1E
100
AcDbEntity
  8
0
100
AcDbLine
 10
59.4
 20
201.9
 30
0.0
 11
60.6
 21
199.0
 31
0.0
  0
LINE
  5
114
330
1E
100
AcDbEntity
  8
0
100
AcDbLine
 10
59.4
 20
201.9
 30
0.0
 11
60.6
 21
199.0
 31
0.0
  0
LINE
  5
115
330
1E
100
AcDbEntity
  8
0
100
AcDbLine
 10
59.4
 20
208.0999999999999
 30
0.0
 11
60.6
 21
211.0
 31
0.0
  0
LINE
  5
116
330
1E
100
AcDbEntity
  8
0
100
AcDbLine
 10
59.5
 20
205.0
 30
0.0
 11
59.9
 21
202.0
 31
0.0
  0
LINE
  5
117
330
1E
100
AcDbEntity
  8
0
100
AcDbLine
 10
59.5
 20
205.0
 30
0.0
 11
59.9
 21
208.0
 31
0.0
  0
LINE
  5
118
330
1E
100
AcDbEntity
  8
0
100
AcDbLine
 10
59.0
 20
205.0
 30
0.0
 11
59.4
 21
201.9
 31
0.0
  0
LINE
  5
119
330
1E
100
AcDbEntity
  8
0
100
AcDbLine
 10
59.0
 20
205.0
 30
0.0
 11
59.4
 21
208.0999999999999
 31
0.0
  0
LINE
  5
11A
330
1E
100
AcDbEntity
  8
0
100
AcDbLine
 10
59.0
 20
205.0
 30
0.0
 11
59.4
 21
201.9
 31
0.0
  0
LINE
  5
11B
330
1E
100
AcDbEntity
  8
0
100
AcDbLine
 10
59.0
 20
205.0
 30
0.0
 11
59.4
 21
208.0999999999999
 31
0.0
  0
LINE
  5
11C
330
1E
100
AcDbEntity
  8
0
100
AcDbLine
 10
58.9
 20
212.0999999999999
 30
0.0
 11
61.1
 21
214.9
 31
0.0
  0
LINE
  5
11D
330
1E
100
AcDbEntity
  8
0
100
AcDbLine
 10
58.9
 20
198.0
 30
0.0
 11
61.0
 21
195.0
 31
0.0
  0
LINE
  5
11E
330
1E
100
AcDbEntity
  8
0
100
AcDbLine
 10
58.7471589130824
 20
239.680916729236
 30
0.0
 11
60.15039999999999
 21
232.2
 31
0.0
  0
LINE
  5
11F
330
1E
100
AcDbEntity
  8
0
100
AcDbLine
 10
56.9394
 20
251.6
 30
0.0
 11
58.7471589130824
 21
239.680916729236
 31
0.0
  0
LINE
  5
120
330
1E
100
AcDbEntity
  8
0
100
AcDbLine
 10
59.9
 20
208.0
 30
0.0
 11
61.0
 21
210.6999999999999
 31
0.0
  0
LINE
  5
121
330
1E
100
AcDbEntity
  8
0
100
AcDbLine
 10
60.03571428571429
 20
204.7499999999999
 30
0.0
 11
62.5340909090909
 21
204.7499999999999
 31
0.0
  0
LINE
  5
122
330
1E
100
AcDbEntity
  8
0
100
AcDbLine
 10
60.03571428571429
 20
204.7499999999999
 30
0.0
 11
68.75
 21
204.7499999999999
 31
0.0
  0
LINE
  5
123
330
1E
100
AcDbEntity
  8
0
100
AcDbLine
 10
60.0
 20
205.0
 30
0.0
 11
60.4
 21
202.1999999999999
 31
0.0
  0
LINE
  5
124
330
1E
100
AcDbEntity
  8
0
100
AcDbLine
 10
60.0
 20
205.0
 30
0.0
 11
60.4
 21
207.8
 31
0.0
  0
LINE
  5
125
330
1E
100
AcDbEntity
  8
0
100
AcDbLine
 10
60.03571428571429
 20
205.25
 30
0.0
 11
68.75
 21
205.25
 31
0.0
  0
LINE
  5
126
330
1E
100
AcDbEntity
  8
0
100
AcDbLine
 10
60.03571428571429
 20
204.7499999999999
 30
0.0
 11
68.75
 21
204.7499999999999
 31
0.0
  0
LINE
  5
127
330
1E
100
AcDbEntity
  8
0
100
AcDbLine
 10
60.03571428571429
 20
204.7499999999999
 30
0.0
 11
62.5340909090909
 21
204.7499999999999
 31
0.0
  0
LINE
  5
128
330
1E
100
AcDbEntity
  8
0
100
AcDbLine
 10
60.4
 20
207.8
 30
0.0
 11
61.5
 21
210.4999999999999
 31
0.0
  0
LINE
  5
129
330
1E
100
AcDbEntity
  8
0
100
AcDbLine
 10
60.4
 20
202.1999999999999
 30
0.0
 11
61.5
 21
199.5
 31
0.0
  0
LINE
  5
12A
330
1E
100
AcDbEntity
  8
0
100
AcDbLine
 10
60.4
 20
202.1999999999999
 30
0.0
 11
61.3996172612961
 21
199.746393995
 31
0.0
  0
LINE
  5
12B
330
1E
100
AcDbEntity
  8
0
100
AcDbLine
 10
60.03571428571429
 20
205.25
 30
0.0
 11
60.4
 21
207.8
 31
0.0
  0
LINE
  5
12C
330
1E
100
AcDbEntity
  8
0
100
AcDbLine
 10
59.9
 20
202.0
 30
0.0
 11
61.0
 21
199.3
 31
0.0
  0
LINE
  5
12D
330
1E
100
AcDbEntity
  8
0
100
AcDbLine
 10
60.15039999999999
 20
232.2
 30
0.0
 11
62.1637
 21
224.1999999999999
 31
0.0
  0
LINE
  5
12E
330
1E
100
AcDbEntity
  8
0
100
AcDbLine
 10
60.6
 20
211.0
 30
0.0
 11
62.5
 21
213.5
 31
0.0
  0
LINE
  5
12F
330
1E
100
AcDbEntity
  8
0
100
AcDbLine
 10
61.0
 20
210.6999999999999
 30
0.0
 11
62.9
 21
213.0999999999999
 31
0.0
  0
LINE
  5
130
330
1E
100
AcDbEntity
  8
0
100
AcDbLine
 10
61.0
 20
199.3
 30
0.0
 11
62.9
 21
196.9
 31
0.0
  0
LINE
  5
131
330
1E
100
AcDbEntity
  8
0
100
AcDbLine
 10
60.6
 20
199.0
 30
0.0
 11
62.5
 21
196.5
 31
0.0
  0
LINE
  5
132
330
1E
100
AcDbEntity
  8
0
100
AcDbLine
 10
60.6
 20
199.0
 30
0.0
 11
62.1998501013469
 21
196.8949340771749
 31
0.0
  0
LINE
  5
133
330
1E
100
AcDbEntity
  8
0
100
AcDbLine
 10
61.0
 20
195.0
 30
0.0
 11
62.0
 21
194.2999999999999
 31
0.0
  0
LINE
  5
134
330
1E
100
AcDbEntity
  8
0
100
AcDbLine
 10
61.1
 20
214.9
 30
0.0
 11
63.0
 21
216.4
 31
0.0
  0
LINE
  5
135
330
1E
100
AcDbEntity
  8
0
100
AcDbLine
 10
60.58399999999999
 20
184.2279999999999
 30
0.0
 11
65.624
 21
186.244
 31
0.0
  0
LINE
  5
136
330
1E
100
AcDbEntity
  8
0
100
AcDbLine
 10
59.55200860852321
 20
235.390126210574
 30
0.0
 11
71.0
 21
237.0
 31
0.0
  0
LINE
  5
137
330
1E
100
AcDbEntity
  8
0
100
AcDbLine
 10
60.95
 20
184.085
 30
0.0
 11
66.125
 21
186.2579999999999
 31
0.0
  0
LINE
  5
138
330
1E
100
AcDbEntity
  8
0
100
AcDbLine
 10
62.0
 20
184.7944
 30
0.0
 11
62.0
 21
194.2999999999999
 31
0.0
  0
LINE
  5
139
330
1E
100
AcDbEntity
  8
0
100
AcDbLine
 10
65.624
 20
186.244
 30
0.0
 11
71.0
 21
187.0
 31
0.0
  0
LINE
  5
13A
330
1E
100
AcDbEntity
  8
0
100
AcDbLine
 10
66.27500000000001
 20
185.804
 30
0.0
 11
71.0
 21
186.551
 31
0.0
  0
LINE
  5
13B
330
1E
100
AcDbEntity
  8
0
100
AcDbLine
 10
61.3996172612961
 20
210.2536060049999
 30
0.0
 11
63.5295530049405
 21
209.023882512351
 31
0.0
  0
LINE
  5
13C
330
1E
100
AcDbEntity
  8
0
100
AcDbLine
 10
61.3996172612961
 20
210.2536060049999
 30
0.0
 11
68.9264
 21
205.9079999999999
 31
0.0
  0
LINE
  5
13D
330
1E
100
AcDbEntity
  8
0
100
AcDbLine
 10
61.3996172612961
 20
210.2536060049999
 30
0.0
 11
68.9264
 21
205.9079999999999
 31
0.0
  0
LINE
  5
13E
330
1E
100
AcDbEntity
  8
0
100
AcDbLine
 10
61.3996172612961
 20
210.2536060049999
 30
0.0
 11
63.5295530049405
 21
209.023882512351
 31
0.0
  0
LINE
  5
13F
330
1E
100
AcDbEntity
  8
0
100
AcDbLine
 10
61.3996172612961
 20
199.746393995
 30
0.0
 11
63.5295530049405
 21
200.9761174876489
 31
0.0
  0
LINE
  5
140
330
1E
100
AcDbEntity
  8
0
100
AcDbLine
 10
61.3996172612961
 20
199.746393995
 30
0.0
 11
68.9264
 21
204.092
 31
0.0
  0
LINE
  5
141
330
1E
100
AcDbEntity
  8
0
100
AcDbLine
 10
61.5
 20
210.4999999999999
 30
0.0
 11
63.2
 21
212.8
 31
0.0
  0
LINE
  5
142
330
1E
100
AcDbEntity
  8
0
100
AcDbLine
 10
61.5
 20
199.5
 30
0.0
 11
63.2
 21
197.1999999999999
 31
0.0
  0
LINE
  5
143
330
1E
100
AcDbEntity
  8
0
100
AcDbLine
 10
61.6419410462508
 20
210.6920378861039
 30
0.0
 11
69.1764
 21
206.342
 31
0.0
  0
LINE
  5
144
330
1E
100
AcDbEntity
  8
0
100
AcDbLine
 10
61.6419410462508
 20
199.307962113896
 30
0.0
 11
69.1764
 21
203.6579999999999
 31
0.0
  0
LINE
  5
145
330
1E
100
AcDbEntity
  8
0
100
AcDbLine
 10
61.6419410462508
 20
199.307962113896
 30
0.0
 11
63.2
 21
197.1999999999999
 31
0.0
  0
LINE
  5
146
330
1E
100
AcDbEntity
  8
0
100
AcDbLine
 10
61.3996172612961
 20
199.746393995
 30
0.0
 11
68.9264
 21
204.092
 31
0.0
  0
LINE
  5
147
330
1E
100
AcDbEntity
  8
0
100
AcDbLine
 10
61.3996172612961
 20
199.746393995
 30
0.0
 11
63.5295530049405
 21
200.9761174876489
 31
0.0
  0
LINE
  5
148
330
1E
100
AcDbEntity
  8
0
100
AcDbLine
 10
61.8121
 20
196.492
 30
0.0
 11
62.1231
 21
196.201
 31
0.0
  0
LINE
  5
149
330
1E
100
AcDbEntity
  8
0
100
AcDbLine
 10
61.8121
 20
196.492
 30
0.0
 11
62.1998501013469
 21
196.8949340771749
 31
0.0
  0
LINE
  5
14A
330
1E
100
AcDbEntity
  8
0
100
AcDbLine
 10
62.1231
 20
196.201
 30
0.0
 11
62.7451
 21
195.62
 31
0.0
  0
LINE
  5
14B
330
1E
100
AcDbEntity
  8
0
100
AcDbLine
 10
62.1231
 20
196.201
 30
0.0
 11
62.4606282017278
 21
196.5518049977269
 31
0.0
  0
LINE
  5
14C
330
1E
100
AcDbEntity
  8
0
100
AcDbLine
 10
62.1231
 20
196.201
 30
0.0
 11
62.7451
 21
195.62
 31
0.0
  0
LINE
  5
14D
330
1E
100
AcDbEntity
  8
0
100
AcDbLine
 10
61.8121
 20
196.492
 30
0.0
 11
62.1231
 21
196.201
 31
0.0
  0
LINE
  5
14E
330
1E
100
AcDbEntity
  8
0
100
AcDbLine
 10
62.0
 20
194.2999999999999
 30
0.0
 11
62.0
 21
184.7944
 31
0.0
  0
LINE
  5
14F
330
1E
100
AcDbEntity
  8
0
100
AcDbLine
 10
62.5
 20
205.0
 30
0.0
 11
62.8
 21
202.8
 31
0.0
  0
LINE
  5
150
330
1E
100
AcDbEntity
  8
0
100
AcDbLine
 10
62.5
 20
205.0
 30
0.0
 11
62.8
 21
207.2
 31
0.0
  0
LINE
  5
151
330
1E
100
AcDbEntity
  8
0
100
AcDbLine
 10
62.5
 20
213.5
 30
0.0
 11
65.0
 21
215.3999999999999
 31
0.0
  0
LINE
  5
152
330
1E
100
AcDbEntity
  8
0
100
AcDbLine
 10
62.7451
 20
195.62
 30
0.0
 11
63.056
 21
195.33
 31
0.0
  0
LINE
  5
153
330
1E
100
AcDbEntity
  8
0
100
AcDbLine
 10
62.7451
 20
195.62
 30
0.0
 11
63.1306445807201
 21
196.020710118653
 31
0.0
  0
LINE
  5
154
330
1E
100
AcDbEntity
  8
0
100
AcDbLine
 10
62.7451
 20
195.62
 30
0.0
 11
63.056
 21
195.33
 31
0.0
  0
LINE
  5
155
330
1E
100
AcDbEntity
  8
0
100
AcDbLine
 10
62.8
 20
202.8
 30
0.0
 11
63.5295530049405
 21
200.9761174876489
 31
0.0
  0
LINE
  5
156
330
1E
100
AcDbEntity
  8
0
100
AcDbLine
 10
62.8
 20
202.8
 30
0.0
 11
63.6
 21
200.8
 31
0.0
  0
LINE
  5
157
330
1E
100
AcDbEntity
  8
0
100
AcDbLine
 10
62.8
 20
207.2
 30
0.0
 11
63.5295530049405
 21
209.023882512351
 31
0.0
  0
LINE
  5
158
330
1E
100
AcDbEntity
  8
0
100
AcDbLine
 10
62.8
 20
207.2
 30
0.0
 11
63.6
 21
209.2
 31
0.0
  0
LINE
  5
159
330
1E
100
AcDbEntity
  8
0
100
AcDbLine
 10
62.5340909090909
 20
205.25
 30
0.0
 11
62.8
 21
207.2
 31
0.0
  0
LINE
  5
15A
330
1E
100
AcDbEntity
  8
0
100
AcDbLine
 10
62.5340909090909
 20
204.7499999999999
 30
0.0
 11
62.8
 21
202.8
 31
0.0
  0
LINE
  5
15B
330
1E
100
AcDbEntity
  8
0
100
AcDbLine
 10
63.0
 20
205.0
 30
0.0
 11
63.3
 21
202.8999999999999
 31
0.0
  0
LINE
  5
15C
330
1E
100
AcDbEntity
  8
0
100
AcDbLine
 10
63.0
 20
205.0
 30
0.0
 11
63.3
 21
207.1
 31
0.0
  0
LINE
  5
15D
330
1E
100
AcDbEntity
  8
0
100
AcDbLine
 10
62.9
 20
213.0999999999999
 30
0.0
 11
65.3
 21
215.0
 31
0.0
  0
LINE
  5
15E
330
1E
100
AcDbEntity
  8
0
100
AcDbLine
 10
62.9
 20
196.9
 30
0.0
 11
65.3
 21
195.0
 31
0.0
  0
LINE
  5
15F
330
1E
100
AcDbEntity
  8
0
100
AcDbLine
 10
62.5
 20
196.5
 30
0.0
 11
65.0
 21
194.5999999999999
 31
0.0
  0
LINE
  5
160
330
1E
100
AcDbEntity
  8
0
100
AcDbLine
 10
63.0
 20
216.4
 30
0.0
 11
63.0
 21
213.8799999999999
 31
0.0
  0
LINE
  5
161
330
1E
100
AcDbEntity
  8
0
100
AcDbLine
 10
65.7122
 20
193.61
 30
0.0
 11
66.5112
 21
193.304
 31
0.0
  0
LINE
  5
162
330
1E
100
AcDbEntity
  8
0
100
AcDbLine
 10
65.7122
 20
193.61
 30
0.0
 11
65.947955182727
 21
194.20774268301
 31
0.0
  0
LINE
  5
163
330
1E
100
AcDbEntity
  8
0
100
AcDbLine
 10
65.31270000000001
 20
193.763
 30
0.0
 11
65.7122
 21
193.61
 31
0.0
  0
LINE
  5
164
330
1E
100
AcDbEntity
  8
0
100
AcDbLine
 10
65.31270000000001
 20
193.763
 30
0.0
 11
65.55262926871529
 21
194.3713258198419
 31
0.0
  0
LINE
  5
165
330
1E
100
AcDbEntity
  8
0
100
AcDbLine
 10
65.31270000000001
 20
193.763
 30
0.0
 11
65.7122
 21
193.61
 31
0.0
  0
LINE
  5
166
330
1E
100
AcDbEntity
  8
0
100
AcDbLine
 10
66.5112
 20
193.304
 30
0.0
 11
66.9107
 21
193.1509999999999
 31
0.0
  0
LINE
  5
167
330
1E
100
AcDbEntity
  8
0
100
AcDbLine
 10
66.5112
 20
193.304
 30
0.0
 11
66.7383588693899
 21
193.880679088528
 31
0.0
  0
LINE
  5
168
330
1E
100
AcDbEntity
  8
0
100
AcDbLine
 10
66.9107
 20
193.1509999999999
 30
0.0
 11
67.1336893380693
 21
193.717094067006
 31
0.0
  0
LINE
  5
169
330
1E
100
AcDbEntity
  8
0
100
AcDbLine
 10
66.5112
 20
193.304
 30
0.0
 11
66.9107
 21
193.1509999999999
 31
0.0
  0
LINE
  5
16A
330
1E
100
AcDbEntity
  8
0
100
AcDbLine
 10
66.9107
 20
193.1509999999999
 30
0.0
 11
67.1336893380693
 21
193.717094067006
 31
0.0
  0
LINE
  5
16B
330
1E
100
AcDbEntity
  8
0
100
AcDbLine
 10
65.7122
 20
193.61
 30
0.0
 11
66.5112
 21
193.304
 31
0.0
  0
LINE
  5
16C
330
1E
100
AcDbEntity
  8
0
100
AcDbLine
 10
63.03571428571429
 20
204.7499999999999
 30
0.0
 11
65.53571428571429
 21
204.7499999999999
 31
0.0
  0
LINE
  5
16D
330
1E
100
AcDbEntity
  8
0
100
AcDbLine
 10
63.2
 20
197.1999999999999
 30
0.0
 11
65.5
 21
195.5
 31
0.0
  0
LINE
  5
16E
330
1E
100
AcDbEntity
  8
0
100
AcDbLine
 10
63.2
 20
197.1999999999999
 30
0.0
 11
65.308396192554
 21
195.641620205504
 31
0.0
  0
LINE
  5
16F
330
1E
100
AcDbEntity
  8
0
100
AcDbLine
 10
63.3
 20
207.1
 30
0.0
 11
64.1
 21
209.0
 31
0.0
  0
LINE
  5
170
330
1E
100
AcDbEntity
  8
0
100
AcDbLine
 10
63.2
 20
212.8
 30
0.0
 11
65.5
 21
214.5
 31
0.0
  0
LINE
  5
171
330
1E
100
AcDbEntity
  8
0
100
AcDbLine
 10
63.3
 20
202.8999999999999
 30
0.0
 11
64.1
 21
201.0
 31
0.0
  0
LINE
  5
172
330
1E
100
AcDbEntity
  8
0
100
AcDbLine
 10
63.056
 20
195.33
 30
0.0
 11
63.47143850511249
 21
195.761706736115
 31
0.0
  0
LINE
  5
173
330
1E
100
AcDbEntity
  8
0
100
AcDbLine
 10
63.056
 20
195.33
 30
0.0
 11
63.47143850511249
 21
195.761706736115
 31
0.0
  0
LINE
  5
174
330
1E
100
AcDbEntity
  8
0
100
AcDbLine
 10
63.6
 20
200.8
 30
0.0
 11
65.0
 21
199.0
 31
0.0
  0
LINE
  5
175
330
1E
100
AcDbEntity
  8
0
100
AcDbLine
 10
65.0
 20
199.0
 30
0.0
 11
66.5509428900301
 21
197.793711085532
 31
0.0
  0
LINE
  5
176
330
1E
100
AcDbEntity
  8
0
100
AcDbLine
 10
65.0
 20
199.0
 30
0.0
 11
66.79999999999999
 21
197.5999999999999
 31
0.0
  0
LINE
  5
177
330
1E
100
AcDbEntity
  8
0
100
AcDbLine
 10
64.1
 20
201.0
 30
0.0
 11
65.4
 21
199.3999999999999
 31
0.0
  0
LINE
  5
178
330
1E
100
AcDbEntity
  8
0
100
AcDbLine
 10
63.7940606171506
 20
200.5504934922349
 30
0.0
 11
65.0
 21
199.0
 31
0.0
  0
LINE
  5
179
330
1E
100
AcDbEntity
  8
0
100
AcDbLine
 10
63.6
 20
209.2
 30
0.0
 11
65.0
 21
211.0
 31
0.0
  0
LINE
  5
17A
330
1E
100
AcDbEntity
  8
0
100
AcDbLine
 10
63.7940606171506
 20
209.449506507765
 30
0.0
 11
65.0
 21
211.0
 31
0.0
  0
LINE
  5
17B
330
1E
100
AcDbEntity
  8
0
100
AcDbLine
 10
64.1
 20
209.0
 30
0.0
 11
65.4
 21
210.5999999999999
 31
0.0
  0
LINE
  5
17C
330
1E
100
AcDbEntity
  8
0
100
AcDbLine
 10
65.0
 20
211.0
 30
0.0
 11
66.5509428900301
 21
212.2062889144679
 31
0.0
  0
LINE
  5
17D
330
1E
100
AcDbEntity
  8
0
100
AcDbLine
 10
65.0
 20
211.0
 30
0.0
 11
66.79999999999999
 21
212.4
 31
0.0
  0
LINE
  5
17E
330
1E
100
AcDbEntity
  8
0
100
AcDbLine
 10
63.99653456519589
 20
208.7542695923399
 30
0.0
 11
66.13141886184171
 21
207.521689040788
 31
0.0
  0
LINE
  5
17F
330
1E
100
AcDbEntity
  8
0
100
AcDbLine
 10
63.99653456519589
 20
201.24573040766
 30
0.0
 11
66.13141886184171
 21
202.478310959212
 31
0.0
  0
LINE
  5
180
330
1E
100
AcDbEntity
  8
0
100
AcDbLine
 10
65.3
 20
215.0
 30
0.0
 11
68.0
 21
216.1
 31
0.0
  0
LINE
  5
181
330
1E
100
AcDbEntity
  8
0
100
AcDbLine
 10
65.0
 20
215.3999999999999
 30
0.0
 11
67.9
 21
216.5999999999999
 31
0.0
  0
LINE
  5
182
330
1E
100
AcDbEntity
  8
0
100
AcDbLine
 10
65.5
 20
195.5
 30
0.0
 11
68.2
 21
194.4
 31
0.0
  0
LINE
  5
183
330
1E
100
AcDbEntity
  8
0
100
AcDbLine
 10
65.7460859012534
 20
195.399742780971
 30
0.0
 11
70.09149999999999
 21
202.9259999999999
 31
0.0
  0
LINE
  5
184
330
1E
100
AcDbEntity
  8
0
100
AcDbLine
 10
65.4
 20
199.3999999999999
 30
0.0
 11
67.0
 21
198.1
 31
0.0
  0
LINE
  5
185
330
1E
100
AcDbEntity
  8
0
100
AcDbLine
 10
65.7
 20
203.6
 30
0.0
 11
66.13141886184171
 21
202.478310959212
 31
0.0
  0
LINE
  5
186
330
1E
100
AcDbEntity
  8
0
100
AcDbLine
 10
65.7
 20
203.6
 30
0.0
 11
66.2
 21
202.3
 31
0.0
  0
LINE
  5
187
330
1E
100
AcDbEntity
  8
0
100
AcDbLine
 10
65.53571428571429
 20
204.7499999999999
 30
0.0
 11
65.7
 21
203.6
 31
0.0
  0
LINE
  5
188
330
1E
100
AcDbEntity
  8
0
100
AcDbLine
 10
66.2
 20
202.3
 30
0.0
 11
67.09999999999999
 21
201.1
 31
0.0
  0
LINE
  5
189
330
1E
100
AcDbEntity
  8
0
100
AcDbLine
 10
66.79999999999999
 20
197.5999999999999
 30
0.0
 11
68.79999999999999
 21
196.8
 31
0.0
  0
LINE
  5
18A
330
1E
100
AcDbEntity
  8
0
100
AcDbLine
 10
66.7
 20
202.4999999999999
 30
0.0
 11
67.5
 21
201.5
 31
0.0
  0
LINE
  5
18B
330
1E
100
AcDbEntity
  8
0
100
AcDbLine
 10
66.5970284339277
 20
202.747131758574
 30
0.0
 11
68.7387752074771
 21
203.983674377569
 31
0.0
  0
LINE
  5
18C
330
1E
100
AcDbEntity
  8
0
100
AcDbLine
 10
66.2
 20
203.6999999999999
 30
0.0
 11
66.7
 21
202.4999999999999
 31
0.0
  0
LINE
  5
18D
330
1E
100
AcDbEntity
  8
0
100
AcDbLine
 10
66.5970284339277
 20
202.747131758574
 30
0.0
 11
68.7387752074771
 21
203.983674377569
 31
0.0
  0
LINE
  5
18E
330
1E
100
AcDbEntity
  8
0
100
AcDbLine
 10
66.0384615384615
 20
204.7499999999999
 30
0.0
 11
68.5416666666667
 21
204.7499999999999
 31
0.0
  0
LINE
  5
18F
330
1E
100
AcDbEntity
  8
0
100
AcDbLine
 10
65.4
 20
210.5999999999999
 30
0.0
 11
67.0
 21
211.9
 31
0.0
  0
LINE
  5
190
330
1E
100
AcDbEntity
  8
0
100
AcDbLine
 10
66.2
 20
206.3
 30
0.0
 11
66.7
 21
207.5
 31
0.0
  0
LINE
  5
191
330
1E
100
AcDbEntity
  8
0
100
AcDbLine
 10
66.2
 20
207.6999999999999
 30
0.0
 11
67.09999999999999
 21
208.8999999999999
 31
0.0
  0
LINE
  5
192
330
1E
100
AcDbEntity
  8
0
100
AcDbLine
 10
65.7
 20
206.4
 30
0.0
 11
66.2
 21
207.6999999999999
 31
0.0
  0
LINE
  5
193
330
1E
100
AcDbEntity
  8
0
100
AcDbLine
 10
66.3886399473552
 20
207.951519929807
 30
0.0
 11
67.09999999999999
 21
208.8999999999999
 31
0.0
  0
LINE
  5
194
330
1E
100
AcDbEntity
  8
0
100
AcDbLine
 10
66.0
 20
205.0
 30
0.0
 11
66.2
 21
203.6999999999999
 31
0.0
  0
LINE
  5
195
330
1E
100
AcDbEntity
  8
0
100
AcDbLine
 10
66.0
 20
205.0
 30
0.0
 11
66.2
 21
206.3
 31
0.0
  0
LINE
  5
196
330
1E
100
AcDbEntity
  8
0
100
AcDbLine
 10
65.5
 20
205.0
 30
0.0
 11
65.7
 21
203.6
 31
0.0
  0
LINE
  5
197
330
1E
100
AcDbEntity
  8
0
100
AcDbLine
 10
65.5
 20
205.0
 30
0.0
 11
65.7
 21
206.4
 31
0.0
  0
LINE
  5
198
330
1E
100
AcDbEntity
  8
0
100
AcDbLine
 10
65.5
 20
214.5
 30
0.0
 11
68.2
 21
215.6
 31
0.0
  0
LINE
  5
199
330
1E
100
AcDbEntity
  8
0
100
AcDbLine
 10
65.7460859012534
 20
214.600257219029
 30
0.0
 11
66.9758339587242
 21
212.47033358349
 31
0.0
  0
LINE
  5
19A
330
1E
100
AcDbEntity
  8
0
100
AcDbLine
 10
65.7460859012534
 20
214.600257219029
 30
0.0
 11
70.09149999999999
 21
207.074
 31
0.0
  0
LINE
  5
19B
330
1E
100
AcDbEntity
  8
0
100
AcDbLine
 10
65.308396192554
 20
214.3583797944959
 30
0.0
 11
69.6585
 21
206.824
 31
0.0
  0
LINE
  5
19C
330
1E
100
AcDbEntity
  8
0
100
AcDbLine
 10
66.7
 20
207.5
 30
0.0
 11
67.5
 21
208.4999999999999
 31
0.0
  0
LINE
  5
19D
330
1E
100
AcDbEntity
  8
0
100
AcDbLine
 10
66.79999999999999
 20
212.4
 30
0.0
 11
68.79999999999999
 21
213.2
 31
0.0
  0
LINE
  5
19E
330
1E
100
AcDbEntity
  8
0
100
AcDbLine
 10
66.5970284339277
 20
207.2528682414259
 30
0.0
 11
68.7387752074771
 21
206.0163256224309
 31
0.0
  0
LINE
  5
19F
330
1E
100
AcDbEntity
  8
0
100
AcDbLine
 10
66.5970284339277
 20
207.2528682414259
 30
0.0
 11
68.7387752074771
 21
206.0163256224309
 31
0.0
  0
LINE
  5
1A0
330
1E
100
AcDbEntity
  8
0
100
AcDbLine
 10
66.0384615384615
 20
204.7499999999999
 30
0.0
 11
68.5416666666667
 21
204.7499999999999
 31
0.0
  0
LINE
  5
1A1
330
1E
100
AcDbEntity
  8
0
100
AcDbLine
 10
67.0
 20
198.1
 30
0.0
 11
68.9
 21
197.3
 31
0.0
  0
LINE
  5
1A2
330
1E
100
AcDbEntity
  8
0
100
AcDbLine
 10
67.0
 20
211.9
 30
0.0
 11
68.9
 21
212.6999999999999
 31
0.0
  0
LINE
  5
1A3
330
1E
100
AcDbEntity
  8
0
100
AcDbLine
 10
66.9758339587242
 20
212.47033358349
 30
0.0
 11
68.79999999999999
 21
213.2
 31
0.0
  0
LINE
  5
1A4
330
1E
100
AcDbEntity
  8
0
100
AcDbLine
 10
66.84871540959429
 20
202.314105738007
 30
0.0
 11
67.5
 21
201.5
 31
0.0
  0
LINE
  5
1A5
330
1E
100
AcDbEntity
  8
0
100
AcDbLine
 10
66.8147070151307
 20
198.2505505502059
 30
0.0
 11
68.0489613215149
 21
200.3882790088639
 31
0.0
  0
LINE
  5
1A6
330
1E
100
AcDbEntity
  8
0
100
AcDbLine
 10
65.308396192554
 20
195.641620205504
 30
0.0
 11
69.6585
 21
203.1759999999999
 31
0.0
  0
LINE
  5
1A7
330
1E
100
AcDbEntity
  8
0
100
AcDbLine
 10
65.308396192554
 20
195.641620205504
 30
0.0
 11
66.5509428900301
 21
197.793711085532
 31
0.0
  0
LINE
  5
1A8
330
1E
100
AcDbEntity
  8
0
100
AcDbLine
 10
65.3
 20
195.0
 30
0.0
 11
68.0
 21
193.9
 31
0.0
  0
LINE
  5
1A9
330
1E
100
AcDbEntity
  8
0
100
AcDbLine
 10
65.0
 20
194.5999999999999
 30
0.0
 11
67.9
 21
193.4
 31
0.0
  0
LINE
  5
1AA
330
1E
100
AcDbEntity
  8
0
100
AcDbLine
 10
63.47143850511249
 20
195.761706736114
 30
0.0
 11
65.0
 21
194.5999999999999
 31
0.0
  0
LINE
  5
1AB
330
1E
100
AcDbEntity
  8
0
100
AcDbLine
 10
65.0
 20
194.5999999999999
 30
0.0
 11
65.55262926871529
 21
194.3713258198419
 31
0.0
  0
LINE
  5
1AC
330
1E
100
AcDbEntity
  8
0
100
AcDbLine
 10
63.0
 20
213.8799999999999
 30
0.0
 11
63.0
 21
216.4
 31
0.0
  0
LINE
  5
1AD
330
1E
100
AcDbEntity
  8
0
100
AcDbLine
 10
64.31650000000001
 20
217.9
 30
0.0
 11
65.36559468374079
 21
215.551280558789
 31
0.0
  0
LINE
  5
1AE
330
1E
100
AcDbEntity
  8
0
100
AcDbLine
 10
62.1637
 20
224.1999999999999
 30
0.0
 11
64.31650000000001
 21
217.9
 31
0.0
  0
LINE
  5
1AF
330
1E
100
AcDbEntity
  8
0
100
AcDbLine
 10
66.125
 20
186.2579999999999
 30
0.0
 11
71.0
 21
187.0
 31
0.0
  0
LINE
  5
1B0
330
1E
100
AcDbEntity
  8
0
100
AcDbLine
 10
61.17499999999999
 20
148.4189999999999
 30
0.0
 11
66.27500000000001
 21
146.326
 31
0.0
  0
LINE
  5
1B1
330
1E
100
AcDbEntity
  8
0
100
AcDbLine
 10
60.95
 20
148.0459999999999
 30
0.0
 11
66.125
 21
145.877
 31
0.0
  0
LINE
  5
1B2
330
1E
100
AcDbEntity
  8
0
100
AcDbLine
 10
76.376
 20
145.7559999999999
 30
0.0
 11
81.416
 21
147.772
 31
0.0
  0
LINE
  5
1B3
330
1E
100
AcDbEntity
  8
0
100
AcDbLine
 10
75.875
 20
145.877
 30
0.0
 11
81.05
 21
148.0459999999999
 31
0.0
  0
LINE
  5
1B4
330
1E
100
AcDbEntity
  8
0
100
AcDbLine
 10
75.0
 20
145.7429230769229
 30
0.0
 11
75.0
 21
75.0
 31
0.0
  0
LINE
  5
1B5
330
1E
100
AcDbEntity
  8
0
100
AcDbLine
 10
79.7
 20
146.924
 30
0.0
 11
81.416
 21
147.772
 31
0.0
  0
LINE
  5
1B6
330
1E
100
AcDbEntity
  8
0
100
AcDbLine
 10
81.416
 20
147.772
 30
0.0
 11
85.868
 21
151.1319999999999
 31
0.0
  0
LINE
  5
1B7
330
1E
100
AcDbEntity
  8
0
100
AcDbLine
 10
81.416
 20
147.772
 30
0.0
 11
83.40000000000001
 21
149.065
 31
0.0
  0
LINE
  5
1B8
330
1E
100
AcDbEntity
  8
0
100
AcDbLine
 10
77.88037533512059
 20
146.357750134048
 30
0.0
 11
79.7
 21
146.924
 31
0.0
  0
LINE
  5
1B9
330
1E
100
AcDbEntity
  8
0
100
AcDbLine
 10
75.72499999999999
 20
146.326
 30
0.0
 11
80.82500000000001
 21
148.4189999999999
 31
0.0
  0
LINE
  5
1BA
330
1E
100
AcDbEntity
  8
0
100
AcDbLine
 10
85.868
 20
151.1319999999999
 30
0.0
 11
89.228
 21
155.584
 31
0.0
  0
LINE
  5
1BB
330
1E
100
AcDbEntity
  8
0
100
AcDbLine
 10
86.06720506729999
 20
151.395946714173
 30
0.0
 11
86.2
 21
151.512
 31
0.0
  0
LINE
  5
1BC
330
1E
100
AcDbEntity
  8
0
100
AcDbLine
 10
80.82500000000001
 20
148.4189999999999
 30
0.0
 11
85.25
 21
151.859
 31
0.0
  0
LINE
  5
1BD
330
1E
100
AcDbEntity
  8
0
100
AcDbLine
 10
80.82500000000001
 20
183.71
 30
0.0
 11
85.25
 21
180.2709999999999
 31
0.0
  0
LINE
  5
1BE
330
1E
100
AcDbEntity
  8
0
100
AcDbLine
 10
85.25
 20
180.2709999999999
 30
0.0
 11
88.7
 21
175.859
 31
0.0
  0
LINE
  5
1BF
330
1E
100
AcDbEntity
  8
0
100
AcDbLine
 10
71.0
 20
186.551
 30
0.0
 11
75.72499999999999
 21
185.804
 31
0.0
  0
LINE
  5
1C0
330
1E
100
AcDbEntity
  8
0
100
AcDbLine
 10
75.72499999999999
 20
185.804
 30
0.0
 11
80.82500000000001
 21
183.71
 31
0.0
  0
LINE
  5
1C1
330
1E
100
AcDbEntity
  8
0
100
AcDbLine
 10
70.5714
 20
192.5
 30
0.0
 11
71.4286
 21
192.5
 31
0.0
  0
LINE
  5
1C2
330
1E
100
AcDbEntity
  8
0
100
AcDbLine
 10
70.14289999999999
 20
192.5
 30
0.0
 11
70.5714
 21
192.5
 31
0.0
  0
LINE
  5
1C3
330
1E
100
AcDbEntity
  8
0
100
AcDbLine
 10
70.14289999999999
 20
192.5
 30
0.0
 11
70.14289999999999
 21
193.110593548387
 31
0.0
  0
LINE
  5
1C4
330
1E
100
AcDbEntity
  8
0
100
AcDbLine
 10
70.5714
 20
193.0553032258059
 30
0.0
 11
70.5714
 21
192.5
 31
0.0
  0
LINE
  5
1C5
330
1E
100
AcDbEntity
  8
0
100
AcDbLine
 10
70.5714
 20
192.5
 30
0.0
 11
71.4286
 21
192.5
 31
0.0
  0
LINE
  5
1C6
330
1E
100
AcDbEntity
  8
0
100
AcDbLine
 10
70.5714
 20
192.5
 30
0.0
 11
70.5714
 21
193.0553032258059
 31
0.0
  0
LINE
  5
1C7
330
1E
100
AcDbEntity
  8
0
100
AcDbLine
 10
70.14289999999999
 20
193.110593548387
 30
0.0
 11
70.14289999999999
 21
192.5
 31
0.0
  0
LINE
  5
1C8
330
1E
100
AcDbEntity
  8
0
100
AcDbLine
 10
70.14289999999999
 20
193.110593548387
 30
0.0
 11
70.14289999999999
 21
192.5
 31
0.0
  0
LINE
  5
1C9
330
1E
100
AcDbEntity
  8
0
100
AcDbLine
 10
70.14289999999999
 20
192.5
 30
0.0
 11
70.5714
 21
192.5
 31
0.0
  0
LINE
  5
1CA
330
1E
100
AcDbEntity
  8
0
100
AcDbLine
 10
70.14289999999999
 20
192.5
 30
0.0
 11
70.14289999999999
 21
193.110593548387
 31
0.0
  0
LINE
  5
1CB
330
1E
100
AcDbEntity
  8
0
100
AcDbLine
 10
71.0
 20
193.0
 30
0.0
 11
74.1
 21
193.4
 31
0.0
  0
LINE
  5
1CC
330
1E
100
AcDbEntity
  8
0
100
AcDbLine
 10
67.09999999999999
 20
208.8999999999999
 30
0.0
 11
68.0489613215149
 21
209.611720991136
 31
0.0
  0
LINE
  5
1CD
330
1E
100
AcDbEntity
  8
0
100
AcDbLine
 10
67.09999999999999
 20
208.8999999999999
 30
0.0
 11
68.3
 21
209.8
 31
0.0
  0
LINE
  5
1CE
330
1E
100
AcDbEntity
  8
0
100
AcDbLine
 10
67.09999999999999
 20
201.1
 30
0.0
 11
68.3
 21
200.1999999999999
 31
0.0
  0
LINE
  5
1CF
330
1E
100
AcDbEntity
  8
0
100
AcDbLine
 10
67.5
 20
208.4999999999999
 30
0.0
 11
68.5
 21
209.2999999999999
 31
0.0
  0
LINE
  5
1D0
330
1E
100
AcDbEntity
  8
0
100
AcDbLine
 10
67.5
 20
201.5
 30
0.0
 11
68.5
 21
200.7
 31
0.0
  0
LINE
  5
1D1
330
1E
100
AcDbEntity
  8
0
100
AcDbLine
 10
67.5
 20
201.5
 30
0.0
 11
68.3145821484992
 21
200.8483342812009
 31
0.0
  0
LINE
  5
1D2
330
1E
100
AcDbEntity
  8
0
100
AcDbLine
 10
67.2454552165836
 20
197.9966504351229
 30
0.0
 11
68.9
 21
197.3
 31
0.0
  0
LINE
  5
1D3
330
1E
100
AcDbEntity
  8
0
100
AcDbLine
 10
67.2454552165836
 20
197.9966504351229
 30
0.0
 11
68.9
 21
197.3
 31
0.0
  0
LINE
  5
1D4
330
1E
100
AcDbEntity
  8
0
100
AcDbLine
 10
67.2454552165836
 20
212.003349564877
 30
0.0
 11
68.4780569123419
 21
209.8684834278239
 31
0.0
  0
LINE
  5
1D5
330
1E
100
AcDbEntity
  8
0
100
AcDbLine
 10
67.2454552165836
 20
212.003349564877
 30
0.0
 11
68.9
 21
212.6999999999999
 31
0.0
  0
LINE
  5
1D6
330
1E
100
AcDbEntity
  8
0
100
AcDbLine
 10
68.0
 20
216.1
 30
0.0
 11
71.0
 21
216.5
 31
0.0
  0
LINE
  5
1D7
330
1E
100
AcDbEntity
  8
0
100
AcDbLine
 10
67.9
 20
216.5999999999999
 30
0.0
 11
71.0
 21
217.0
 31
0.0
  0
LINE
  5
1D8
330
1E
100
AcDbEntity
  8
0
100
AcDbLine
 10
68.3
 20
209.8
 30
0.0
 11
69.59999999999999
 21
210.3
 31
0.0
  0
LINE
  5
1D9
330
1E
100
AcDbEntity
  8
0
100
AcDbLine
 10
68.2
 20
215.6
 30
0.0
 11
71.0
 21
216.0
 31
0.0
  0
LINE
  5
1DA
330
1E
100
AcDbEntity
  8
0
100
AcDbLine
 10
68.3
 20
200.1999999999999
 30
0.0
 11
69.59999999999999
 21
199.6999999999999
 31
0.0
  0
LINE
  5
1DB
330
1E
100
AcDbEntity
  8
0
100
AcDbLine
 10
68.2
 20
194.4
 30
0.0
 11
71.0
 21
194.0
 31
0.0
  0
LINE
  5
1DC
330
1E
100
AcDbEntity
  8
0
100
AcDbLine
 10
68.79999999999999
 20
196.8
 30
0.0
 11
70.75
 21
196.534090909091
 31
0.0
  0
LINE
  5
1DD
330
1E
100
AcDbEntity
  8
0
100
AcDbLine
 10
68.79999999999999
 20
196.8
 30
0.0
 11
71.0
 21
196.5
 31
0.0
  0
LINE
  5
1DE
330
1E
100
AcDbEntity
  8
0
100
AcDbLine
 10
70.75
 20
196.534090909091
 30
0.0
 11
70.75
 21
194.035714285714
 31
0.0
  0
LINE
  5
1DF
330
1E
100
AcDbEntity
  8
0
100
AcDbLine
 10
68.9
 20
197.3
 30
0.0
 11
71.0
 21
197.0
 31
0.0
  0
LINE
  5
1E0
330
1E
100
AcDbEntity
  8
0
100
AcDbLine
 10
68.74688706174371
 20
200.59713039094
 30
0.0
 11
69.7
 21
200.1999999999999
 31
0.0
  0
LINE
  5
1E1
330
1E
100
AcDbEntity
  8
0
100
AcDbLine
 10
68.5
 20
200.7
 30
0.0
 11
69.7
 21
200.1999999999999
 31
0.0
  0
LINE
  5
1E2
330
1E
100
AcDbEntity
  8
0
100
AcDbLine
 10
68.4780569123419
 20
200.131516572176
 30
0.0
 11
69.59999999999999
 21
199.6999999999999
 31
0.0
  0
LINE
  5
1E3
330
1E
100
AcDbEntity
  8
0
100
AcDbLine
 10
69.9834464170433
 20
202.738851194319
 30
0.0
 11
70.4
 21
202.5999999999999
 31
0.0
  0
LINE
  5
1E4
330
1E
100
AcDbEntity
  8
0
100
AcDbLine
 10
70.4
 20
202.5999999999999
 30
0.0
 11
70.75
 21
202.541666666667
 31
0.0
  0
LINE
  5
1E5
330
1E
100
AcDbEntity
  8
0
100
AcDbLine
 10
70.4
 20
202.5999999999999
 30
0.0
 11
71.0
 21
202.4999999999999
 31
0.0
  0
LINE
  5
1E6
330
1E
100
AcDbEntity
  8
0
100
AcDbLine
 10
69.7
 20
200.1999999999999
 30
0.0
 11
71.0
 21
200.0
 31
0.0
  0
LINE
  5
1E7
330
1E
100
AcDbEntity
  8
0
100
AcDbLine
 10
69.59999999999999
 20
199.6999999999999
 30
0.0
 11
70.75
 21
199.5357142857139
 31
0.0
  0
LINE
  5
1E8
330
1E
100
AcDbEntity
  8
0
100
AcDbLine
 10
69.59999999999999
 20
199.6999999999999
 30
0.0
 11
71.0
 21
199.5
 31
0.0
  0
LINE
  5
1E9
330
1E
100
AcDbEntity
  8
0
100
AcDbLine
 10
70.75
 20
199.5357142857139
 30
0.0
 11
70.75
 21
197.035714285714
 31
0.0
  0
LINE
  5
1EA
330
1E
100
AcDbEntity
  8
0
100
AcDbLine
 10
70.75
 20
202.541666666667
 30
0.0
 11
70.75
 21
200.038461538462
 31
0.0
  0
LINE
  5
1EB
330
1E
100
AcDbEntity
  8
0
100
AcDbLine
 10
70.5
 20
203.1
 30
0.0
 11
71.0
 21
203.0
 31
0.0
  0
LINE
  5
1EC
330
1E
100
AcDbEntity
  8
0
100
AcDbLine
 10
69.8
 20
202.8
 30
0.0
 11
70.4
 21
202.5999999999999
 31
0.0
  0
LINE
  5
1ED
330
1E
100
AcDbEntity
  8
0
100
AcDbLine
 10
70.75
 20
202.7499999999999
 30
0.0
 11
70.75
 21
194.035714285714
 31
0.0
  0
LINE
  5
1EE
330
1E
100
AcDbEntity
  8
0
100
AcDbLine
 10
70.75
 20
202.7499999999999
 30
0.0
 11
71.25
 21
202.7499999999999
 31
0.0
  0
LINE
  5
1EF
330
1E
100
AcDbEntity
  8
0
100
AcDbLine
 10
70.75
 20
200.038461538462
 30
0.0
 11
70.75
 21
202.541666666667
 31
0.0
  0
LINE
  5
1F0
330
1E
100
AcDbEntity
  8
0
100
AcDbLine
 10
70.75
 20
197.035714285714
 30
0.0
 11
70.75
 21
199.5357142857139
 31
0.0
  0
LINE
  5
1F1
330
1E
100
AcDbEntity
  8
0
100
AcDbLine
 10
71.0
 20
203.0
 30
0.0
 11
71.5
 21
203.1
 31
0.0
  0
LINE
  5
1F2
330
1E
100
AcDbEntity
  8
0
100
AcDbLine
 10
71.0
 20
202.4999999999999
 30
0.0
 11
71.6
 21
202.5999999999999
 31
0.0
  0
LINE
  5
1F3
330
1E
100
AcDbEntity
  8
0
100
AcDbLine
 10
71.0
 20
200.0
 30
0.0
 11
72.3
 21
200.1999999999999
 31
0.0
  0
LINE
  5
1F4
330
1E
100
AcDbEntity
  8
0
100
AcDbLine
 10
71.0
 20
199.5
 30
0.0
 11
72.40000000000001
 21
199.6999999999999
 31
0.0
  0
LINE
  5
1F5
330
1E
100
AcDbEntity
  8
0
100
AcDbLine
 10
71.0
 20
197.0
 30
0.0
 11
73.09999999999999
 21
197.3
 31
0.0
  0
LINE
  5
1F6
330
1E
100
AcDbEntity
  8
0
100
AcDbLine
 10
71.0
 20
196.5
 30
0.0
 11
73.2
 21
196.8
 31
0.0
  0
LINE
  5
1F7
330
1E
100
AcDbEntity
  8
0
100
AcDbLine
 10
71.0
 20
194.0
 30
0.0
 11
73.79999999999999
 21
194.4
 31
0.0
  0
LINE
  5
1F8
330
1E
100
AcDbEntity
  8
0
100
AcDbLine
 10
70.75
 20
194.035714285714
 30
0.0
 11
70.75
 21
196.534090909091
 31
0.0
  0
LINE
  5
1F9
330
1E
100
AcDbEntity
  8
0
100
AcDbLine
 10
70.75
 20
194.035714285714
 30
0.0
 11
70.75
 21
202.7499999999999
 31
0.0
  0
LINE
  5
1FA
330
1E
100
AcDbEntity
  8
0
100
AcDbLine
 10
68.59999999999999
 20
204.4
 30
0.0
 11
68.7387752074771
 21
203.983674377569
 31
0.0
  0
LINE
  5
1FB
330
1E
100
AcDbEntity
  8
0
100
AcDbLine
 10
68.59999999999999
 20
204.4
 30
0.0
 11
68.79999999999999
 21
203.8
 31
0.0
  0
LINE
  5
1FC
330
1E
100
AcDbEntity
  8
0
100
AcDbLine
 10
68.5416666666667
 20
204.7499999999999
 30
0.0
 11
68.59999999999999
 21
204.4
 31
0.0
  0
LINE
  5
1FD
330
1E
100
AcDbEntity
  8
0
100
AcDbLine
 10
68.59999999999999
 20
205.6
 30
0.0
 11
68.79999999999999
 21
206.1999999999999
 31
0.0
  0
LINE
  5
1FE
330
1E
100
AcDbEntity
  8
0
100
AcDbLine
 10
68.5416666666667
 20
205.25
 30
0.0
 11
68.59999999999999
 21
205.6
 31
0.0
  0
LINE
  5
1FF
330
1E
100
AcDbEntity
  8
0
100
AcDbLine
 10
68.5
 20
209.2999999999999
 30
0.0
 11
69.7
 21
209.8
 31
0.0
  0
LINE
  5
200
330
1E
100
AcDbEntity
  8
0
100
AcDbLine
 10
68.4780569123419
 20
209.8684834278239
 30
0.0
 11
69.59999999999999
 21
210.3
 31
0.0
  0
LINE
  5
201
330
1E
100
AcDbEntity
  8
0
100
AcDbLine
 10
68.5
 20
205.0
 30
0.0
 11
68.59999999999999
 21
204.4
 31
0.0
  0
LINE
  5
202
330
1E
100
AcDbEntity
  8
0
100
AcDbLine
 10
68.5
 20
205.0
 30
0.0
 11
68.59999999999999
 21
205.6
 31
0.0
  0
LINE
  5
203
330
1E
100
AcDbEntity
  8
0
100
AcDbLine
 10
68.74688706174371
 20
209.40286960906
 30
0.0
 11
69.9834464170433
 21
207.2611488056809
 31
0.0
  0
LINE
  5
204
330
1E
100
AcDbEntity
  8
0
100
AcDbLine
 10
68.75
 20
204.7499999999999
 30
0.0
 11
68.75
 21
205.25
 31
0.0
  0
LINE
  5
205
330
1E
100
AcDbEntity
  8
0
100
AcDbLine
 10
68.79999999999999
 20
203.8
 30
0.0
 11
69.2
 21
203.2
 31
0.0
  0
LINE
  5
206
330
1E
100
AcDbEntity
  8
0
100
AcDbLine
 10
69.59999999999999
 20
203.6
 30
0.0
 11
70.0
 21
203.3
 31
0.0
  0
LINE
  5
207
330
1E
100
AcDbEntity
  8
0
100
AcDbLine
 10
70.0
 20
203.3
 30
0.0
 11
70.5
 21
203.1
 31
0.0
  0
LINE
  5
208
330
1E
100
AcDbEntity
  8
0
100
AcDbLine
 10
69.2
 20
203.2
 30
0.0
 11
69.5410736520289
 21
202.9726175653139
 31
0.0
  0
LINE
  5
209
330
1E
100
AcDbEntity
  8
0
100
AcDbLine
 10
69.2
 20
203.2
 30
0.0
 11
69.8
 21
202.8
 31
0.0
  0
LINE
  5
20A
330
1E
100
AcDbEntity
  8
0
100
AcDbLine
 10
69.29999999999999
 20
204.0
 30
0.0
 11
69.59999999999999
 21
203.6
 31
0.0
  0
LINE
  5
20B
330
1E
100
AcDbEntity
  8
0
100
AcDbLine
 10
68.9729679766294
 20
203.540548035056
 30
0.0
 11
69.2
 21
203.2
 31
0.0
  0
LINE
  5
20C
330
1E
100
AcDbEntity
  8
0
100
AcDbLine
 10
68.79999999999999
 20
206.1999999999999
 30
0.0
 11
69.2
 21
206.8
 31
0.0
  0
LINE
  5
20D
330
1E
100
AcDbEntity
  8
0
100
AcDbLine
 10
68.9
 20
212.6999999999999
 30
0.0
 11
71.0
 21
213.0
 31
0.0
  0
LINE
  5
20E
330
1E
100
AcDbEntity
  8
0
100
AcDbLine
 10
68.79999999999999
 20
213.2
 30
0.0
 11
71.0
 21
213.5
 31
0.0
  0
LINE
  5
20F
330
1E
100
AcDbEntity
  8
0
100
AcDbLine
 10
68.9729679766294
 20
206.4594519649439
 30
0.0
 11
69.2
 21
206.8
 31
0.0
  0
LINE
  5
210
330
1E
100
AcDbEntity
  8
0
100
AcDbLine
 10
69.1
 20
205.5
 30
0.0
 11
69.29999999999999
 21
206.0
 31
0.0
  0
LINE
  5
211
330
1E
100
AcDbEntity
  8
0
100
AcDbLine
 10
69.29999999999999
 20
206.0
 30
0.0
 11
69.59999999999999
 21
206.4
 31
0.0
  0
LINE
  5
212
330
1E
100
AcDbEntity
  8
0
100
AcDbLine
 10
69.59999999999999
 20
206.4
 30
0.0
 11
70.0
 21
206.6999999999999
 31
0.0
  0
LINE
  5
213
330
1E
100
AcDbEntity
  8
0
100
AcDbLine
 10
70.0
 20
206.6999999999999
 30
0.0
 11
70.5
 21
206.8999999999999
 31
0.0
  0
LINE
  5
214
330
1E
100
AcDbEntity
  8
0
100
AcDbLine
 10
69.2
 20
206.8
 30
0.0
 11
69.8
 21
207.2
 31
0.0
  0
LINE
  5
215
330
1E
100
AcDbEntity
  8
0
100
AcDbLine
 10
69.1
 20
204.4999999999999
 30
0.0
 11
69.29999999999999
 21
204.0
 31
0.0
  0
LINE
  5
216
330
1E
100
AcDbEntity
  8
0
100
AcDbLine
 10
69.0
 20
205.0
 30
0.0
 11
69.1
 21
204.4999999999999
 31
0.0
  0
LINE
  5
217
330
1E
100
AcDbEntity
  8
0
100
AcDbLine
 10
69.0
 20
205.0
 30
0.0
 11
69.1
 21
205.5
 31
0.0
  0
LINE
  5
218
330
1E
100
AcDbEntity
  8
0
100
AcDbLine
 10
69.8
 20
207.2
 30
0.0
 11
70.4
 21
207.4
 31
0.0
  0
LINE
  5
219
330
1E
100
AcDbEntity
  8
0
100
AcDbLine
 10
70.5
 20
206.8999999999999
 30
0.0
 11
71.0
 21
207.0
 31
0.0
  0
LINE
  5
21A
330
1E
100
AcDbEntity
  8
0
100
AcDbLine
 10
70.4
 20
207.4
 30
0.0
 11
71.0
 21
207.5
 31
0.0
  0
LINE
  5
21B
330
1E
100
AcDbEntity
  8
0
100
AcDbLine
 10
69.9834464170433
 20
207.2611488056809
 30
0.0
 11
70.4
 21
207.4
 31
0.0
  0
LINE
  5
21C
330
1E
100
AcDbEntity
  8
0
100
AcDbLine
 10
69.7
 20
209.8
 30
0.0
 11
71.0
 21
210.0
 31
0.0
  0
LINE
  5
21D
330
1E
100
AcDbEntity
  8
0
100
AcDbLine
 10
70.75
 20
207.4583333333329
 30
0.0
 11
70.75
 21
209.9615384615389
 31
0.0
  0
LINE
  5
21E
330
1E
100
AcDbEntity
  8
0
100
AcDbLine
 10
69.59999999999999
 20
210.3
 30
0.0
 11
71.0
 21
210.4999999999999
 31
0.0
  0
LINE
  5
21F
330
1E
100
AcDbEntity
  8
0
100
AcDbLine
 10
70.75
 20
210.4642857142859
 30
0.0
 11
70.75
 21
212.964285714286
 31
0.0
  0
LINE
  5
220
330
1E
100
AcDbEntity
  8
0
100
AcDbLine
 10
70.75
 20
213.465909090909
 30
0.0
 11
70.75
 21
215.964285714286
 31
0.0
  0
LINE
  5
221
330
1E
100
AcDbEntity
  8
0
100
AcDbLine
 10
70.75
 20
209.9615384615389
 30
0.0
 11
70.75
 21
207.4583333333329
 31
0.0
  0
LINE
  5
222
330
1E
100
AcDbEntity
  8
0
100
AcDbLine
 10
70.75
 20
212.964285714286
 30
0.0
 11
70.75
 21
210.4642857142859
 31
0.0
  0
LINE
  5
223
330
1E
100
AcDbEntity
  8
0
100
AcDbLine
 10
70.75
 20
215.964285714286
 30
0.0
 11
70.75
 21
213.465909090909
 31
0.0
  0
LINE
  5
224
330
1E
100
AcDbEntity
  8
0
100
AcDbLine
 10
70.75
 20
215.964285714286
 30
0.0
 11
70.75
 21
207.25
 31
0.0
  0
LINE
  5
225
330
1E
100
AcDbEntity
  8
0
100
AcDbLine
 10
71.0
 20
207.0
 30
0.0
 11
71.5
 21
206.8999999999999
 31
0.0
  0
LINE
  5
226
330
1E
100
AcDbEntity
  8
0
100
AcDbLine
 10
71.0
 20
207.5
 30
0.0
 11
71.6
 21
207.4
 31
0.0
  0
LINE
  5
227
330
1E
100
AcDbEntity
  8
0
100
AcDbLine
 10
71.0
 20
210.0
 30
0.0
 11
72.3
 21
209.8
 31
0.0
  0
LINE
  5
228
330
1E
100
AcDbEntity
  8
0
100
AcDbLine
 10
71.0
 20
210.4999999999999
 30
0.0
 11
72.40000000000001
 21
210.3
 31
0.0
  0
LINE
  5
229
330
1E
100
AcDbEntity
  8
0
100
AcDbLine
 10
71.0
 20
213.0
 30
0.0
 11
73.09999999999999
 21
212.6999999999999
 31
0.0
  0
LINE
  5
22A
330
1E
100
AcDbEntity
  8
0
100
AcDbLine
 10
71.0
 20
213.5
 30
0.0
 11
73.2
 21
213.2
 31
0.0
  0
LINE
  5
22B
330
1E
100
AcDbEntity
  8
0
100
AcDbLine
 10
71.0
 20
216.0
 30
0.0
 11
73.79999999999999
 21
215.6
 31
0.0
  0
LINE
  5
22C
330
1E
100
AcDbEntity
  8
0
100
AcDbLine
 10
70.75
 20
207.25
 30
0.0
 11
70.75
 21
215.964285714286
 31
0.0
  0
LINE
  5
22D
330
1E
100
AcDbEntity
  8
0
100
AcDbLine
 10
70.75
 20
207.25
 30
0.0
 11
71.25
 21
207.25
 31
0.0
  0
LINE
  5
22E
330
1E
100
AcDbEntity
  8
0
100
AcDbLine
 10
69.6585
 20
206.824
 30
0.0
 11
70.09149999999999
 21
207.074
 31
0.0
  0
LINE
  5
22F
330
1E
100
AcDbEntity
  8
0
100
AcDbLine
 10
68.9264
 20
205.9079999999999
 30
0.0
 11
69.1764
 21
206.342
 31
0.0
  0
LINE
  5
230
330
1E
100
AcDbEntity
  8
0
100
AcDbLine
 10
68.9264
 20
204.092
 30
0.0
 11
69.1764
 21
203.6579999999999
 31
0.0
  0
LINE
  5
231
330
1E
100
AcDbEntity
  8
0
100
AcDbLine
 10
68.75
 20
205.25
 30
0.0
 11
68.75
 21
204.7499999999999
 31
0.0
  0
LINE
  5
232
330
1E
100
AcDbEntity
  8
0
100
AcDbLine
 10
69.6585
 20
203.1759999999999
 30
0.0
 11
70.09149999999999
 21
202.9259999999999
 31
0.0
  0
LINE
  5
233
330
1E
100
AcDbEntity
  8
0
100
AcDbLine
 10
68.3145821484992
 20
200.8483342812009
 30
0.0
 11
69.5410736520289
 21
202.9726175653139
 31
0.0
  0
LINE
  5
234
330
1E
100
AcDbEntity
  8
0
100
AcDbLine
 10
71.0
 20
216.5
 30
0.0
 11
74.0
 21
216.1
 31
0.0
  0
LINE
  5
235
330
1E
100
AcDbEntity
  8
0
100
AcDbLine
 10
71.0
 20
217.0
 30
0.0
 11
74.1
 21
216.5999999999999
 31
0.0
  0
LINE
  5
236
330
1E
100
AcDbEntity
  8
0
100
AcDbLine
 10
71.0
 20
193.5
 30
0.0
 11
74.0
 21
193.9
 31
0.0
  0
LINE
  5
237
330
1E
100
AcDbEntity
  8
0
100
AcDbLine
 10
68.0
 20
193.9
 30
0.0
 11
71.0
 21
193.5
 31
0.0
  0
LINE
  5
238
330
1E
100
AcDbEntity
  8
0
100
AcDbLine
 10
67.9
 20
193.4
 30
0.0
 11
71.0
 21
193.0
 31
0.0
  0
LINE
  5
239
330
1E
100
AcDbEntity
  8
0
100
AcDbLine
 10
67.1336893380693
 20
193.717094067006
 30
0.0
 11
67.9
 21
193.4
 31
0.0
  0
LINE
  5
23A
330
1E
100
AcDbEntity
  8
0
100
AcDbLine
 10
67.9
 20
193.4
 30
0.0
 11
70.14289999999999
 21
193.110593548387
 31
0.0
  0
LINE
  5
23B
330
1E
100
AcDbEntity
  8
0
100
AcDbLine
 10
71.4286
 20
193.0553032258059
 30
0.0
 11
71.4286
 21
192.5
 31
0.0
  0
LINE
  5
23C
330
1E
100
AcDbEntity
  8
0
100
AcDbLine
 10
71.4286
 20
192.5
 30
0.0
 11
71.8571
 21
192.5
 31
0.0
  0
LINE
  5
23D
330
1E
100
AcDbEntity
  8
0
100
AcDbLine
 10
71.4286
 20
192.5
 30
0.0
 11
71.4286
 21
193.0553032258059
 31
0.0
  0
LINE
  5
23E
330
1E
100
AcDbEntity
  8
0
100
AcDbLine
 10
71.8571
 20
192.5
 30
0.0
 11
71.8571
 21
193.110593548387
 31
0.0
  0
LINE
  5
23F
330
1E
100
AcDbEntity
  8
0
100
AcDbLine
 10
71.4286
 20
192.5
 30
0.0
 11
71.8571
 21
192.5
 31
0.0
  0
LINE
  5
240
330
1E
100
AcDbEntity
  8
0
100
AcDbLine
 10
71.8571
 20
193.110593548387
 30
0.0
 11
71.8571
 21
192.5
 31
0.0
  0
LINE
  5
241
330
1E
100
AcDbEntity
  8
0
100
AcDbLine
 10
71.25
 20
202.541666666667
 30
0.0
 11
71.6
 21
202.5999999999999
 31
0.0
  0
LINE
  5
242
330
1E
100
AcDbEntity
  8
0
100
AcDbLine
 10
71.25
 20
199.5357142857139
 30
0.0
 11
72.40000000000001
 21
199.6999999999999
 31
0.0
  0
LINE
  5
243
330
1E
100
AcDbEntity
  8
0
100
AcDbLine
 10
71.25
 20
196.534090909091
 30
0.0
 11
73.2
 21
196.8
 31
0.0
  0
LINE
  5
244
330
1E
100
AcDbEntity
  8
0
100
AcDbLine
 10
71.25
 20
209.9615384615389
 30
0.0
 11
72.3
 21
209.8
 31
0.0
  0
LINE
  5
245
330
1E
100
AcDbEntity
  8
0
100
AcDbLine
 10
71.25
 20
207.25
 30
0.0
 11
71.25
 21
215.964285714286
 31
0.0
  0
LINE
  5
246
330
1E
100
AcDbEntity
  8
0
100
AcDbLine
 10
71.25
 20
215.964285714286
 30
0.0
 11
71.25
 21
207.25
 31
0.0
  0
LINE
  5
247
330
1E
100
AcDbEntity
  8
0
100
AcDbLine
 10
71.25
 20
215.964285714286
 30
0.0
 11
73.79999999999999
 21
215.6
 31
0.0
  0
LINE
  5
248
330
1E
100
AcDbEntity
  8
0
100
AcDbLine
 10
71.25
 20
202.7499999999999
 30
0.0
 11
71.25
 21
194.035714285714
 31
0.0
  0
LINE
  5
249
330
1E
100
AcDbEntity
  8
0
100
AcDbLine
 10
71.6
 20
202.5999999999999
 30
0.0
 11
72.2
 21
202.8
 31
0.0
  0
LINE
  5
24A
330
1E
100
AcDbEntity
  8
0
100
AcDbLine
 10
72.40000000000001
 20
199.6999999999999
 30
0.0
 11
73.52194308765809
 21
200.131516572176
 31
0.0
  0
LINE
  5
24B
330
1E
100
AcDbEntity
  8
0
100
AcDbLine
 10
72.40000000000001
 20
199.6999999999999
 30
0.0
 11
73.7
 21
200.1999999999999
 31
0.0
  0
LINE
  5
24C
330
1E
100
AcDbEntity
  8
0
100
AcDbLine
 10
73.09999999999999
 20
197.3
 30
0.0
 11
75.0
 21
198.1
 31
0.0
  0
LINE
  5
24D
330
1E
100
AcDbEntity
  8
0
100
AcDbLine
 10
73.09999999999999
 20
197.3
 30
0.0
 11
74.7545447834165
 21
197.9966504351229
 31
0.0
  0
LINE
  5
24E
330
1E
100
AcDbEntity
  8
0
100
AcDbLine
 10
73.2
 20
196.8
 30
0.0
 11
75.2
 21
197.5999999999999
 31
0.0
  0
LINE
  5
24F
330
1E
100
AcDbEntity
  8
0
100
AcDbLine
 10
73.79999999999999
 20
194.4
 30
0.0
 11
76.5
 21
195.5
 31
0.0
  0
LINE
  5
250
330
1E
100
AcDbEntity
  8
0
100
AcDbLine
 10
73.79999999999999
 20
194.4
 30
0.0
 11
76.25391409874659
 21
195.399742780971
 31
0.0
  0
LINE
  5
251
330
1E
100
AcDbEntity
  8
0
100
AcDbLine
 10
72.3
 20
200.1999999999999
 30
0.0
 11
73.5
 21
200.7
 31
0.0
  0
LINE
  5
252
330
1E
100
AcDbEntity
  8
0
100
AcDbLine
 10
72.3
 20
200.1999999999999
 30
0.0
 11
73.25311293825629
 21
200.59713039094
 31
0.0
  0
LINE
  5
253
330
1E
100
AcDbEntity
  8
0
100
AcDbLine
 10
72.2
 20
202.8
 30
0.0
 11
72.8
 21
203.2
 31
0.0
  0
LINE
  5
254
330
1E
100
AcDbEntity
  8
0
100
AcDbLine
 10
73.6854178515008
 20
200.8483342812009
 30
0.0
 11
74.5
 21
201.5
 31
0.0
  0
LINE
  5
255
330
1E
100
AcDbEntity
  8
0
100
AcDbLine
 10
73.5
 20
200.7
 30
0.0
 11
74.5
 21
201.5
 31
0.0
  0
LINE
  5
256
330
1E
100
AcDbEntity
  8
0
100
AcDbLine
 10
73.7
 20
200.1999999999999
 30
0.0
 11
74.90000000000001
 21
201.1
 31
0.0
  0
LINE
  5
257
330
1E
100
AcDbEntity
  8
0
100
AcDbLine
 10
72.0165535829568
 20
202.738851194319
 30
0.0
 11
73.25311293825629
 21
200.59713039094
 31
0.0
  0
LINE
  5
258
330
1E
100
AcDbEntity
  8
0
100
AcDbLine
 10
73.52194308765809
 20
200.131516572176
 30
0.0
 11
74.7545447834165
 21
197.9966504351229
 31
0.0
  0
LINE
  5
259
330
1E
100
AcDbEntity
  8
0
100
AcDbLine
 10
71.90850000000001
 20
202.9259999999999
 30
0.0
 11
72.34149999999999
 21
203.1759999999999
 31
0.0
  0
LINE
  5
25A
330
1E
100
AcDbEntity
  8
0
100
AcDbLine
 10
71.90850000000001
 20
202.9259999999999
 30
0.0
 11
76.25391409874659
 21
195.399742780971
 31
0.0
  0
LINE
  5
25B
330
1E
100
AcDbEntity
  8
0
100
AcDbLine
 10
71.5
 20
203.1
 30
0.0
 11
72.0
 21
203.3
 31
0.0
  0
LINE
  5
25C
330
1E
100
AcDbEntity
  8
0
100
AcDbLine
 10
72.4589263479711
 20
202.9726175653139
 30
0.0
 11
73.6854178515008
 21
200.8483342812009
 31
0.0
  0
LINE
  5
25D
330
1E
100
AcDbEntity
  8
0
100
AcDbLine
 10
72.4589263479711
 20
202.9726175653139
 30
0.0
 11
72.8
 21
203.2
 31
0.0
  0
LINE
  5
25E
330
1E
100
AcDbEntity
  8
0
100
AcDbLine
 10
73.95103867848509
 20
200.3882790088639
 30
0.0
 11
75.18529298486929
 21
198.2505505502059
 31
0.0
  0
LINE
  5
25F
330
1E
100
AcDbEntity
  8
0
100
AcDbLine
 10
72.8
 20
203.2
 30
0.0
 11
73.2
 21
203.8
 31
0.0
  0
LINE
  5
260
330
1E
100
AcDbEntity
  8
0
100
AcDbLine
 10
72.40000000000001
 20
203.6
 30
0.0
 11
72.7
 21
204.0
 31
0.0
  0
LINE
  5
261
330
1E
100
AcDbEntity
  8
0
100
AcDbLine
 10
72.0
 20
203.3
 30
0.0
 11
72.40000000000001
 21
203.6
 31
0.0
  0
LINE
  5
262
330
1E
100
AcDbEntity
  8
0
100
AcDbLine
 10
73.0270320233706
 20
203.540548035056
 30
0.0
 11
75.15128459040571
 21
202.314105738007
 31
0.0
  0
LINE
  5
263
330
1E
100
AcDbEntity
  8
0
100
AcDbLine
 10
72.0
 20
206.6999999999999
 30
0.0
 11
72.40000000000001
 21
206.4
 31
0.0
  0
LINE
  5
264
330
1E
100
AcDbEntity
  8
0
100
AcDbLine
 10
71.5
 20
206.8999999999999
 30
0.0
 11
72.0
 21
206.6999999999999
 31
0.0
  0
LINE
  5
265
330
1E
100
AcDbEntity
  8
0
100
AcDbLine
 10
71.6
 20
207.4
 30
0.0
 11
72.2
 21
207.2
 31
0.0
  0
LINE
  5
266
330
1E
100
AcDbEntity
  8
0
100
AcDbLine
 10
72.2
 20
207.2
 30
0.0
 11
72.8
 21
206.8
 31
0.0
  0
LINE
  5
267
330
1E
100
AcDbEntity
  8
0
100
AcDbLine
 10
72.3
 20
209.8
 30
0.0
 11
73.5
 21
209.2999999999999
 31
0.0
  0
LINE
  5
268
330
1E
100
AcDbEntity
  8
0
100
AcDbLine
 10
72.3
 20
209.8
 30
0.0
 11
73.25311293825629
 21
209.40286960906
 31
0.0
  0
LINE
  5
269
330
1E
100
AcDbEntity
  8
0
100
AcDbLine
 10
72.0165535829568
 20
207.2611488056809
 30
0.0
 11
73.25311293825629
 21
209.40286960906
 31
0.0
  0
LINE
  5
26A
330
1E
100
AcDbEntity
  8
0
100
AcDbLine
 10
71.90850000000001
 20
207.074
 30
0.0
 11
72.34149999999999
 21
206.824
 31
0.0
  0
LINE
  5
26B
330
1E
100
AcDbEntity
  8
0
100
AcDbLine
 10
71.90850000000001
 20
207.074
 30
0.0
 11
76.25391409874659
 21
214.600257219029
 31
0.0
  0
LINE
  5
26C
330
1E
100
AcDbEntity
  8
0
100
AcDbLine
 10
72.9
 20
205.5
 30
0.0
 11
73.0
 21
205.0
 31
0.0
  0
LINE
  5
26D
330
1E
100
AcDbEntity
  8
0
100
AcDbLine
 10
72.7
 20
204.0
 30
0.0
 11
72.9
 21
204.4999999999999
 31
0.0
  0
LINE
  5
26E
330
1E
100
AcDbEntity
  8
0
100
AcDbLine
 10
72.9
 20
204.4999999999999
 30
0.0
 11
73.0
 21
205.0
 31
0.0
  0
LINE
  5
26F
330
1E
100
AcDbEntity
  8
0
100
AcDbLine
 10
72.40000000000001
 20
206.4
 30
0.0
 11
72.7
 21
206.0
 31
0.0
  0
LINE
  5
270
330
1E
100
AcDbEntity
  8
0
100
AcDbLine
 10
72.7
 20
206.0
 30
0.0
 11
72.9
 21
205.5
 31
0.0
  0
LINE
  5
271
330
1E
100
AcDbEntity
  8
0
100
AcDbLine
 10
72.8
 20
206.8
 30
0.0
 11
73.2
 21
206.1999999999999
 31
0.0
  0
LINE
  5
272
330
1E
100
AcDbEntity
  8
0
100
AcDbLine
 10
72.40000000000001
 20
210.3
 30
0.0
 11
73.52194308765809
 21
209.8684834278239
 31
0.0
  0
LINE
  5
273
330
1E
100
AcDbEntity
  8
0
100
AcDbLine
 10
72.40000000000001
 20
210.3
 30
0.0
 11
73.7
 21
209.8
 31
0.0
  0
LINE
  5
274
330
1E
100
AcDbEntity
  8
0
100
AcDbLine
 10
73.0270320233706
 20
206.4594519649439
 30
0.0
 11
75.1512845904056
 21
207.6858942619929
 31
0.0
  0
LINE
  5
275
330
1E
100
AcDbEntity
  8
0
100
AcDbLine
 10
72.8236
 20
206.342
 30
0.0
 11
73.0736
 21
205.9079999999999
 31
0.0
  0
LINE
  5
276
330
1E
100
AcDbEntity
  8
0
100
AcDbLine
 10
72.8236
 20
206.342
 30
0.0
 11
80.35805895374918
 21
210.6920378861039
 31
0.0
  0
LINE
  5
277
330
1E
100
AcDbEntity
  8
0
100
AcDbLine
 10
73.0736
 20
205.9079999999999
 30
0.0
 11
80.60038273870391
 21
210.2536060049999
 31
0.0
  0
LINE
  5
278
330
1E
100
AcDbEntity
  8
0
100
AcDbLine
 10
72.34149999999999
 20
206.824
 30
0.0
 11
76.691603807446
 21
214.3583797944959
 31
0.0
  0
LINE
  5
279
330
1E
100
AcDbEntity
  8
0
100
AcDbLine
 10
72.8236
 20
203.6579999999999
 30
0.0
 11
73.0736
 21
204.092
 31
0.0
  0
LINE
  5
27A
330
1E
100
AcDbEntity
  8
0
100
AcDbLine
 10
72.8236
 20
203.6579999999999
 30
0.0
 11
80.35805895374929
 21
199.307962113896
 31
0.0
  0
LINE
  5
27B
330
1E
100
AcDbEntity
  8
0
100
AcDbLine
 10
73.2
 20
203.8
 30
0.0
 11
73.4
 21
204.4
 31
0.0
  0
LINE
  5
27C
330
1E
100
AcDbEntity
  8
0
100
AcDbLine
 10
73.4
 20
204.4
 30
0.0
 11
73.5
 21
205.0
 31
0.0
  0
LINE
  5
27D
330
1E
100
AcDbEntity
  8
0
100
AcDbLine
 10
73.2612247925229
 20
203.983674377569
 30
0.0
 11
73.4
 21
204.4
 31
0.0
  0
LINE
  5
27E
330
1E
100
AcDbEntity
  8
0
100
AcDbLine
 10
73.4583333333333
 20
204.7499999999999
 30
0.0
 11
75.9615384615385
 21
204.7499999999999
 31
0.0
  0
LINE
  5
27F
330
1E
100
AcDbEntity
  8
0
100
AcDbLine
 10
73.2
 20
206.1999999999999
 30
0.0
 11
73.4
 21
205.6
 31
0.0
  0
LINE
  5
280
330
1E
100
AcDbEntity
  8
0
100
AcDbLine
 10
73.09999999999999
 20
212.6999999999999
 30
0.0
 11
75.0
 21
211.9
 31
0.0
  0
LINE
  5
281
330
1E
100
AcDbEntity
  8
0
100
AcDbLine
 10
73.09999999999999
 20
212.6999999999999
 30
0.0
 11
74.7545447834165
 21
212.003349564877
 31
0.0
  0
LINE
  5
282
330
1E
100
AcDbEntity
  8
0
100
AcDbLine
 10
73.2
 20
213.2
 30
0.0
 11
75.02416604127579
 21
212.47033358349
 31
0.0
  0
LINE
  5
283
330
1E
100
AcDbEntity
  8
0
100
AcDbLine
 10
73.2
 20
213.2
 30
0.0
 11
75.2
 21
212.4
 31
0.0
  0
LINE
  5
284
330
1E
100
AcDbEntity
  8
0
100
AcDbLine
 10
73.4
 20
205.6
 30
0.0
 11
73.5
 21
205.0
 31
0.0
  0
LINE
  5
285
330
1E
100
AcDbEntity
  8
0
100
AcDbLine
 10
73.6854178515008
 20
209.151665718799
 30
0.0
 11
74.5
 21
208.4999999999999
 31
0.0
  0
LINE
  5
286
330
1E
100
AcDbEntity
  8
0
100
AcDbLine
 10
73.5
 20
209.2999999999999
 30
0.0
 11
74.5
 21
208.4999999999999
 31
0.0
  0
LINE
  5
287
330
1E
100
AcDbEntity
  8
0
100
AcDbLine
 10
73.7
 20
209.8
 30
0.0
 11
74.90000000000001
 21
208.8999999999999
 31
0.0
  0
LINE
  5
288
330
1E
100
AcDbEntity
  8
0
100
AcDbLine
 10
73.2612247925229
 20
206.0163256224309
 30
0.0
 11
75.4029715660723
 21
207.2528682414259
 31
0.0
  0
LINE
  5
289
330
1E
100
AcDbEntity
  8
0
100
AcDbLine
 10
73.79999999999999
 20
215.6
 30
0.0
 11
76.5
 21
214.5
 31
0.0
  0
LINE
  5
28A
330
1E
100
AcDbEntity
  8
0
100
AcDbLine
 10
73.52194308765809
 20
209.8684834278239
 30
0.0
 11
74.7545447834165
 21
212.003349564877
 31
0.0
  0
LINE
  5
28B
330
1E
100
AcDbEntity
  8
0
100
AcDbLine
 10
73.25
 20
205.25
 30
0.0
 11
73.25
 21
204.7499999999999
 31
0.0
  0
LINE
  5
28C
330
1E
100
AcDbEntity
  8
0
100
AcDbLine
 10
73.25
 20
205.25
 30
0.0
 11
81.96428571428571
 21
205.25
 31
0.0
  0
LINE
  5
28D
330
1E
100
AcDbEntity
  8
0
100
AcDbLine
 10
73.25
 20
204.7499999999999
 30
0.0
 11
81.96428571428571
 21
204.7499999999999
 31
0.0
  0
LINE
  5
28E
330
1E
100
AcDbEntity
  8
0
100
AcDbLine
 10
73.25
 20
204.7499999999999
 30
0.0
 11
73.25
 21
205.25
 31
0.0
  0
LINE
  5
28F
330
1E
100
AcDbEntity
  8
0
100
AcDbLine
 10
73.0736
 20
204.092
 30
0.0
 11
80.60038273870391
 21
199.746393995
 31
0.0
  0
LINE
  5
290
330
1E
100
AcDbEntity
  8
0
100
AcDbLine
 10
72.34149999999999
 20
203.1759999999999
 30
0.0
 11
76.691603807446
 21
195.641620205504
 31
0.0
  0
LINE
  5
291
330
1E
100
AcDbEntity
  8
0
100
AcDbLine
 10
71.25
 20
194.035714285714
 30
0.0
 11
71.25
 21
202.7499999999999
 31
0.0
  0
LINE
  5
292
330
1E
100
AcDbEntity
  8
0
100
AcDbLine
 10
74.0
 20
216.1
 30
0.0
 11
76.7
 21
215.0
 31
0.0
  0
LINE
  5
293
330
1E
100
AcDbEntity
  8
0
100
AcDbLine
 10
74.1
 20
216.5999999999999
 30
0.0
 11
77.0
 21
215.3999999999999
 31
0.0
  0
LINE
  5
294
330
1E
100
AcDbEntity
  8
0
100
AcDbLine
 10
74.0
 20
193.9
 30
0.0
 11
76.7
 21
195.0
 31
0.0
  0
LINE
  5
295
330
1E
100
AcDbEntity
  8
0
100
AcDbLine
 10
74.1
 20
193.4
 30
0.0
 11
77.0
 21
194.5999999999999
 31
0.0
  0
LINE
  5
296
330
1E
100
AcDbEntity
  8
0
100
AcDbLine
 10
74.5
 20
208.4999999999999
 30
0.0
 11
75.3
 21
207.5
 31
0.0
  0
LINE
  5
297
330
1E
100
AcDbEntity
  8
0
100
AcDbLine
 10
74.5
 20
208.4999999999999
 30
0.0
 11
75.1512845904056
 21
207.6858942619929
 31
0.0
  0
LINE
  5
298
330
1E
100
AcDbEntity
  8
0
100
AcDbLine
 10
74.5
 20
201.5
 30
0.0
 11
75.3
 21
202.4999999999999
 31
0.0
  0
LINE
  5
299
330
1E
100
AcDbEntity
  8
0
100
AcDbLine
 10
74.5
 20
201.5
 30
0.0
 11
75.15128459040571
 21
202.314105738007
 31
0.0
  0
LINE
  5
29A
330
1E
100
AcDbEntity
  8
0
100
AcDbLine
 10
75.4888
 20
193.304
 30
0.0
 11
76.2878
 21
193.61
 31
0.0
  0
LINE
  5
29B
330
1E
100
AcDbEntity
  8
0
100
AcDbLine
 10
75.08929999999999
 20
193.1509999999999
 30
0.0
 11
75.4888
 21
193.304
 31
0.0
  0
LINE
  5
29C
330
1E
100
AcDbEntity
  8
0
100
AcDbLine
 10
75.4888
 20
193.304
 30
0.0
 11
76.2878
 21
193.61
 31
0.0
  0
LINE
  5
29D
330
1E
100
AcDbEntity
  8
0
100
AcDbLine
 10
74.90000000000001
 20
208.8999999999999
 30
0.0
 11
75.61136005264479
 21
207.951519929807
 31
0.0
  0
LINE
  5
29E
330
1E
100
AcDbEntity
  8
0
100
AcDbLine
 10
74.90000000000001
 20
208.8999999999999
 30
0.0
 11
75.8
 21
207.6999999999999
 31
0.0
  0
LINE
  5
29F
330
1E
100
AcDbEntity
  8
0
100
AcDbLine
 10
75.0
 20
211.9
 30
0.0
 11
76.6
 21
210.5999999999999
 31
0.0
  0
LINE
  5
2A0
330
1E
100
AcDbEntity
  8
0
100
AcDbLine
 10
74.90000000000001
 20
201.1
 30
0.0
 11
75.8
 21
202.3
 31
0.0
  0
LINE
  5
2A1
330
1E
100
AcDbEntity
  8
0
100
AcDbLine
 10
75.0
 20
198.1
 30
0.0
 11
76.6
 21
199.3999999999999
 31
0.0
  0
LINE
  5
2A2
330
1E
100
AcDbEntity
  8
0
100
AcDbLine
 10
75.18529298486929
 20
211.749449449794
 30
0.0
 11
76.6
 21
210.5999999999999
 31
0.0
  0
LINE
  5
2A3
330
1E
100
AcDbEntity
  8
0
100
AcDbLine
 10
75.2
 20
212.4
 30
0.0
 11
77.0
 21
211.0
 31
0.0
  0
LINE
  5
2A4
330
1E
100
AcDbEntity
  8
0
100
AcDbLine
 10
75.18529298486929
 20
198.2505505502059
 30
0.0
 11
76.6
 21
199.3999999999999
 31
0.0
  0
LINE
  5
2A5
330
1E
100
AcDbEntity
  8
0
100
AcDbLine
 10
75.2
 20
197.5999999999999
 30
0.0
 11
77.0
 21
199.0
 31
0.0
  0
LINE
  5
2A6
330
1E
100
AcDbEntity
  8
0
100
AcDbLine
 10
75.02416604127579
 20
212.47033358349
 30
0.0
 11
76.25391409874659
 21
214.600257219029
 31
0.0
  0
LINE
  5
2A7
330
1E
100
AcDbEntity
  8
0
100
AcDbLine
 10
75.02416604127579
 20
197.5296664165099
 30
0.0
 11
76.25391409874659
 21
195.399742780971
 31
0.0
  0
LINE
  5
2A8
330
1E
100
AcDbEntity
  8
0
100
AcDbLine
 10
75.4029715660723
 20
207.2528682414259
 30
0.0
 11
75.8
 21
206.3
 31
0.0
  0
LINE
  5
2A9
330
1E
100
AcDbEntity
  8
0
100
AcDbLine
 10
75.3
 20
207.5
 30
0.0
 11
75.8
 21
206.3
 31
0.0
  0
LINE
  5
2AA
330
1E
100
AcDbEntity
  8
0
100
AcDbLine
 10
75.4029715660723
 20
202.747131758574
 30
0.0
 11
75.8
 21
203.6999999999999
 31
0.0
  0
LINE
  5
2AB
330
1E
100
AcDbEntity
  8
0
100
AcDbLine
 10
75.3
 20
202.4999999999999
 30
0.0
 11
75.8
 21
203.6999999999999
 31
0.0
  0
LINE
  5
2AC
330
1E
100
AcDbEntity
  8
0
100
AcDbLine
 10
75.61136005264479
 20
207.951519929807
 30
0.0
 11
77.7490855534062
 21
209.185740857346
 31
0.0
  0
LINE
  5
2AD
330
1E
100
AcDbEntity
  8
0
100
AcDbLine
 10
75.61136005264479
 20
207.951519929807
 30
0.0
 11
77.7490855534062
 21
209.185740857346
 31
0.0
  0
LINE
  5
2AE
330
1E
100
AcDbEntity
  8
0
100
AcDbLine
 10
75.8
 20
206.3
 30
0.0
 11
76.0
 21
205.0
 31
0.0
  0
LINE
  5
2AF
330
1E
100
AcDbEntity
  8
0
100
AcDbLine
 10
75.8
 20
206.3
 30
0.0
 11
75.9615384615385
 21
205.25
 31
0.0
  0
LINE
  5
2B0
330
1E
100
AcDbEntity
  8
0
100
AcDbLine
 10
75.8
 20
203.6999999999999
 30
0.0
 11
76.0
 21
205.0
 31
0.0
  0
LINE
  5
2B1
330
1E
100
AcDbEntity
  8
0
100
AcDbLine
 10
75.8
 20
203.6999999999999
 30
0.0
 11
75.9615384615385
 21
204.7499999999999
 31
0.0
  0
LINE
  5
2B2
330
1E
100
AcDbEntity
  8
0
100
AcDbLine
 10
75.8
 20
202.3
 30
0.0
 11
76.29999999999999
 21
203.6
 31
0.0
  0
LINE
  5
2B3
330
1E
100
AcDbEntity
  8
0
100
AcDbLine
 10
75.86858113815829
 20
202.478310959212
 30
0.0
 11
76.29999999999999
 21
203.6
 31
0.0
  0
LINE
  5
2B4
330
1E
100
AcDbEntity
  8
0
100
AcDbLine
 10
75.8
 20
207.6999999999999
 30
0.0
 11
76.29999999999999
 21
206.4
 31
0.0
  0
LINE
  5
2B5
330
1E
100
AcDbEntity
  8
0
100
AcDbLine
 10
75.86858113815829
 20
207.521689040788
 30
0.0
 11
78.0034654348041
 21
208.7542695923399
 31
0.0
  0
LINE
  5
2B6
330
1E
100
AcDbEntity
  8
0
100
AcDbLine
 10
75.61136005264479
 20
202.0484800701929
 30
0.0
 11
77.7490855534062
 21
200.814259142654
 31
0.0
  0
LINE
  5
2B7
330
1E
100
AcDbEntity
  8
0
100
AcDbLine
 10
75.4490571099699
 20
197.793711085532
 30
0.0
 11
76.691603807446
 21
195.641620205504
 31
0.0
  0
LINE
  5
2B8
330
1E
100
AcDbEntity
  8
0
100
AcDbLine
 10
75.26164113061009
 20
193.880679088528
 30
0.0
 11
75.4888
 21
193.304
 31
0.0
  0
LINE
  5
2B9
330
1E
100
AcDbEntity
  8
0
100
AcDbLine
 10
74.86637243561759
 20
193.717119628531
 30
0.0
 11
75.08929999999999
 21
193.1509999999999
 31
0.0
  0
LINE
  5
2BA
330
1E
100
AcDbEntity
  8
0
100
AcDbLine
 10
74.86637243561759
 20
193.717119628531
 30
0.0
 11
75.08929999999999
 21
193.1509999999999
 31
0.0
  0
LINE
  5
2BB
330
1E
100
AcDbEntity
  8
0
100
AcDbLine
 10
75.08929999999999
 20
193.1509999999999
 30
0.0
 11
75.4888
 21
193.304
 31
0.0
  0
LINE
  5
2BC
330
1E
100
AcDbEntity
  8
0
100
AcDbLine
 10
74.1
 20
193.4
 30
0.0
 11
74.86637243561759
 21
193.717119628531
 31
0.0
  0
LINE
  5
2BD
330
1E
100
AcDbEntity
  8
0
100
AcDbLine
 10
71.8571
 20
193.110593548387
 30
0.0
 11
74.1
 21
193.4
 31
0.0
  0
LINE
  5
2BE
330
1E
100
AcDbEntity
  8
0
100
AcDbLine
 10
71.0
 20
237.0
 30
0.0
 11
89.176
 21
234.444
 31
0.0
  0
LINE
  5
2BF
330
1E
100
AcDbEntity
  8
0
100
AcDbLine
 10
71.0
 20
187.0
 30
0.0
 11
75.875
 21
186.2579999999999
 31
0.0
  0
LINE
  5
2C0
330
1E
100
AcDbEntity
  8
0
100
AcDbLine
 10
71.0
 20
187.0
 30
0.0
 11
76.376
 21
186.244
 31
0.0
  0
LINE
  5
2C1
330
1E
100
AcDbEntity
  8
0
100
AcDbLine
 10
80.0
 20
184.7944
 30
0.0
 11
80.0
 21
194.2999999999999
 31
0.0
  0
LINE
  5
2C2
330
1E
100
AcDbEntity
  8
0
100
AcDbLine
 10
81.416
 20
184.2279999999999
 30
0.0
 11
85.868
 21
180.868
 31
0.0
  0
LINE
  5
2C3
330
1E
100
AcDbEntity
  8
0
100
AcDbLine
 10
76.2878
 20
193.61
 30
0.0
 11
76.6872
 21
193.763
 31
0.0
  0
LINE
  5
2C4
330
1E
100
AcDbEntity
  8
0
100
AcDbLine
 10
76.2878
 20
193.61
 30
0.0
 11
76.6872
 21
193.763
 31
0.0
  0
LINE
  5
2C5
330
1E
100
AcDbEntity
  8
0
100
AcDbLine
 10
76.29999999999999
 20
206.4
 30
0.0
 11
76.5
 21
205.0
 31
0.0
  0
LINE
  5
2C6
330
1E
100
AcDbEntity
  8
0
100
AcDbLine
 10
76.29999999999999
 20
203.6
 30
0.0
 11
76.5
 21
205.0
 31
0.0
  0
LINE
  5
2C7
330
1E
100
AcDbEntity
  8
0
100
AcDbLine
 10
76.052044817273
 20
194.20774268301
 30
0.0
 11
76.2878
 21
193.61
 31
0.0
  0
LINE
  5
2C8
330
1E
100
AcDbEntity
  8
0
100
AcDbLine
 10
76.4473512125847
 20
194.371317743138
 30
0.0
 11
76.6872
 21
193.763
 31
0.0
  0
LINE
  5
2C9
330
1E
100
AcDbEntity
  8
0
100
AcDbLine
 10
76.46428571428571
 20
204.7499999999999
 30
0.0
 11
78.96428571428571
 21
204.7499999999999
 31
0.0
  0
LINE
  5
2CA
330
1E
100
AcDbEntity
  8
0
100
AcDbLine
 10
76.6
 20
210.5999999999999
 30
0.0
 11
77.9
 21
209.0
 31
0.0
  0
LINE
  5
2CB
330
1E
100
AcDbEntity
  8
0
100
AcDbLine
 10
76.6
 20
210.5999999999999
 30
0.0
 11
77.7490855534062
 21
209.185740857346
 31
0.0
  0
LINE
  5
2CC
330
1E
100
AcDbEntity
  8
0
100
AcDbLine
 10
76.6
 20
199.3999999999999
 30
0.0
 11
77.9
 21
201.0
 31
0.0
  0
LINE
  5
2CD
330
1E
100
AcDbEntity
  8
0
100
AcDbLine
 10
76.6
 20
199.3999999999999
 30
0.0
 11
77.7490855534062
 21
200.814259142654
 31
0.0
  0
LINE
  5
2CE
330
1E
100
AcDbEntity
  8
0
100
AcDbLine
 10
77.0
 20
211.0
 30
0.0
 11
78.2059393828494
 21
209.449506507765
 31
0.0
  0
LINE
  5
2CF
330
1E
100
AcDbEntity
  8
0
100
AcDbLine
 10
77.0
 20
211.0
 30
0.0
 11
78.4
 21
209.2
 31
0.0
  0
LINE
  5
2D0
330
1E
100
AcDbEntity
  8
0
100
AcDbLine
 10
77.0
 20
199.0
 30
0.0
 11
78.4
 21
200.8
 31
0.0
  0
LINE
  5
2D1
330
1E
100
AcDbEntity
  8
0
100
AcDbLine
 10
76.691603807446
 20
195.641620205504
 30
0.0
 11
78.79999999999999
 21
197.1999999999999
 31
0.0
  0
LINE
  5
2D2
330
1E
100
AcDbEntity
  8
0
100
AcDbLine
 10
76.5
 20
195.5
 30
0.0
 11
78.79999999999999
 21
197.1999999999999
 31
0.0
  0
LINE
  5
2D3
330
1E
100
AcDbEntity
  8
0
100
AcDbLine
 10
76.46428571428571
 20
204.7499999999999
 30
0.0
 11
78.96428571428571
 21
204.7499999999999
 31
0.0
  0
LINE
  5
2D4
330
1E
100
AcDbEntity
  8
0
100
AcDbLine
 10
76.7
 20
195.0
 30
0.0
 11
79.1
 21
196.9
 31
0.0
  0
LINE
  5
2D5
330
1E
100
AcDbEntity
  8
0
100
AcDbLine
 10
78.0034654348041
 20
208.7542695923399
 30
0.0
 11
78.7
 21
207.1
 31
0.0
  0
LINE
  5
2D6
330
1E
100
AcDbEntity
  8
0
100
AcDbLine
 10
77.9
 20
209.0
 30
0.0
 11
78.7
 21
207.1
 31
0.0
  0
LINE
  5
2D7
330
1E
100
AcDbEntity
  8
0
100
AcDbLine
 10
78.4
 20
209.2
 30
0.0
 11
79.2
 21
207.2
 31
0.0
  0
LINE
  5
2D8
330
1E
100
AcDbEntity
  8
0
100
AcDbLine
 10
78.0034654348041
 20
201.24573040766
 30
0.0
 11
78.7
 21
202.8999999999999
 31
0.0
  0
LINE
  5
2D9
330
1E
100
AcDbEntity
  8
0
100
AcDbLine
 10
77.9
 20
201.0
 30
0.0
 11
78.7
 21
202.8999999999999
 31
0.0
  0
LINE
  5
2DA
330
1E
100
AcDbEntity
  8
0
100
AcDbLine
 10
78.4
 20
200.8
 30
0.0
 11
79.2
 21
202.8
 31
0.0
  0
LINE
  5
2DB
330
1E
100
AcDbEntity
  8
0
100
AcDbLine
 10
78.2059393828494
 20
209.449506507765
 30
0.0
 11
80.35805895374918
 21
210.6920378861039
 31
0.0
  0
LINE
  5
2DC
330
1E
100
AcDbEntity
  8
0
100
AcDbLine
 10
78.4704469950595
 20
209.023882512351
 30
0.0
 11
80.60038273870391
 21
210.2536060049999
 31
0.0
  0
LINE
  5
2DD
330
1E
100
AcDbEntity
  8
0
100
AcDbLine
 10
78.2059393828494
 20
200.5504934922349
 30
0.0
 11
80.35805895374929
 21
199.307962113896
 31
0.0
  0
LINE
  5
2DE
330
1E
100
AcDbEntity
  8
0
100
AcDbLine
 10
78.7
 20
207.1
 30
0.0
 11
79.0
 21
205.0
 31
0.0
  0
LINE
  5
2DF
330
1E
100
AcDbEntity
  8
0
100
AcDbLine
 10
78.7
 20
207.1
 30
0.0
 11
78.96428571428571
 21
205.25
 31
0.0
  0
LINE
  5
2E0
330
1E
100
AcDbEntity
  8
0
100
AcDbLine
 10
78.79999999999999
 20
212.8
 30
0.0
 11
80.5
 21
210.4999999999999
 31
0.0
  0
LINE
  5
2E1
330
1E
100
AcDbEntity
  8
0
100
AcDbLine
 10
78.79999999999999
 20
212.8
 30
0.0
 11
80.35805895374918
 21
210.6920378861039
 31
0.0
  0
LINE
  5
2E2
330
1E
100
AcDbEntity
  8
0
100
AcDbLine
 10
78.7
 20
202.8999999999999
 30
0.0
 11
79.0
 21
205.0
 31
0.0
  0
LINE
  5
2E3
330
1E
100
AcDbEntity
  8
0
100
AcDbLine
 10
78.7
 20
202.8999999999999
 30
0.0
 11
78.96428571428571
 21
204.7499999999999
 31
0.0
  0
LINE
  5
2E4
330
1E
100
AcDbEntity
  8
0
100
AcDbLine
 10
78.79999999999999
 20
197.1999999999999
 30
0.0
 11
80.5
 21
199.5
 31
0.0
  0
LINE
  5
2E5
330
1E
100
AcDbEntity
  8
0
100
AcDbLine
 10
78.79999999999999
 20
197.1999999999999
 30
0.0
 11
80.35805895374929
 21
199.307962113896
 31
0.0
  0
LINE
  5
2E6
330
1E
100
AcDbEntity
  8
0
100
AcDbLine
 10
78.8693754216431
 20
196.020725320449
 30
0.0
 11
79.25499999999999
 21
195.62
 31
0.0
  0
LINE
  5
2E7
330
1E
100
AcDbEntity
  8
0
100
AcDbLine
 10
78.5285614948875
 20
195.761706736115
 30
0.0
 11
78.944
 21
195.33
 31
0.0
  0
LINE
  5
2E8
330
1E
100
AcDbEntity
  8
0
100
AcDbLine
 10
78.944
 20
195.33
 30
0.0
 11
79.25499999999999
 21
195.62
 31
0.0
  0
LINE
  5
2E9
330
1E
100
AcDbEntity
  8
0
100
AcDbLine
 10
78.5285614948875
 20
195.761706736115
 30
0.0
 11
78.944
 21
195.33
 31
0.0
  0
LINE
  5
2EA
330
1E
100
AcDbEntity
  8
0
100
AcDbLine
 10
78.944
 20
195.33
 30
0.0
 11
79.25499999999999
 21
195.62
 31
0.0
  0
LINE
  5
2EB
330
1E
100
AcDbEntity
  8
0
100
AcDbLine
 10
77.0
 20
194.5999999999999
 30
0.0
 11
79.5
 21
196.5
 31
0.0
  0
LINE
  5
2EC
330
1E
100
AcDbEntity
  8
0
100
AcDbLine
 10
77.0
 20
194.5999999999999
 30
0.0
 11
78.5285614948875
 21
195.761706736114
 31
0.0
  0
LINE
  5
2ED
330
1E
100
AcDbEntity
  8
0
100
AcDbLine
 10
76.4473512125847
 20
194.371317743138
 30
0.0
 11
77.0
 21
194.5999999999999
 31
0.0
  0
LINE
  5
2EE
330
1E
100
AcDbEntity
  8
0
100
AcDbLine
 10
76.5
 20
214.5
 30
0.0
 11
78.79999999999999
 21
212.8
 31
0.0
  0
LINE
  5
2EF
330
1E
100
AcDbEntity
  8
0
100
AcDbLine
 10
76.7
 20
215.0
 30
0.0
 11
79.1
 21
213.0999999999999
 31
0.0
  0
LINE
  5
2F0
330
1E
100
AcDbEntity
  8
0
100
AcDbLine
 10
77.0
 20
215.3999999999999
 30
0.0
 11
79.5
 21
213.5
 31
0.0
  0
LINE
  5
2F1
330
1E
100
AcDbEntity
  8
0
100
AcDbLine
 10
79.0
 20
213.8799999999999
 30
0.0
 11
79.0
 21
216.4
 31
0.0
  0
LINE
  5
2F2
330
1E
100
AcDbEntity
  8
0
100
AcDbLine
 10
79.25499999999999
 20
195.62
 30
0.0
 11
79.8769
 21
196.201
 31
0.0
  0
LINE
  5
2F3
330
1E
100
AcDbEntity
  8
0
100
AcDbLine
 10
79.25499999999999
 20
195.62
 30
0.0
 11
79.8769
 21
196.201
 31
0.0
  0
LINE
  5
2F4
330
1E
100
AcDbEntity
  8
0
100
AcDbLine
 10
79.53934654568191
 20
196.5517717706339
 30
0.0
 11
79.8769
 21
196.201
 31
0.0
  0
LINE
  5
2F5
330
1E
100
AcDbEntity
  8
0
100
AcDbLine
 10
79.80017890648679
 20
196.894972245377
 30
0.0
 11
80.1879
 21
196.492
 31
0.0
  0
LINE
  5
2F6
330
1E
100
AcDbEntity
  8
0
100
AcDbLine
 10
79.1
 20
196.9
 30
0.0
 11
81.0
 21
199.3
 31
0.0
  0
LINE
  5
2F7
330
1E
100
AcDbEntity
  8
0
100
AcDbLine
 10
79.5
 20
196.5
 30
0.0
 11
81.4
 21
199.0
 31
0.0
  0
LINE
  5
2F8
330
1E
100
AcDbEntity
  8
0
100
AcDbLine
 10
79.8769
 20
196.201
 30
0.0
 11
80.1879
 21
196.492
 31
0.0
  0
LINE
  5
2F9
330
1E
100
AcDbEntity
  8
0
100
AcDbLine
 10
79.8769
 20
196.201
 30
0.0
 11
80.1879
 21
196.492
 31
0.0
  0
LINE
  5
2FA
330
1E
100
AcDbEntity
  8
0
100
AcDbLine
 10
79.80017890648679
 20
196.894972245377
 30
0.0
 11
81.4
 21
199.0
 31
0.0
  0
LINE
  5
2FB
330
1E
100
AcDbEntity
  8
0
100
AcDbLine
 10
80.0
 20
194.2999999999999
 30
0.0
 11
81.0
 21
195.0
 31
0.0
  0
LINE
  5
2FC
330
1E
100
AcDbEntity
  8
0
100
AcDbLine
 10
80.0
 20
194.2999999999999
 30
0.0
 11
80.0
 21
184.7944
 31
0.0
  0
LINE
  5
2FD
330
1E
100
AcDbEntity
  8
0
100
AcDbLine
 10
81.0
 20
195.0
 30
0.0
 11
83.1
 21
198.0
 31
0.0
  0
LINE
  5
2FE
330
1E
100
AcDbEntity
  8
0
100
AcDbLine
 10
79.2
 20
207.2
 30
0.0
 11
79.5
 21
205.0
 31
0.0
  0
LINE
  5
2FF
330
1E
100
AcDbEntity
  8
0
100
AcDbLine
 10
79.2
 20
202.8
 30
0.0
 11
79.46590909090909
 21
204.7499999999999
 31
0.0
  0
LINE
  5
300
330
1E
100
AcDbEntity
  8
0
100
AcDbLine
 10
79.2
 20
202.8
 30
0.0
 11
79.5
 21
205.0
 31
0.0
  0
LINE
  5
301
330
1E
100
AcDbEntity
  8
0
100
AcDbLine
 10
80.60038273870391
 20
210.2536060049999
 30
0.0
 11
81.6
 21
207.8
 31
0.0
  0
LINE
  5
302
330
1E
100
AcDbEntity
  8
0
100
AcDbLine
 10
80.5
 20
210.4999999999999
 30
0.0
 11
81.6
 21
207.8
 31
0.0
  0
LINE
  5
303
330
1E
100
AcDbEntity
  8
0
100
AcDbLine
 10
80.60038273870391
 20
199.746393995
 30
0.0
 11
81.6
 21
202.1999999999999
 31
0.0
  0
LINE
  5
304
330
1E
100
AcDbEntity
  8
0
100
AcDbLine
 10
80.5
 20
199.5
 30
0.0
 11
81.6
 21
202.1999999999999
 31
0.0
  0
LINE
  5
305
330
1E
100
AcDbEntity
  8
0
100
AcDbLine
 10
79.46590909090909
 20
204.7499999999999
 30
0.0
 11
81.96428571428571
 21
204.7499999999999
 31
0.0
  0
LINE
  5
306
330
1E
100
AcDbEntity
  8
0
100
AcDbLine
 10
79.1
 20
213.0999999999999
 30
0.0
 11
81.0
 21
210.6999999999999
 31
0.0
  0
LINE
  5
307
330
1E
100
AcDbEntity
  8
0
100
AcDbLine
 10
81.0
 20
210.6999999999999
 30
0.0
 11
82.09999999999999
 21
208.0
 31
0.0
  0
LINE
  5
308
330
1E
100
AcDbEntity
  8
0
100
AcDbLine
 10
79.5
 20
213.5
 30
0.0
 11
81.4
 21
211.0
 31
0.0
  0
LINE
  5
309
330
1E
100
AcDbEntity
  8
0
100
AcDbLine
 10
81.4
 20
211.0
 30
0.0
 11
82.59999999999999
 21
208.0999999999999
 31
0.0
  0
LINE
  5
30A
330
1E
100
AcDbEntity
  8
0
100
AcDbLine
 10
81.0
 20
199.3
 30
0.0
 11
82.09999999999999
 21
202.0
 31
0.0
  0
LINE
  5
30B
330
1E
100
AcDbEntity
  8
0
100
AcDbLine
 10
81.4
 20
199.0
 30
0.0
 11
82.59999999999999
 21
201.9
 31
0.0
  0
LINE
  5
30C
330
1E
100
AcDbEntity
  8
0
100
AcDbLine
 10
81.6
 20
207.8
 30
0.0
 11
82.0
 21
205.0
 31
0.0
  0
LINE
  5
30D
330
1E
100
AcDbEntity
  8
0
100
AcDbLine
 10
81.6
 20
207.8
 30
0.0
 11
81.96428571428571
 21
205.25
 31
0.0
  0
LINE
  5
30E
330
1E
100
AcDbEntity
  8
0
100
AcDbLine
 10
81.6
 20
202.1999999999999
 30
0.0
 11
82.0
 21
205.0
 31
0.0
  0
LINE
  5
30F
330
1E
100
AcDbEntity
  8
0
100
AcDbLine
 10
81.6
 20
202.1999999999999
 30
0.0
 11
81.96428571428571
 21
204.7499999999999
 31
0.0
  0
LINE
  5
310
330
1E
100
AcDbEntity
  8
0
100
AcDbLine
 10
82.09999999999999
 20
208.0
 30
0.0
 11
82.5
 21
205.0
 31
0.0
  0
LINE
  5
311
330
1E
100
AcDbEntity
  8
0
100
AcDbLine
 10
82.59999999999999
 20
208.0999999999999
 30
0.0
 11
83.0
 21
205.0
 31
0.0
  0
LINE
  5
312
330
1E
100
AcDbEntity
  8
0
100
AcDbLine
 10
82.09999999999999
 20
202.0
 30
0.0
 11
82.5
 21
205.0
 31
0.0
  0
LINE
  5
313
330
1E
100
AcDbEntity
  8
0
100
AcDbLine
 10
82.59999999999999
 20
201.9
 30
0.0
 11
83.0
 21
205.0
 31
0.0
  0
LINE
  5
314
330
1E
100
AcDbEntity
  8
0
100
AcDbLine
 10
81.4
 20
199.0
 30
0.0
 11
82.59999999999999
 21
201.9
 31
0.0
  0
LINE
  5
315
330
1E
100
AcDbEntity
  8
0
100
AcDbLine
 10
83.1
 20
198.0
 30
0.0
 11
84.50000000000001
 21
201.4
 31
0.0
  0
LINE
  5
316
330
1E
100
AcDbEntity
  8
0
100
AcDbLine
 10
84.50000000000001
 20
201.4
 30
0.0
 11
85.0
 21
205.0
 31
0.0
  0
LINE
  5
317
330
1E
100
AcDbEntity
  8
0
100
AcDbLine
 10
84.50000000000001
 20
208.5999999999999
 30
0.0
 11
85.0
 21
205.0
 31
0.0
  0
LINE
  5
318
330
1E
100
AcDbEntity
  8
0
100
AcDbLine
 10
83.1
 20
212.0999999999999
 30
0.0
 11
84.50000000000001
 21
208.5999999999999
 31
0.0
  0
LINE
  5
319
330
1E
100
AcDbEntity
  8
0
100
AcDbLine
 10
80.90000000000001
 20
214.9
 30
0.0
 11
83.1
 21
212.0999999999999
 31
0.0
  0
LINE
  5
31A
330
1E
100
AcDbEntity
  8
0
100
AcDbLine
 10
79.0
 20
216.4
 30
0.0
 11
79.0
 21
213.8799999999999
 31
0.0
  0
LINE
  5
31B
330
1E
100
AcDbEntity
  8
0
100
AcDbLine
 10
79.0
 20
216.4
 30
0.0
 11
80.90000000000001
 21
214.9
 31
0.0
  0
LINE
  5
31C
330
1E
100
AcDbEntity
  8
0
100
AcDbLine
 10
76.376
 20
186.244
 30
0.0
 11
81.416
 21
184.2279999999999
 31
0.0
  0
LINE
  5
31D
330
1E
100
AcDbEntity
  8
0
100
AcDbLine
 10
75.875
 20
186.2579999999999
 30
0.0
 11
81.05
 21
184.085
 31
0.0
  0
LINE
  5
31E
330
1E
100
AcDbEntity
  8
0
100
AcDbLine
 10
81.05
 20
184.085
 30
0.0
 11
85.625
 21
180.6459999999999
 31
0.0
  0
LINE
  5
31F
330
1E
100
AcDbEntity
  8
0
100
AcDbLine
 10
88.49999999999999
 20
154.365
 30
0.0
 11
88.49999999999999
 21
51.3192
 31
0.0
  0
LINE
  5
320
330
1E
100
AcDbEntity
  8
0
100
AcDbLine
 10
88.49999999999999
 20
154.365
 30
0.0
 11
89.228
 21
155.584
 31
0.0
  0
LINE
  5
321
330
1E
100
AcDbEntity
  8
0
100
AcDbLine
 10
87.9
 20
153.8189999999999
 30
0.0
 11
88.49999999999999
 21
154.365
 31
0.0
  0
LINE
  5
322
330
1E
100
AcDbEntity
  8
0
100
AcDbLine
 10
85.868
 20
180.868
 30
0.0
 11
89.228
 21
176.4159999999999
 31
0.0
  0
LINE
  5
323
330
1E
100
AcDbEntity
  8
0
100
AcDbLine
 10
88.7
 20
175.859
 30
0.0
 11
90.8
 21
170.775
 31
0.0
  0
LINE
  5
324
330
1E
100
AcDbEntity
  8
0
100
AcDbLine
 10
85.625
 20
180.6459999999999
 30
0.0
 11
89.075
 21
176.0839999999999
 31
0.0
  0
LINE
  5
325
330
1E
100
AcDbEntity
  8
0
100
AcDbLine
 10
85.25
 20
151.859
 30
0.0
 11
88.7
 21
156.27
 31
0.0
  0
LINE
  5
326
330
1E
100
AcDbEntity
  8
0
100
AcDbLine
 10
89.075
 20
176.0839999999999
 30
0.0
 11
91.25
 21
170.925
 31
0.0
  0
LINE
  5
327
330
1E
100
AcDbEntity
  8
0
100
AcDbLine
 10
88.7
 20
156.27
 30
0.0
 11
90.8
 21
161.3539999999999
 31
0.0
  0
LINE
  5
328
330
1E
100
AcDbEntity
  8
0
100
AcDbLine
 10
81.05
 20
148.0459999999999
 30
0.0
 11
85.625
 21
151.485
 31
0.0
  0
LINE
  5
329
330
1E
100
AcDbEntity
  8
0
100
AcDbLine
 10
89.228
 20
155.584
 30
0.0
 11
91.24399999999999
 21
160.6239999999999
 31
0.0
  0
LINE
  5
32A
330
1E
100
AcDbEntity
  8
0
100
AcDbLine
 10
139.4439999999999
 20
147.8239999999999
 30
0.0
 11
142.0
 21
166.0
 31
0.0
  0
LINE
  5
32B
330
1E
100
AcDbEntity
  8
0
100
AcDbLine
 10
91.24399999999999
 20
160.6239999999999
 30
0.0
 11
92.0
 21
166.0
 31
0.0
  0
LINE
  5
32C
330
1E
100
AcDbEntity
  8
0
100
AcDbLine
 10
89.228
 20
155.584
 30
0.0
 11
91.24399999999999
 21
160.6239999999999
 31
0.0
  0
LINE
  5
32D
330
1E
100
AcDbEntity
  8
0
100
AcDbLine
 10
89.228
 20
155.584
 30
0.0
 11
91.24399999999999
 21
160.6239999999999
 31
0.0
  0
LINE
  5
32E
330
1E
100
AcDbEntity
  8
0
100
AcDbLine
 10
89.176
 20
234.444
 30
0.0
 11
106.2159999999999
 21
227.6279999999999
 31
0.0
  0
LINE
  5
32F
330
1E
100
AcDbEntity
  8
0
100
AcDbLine
 10
89.228
 20
176.4159999999999
 30
0.0
 11
91.24399999999999
 21
171.3759999999999
 31
0.0
  0
LINE
  5
330
330
1E
100
AcDbEntity
  8
0
100
AcDbLine
 10
91.24399999999999
 20
171.3759999999999
 30
0.0
 11
91.8970070422535
 21
166.7323943661969
 31
0.0
  0
LINE
  5
331
330
1E
100
AcDbEntity
  8
0
100
AcDbLine
 10
90.8
 20
170.775
 30
0.0
 11
91.54999999999999
 21
166.0649999999999
 31
0.0
  0
LINE
  5
332
330
1E
100
AcDbEntity
  8
0
100
AcDbLine
 10
106.2159999999999
 20
227.6279999999999
 30
0.0
 11
121.2679999999999
 21
216.2679999999999
 31
0.0
  0
LINE
  5
333
330
1E
100
AcDbEntity
  8
0
100
AcDbLine
 10
139.4439999999999
 20
184.1759999999999
 30
0.0
 11
142.0
 21
166.0
 31
0.0
  0
LINE
  5
334
330
1E
100
AcDbEntity
  8
0
100
AcDbLine
 10
132.6279999999999
 20
201.2159999999999
 30
0.0
 11
139.4439999999999
 21
184.1759999999999
 31
0.0
  0
LINE
  5
335
330
1E
100
AcDbEntity
  8
0
100
AcDbLine
 10
121.2679999999999
 20
216.2679999999999
 30
0.0
 11
132.6279999999999
 21
201.2159999999999
 31
0.0
  0
LINE
  5
336
330
1E
100
AcDbEntity
  8
0
100
AcDbLine
 10
91.25
 20
170.925
 30
0.0
 11
92.0
 21
166.0649999999999
 31
0.0
  0
LINE
  5
337
330
1E
100
AcDbEntity
  8
0
100
AcDbLine
 10
90.8
 20
161.3539999999999
 30
0.0
 11
91.54999999999999
 21
166.0649999999999
 31
0.0
  0
LINE
  5
338
330
1E
100
AcDbEntity
  8
0
100
AcDbLine
 10
89.075
 20
156.0459999999999
 30
0.0
 11
91.25
 21
161.205
 31
0.0
  0
LINE
  5
339
330
1E
100
AcDbEntity
  8
0
100
AcDbLine
 10
67.0
 20
145.7429230769229
 30
0.0
 11
67.0
 21
75.0
 31
0.0
  0
LINE
  5
33A
330
1E
100
AcDbEntity
  8
0
100
AcDbLine
 10
66.40729366602679
 20
145.645849328215
 30
0.0
 11
66.5
 21
145.617
 31
0.0
  0
LINE
  5
33B
330
1E
100
AcDbEntity
  8
0
100
AcDbLine
 10
56.8857498162907
 20
150.5631322141199
 30
0.0
 11
58.6
 21
149.065
 31
0.0
  0
LINE
  5
33C
330
1E
100
AcDbEntity
  8
0
100
AcDbLine
 10
54.1
 20
49.0692
 30
0.0
 11
55.8
 21
46.9692
 31
0.0
  0
LINE
  5
33D
330
1E
100
AcDbEntity
  8
0
100
AcDbLine
 10
53.5
 20
50.4532
 30
0.0
 11
53.6154666666667
 21
50.8862
 31
0.0
  0
LINE
  5
33E
330
1E
100
AcDbEntity
  8
0
100
AcDbLine
 10
53.5
 20
50.4532
 30
0.0
 11
53.5
 21
11.4821
 31
0.0
  0
LINE
  5
33F
330
1E
100
AcDbEntity
  8
0
100
AcDbLine
 10
53.5
 20
50.4532
 30
0.0
 11
54.1
 21
48.2032
 31
0.0
  0
LINE
  5
340
330
1E
100
AcDbEntity
  8
0
100
AcDbLine
 10
52.2
 20
13.9821
 30
0.0
 11
53.5
 21
15.5899947368421
 31
0.0
  0
LINE
  5
341
330
1E
100
AcDbEntity
  8
0
100
AcDbLine
 10
51.5
 20
9.750000000000008
 30
0.0
 11
51.5
 21
11.4821
 31
0.0
  0
LINE
  5
342
330
1E
100
AcDbEntity
  8
0
100
AcDbLine
 10
51.5
 20
9.750000000000008
 30
0.0
 11
52.2
 21
7.250000000000009
 31
0.0
  0
LINE
  5
347
330
1E
100
AcDbEntity
  8
0
100
AcDbLine
 10
55.3402
 20
201.4
 30
0.0
 11
61.0
 21
195.0
 31
0.0
  0
LINE
  5
348
330
1E
100
AcDbEntity
  8
0
100
AcDbLine
 10
36.56499999999999
 20
291.3999999999999
 30
0.0
 11
33.78315027996609
 21
289.9105451251874
 31
0.0
  0
LINE
  5
349
330
1E
100
AcDbEntity
  8
0
100
AcDbLine
 10
33.78315027996609
 20
289.9105451251874
 30
0.0
 11
32.34
 21
288.5
 31
0.0
  0
LINE
  5
34A
330
1E
100
AcDbEntity
  8
0
100
AcDbLine
 10
36.56499999999999
 20
24.6
 30
0.0
 11
33.74208832663839
 21
26.18784451570752
 31
0.0
  0
LINE
  5
34B
330
1E
100
AcDbEntity
  8
0
100
AcDbLine
 10
33.74208832663839
 20
26.18784451570752
 30
0.0
 11
32.34
 21
27.5
 31
0.0
  0
LINE
  5
34C
330
1E
100
AcDbEntity
  8
0
100
AcDbLine
 10
41.0003
 20
64.40000000000001
 30
0.0
 11
39.5188175011494
 21
54.88207193992579
 31
0.0
  0
ENDSEC
  0
SECTION
  2
OBJECTS
  0
DICTIONARY
  5
C
330
0
100
AcDbDictionary
281
     1
  3
ACAD_GROUP
350
D
  3
ACAD_LAYOUT
350
19
  3
ACAD_MLINESTYLE
350
16
  3
ACAD_PLOTSETTINGS
350
18
  3
ACAD_PLOTSTYLENAME
350
E
  3
AcDbVariableDictionary
350
34D
  0
DICTIONARY
  5
D
102
{ACAD_REACTORS
330
C
102
}
330
C
100
AcDbDictionary
281
     1
  0
DICTIONARY
  5
19
102
{ACAD_REACTORS
330
C
102
}
330
C
100
AcDbDictionary
281
     1
  3
Layout1
350
1D
  3
Model
350
21
  0
DICTIONARY
  5
16
102
{ACAD_REACTORS
330
C
102
}
330
C
100
AcDbDictionary
281
     1
  3
Standard
350
17
  0
DICTIONARY
  5
18
102
{ACAD_REACTORS
330
C
102
}
330
C
100
AcDbDictionary
281
     1
  0
ACDBDICTIONARYWDFLT
  5
E
102
{ACAD_REACTORS
330
C
102
}
330
C
100
AcDbDictionary
281
     1
  3
Normal
350
F
100
AcDbDictionaryWithDefault
340
F
  0
DICTIONARY
  5
34D
102
{ACAD_REACTORS
330
C
102
}
330
C
100
AcDbDictionary
281
     1
  3
DIMASSOC
350
34E
  0
LAYOUT
  5
1D
102
{ACAD_REACTORS
330
19
102
}
330
19
100
AcDbPlotSettings
  1

  2
hp deskjet 980c series
  4

  6

 40
0.0
 41
0.0
 42
0.0
 43
0.0
 44
0.0
 45
0.0
 46
0.0
 47
0.0
 48
0.0
 49
0.0
140
0.0
141
0.0
142
1.0
143
1.0
 70
   688
 72
     0
 73
     0
 74
     5
  7

 75
    16
147
1.0
148
0.0
149
0.0
100
AcDbLayout
  1
Layout1
 70
     1
 71
     1
 10
0.0
 20
0.0
 11
12.0
 21
9.0
 12
0.0
 22
0.0
 32
0.0
 14
1.000000000000000E+20
 24
1.000000000000000E+20
 34
1.000000000000000E+20
 15
-1.000000000000000E+20
 25
-1.000000000000000E+20
 35
-1.000000000000000E+20
146
0.0
 13
0.0
 23
0.0
 33
0.0
 16
1.0
 26
0.0
 36
0.0
 17
0.0
 27
1.0
 37
0.0
 76
     0
330
1A
  0
LAYOUT
  5
21
102
{ACAD_REACTORS
330
19
102
}
330
19
100
AcDbPlotSettings
  1

  2
hp deskjet 980c series
  4

  6

 40
0.0
 41
0.0
 42
0.0
 43
0.0
 44
0.0
 45
0.0
 46
0.0
 47
0.0
 48
0.0
 49
0.0
140
0.0
141
0.0
142
1.0
143
1.0
 70
  1712
 72
     0
 73
     0
 74
     0
  7

 75
     0
147
1.0
148
0.0
149
0.0
100
AcDbLayout
  1
Model
 70
     1
 71
     0
 10
0.0
 20
0.0
 11
12.0
 21
9.0
 12
0.0
 22
0.0
 32
0.0
 14
0.0
 24
0.0
 34
0.0
 15
0.0
 25
0.0
 35
0.0
146
0.0
 13
0.0
 23
0.0
 33
0.0
 16
1.0
 26
0.0
 36
0.0
 17
0.0
 27
1.0
 37
0.0
 76
     0
330
1E
  0
MLINESTYLE
  5
17
102
{ACAD_REACTORS
330
16
102
}
330
16
100
AcDbMlineStyle
  2
STANDARD
 70
     0
  3

 62
   256
 51
90.0
 52
90.0
 71
     2
 49
0.5
 62
   256
  6
BYLAYER
 49
-0.5
 62
   256
  6
BYLAYER
  0
ACDBPLACEHOLDER
  5
F
102
{ACAD_REACTORS
330
E
102
}
330
E
  0
DICTIONARYVAR
  5
34E
102
{ACAD_REACTORS
330
34D
102
}
330
34D
100
DictionaryVariables
280
     0
  1
1
  0
ENDSEC
  0
EOF
