  0
SECTION
  2
HEADER
  9
$ACADVER
  1
AC1015
  9
$ACADMAINTVER
 70
    13
  9
$DWGCODEPAGE
  3
ANSI_1252
  9
$INSBASE
 10
0.0
 20
0.0
 30
0.0
  9
$EXTMIN
 10
0.186500000000006
 20
0.0000000000000087
 30
0.0
  9
$EXTMAX
 10
316.8134999999999
 20
129.0
 30
0.0
  9
$LIMMIN
 10
0.0
 20
0.0
  9
$LIMMAX
 10
12.0
 20
9.0
  9
$ORTHOMODE
 70
     0
  9
$REGENMODE
 70
     1
  9
$FILLMODE
 70
     1
  9
$QTEXTMODE
 70
     0
  9
$MIRRTEXT
 70
     1
  9
$LTSCALE
 40
1.0
  9
$ATTMODE
 70
     1
  9
$TEXTSIZE
 40
0.2
  9
$TRACEWID
 40
0.05
  9
$TEXTSTYLE
  7
Standard
  9
$CLAYER
  8
0
  9
$CELTYPE
  6
Continuous
  9
$CECOLOR
 62
   256
  9
$CELTSCALE
 40
1.0
  9
$DISPSILH
 70
     0
  9
$DIMSCALE
 40
1.0
  9
$DIMASZ
 40
0.18
  9
$DIMEXO
 40
0.0625
  9
$DIMDLI
 40
0.38
  9
$DIMRND
 40
0.0
  9
$DIMDLE
 40
0.0
  9
$DIMEXE
 40
0.18
  9
$DIMTP
 40
0.0
  9
$DIMTM
 40
0.0
  9
$DIMTXT
 40
0.18
  9
$DIMCEN
 40
0.09
  9
$DIMTSZ
 40
0.0
  9
$DIMTOL
 70
     0
  9
$DIMLIM
 70
     0
  9
$DIMTIH
 70
     1
  9
$DIMTOH
 70
     1
  9
$DIMSE1
 70
     0
  9
$DIMSE2
 70
     0
  9
$DIMTAD
 70
     0
  9
$DIMZIN
 70
     0
  9
$DIMBLK
  1

  9
$DIMASO
 70
     1
  9
$DIMSHO
 70
     1
  9
$DIMPOST
  1

  9
$DIMAPOST
  1

  9
$DIMALT
 70
     0
  9
$DIMALTD
 70
     2
  9
$DIMALTF
 40
25.4
  9
$DIMLFAC
 40
1.0
  9
$DIMTOFL
 70
     0
  9
$DIMTVP
 40
0.0
  9
$DIMTIX
 70
     0
  9
$DIMSOXD
 70
     0
  9
$DIMSAH
 70
     0
  9
$DIMBLK1
  1

  9
$DIMBLK2
  1

  9
$DIMSTYLE
  2
Standard
  9
$DIMCLRD
 70
     0
  9
$DIMCLRE
 70
     0
  9
$DIMCLRT
 70
     0
  9
$DIMTFAC
 40
1.0
  9
$DIMGAP
 40
0.09
  9
$DIMJUST
 70
     0
  9
$DIMSD1
 70
     0
  9
$DIMSD2
 70
     0
  9
$DIMTOLJ
 70
     1
  9
$DIMTZIN
 70
     0
  9
$DIMALTZ
 70
     0
  9
$DIMALTTZ
 70
     0
  9
$DIMUPT
 70
     0
  9
$DIMDEC
 70
     4
  9
$DIMTDEC
 70
     4
  9
$DIMALTU
 70
     2
  9
$DIMALTTD
 70
     2
  9
$DIMTXSTY
  7
Standard
  9
$DIMAUNIT
 70
     0
  9
$DIMADEC
 70
     0
  9
$DIMALTRND
 40
0.0
  9
$DIMAZIN
 70
     0
  9
$DIMDSEP
 70
    46
  9
$DIMATFIT
 70
     3
  9
$DIMFRAC
 70
     0
  9
$DIMLDRBLK
  1

  9
$DIMLUNIT
 70
     2
  9
$DIMLWD
 70
    -2
  9
$DIMLWE
 70
    -2
  9
$DIMTMOVE
 70
     0
  9
$LUNITS
 70
     2
  9
$LUPREC
 70
     4
  9
$SKETCHINC
 40
0.1
  9
$FILLETRAD
 40
0.0
  9
$AUNITS
 70
     0
  9
$AUPREC
 70
     0
  9
$MENU
  1
.
  9
$ELEVATION
 40
0.0
  9
$PELEVATION
 40
0.0
  9
$THICKNESS
 40
0.0
  9
$LIMCHECK
 70
     0
  9
$CHAMFERA
 40
0.0
  9
$CHAMFERB
 40
0.0
  9
$CHAMFERC
 40
0.0
  9
$CHAMFERD
 40
0.0
  9
$SKPOLY
 70
     0
  9
$TDCREATE
 40
2454874.790022604
  9
$TDUCREATE
 40
2454874.748355937
  9
$TDUPDATE
 40
2454874.790939305
  9
$TDUUPDATE
 40
2454874.749272639
  9
$TDINDWG
 40
0.0009168866
  9
$TDUSRTIMER
 40
0.0009168866
  9
$USRTIMER
 70
     1
  9
$ANGBASE
 50
0.0
  9
$ANGDIR
 70
     0
  9
$PDMODE
 70
     0
  9
$PDSIZE
 40
0.0
  9
$PLINEWID
 40
0.0
  9
$SPLFRAME
 70
     0
  9
$SPLINETYPE
 70
     6
  9
$SPLINESEGS
 70
     8
  9
$HANDSEED
  5
2AD
  9
$SURFTAB1
 70
     6
  9
$SURFTAB2
 70
     6
  9
$SURFTYPE
 70
     6
  9
$SURFU
 70
     6
  9
$SURFV
 70
     6
  9
$UCSBASE
  2

  9
$UCSNAME
  2

  9
$UCSORG
 10
0.0
 20
0.0
 30
0.0
  9
$UCSXDIR
 10
1.0
 20
0.0
 30
0.0
  9
$UCSYDIR
 10
0.0
 20
1.0
 30
0.0
  9
$UCSORTHOREF
  2

  9
$UCSORTHOVIEW
 70
     1
  9
$UCSORGTOP
 10
0.0
 20
0.0
 30
0.0
  9
$UCSORGBOTTOM
 10
0.0
 20
0.0
 30
0.0
  9
$UCSORGLEFT
 10
0.0
 20
0.0
 30
0.0
  9
$UCSORGRIGHT
 10
0.0
 20
0.0
 30
0.0
  9
$UCSORGFRONT
 10
0.0
 20
0.0
 30
0.0
  9
$UCSORGBACK
 10
0.0
 20
0.0
 30
0.0
  9
$PUCSBASE
  2

  9
$PUCSNAME
  2

  9
$PUCSORG
 10
0.0
 20
0.0
 30
0.0
  9
$PUCSXDIR
 10
1.0
 20
0.0
 30
0.0
  9
$PUCSYDIR
 10
0.0
 20
1.0
 30
0.0
  9
$PUCSORTHOREF
  2

  9
$PUCSORTHOVIEW
 70
     0
  9
$PUCSORGTOP
 10
0.0
 20
0.0
 30
0.0
  9
$PUCSORGBOTTOM
 10
0.0
 20
0.0
 30
0.0
  9
$PUCSORGLEFT
 10
0.0
 20
0.0
 30
0.0
  9
$PUCSORGRIGHT
 10
0.0
 20
0.0
 30
0.0
  9
$PUCSORGFRONT
 10
0.0
 20
0.0
 30
0.0
  9
$PUCSORGBACK
 10
0.0
 20
0.0
 30
0.0
  9
$USERI1
 70
     0
  9
$USERI2
 70
     0
  9
$USERI3
 70
     0
  9
$USERI4
 70
     0
  9
$USERI5
 70
     0
  9
$USERR1
 40
0.0
  9
$USERR2
 40
0.0
  9
$USERR3
 40
0.0
  9
$USERR4
 40
0.0
  9
$USERR5
 40
0.0
  9
$WORLDVIEW
 70
     1
  9
$SHADEDGE
 70
     3
  9
$SHADEDIF
 70
    70
  9
$TILEMODE
 70
     1
  9
$MAXACTVP
 70
    64
  9
$PINSBASE
 10
0.0
 20
0.0
 30
0.0
  9
$PLIMCHECK
 70
     0
  9
$PEXTMIN
 10
1.000000000000000E+20
 20
1.000000000000000E+20
 30
1.000000000000000E+20
  9
$PEXTMAX
 10
-1.000000000000000E+20
 20
-1.000000000000000E+20
 30
-1.000000000000000E+20
  9
$PLIMMIN
 10
0.0
 20
0.0
  9
$PLIMMAX
 10
12.0
 20
9.0
  9
$UNITMODE
 70
     0
  9
$VISRETAIN
 70
     1
  9
$PLINEGEN
 70
     0
  9
$PSLTSCALE
 70
     1
  9
$TREEDEPTH
 70
  3020
  9
$CMLSTYLE
  2
Standard
  9
$CMLJUST
 70
     0
  9
$CMLSCALE
 40
1.0
  9
$PROXYGRAPHICS
 70
     1
  9
$MEASUREMENT
 70
     0
  9
$CELWEIGHT
370
    -1
  9
$ENDCAPS
280
     0
  9
$JOINSTYLE
280
     0
  9
$LWDISPLAY
290
     0
  9
$INSUNITS
 70
     0
  9
$HYPERLINKBASE
  1

  9
$STYLESHEET
  1

  9
$XEDIT
290
     1
  9
$CEPSNTYPE
380
     0
  9
$PSTYLEMODE
290
     1
  9
$FINGERPRINTGUID
  2
{588A5D64-B52B-4071-8335-FEC999462883}
  9
$VERSIONGUID
  2
{FE382AC1-EBBF-4FA4-8B28-6B76D0533323}
  9
$EXTNAMES
290
     1
  9
$PSVPSCALE
 40
0.0
  9
$OLESTARTUP
290
     0
  0
ENDSEC
  0
SECTION
  2
CLASSES
  0
CLASS
  1
ACDBDICTIONARYWDFLT
  2
AcDbDictionaryWithDefault
  3
AutoCAD 2000
 90
        0
280
     0
281
     0
  0
CLASS
  1
ACDBPLACEHOLDER
  2
AcDbPlaceHolder
  3
AutoCAD 2000
 90
        0
280
     0
281
     0
  0
CLASS
  1
LAYOUT
  2
AcDbLayout
  3
AutoCAD 2000
 90
        0
280
     0
281
     0
  0
CLASS
  1
DICTIONARYVAR
  2
AcDbDictionaryVar
  3
AutoCAD 2000
 90
        0
280
     0
281
     0
  0
ENDSEC
  0
SECTION
  2
TABLES
  0
TABLE
  2
VPORT
  5
8
330
0
100
AcDbSymbolTable
 70
     2
  0
VPORT
  5
2AC
330
8
100
AcDbSymbolTableRecord
100
AcDbViewportTableRecord
  2
*Active
 70
     0
 10
0.0
 20
0.0
 11
1.0
 21
1.0
 12
158.4999999999999
 22
64.50000000000001
 13
0.0
 23
0.0
 14
1.0
 24
1.0
 15
0.0
 25
0.0
 16
0.0
 26
0.0
 36
1.0
 17
0.0
 27
0.0
 37
0.0
 40
161.3723997090475
 41
1.968387776606954
 42
50.0
 43
0.0
 44
0.0
 50
0.0
 51
0.0
 71
     0
 72
   100
 73
     1
 74
     3
 75
     0
 76
     0
 77
     0
 78
     0
281
     0
 65
     1
110
0.0
120
0.0
130
0.0
111
1.0
121
0.0
131
0.0
112
0.0
122
1.0
132
0.0
 79
     1
146
0.0
  0
ENDTAB
  0
TABLE
  2
LTYPE
  5
5
330
0
100
AcDbSymbolTable
 70
     1
  0
LTYPE
  5
13
330
5
100
AcDbSymbolTableRecord
100
AcDbLinetypeTableRecord
  2
ByBlock
 70
     0
  3

 72
    65
 73
     0
 40
0.0
  0
LTYPE
  5
14
330
5
100
AcDbSymbolTableRecord
100
AcDbLinetypeTableRecord
  2
ByLayer
 70
     0
  3

 72
    65
 73
     0
 40
0.0
  0
LTYPE
  5
15
330
5
100
AcDbSymbolTableRecord
100
AcDbLinetypeTableRecord
  2
Continuous
 70
     0
  3
Solid line
 72
    65
 73
     0
 40
0.0
  0
ENDTAB
  0
TABLE
  2
LAYER
  5
2
330
0
100
AcDbSymbolTable
 70
     1
  0
LAYER
  5
10
330
2
100
AcDbSymbolTableRecord
100
AcDbLayerTableRecord
  2
0
 70
     0
 62
     7
  6
Continuous
370
    -3
390
F
  0
ENDTAB
  0
TABLE
  2
STYLE
  5
3
330
0
100
AcDbSymbolTable
 70
     1
  0
STYLE
  5
11
330
3
100
AcDbSymbolTableRecord
100
AcDbTextStyleTableRecord
  2
Standard
 70
     0
 40
0.0
 41
1.0
 50
0.0
 71
     0
 42
0.2
  3
txt
  4

  0
ENDTAB
  0
TABLE
  2
VIEW
  5
6
330
0
100
AcDbSymbolTable
 70
     0
  0
ENDTAB
  0
TABLE
  2
UCS
  5
7
330
0
100
AcDbSymbolTable
 70
     0
  0
ENDTAB
  0
TABLE
  2
APPID
  5
9
330
0
100
AcDbSymbolTable
 70
     1
  0
APPID
  5
12
330
9
100
AcDbSymbolTableRecord
100
AcDbRegAppTableRecord
  2
ACAD
 70
     0
  0
ENDTAB
  0
TABLE
  2
DIMSTYLE
  5
A
330
0
100
AcDbSymbolTable
 70
     1
100
AcDbDimStyleTable
 71
     0
  0
DIMSTYLE
105
29B
330
A
100
AcDbSymbolTableRecord
100
AcDbDimStyleTableRecord
  2
Standard
 70
     0
340
11
  0
ENDTAB
  0
TABLE
  2
BLOCK_RECORD
  5
1
330
0
100
AcDbSymbolTable
 70
     0
  0
BLOCK_RECORD
  5
1E
330
1
100
AcDbSymbolTableRecord
100
AcDbBlockTableRecord
  2
*Model_Space
340
21
  0
BLOCK_RECORD
  5
1A
330
1
100
AcDbSymbolTableRecord
100
AcDbBlockTableRecord
  2
*Paper_Space
340
1D
  0
ENDTAB
  0
ENDSEC
  0
SECTION
  2
BLOCKS
  0
BLOCK
  5
1F
330
1E
100
AcDbEntity
  8
0
100
AcDbBlockBegin
  2
*Model_Space
 70
     0
 10
0.0
 20
0.0
 30
0.0
  3
*Model_Space
  1

  0
ENDBLK
  5
20
330
1E
100
AcDbEntity
  8
0
100
AcDbBlockEnd
  0
BLOCK
  5
1B
330
1A
100
AcDbEntity
 67
     1
  8
0
100
AcDbBlockBegin
  2
*Paper_Space
 70
     0
 10
0.0
 20
0.0
 30
0.0
  3
*Paper_Space
  1

  0
ENDBLK
  5
1C
330
1A
100
AcDbEntity
 67
     1
  8
0
100
AcDbBlockEnd
  0
ENDSEC
  0
SECTION
  2
ENTITIES
  0
LINE
  5
22
330
1E
100
AcDbEntity
  8
0
100
AcDbLine
 10
1.186500000000009
 20
0.0000000000000088
 30
0.0
 11
241.1865
 21
0.0000000000000088
 31
0.0
  0
LINE
  5
23
330
1E
100
AcDbEntity
  8
0
100
AcDbLine
 10
0.186500000000006
 20
1.000000000000009
 30
0.0
 11
0.186500000000006
 21
128.0
 31
0.0
  0
LINE
  5
24
330
1E
100
AcDbEntity
  8
0
100
AcDbLine
 10
0.186500000000006
 20
1.000000000000009
 30
0.0
 11
1.186500000000009
 21
0.0000000000000088
 31
0.0
  0
LINE
  5
25
330
1E
100
AcDbEntity
  8
0
100
AcDbLine
 10
0.186500000000006
 20
1.000000000000009
 30
0.0
 11
1.186500000000009
 21
0.0000000000000087
 31
0.0
  0
LINE
  5
26
330
1E
100
AcDbEntity
  8
0
100
AcDbLine
 10
1.186500000000009
 20
1.000000000000009
 30
0.0
 11
1.186500000000009
 21
128.0
 31
0.0
  0
LINE
  5
27
330
1E
100
AcDbEntity
  8
0
100
AcDbLine
 10
1.186500000000009
 20
1.000000000000009
 30
0.0
 11
1.186500000000009
 21
0.0000000000000116
 31
0.0
  0
LINE
  5
28
330
1E
100
AcDbEntity
  8
0
100
AcDbLine
 10
1.186500000000009
 20
1.000000000000009
 30
0.0
 11
109.1865
 21
1.000000000000009
 31
0.0
  0
LINE
  5
29
330
1E
100
AcDbEntity
  8
0
100
AcDbLine
 10
0.186500000000006
 20
1.000000000000009
 30
0.0
 11
1.186500000000009
 21
1.000000000000009
 31
0.0
  0
LINE
  5
2A
330
1E
100
AcDbEntity
  8
0
100
AcDbLine
 10
0.186500000000006
 20
1.000000000000009
 30
0.0
 11
1.186500000000009
 21
0.0000000000000116
 31
0.0
  0
LINE
  5
2B
330
1E
100
AcDbEntity
  8
0
100
AcDbLine
 10
0.186500000000006
 20
1.000000000000009
 30
0.0
 11
0.186500000000006
 21
128.0
 31
0.0
  0
LINE
  5
2C
330
1E
100
AcDbEntity
  8
0
100
AcDbLine
 10
0.186500000000006
 20
1.000000000000009
 30
0.0
 11
1.186500000000009
 21
0.0000000000000116
 31
0.0
  0
LINE
  5
2D
330
1E
100
AcDbEntity
  8
0
100
AcDbLine
 10
1.186500000000019
 20
0.0000000000000116
 30
0.0
 11
241.1865
 21
0.0000000000000116
 31
0.0
  0
LINE
  5
2E
330
1E
100
AcDbEntity
  8
0
100
AcDbLine
 10
1.186500000000019
 20
0.0000000000000088
 30
0.0
 11
241.1865
 21
0.0000000000000088
 31
0.0
  0
LINE
  5
2F
330
1E
100
AcDbEntity
  8
0
100
AcDbLine
 10
1.186500000000019
 20
1.000000000000009
 30
0.0
 11
109.1865
 21
1.000000000000009
 31
0.0
  0
LINE
  5
30
330
1E
100
AcDbEntity
  8
0
100
AcDbLine
 10
1.186500000000009
 20
0.0000000000000116
 30
0.0
 11
1.186500000000009
 21
1.000000000000009
 31
0.0
  0
LINE
  5
31
330
1E
100
AcDbEntity
  8
0
100
AcDbLine
 10
1.186500000000009
 20
0.0000000000000116
 30
0.0
 11
241.1865
 21
0.0000000000000116
 31
0.0
  0
LINE
  5
32
330
1E
100
AcDbEntity
  8
0
100
AcDbLine
 10
109.1865
 20
67.6944444444445
 30
0.0
 11
109.1865
 21
0.0000000000000143
 31
0.0
  0
LINE
  5
33
330
1E
100
AcDbEntity
  8
0
100
AcDbLine
 10
112.9064999999999
 20
0.0000000000000131
 30
0.0
 11
114.1864999999999
 21
0.0000000000000131
 31
0.0
  0
LINE
  5
34
330
1E
100
AcDbEntity
  8
0
100
AcDbLine
 10
114.1864999999999
 20
0.0000000000000131
 30
0.0
 11
115.4665
 21
0.0000000000000131
 31
0.0
  0
LINE
  5
35
330
1E
100
AcDbEntity
  8
0
100
AcDbLine
 10
111.7064999999999
 20
0.0000000000000132
 30
0.0
 11
112.9064999999999
 21
0.0000000000000131
 31
0.0
  0
LINE
  5
36
330
1E
100
AcDbEntity
  8
0
100
AcDbLine
 10
110.6465
 20
0.0000000000000132
 30
0.0
 11
111.7064999999999
 21
0.0000000000000132
 31
0.0
  0
LINE
  5
37
330
1E
100
AcDbEntity
  8
0
100
AcDbLine
 10
115.4665
 20
0.0000000000000131
 30
0.0
 11
116.6665
 21
0.0000000000000132
 31
0.0
  0
LINE
  5
38
330
1E
100
AcDbEntity
  8
0
100
AcDbLine
 10
116.6665
 20
0.0000000000000132
 30
0.0
 11
117.7265
 21
0.0000000000000132
 31
0.0
  0
LINE
  5
39
330
1E
100
AcDbEntity
  8
0
100
AcDbLine
 10
109.8465
 20
0.0000000000000133
 30
0.0
 11
110.6465
 21
0.0000000000000132
 31
0.0
  0
LINE
  5
3A
330
1E
100
AcDbEntity
  8
0
100
AcDbLine
 10
109.3665
 20
0.0000000000000133
 30
0.0
 11
109.8465
 21
0.0000000000000133
 31
0.0
  0
LINE
  5
3B
330
1E
100
AcDbEntity
  8
0
100
AcDbLine
 10
117.7265
 20
0.0000000000000132
 30
0.0
 11
118.5265
 21
0.0000000000000133
 31
0.0
  0
LINE
  5
3C
330
1E
100
AcDbEntity
  8
0
100
AcDbLine
 10
118.5265
 20
0.0000000000000133
 30
0.0
 11
119.0065
 21
0.0000000000000133
 31
0.0
  0
LINE
  5
3D
330
1E
100
AcDbEntity
  8
0
100
AcDbLine
 10
119.0065
 20
0.0000000000000133
 30
0.0
 11
119.1864999999999
 21
0.0000000000000134
 31
0.0
  0
LINE
  5
3E
330
1E
100
AcDbEntity
  8
0
100
AcDbLine
 10
241.1865
 20
0.0000000000000116
 30
0.0
 11
242.1864999999999
 21
1.000000000000009
 31
0.0
  0
LINE
  5
3F
330
1E
100
AcDbEntity
  8
0
100
AcDbLine
 10
241.1865
 20
0.0000000000000116
 30
0.0
 11
242.1864999999999
 21
1.000000000000009
 31
0.0
  0
LINE
  5
40
330
1E
100
AcDbEntity
  8
0
100
AcDbLine
 10
241.1865
 20
0.0000000000000116
 30
0.0
 11
241.1865
 21
1.000000000000009
 31
0.0
  0
LINE
  5
41
330
1E
100
AcDbEntity
  8
0
100
AcDbLine
 10
119.1864999999999
 20
0.0000000000000134
 30
0.0
 11
119.1864999999999
 21
67.6944444444445
 31
0.0
  0
LINE
  5
42
330
1E
100
AcDbEntity
  8
0
100
AcDbLine
 10
119.0065
 20
0.0000000000000135
 30
0.0
 11
119.1864999999999
 21
0.0000000000000134
 31
0.0
  0
LINE
  5
43
330
1E
100
AcDbEntity
  8
0
100
AcDbLine
 10
117.7265
 20
0.0000000000000136
 30
0.0
 11
118.5265
 21
0.0000000000000136
 31
0.0
  0
LINE
  5
44
330
1E
100
AcDbEntity
  8
0
100
AcDbLine
 10
118.5265
 20
0.0000000000000136
 30
0.0
 11
119.0065
 21
0.0000000000000135
 31
0.0
  0
LINE
  5
45
330
1E
100
AcDbEntity
  8
0
100
AcDbLine
 10
115.4665
 20
0.0000000000000137
 30
0.0
 11
116.6665
 21
0.0000000000000137
 31
0.0
  0
LINE
  5
46
330
1E
100
AcDbEntity
  8
0
100
AcDbLine
 10
116.6665
 20
0.0000000000000137
 30
0.0
 11
117.7265
 21
0.0000000000000136
 31
0.0
  0
LINE
  5
47
330
1E
100
AcDbEntity
  8
0
100
AcDbLine
 10
119.1864999999999
 20
1.000000000000009
 30
0.0
 11
241.1865
 21
1.000000000000009
 31
0.0
  0
LINE
  5
48
330
1E
100
AcDbEntity
  8
0
100
AcDbLine
 10
119.1864999999999
 20
1.000000000000009
 30
0.0
 11
241.1865
 21
1.000000000000009
 31
0.0
  0
LINE
  5
49
330
1E
100
AcDbEntity
  8
0
100
AcDbLine
 10
242.1864999999999
 20
1.000000000000009
 30
0.0
 11
242.1864999999999
 21
81.0
 31
0.0
  0
LINE
  5
4A
330
1E
100
AcDbEntity
  8
0
100
AcDbLine
 10
241.1865
 20
1.000000000000009
 30
0.0
 11
242.1864999999999
 21
1.000000000000009
 31
0.0
  0
LINE
  5
4B
330
1E
100
AcDbEntity
  8
0
100
AcDbLine
 10
241.1865
 20
1.000000000000009
 30
0.0
 11
241.1865
 21
0.0000000000000116
 31
0.0
  0
LINE
  5
4C
330
1E
100
AcDbEntity
  8
0
100
AcDbLine
 10
241.1865
 20
1.000000000000009
 30
0.0
 11
241.1865
 21
81.0
 31
0.0
  0
LINE
  5
4D
330
1E
100
AcDbEntity
  8
0
100
AcDbLine
 10
119.1864999999999
 20
67.6944444444445
 30
0.0
 11
119.1864999999999
 21
0.0000000000000143
 31
0.0
  0
LINE
  5
4E
330
1E
100
AcDbEntity
  8
0
100
AcDbLine
 10
114.1864999999999
 20
0.0000000000000137
 30
0.0
 11
115.4665
 21
0.0000000000000137
 31
0.0
  0
LINE
  5
4F
330
1E
100
AcDbEntity
  8
0
100
AcDbLine
 10
112.9064999999999
 20
0.0000000000000137
 30
0.0
 11
114.1864999999999
 21
0.0000000000000137
 31
0.0
  0
LINE
  5
50
330
1E
100
AcDbEntity
  8
0
100
AcDbLine
 10
111.7064999999999
 20
0.0000000000000137
 30
0.0
 11
112.9064999999999
 21
0.0000000000000137
 31
0.0
  0
LINE
  5
51
330
1E
100
AcDbEntity
  8
0
100
AcDbLine
 10
110.6465
 20
0.0000000000000136
 30
0.0
 11
111.7064999999999
 21
0.0000000000000137
 31
0.0
  0
LINE
  5
52
330
1E
100
AcDbEntity
  8
0
100
AcDbLine
 10
109.8465
 20
0.0000000000000136
 30
0.0
 11
110.6465
 21
0.0000000000000136
 31
0.0
  0
LINE
  5
53
330
1E
100
AcDbEntity
  8
0
100
AcDbLine
 10
109.3665
 20
0.0000000000000135
 30
0.0
 11
109.8465
 21
0.0000000000000136
 31
0.0
  0
LINE
  5
54
330
1E
100
AcDbEntity
  8
0
100
AcDbLine
 10
109.1865
 20
0.0000000000000134
 30
0.0
 11
109.3665
 21
0.0000000000000135
 31
0.0
  0
LINE
  5
55
330
1E
100
AcDbEntity
  8
0
100
AcDbLine
 10
109.1865
 20
0.0000000000000134
 30
0.0
 11
109.1865
 21
67.6944444444445
 31
0.0
  0
LINE
  5
56
330
1E
100
AcDbEntity
  8
0
100
AcDbLine
 10
109.1865
 20
0.0000000000000134
 30
0.0
 11
109.3665
 21
0.0000000000000133
 31
0.0
  0
LINE
  5
57
330
1E
100
AcDbEntity
  8
0
100
AcDbLine
 10
106.9865
 20
68.0
 30
0.0
 11
109.1865
 21
67.6944444444445
 31
0.0
  0
LINE
  5
58
330
1E
100
AcDbEntity
  8
0
100
AcDbLine
 10
242.1864999999999
 20
56.1681387409201
 30
0.0
 11
242.8255
 21
56.0915
 31
0.0
  0
LINE
  5
59
330
1E
100
AcDbEntity
  8
0
100
AcDbLine
 10
133.9865
 20
75.2
 30
0.0
 11
138.3865
 21
81.09999999999999
 31
0.0
  0
LINE
  5
5A
330
1E
100
AcDbEntity
  8
0
100
AcDbLine
 10
138.3865
 20
81.09999999999999
 30
0.0
 11
141.1864999999999
 21
87.79999999999999
 31
0.0
  0
LINE
  5
5B
330
1E
100
AcDbEntity
  8
0
100
AcDbLine
 10
94.3865
 20
75.2
 30
0.0
 11
100.2865
 21
70.8
 31
0.0
  0
LINE
  5
5C
330
1E
100
AcDbEntity
  8
0
100
AcDbLine
 10
89.98650000000001
 20
81.09999999999999
 30
0.0
 11
94.3865
 21
75.2
 31
0.0
  0
LINE
  5
5D
330
1E
100
AcDbEntity
  8
0
100
AcDbLine
 10
225.5865
 20
84.40000000000001
 30
0.0
 11
228.6865
 21
82.0
 31
0.0
  0
LINE
  5
5E
330
1E
100
AcDbEntity
  8
0
100
AcDbLine
 10
87.1865
 20
87.79999999999999
 30
0.0
 11
89.98650000000001
 21
81.09999999999999
 31
0.0
  0
LINE
  5
5F
330
1E
100
AcDbEntity
  8
0
100
AcDbLine
 10
86.1865
 20
95.0
 30
0.0
 11
87.1865
 21
87.79999999999999
 31
0.0
  0
LINE
  5
60
330
1E
100
AcDbEntity
  8
0
100
AcDbLine
 10
86.1865
 20
95.0
 30
0.0
 11
87.1865
 21
102.2
 31
0.0
  0
LINE
  5
61
330
1E
100
AcDbEntity
  8
0
100
AcDbLine
 10
168.5864999999999
 20
85.4
 30
0.0
 11
171.1864999999999
 21
85.0
 31
0.0
  0
LINE
  5
65
330
1E
100
AcDbEntity
  8
0
100
AcDbLine
 10
166.1864999999999
 20
86.3
 30
0.0
 11
168.5864999999999
 21
85.4
 31
0.0
  0
LINE
  5
66
330
1E
100
AcDbEntity
  8
0
100
AcDbLine
 10
164.0864999999999
 20
87.9
 30
0.0
 11
166.1864999999999
 21
86.3
 31
0.0
  0
LINE
  5
68
330
1E
100
AcDbEntity
  8
0
100
AcDbLine
 10
162.4864999999999
 20
90.0
 30
0.0
 11
164.0864999999999
 21
87.9
 31
0.0
  0
LINE
  5
69
330
1E
100
AcDbEntity
  8
0
100
AcDbLine
 10
161.5865
 20
92.4
 30
0.0
 11
162.4864999999999
 21
90.0
 31
0.0
  0
LINE
  5
6A
330
1E
100
AcDbEntity
  8
0
100
AcDbLine
 10
141.1864999999999
 20
102.2
 30
0.0
 11
142.1864999999999
 21
95.0
 31
0.0
  0
LINE
  5
6B
330
1E
100
AcDbEntity
  8
0
100
AcDbLine
 10
87.1865
 20
102.2
 30
0.0
 11
89.98650000000001
 21
108.9
 31
0.0
  0
LINE
  5
6E
330
1E
100
AcDbEntity
  8
0
100
AcDbLine
 10
168.5864999999999
 20
104.6
 30
0.0
 11
171.1864999999999
 21
105.0
 31
0.0
  0
LINE
  5
6F
330
1E
100
AcDbEntity
  8
0
100
AcDbLine
 10
166.1864999999999
 20
103.7
 30
0.0
 11
168.5864999999999
 21
104.6
 31
0.0
  0
LINE
  5
70
330
1E
100
AcDbEntity
  8
0
100
AcDbLine
 10
164.0864999999999
 20
102.0999999999999
 30
0.0
 11
166.1864999999999
 21
103.7
 31
0.0
  0
LINE
  5
71
330
1E
100
AcDbEntity
  8
0
100
AcDbLine
 10
162.4864999999999
 20
100.0
 30
0.0
 11
164.0864999999999
 21
102.0999999999999
 31
0.0
  0
LINE
  5
72
330
1E
100
AcDbEntity
  8
0
100
AcDbLine
 10
161.5865
 20
97.59999999999999
 30
0.0
 11
162.4864999999999
 21
100.0
 31
0.0
  0
LINE
  5
74
330
1E
100
AcDbEntity
  8
0
100
AcDbLine
 10
173.7865
 20
104.6
 30
0.0
 11
176.1865
 21
103.7
 31
0.0
  0
LINE
  5
75
330
1E
100
AcDbEntity
  8
0
100
AcDbLine
 10
1.186500000000019
 20
128.0
 30
0.0
 11
241.1865
 21
128.0
 31
0.0
  0
LINE
  5
76
330
1E
100
AcDbEntity
  8
0
100
AcDbLine
 10
1.186500000000009
 20
128.0
 30
0.0
 11
1.186500000000009
 21
129.0
 31
0.0
  0
LINE
  5
77
330
1E
100
AcDbEntity
  8
0
100
AcDbLine
 10
1.186500000000009
 20
128.0
 30
0.0
 11
241.1865
 21
128.0
 31
0.0
  0
LINE
  5
78
330
1E
100
AcDbEntity
  8
0
100
AcDbLine
 10
1.186500000000009
 20
128.0
 30
0.0
 11
1.186500000000009
 21
1.000000000000019
 31
0.0
  0
LINE
  5
79
330
1E
100
AcDbEntity
  8
0
100
AcDbLine
 10
1.186500000000019
 20
129.0
 30
0.0
 11
241.1865
 21
129.0
 31
0.0
  0
LINE
  5
7A
330
1E
100
AcDbEntity
  8
0
100
AcDbLine
 10
1.186500000000009
 20
129.0
 30
0.0
 11
1.186500000000009
 21
128.0
 31
0.0
  0
LINE
  5
7B
330
1E
100
AcDbEntity
  8
0
100
AcDbLine
 10
1.186500000000009
 20
129.0
 30
0.0
 11
241.1865
 21
129.0
 31
0.0
  0
LINE
  5
7C
330
1E
100
AcDbEntity
  8
0
100
AcDbLine
 10
0.186500000000006
 20
128.0
 30
0.0
 11
0.186500000000006
 21
1.000000000000019
 31
0.0
  0
LINE
  5
7D
330
1E
100
AcDbEntity
  8
0
100
AcDbLine
 10
0.186500000000006
 20
128.0
 30
0.0
 11
1.186500000000009
 21
128.0
 31
0.0
  0
LINE
  5
7E
330
1E
100
AcDbEntity
  8
0
100
AcDbLine
 10
0.186500000000006
 20
128.0
 30
0.0
 11
1.186500000000009
 21
129.0
 31
0.0
  0
LINE
  5
7F
330
1E
100
AcDbEntity
  8
0
100
AcDbLine
 10
0.186500000000006
 20
128.0
 30
0.0
 11
0.186500000000006
 21
1.0
 31
0.0
  0
LINE
  5
80
330
1E
100
AcDbEntity
  8
0
100
AcDbLine
 10
133.9865
 20
114.7999999999999
 30
0.0
 11
138.3865
 21
108.9
 31
0.0
  0
LINE
  5
81
330
1E
100
AcDbEntity
  8
0
100
AcDbLine
 10
138.3865
 20
108.9
 30
0.0
 11
141.1864999999999
 21
102.2
 31
0.0
  0
LINE
  5
82
330
1E
100
AcDbEntity
  8
0
100
AcDbLine
 10
121.3864999999999
 20
122.0
 30
0.0
 11
128.0865
 21
119.1999999999999
 31
0.0
  0
LINE
  5
83
330
1E
100
AcDbEntity
  8
0
100
AcDbLine
 10
128.0865
 20
119.1999999999999
 30
0.0
 11
133.9865
 21
114.7999999999999
 31
0.0
  0
LINE
  5
84
330
1E
100
AcDbEntity
  8
0
100
AcDbLine
 10
114.1864999999999
 20
123.0
 30
0.0
 11
121.3864999999999
 21
122.0
 31
0.0
  0
LINE
  5
85
330
1E
100
AcDbEntity
  8
0
100
AcDbLine
 10
106.9865
 20
122.0
 30
0.0
 11
114.1864999999999
 21
123.0
 31
0.0
  0
LINE
  5
86
330
1E
100
AcDbEntity
  8
0
100
AcDbLine
 10
100.2865
 20
119.1999999999999
 30
0.0
 11
106.9865
 21
122.0
 31
0.0
  0
LINE
  5
87
330
1E
100
AcDbEntity
  8
0
100
AcDbLine
 10
94.3865
 20
114.7999999999999
 30
0.0
 11
100.2865
 21
119.1999999999999
 31
0.0
  0
LINE
  5
88
330
1E
100
AcDbEntity
  8
0
100
AcDbLine
 10
89.98650000000001
 20
108.9
 30
0.0
 11
94.3865
 21
114.7999999999999
 31
0.0
  0
LINE
  5
89
330
1E
100
AcDbEntity
  8
0
100
AcDbLine
 10
171.1864999999999
 20
105.0
 30
0.0
 11
173.7865
 21
104.6
 31
0.0
  0
LINE
  5
8B
330
1E
100
AcDbEntity
  8
0
100
AcDbLine
 10
178.2864999999999
 20
102.0999999999999
 30
0.0
 11
179.8865
 21
100.0
 31
0.0
  0
LINE
  5
8C
330
1E
100
AcDbEntity
  8
0
100
AcDbLine
 10
179.8865
 20
100.0
 30
0.0
 11
180.7864999999999
 21
97.59999999999999
 31
0.0
  0
LINE
  5
8D
330
1E
100
AcDbEntity
  8
0
100
AcDbLine
 10
180.7864999999999
 20
97.59999999999999
 30
0.0
 11
181.1865
 21
95.0
 31
0.0
  0
LINE
  5
8E
330
1E
100
AcDbEntity
  8
0
100
AcDbLine
 10
176.1865
 20
103.7
 30
0.0
 11
178.2864999999999
 21
102.0999999999999
 31
0.0
  0
LINE
  5
8F
330
1E
100
AcDbEntity
  8
0
100
AcDbLine
 10
161.1864999999999
 20
95.0
 30
0.0
 11
161.5865
 21
92.4
 31
0.0
  0
LINE
  5
90
330
1E
100
AcDbEntity
  8
0
100
AcDbLine
 10
161.1864999999999
 20
95.0
 30
0.0
 11
161.5865
 21
97.59999999999999
 31
0.0
  0
LINE
  5
91
330
1E
100
AcDbEntity
  8
0
100
AcDbLine
 10
226.1864999999999
 20
89.50000000000001
 30
0.0
 11
228.0864999999999
 21
87.09999999999999
 31
0.0
  0
LINE
  5
92
330
1E
100
AcDbEntity
  8
0
100
AcDbLine
 10
225.7864999999999
 20
89.19999999999999
 30
0.0
 11
227.6864999999999
 21
86.69999999999999
 31
0.0
  0
LINE
  5
93
330
1E
100
AcDbEntity
  8
0
100
AcDbLine
 10
225.7864999999999
 20
89.19999999999999
 30
0.0
 11
227.3863204287919
 21
87.0949731200109
 31
0.0
  0
LINE
  5
94
330
1E
100
AcDbEntity
  8
0
100
AcDbLine
 10
225.7864999999999
 20
89.19999999999999
 30
0.0
 11
227.6864999999999
 21
86.69999999999999
 31
0.0
  0
LINE
  5
95
330
1E
100
AcDbEntity
  8
0
100
AcDbLine
 10
226.828120205504
 20
89.508396192554
 30
0.0
 11
234.3625
 21
93.85850000000001
 31
0.0
  0
LINE
  5
96
330
1E
100
AcDbEntity
  8
0
100
AcDbLine
 10
226.9985
 20
86.69209999999999
 30
0.0
 11
227.3095
 21
86.4015
 31
0.0
  0
LINE
  5
97
330
1E
100
AcDbEntity
  8
0
100
AcDbLine
 10
226.9985
 20
86.69209999999999
 30
0.0
 11
227.3863204287919
 21
87.0949731200109
 31
0.0
  0
LINE
  5
98
330
1E
100
AcDbEntity
  8
0
100
AcDbLine
 10
226.4475
 20
85.08329999999999
 30
0.0
 11
230.9884999999999
 21
82.0481
 31
0.0
  0
LINE
  5
99
330
1E
100
AcDbEntity
  8
0
100
AcDbLine
 10
226.6865
 20
89.7
 30
0.0
 11
228.3865
 21
87.4
 31
0.0
  0
LINE
  5
9A
330
1E
100
AcDbEntity
  8
0
100
AcDbLine
 10
226.586242780971
 20
89.94608590125341
 30
0.0
 11
234.1125
 21
94.29149999999999
 31
0.0
  0
LINE
  5
9B
330
1E
100
AcDbEntity
  8
0
100
AcDbLine
 10
226.586242780971
 20
89.94608590125341
 30
0.0
 11
228.71616641651
 21
91.17583395872427
 31
0.0
  0
LINE
  5
9C
330
1E
100
AcDbEntity
  8
0
100
AcDbLine
 10
223.4125
 20
89.6249
 30
0.0
 11
226.4475
 21
85.08329999999999
 31
0.0
  0
LINE
  5
9D
330
1E
100
AcDbEntity
  8
0
100
AcDbLine
 10
223.1864999999999
 20
87.5
 30
0.0
 11
225.5865
 21
84.40000000000001
 31
0.0
  0
LINE
  5
9E
330
1E
100
AcDbEntity
  8
0
100
AcDbLine
 10
222.3465
 20
94.98269999999999
 30
0.0
 11
223.4125
 21
100.34
 31
0.0
  0
LINE
  5
9F
330
1E
100
AcDbEntity
  8
0
100
AcDbLine
 10
222.3465
 20
94.98269999999999
 30
0.0
 11
223.4125
 21
89.6249
 31
0.0
  0
LINE
  5
A0
330
1E
100
AcDbEntity
  8
0
100
AcDbLine
 10
224.5865
 20
92.09999999999999
 30
0.0
 11
225.7864999999999
 21
89.19999999999999
 31
0.0
  0
LINE
  5
A1
330
1E
100
AcDbEntity
  8
0
100
AcDbLine
 10
225.5865
 20
92.4
 30
0.0
 11
226.6865
 21
89.7
 31
0.0
  0
LINE
  5
A2
330
1E
100
AcDbEntity
  8
0
100
AcDbLine
 10
225.222214285714
 20
94.95
 30
0.0
 11
233.9364999999999
 21
94.95
 31
0.0
  0
LINE
  5
A3
330
1E
100
AcDbEntity
  8
0
100
AcDbLine
 10
225.222214285714
 20
94.95
 30
0.0
 11
227.720590909091
 21
94.95
 31
0.0
  0
LINE
  5
A4
330
1E
100
AcDbEntity
  8
0
100
AcDbLine
 10
225.0865
 20
92.2
 30
0.0
 11
226.1864999999999
 21
89.50000000000001
 31
0.0
  0
LINE
  5
A5
330
1E
100
AcDbEntity
  8
0
100
AcDbLine
 10
224.5865
 20
92.09999999999999
 30
0.0
 11
225.7864999999999
 21
89.19999999999999
 31
0.0
  0
LINE
  5
A6
330
1E
100
AcDbEntity
  8
0
100
AcDbLine
 10
225.1865
 20
95.20000000000001
 30
0.0
 11
225.5865
 21
92.4
 31
0.0
  0
LINE
  5
A7
330
1E
100
AcDbEntity
  8
0
100
AcDbLine
 10
225.1865
 20
95.20000000000001
 30
0.0
 11
225.5865
 21
98.0
 31
0.0
  0
LINE
  5
A8
330
1E
100
AcDbEntity
  8
0
100
AcDbLine
 10
224.5865
 20
98.3
 30
0.0
 11
225.7864999999999
 21
101.2
 31
0.0
  0
LINE
  5
A9
330
1E
100
AcDbEntity
  8
0
100
AcDbLine
 10
225.5865
 20
98.0
 30
0.0
 11
226.6865
 21
100.7
 31
0.0
  0
LINE
  5
AA
330
1E
100
AcDbEntity
  8
0
100
AcDbLine
 10
225.222214285714
 20
95.44999999999999
 30
0.0
 11
233.9364999999999
 21
95.44999999999999
 31
0.0
  0
LINE
  5
AB
330
1E
100
AcDbEntity
  8
0
100
AcDbLine
 10
225.0865
 20
98.2
 30
0.0
 11
226.1864999999999
 21
100.9
 31
0.0
  0
LINE
  5
AC
330
1E
100
AcDbEntity
  8
0
100
AcDbLine
 10
226.6865
 20
100.7
 30
0.0
 11
228.3865
 21
103.0
 31
0.0
  0
LINE
  5
AD
330
1E
100
AcDbEntity
  8
0
100
AcDbLine
 10
226.827869799436
 20
100.8912650227659
 30
0.0
 11
234.3625
 21
96.54150000000001
 31
0.0
  0
LINE
  5
AE
330
1E
100
AcDbEntity
  8
0
100
AcDbLine
 10
226.58608353034
 20
100.453523210834
 30
0.0
 11
228.7160539202399
 21
99.22388480060043
 31
0.0
  0
LINE
  5
AF
330
1E
100
AcDbEntity
  8
0
100
AcDbLine
 10
226.58608353034
 20
100.453523210834
 30
0.0
 11
234.1125
 21
96.10850000000001
 31
0.0
  0
LINE
  5
B0
330
1E
100
AcDbEntity
  8
0
100
AcDbLine
 10
226.1864999999999
 20
100.9
 30
0.0
 11
228.0864999999999
 21
103.2999999999999
 31
0.0
  0
LINE
  5
B1
330
1E
100
AcDbEntity
  8
0
100
AcDbLine
 10
225.7864999999999
 20
101.2
 30
0.0
 11
227.6864999999999
 21
103.7
 31
0.0
  0
LINE
  5
B2
330
1E
100
AcDbEntity
  8
0
100
AcDbLine
 10
224.5865
 20
98.3
 30
0.0
 11
225.7864999999999
 21
101.2
 31
0.0
  0
LINE
  5
B3
330
1E
100
AcDbEntity
  8
0
100
AcDbLine
 10
224.6865
 20
95.20000000000001
 30
0.0
 11
225.0865
 21
92.2
 31
0.0
  0
LINE
  5
B4
330
1E
100
AcDbEntity
  8
0
100
AcDbLine
 10
224.6865
 20
95.20000000000001
 30
0.0
 11
225.0865
 21
98.2
 31
0.0
  0
LINE
  5
B5
330
1E
100
AcDbEntity
  8
0
100
AcDbLine
 10
224.1865
 20
95.20000000000001
 30
0.0
 11
224.5865
 21
92.09999999999999
 31
0.0
  0
LINE
  5
B6
330
1E
100
AcDbEntity
  8
0
100
AcDbLine
 10
224.1865
 20
95.20000000000001
 30
0.0
 11
224.5865
 21
98.3
 31
0.0
  0
LINE
  5
B7
330
1E
100
AcDbEntity
  8
0
100
AcDbLine
 10
224.1865
 20
95.20000000000001
 30
0.0
 11
224.5865
 21
92.09999999999999
 31
0.0
  0
LINE
  5
B8
330
1E
100
AcDbEntity
  8
0
100
AcDbLine
 10
224.1865
 20
95.20000000000001
 30
0.0
 11
224.5865
 21
98.3
 31
0.0
  0
LINE
  5
B9
330
1E
100
AcDbEntity
  8
0
100
AcDbLine
 10
223.4125
 20
100.34
 30
0.0
 11
226.4475
 21
104.882
 31
0.0
  0
LINE
  5
BA
330
1E
100
AcDbEntity
  8
0
100
AcDbLine
 10
226.4475
 20
104.882
 30
0.0
 11
230.9884999999999
 21
107.9169999999999
 31
0.0
  0
LINE
  5
BB
330
1E
100
AcDbEntity
  8
0
100
AcDbLine
 10
225.5865
 20
105.6
 30
0.0
 11
228.6865
 21
108.0
 31
0.0
  0
LINE
  5
BC
330
1E
100
AcDbEntity
  8
0
100
AcDbLine
 10
223.1864999999999
 20
102.4999999999999
 30
0.0
 11
225.5865
 21
105.6
 31
0.0
  0
LINE
  5
BD
330
1E
100
AcDbEntity
  8
0
100
AcDbLine
 10
221.6864999999999
 20
98.9
 30
0.0
 11
223.1864999999999
 21
102.4999999999999
 31
0.0
  0
LINE
  5
BE
330
1E
100
AcDbEntity
  8
0
100
AcDbLine
 10
221.6864999999999
 20
91.09999999999999
 30
0.0
 11
223.1864999999999
 21
87.5
 31
0.0
  0
LINE
  5
BF
330
1E
100
AcDbEntity
  8
0
100
AcDbLine
 10
221.1864999999999
 20
95.0
 30
0.0
 11
221.6864999999999
 21
91.09999999999999
 31
0.0
  0
LINE
  5
C0
330
1E
100
AcDbEntity
  8
0
100
AcDbLine
 10
221.1864999999999
 20
95.0
 30
0.0
 11
221.6864999999999
 21
98.9
 31
0.0
  0
LINE
  5
C1
330
1E
100
AcDbEntity
  8
0
100
AcDbLine
 10
227.1089677624649
 20
84.64117558849729
 30
0.0
 11
227.1174999999999
 21
84.3397
 31
0.0
  0
LINE
  5
C2
330
1E
100
AcDbEntity
  8
0
100
AcDbLine
 10
242.1864999999999
 20
81.0
 30
0.0
 11
242.1864999999999
 21
1.000000000000019
 31
0.0
  0
LINE
  5
C3
330
1E
100
AcDbEntity
  8
0
100
AcDbLine
 10
241.1865
 20
81.0
 30
0.0
 11
241.1865
 21
1.000000000000019
 31
0.0
  0
LINE
  5
C4
330
1E
100
AcDbEntity
  8
0
100
AcDbLine
 10
241.1865
 20
81.0
 30
0.0
 11
242.1864999999999
 21
81.0
 31
0.0
  0
LINE
  5
C5
330
1E
100
AcDbEntity
  8
0
100
AcDbLine
 10
236.3465
 20
80.98269999999999
 30
0.0
 11
241.7044999999999
 21
82.0481
 31
0.0
  0
LINE
  5
C6
330
1E
100
AcDbEntity
  8
0
100
AcDbLine
 10
236.1864999999999
 20
80.0
 30
0.0
 11
241.1865
 21
81.0
 31
0.0
  0
LINE
  5
C7
330
1E
100
AcDbEntity
  8
0
100
AcDbLine
 10
232.2864999999999
 20
80.5
 30
0.0
 11
236.1864999999999
 21
80.0
 31
0.0
  0
LINE
  5
C8
330
1E
100
AcDbEntity
  8
0
100
AcDbLine
 10
228.2424999999999
 20
85.5296
 30
0.0
 11
228.658240695374
 21
85.9614770715161
 31
0.0
  0
LINE
  5
C9
330
1E
100
AcDbEntity
  8
0
100
AcDbLine
 10
227.9314999999999
 20
85.82019999999999
 30
0.0
 11
228.2424999999999
 21
85.5296
 31
0.0
  0
LINE
  5
CA
330
1E
100
AcDbEntity
  8
0
100
AcDbLine
 10
227.9314999999999
 20
85.82019999999999
 30
0.0
 11
228.3170874870439
 21
86.22075350984641
 31
0.0
  0
LINE
  5
CB
330
1E
100
AcDbEntity
  8
0
100
AcDbLine
 10
227.3095
 20
86.4015
 30
0.0
 11
227.9314999999999
 21
85.82019999999999
 31
0.0
  0
LINE
  5
CC
330
1E
100
AcDbEntity
  8
0
100
AcDbLine
 10
227.3095
 20
86.4015
 30
0.0
 11
227.646922244952
 21
86.75207599348421
 31
0.0
  0
LINE
  5
CD
330
1E
100
AcDbEntity
  8
0
100
AcDbLine
 10
227.6864999999999
 20
95.20000000000001
 30
0.0
 11
227.9865
 21
93.0
 31
0.0
  0
LINE
  5
CE
330
1E
100
AcDbEntity
  8
0
100
AcDbLine
 10
227.6864999999999
 20
95.20000000000001
 30
0.0
 11
227.9865
 21
97.40000000000001
 31
0.0
  0
LINE
  5
CF
330
1E
100
AcDbEntity
  8
0
100
AcDbLine
 10
227.6864999999999
 20
103.7
 30
0.0
 11
230.1864999999999
 21
105.6
 31
0.0
  0
LINE
  5
D0
330
1E
100
AcDbEntity
  8
0
100
AcDbLine
 10
227.6864999999999
 20
86.69999999999999
 30
0.0
 11
230.1864999999999
 21
84.8
 31
0.0
  0
LINE
  5
D1
330
1E
100
AcDbEntity
  8
0
100
AcDbLine
 10
228.0864999999999
 20
87.09999999999999
 30
0.0
 11
230.4864999999999
 21
85.20000000000001
 31
0.0
  0
LINE
  5
D2
330
1E
100
AcDbEntity
  8
0
100
AcDbLine
 10
227.9865
 20
93.0
 30
0.0
 11
228.71616641651
 21
91.17583395872427
 31
0.0
  0
LINE
  5
D3
330
1E
100
AcDbEntity
  8
0
100
AcDbLine
 10
227.9865
 20
93.0
 30
0.0
 11
228.7865
 21
91.0
 31
0.0
  0
LINE
  5
D4
330
1E
100
AcDbEntity
  8
0
100
AcDbLine
 10
227.9865
 20
97.40000000000001
 30
0.0
 11
228.7160539202399
 21
99.22388480060043
 31
0.0
  0
LINE
  5
D5
330
1E
100
AcDbEntity
  8
0
100
AcDbLine
 10
227.9865
 20
97.40000000000001
 30
0.0
 11
228.7865
 21
99.40000000000001
 31
0.0
  0
LINE
  5
D6
330
1E
100
AcDbEntity
  8
0
100
AcDbLine
 10
227.720590909091
 20
95.44999999999999
 30
0.0
 11
227.9865
 21
97.40000000000001
 31
0.0
  0
LINE
  5
D7
330
1E
100
AcDbEntity
  8
0
100
AcDbLine
 10
227.720590909091
 20
94.95
 30
0.0
 11
227.9865
 21
93.0
 31
0.0
  0
LINE
  5
D8
330
1E
100
AcDbEntity
  8
0
100
AcDbLine
 10
228.3865
 20
87.4
 30
0.0
 11
230.6865
 21
85.7
 31
0.0
  0
LINE
  5
D9
330
1E
100
AcDbEntity
  8
0
100
AcDbLine
 10
228.4864999999999
 20
93.1
 30
0.0
 11
229.2864999999999
 21
91.2
 31
0.0
  0
LINE
  5
DA
330
1E
100
AcDbEntity
  8
0
100
AcDbLine
 10
228.4864999999999
 20
97.3
 30
0.0
 11
229.2864999999999
 21
99.20000000000001
 31
0.0
  0
LINE
  5
DB
330
1E
100
AcDbEntity
  8
0
100
AcDbLine
 10
228.3865
 20
103.0
 30
0.0
 11
230.6865
 21
104.7
 31
0.0
  0
LINE
  5
DC
330
1E
100
AcDbEntity
  8
0
100
AcDbLine
 10
228.1864999999999
 20
95.20000000000001
 30
0.0
 11
228.4864999999999
 21
93.1
 31
0.0
  0
LINE
  5
DD
330
1E
100
AcDbEntity
  8
0
100
AcDbLine
 10
228.1864999999999
 20
95.20000000000001
 30
0.0
 11
228.4864999999999
 21
97.3
 31
0.0
  0
LINE
  5
DE
330
1E
100
AcDbEntity
  8
0
100
AcDbLine
 10
228.2222142857139
 20
94.95
 30
0.0
 11
230.7222142857139
 21
94.95
 31
0.0
  0
LINE
  5
DF
330
1E
100
AcDbEntity
  8
0
100
AcDbLine
 10
228.0864999999999
 20
103.2999999999999
 30
0.0
 11
230.4864999999999
 21
105.2
 31
0.0
  0
LINE
  5
E0
330
1E
100
AcDbEntity
  8
0
100
AcDbLine
 10
227.6864999999999
 20
86.69999999999999
 30
0.0
 11
230.1864999999999
 21
84.8
 31
0.0
  0
LINE
  5
E1
330
1E
100
AcDbEntity
  8
0
100
AcDbLine
 10
228.658240695374
 20
85.9614770715161
 30
0.0
 11
230.1864999999999
 21
84.8
 31
0.0
  0
LINE
  5
E2
330
1E
100
AcDbEntity
  8
0
100
AcDbLine
 10
228.7865
 20
91.0
 30
0.0
 11
230.1864999999999
 21
89.19999999999999
 31
0.0
  0
LINE
  5
E3
330
1E
100
AcDbEntity
  8
0
100
AcDbLine
 10
228.9802110855319
 20
90.75094289003009
 30
0.0
 11
230.1864999999999
 21
89.19999999999999
 31
0.0
  0
LINE
  5
E4
330
1E
100
AcDbEntity
  8
0
100
AcDbLine
 10
228.7865
 20
99.40000000000001
 30
0.0
 11
230.1864999999999
 21
101.2
 31
0.0
  0
LINE
  5
E5
330
1E
100
AcDbEntity
  8
0
100
AcDbLine
 10
228.980025749563
 20
99.64881882086729
 30
0.0
 11
230.1864999999999
 21
101.2
 31
0.0
  0
LINE
  5
E6
330
1E
100
AcDbEntity
  8
0
100
AcDbLine
 10
229.1830433230839
 20
98.95429039232521
 30
0.0
 11
231.317960149653
 21
97.7217963890987
 31
0.0
  0
LINE
  5
E7
330
1E
100
AcDbEntity
  8
0
100
AcDbLine
 10
230.1864999999999
 20
89.19999999999999
 30
0.0
 11
231.7369934922349
 21
87.99406061715059
 31
0.0
  0
LINE
  5
E8
330
1E
100
AcDbEntity
  8
0
100
AcDbLine
 10
230.1864999999999
 20
89.19999999999999
 30
0.0
 11
231.9865
 21
87.79999999999999
 31
0.0
  0
LINE
  5
E9
330
1E
100
AcDbEntity
  8
0
100
AcDbLine
 10
229.2864999999999
 20
99.20000000000001
 30
0.0
 11
230.5865
 21
100.8
 31
0.0
  0
LINE
  5
EA
330
1E
100
AcDbEntity
  8
0
100
AcDbLine
 10
230.1864999999999
 20
101.2
 30
0.0
 11
231.73704851962
 21
102.405982181927
 31
0.0
  0
LINE
  5
EB
330
1E
100
AcDbEntity
  8
0
100
AcDbLine
 10
230.1864999999999
 20
101.2
 30
0.0
 11
231.9865
 21
102.6
 31
0.0
  0
LINE
  5
EC
330
1E
100
AcDbEntity
  8
0
100
AcDbLine
 10
229.2864999999999
 20
91.2
 30
0.0
 11
230.5865
 21
89.59999999999999
 31
0.0
  0
LINE
  5
ED
330
1E
100
AcDbEntity
  8
0
100
AcDbLine
 10
229.1831504351229
 20
91.44545521658359
 30
0.0
 11
231.318016572176
 21
92.6780569123419
 31
0.0
  0
LINE
  5
EE
330
1E
100
AcDbEntity
  8
0
100
AcDbLine
 10
230.1864999999999
 20
105.6
 30
0.0
 11
233.0865
 21
106.8
 31
0.0
  0
LINE
  5
EF
330
1E
100
AcDbEntity
  8
0
100
AcDbLine
 10
230.1864999999999
 20
84.8
 30
0.0
 11
233.0865
 21
83.59999999999999
 31
0.0
  0
LINE
  5
F0
330
1E
100
AcDbEntity
  8
0
100
AcDbLine
 10
230.4995
 20
83.9629
 30
0.0
 11
230.739024390473
 21
84.57136921773509
 31
0.0
  0
LINE
  5
F1
330
1E
100
AcDbEntity
  8
0
100
AcDbLine
 10
230.4995
 20
83.9629
 30
0.0
 11
230.8985
 21
83.81
 31
0.0
  0
LINE
  5
F2
330
1E
100
AcDbEntity
  8
0
100
AcDbLine
 10
230.8985
 20
83.81
 30
0.0
 11
231.6974999999999
 21
83.5041
 31
0.0
  0
LINE
  5
F3
330
1E
100
AcDbEntity
  8
0
100
AcDbLine
 10
230.8985
 20
83.81
 30
0.0
 11
231.1345718345589
 21
84.4076944132859
 31
0.0
  0
LINE
  5
F4
330
1E
100
AcDbEntity
  8
0
100
AcDbLine
 10
230.6865
 20
85.7
 30
0.0
 11
233.3865
 21
84.59999999999999
 31
0.0
  0
LINE
  5
F5
330
1E
100
AcDbEntity
  8
0
100
AcDbLine
 10
230.9328939949999
 20
85.59961726129609
 30
0.0
 11
235.2785
 21
93.1264
 31
0.0
  0
LINE
  5
F6
330
1E
100
AcDbEntity
  8
0
100
AcDbLine
 10
230.5865
 20
89.59999999999999
 30
0.0
 11
232.1864999999999
 21
88.3
 31
0.0
  0
LINE
  5
F7
330
1E
100
AcDbEntity
  8
0
100
AcDbLine
 10
230.5865
 20
100.8
 30
0.0
 11
232.1864999999999
 21
102.0999999999999
 31
0.0
  0
LINE
  5
F8
330
1E
100
AcDbEntity
  8
0
100
AcDbLine
 10
230.7222142857139
 20
95.44999999999999
 30
0.0
 11
230.8865
 21
96.6
 31
0.0
  0
LINE
  5
F9
330
1E
100
AcDbEntity
  8
0
100
AcDbLine
 10
230.6865
 20
104.7
 30
0.0
 11
233.3865
 21
105.8
 31
0.0
  0
LINE
  5
FA
330
1E
100
AcDbEntity
  8
0
100
AcDbLine
 10
230.6865
 20
95.20000000000001
 30
0.0
 11
230.8865
 21
93.8
 31
0.0
  0
LINE
  5
FB
330
1E
100
AcDbEntity
  8
0
100
AcDbLine
 10
230.6865
 20
95.20000000000001
 30
0.0
 11
230.8865
 21
96.6
 31
0.0
  0
LINE
  5
FC
330
1E
100
AcDbEntity
  8
0
100
AcDbLine
 10
230.8865
 20
96.6
 30
0.0
 11
231.317960149653
 21
97.7217963890987
 31
0.0
  0
LINE
  5
FD
330
1E
100
AcDbEntity
  8
0
100
AcDbLine
 10
230.8865
 20
96.6
 30
0.0
 11
231.3865
 21
97.9
 31
0.0
  0
LINE
  5
FE
330
1E
100
AcDbEntity
  8
0
100
AcDbLine
 10
230.8865
 20
93.8
 30
0.0
 11
231.318016572176
 21
92.6780569123419
 31
0.0
  0
LINE
  5
FF
330
1E
100
AcDbEntity
  8
0
100
AcDbLine
 10
230.8865
 20
93.8
 30
0.0
 11
231.3865
 21
92.5
 31
0.0
  0
LINE
  5
100
330
1E
100
AcDbEntity
  8
0
100
AcDbLine
 10
230.7222142857139
 20
94.95
 30
0.0
 11
230.8865
 21
93.8
 31
0.0
  0
LINE
  5
101
330
1E
100
AcDbEntity
  8
0
100
AcDbLine
 10
230.932984267671
 20
104.8004195164589
 30
0.0
 11
235.2785
 21
97.2736
 31
0.0
  0
LINE
  5
102
330
1E
100
AcDbEntity
  8
0
100
AcDbLine
 10
230.494540348562
 20
104.558116779372
 30
0.0
 11
231.73704851962
 21
102.405982181927
 31
0.0
  0
LINE
  5
103
330
1E
100
AcDbEntity
  8
0
100
AcDbLine
 10
230.494540348562
 20
104.558116779372
 30
0.0
 11
234.8445
 21
97.0236
 31
0.0
  0
LINE
  5
104
330
1E
100
AcDbEntity
  8
0
100
AcDbLine
 10
230.494462113896
 20
85.8419410462508
 30
0.0
 11
234.8445
 21
93.3764
 31
0.0
  0
LINE
  5
105
330
1E
100
AcDbEntity
  8
0
100
AcDbLine
 10
230.494462113896
 20
85.8419410462508
 30
0.0
 11
231.7369934922349
 21
87.99406061715059
 31
0.0
  0
LINE
  5
106
330
1E
100
AcDbEntity
  8
0
100
AcDbLine
 10
230.4864999999999
 20
105.2
 30
0.0
 11
233.1865
 21
106.2999999999999
 31
0.0
  0
LINE
  5
107
330
1E
100
AcDbEntity
  8
0
100
AcDbLine
 10
230.4864999999999
 20
85.20000000000001
 30
0.0
 11
233.1865
 21
84.1
 31
0.0
  0
LINE
  5
108
330
1E
100
AcDbEntity
  8
0
100
AcDbLine
 10
230.1864999999999
 20
84.8
 30
0.0
 11
230.739024390473
 21
84.57136921773509
 31
0.0
  0
LINE
  5
109
330
1E
100
AcDbEntity
  8
0
100
AcDbLine
 10
230.1864999999999
 20
84.8
 30
0.0
 11
233.0865
 21
83.59999999999999
 31
0.0
  0
LINE
  5
10A
330
1E
100
AcDbEntity
  8
0
100
AcDbLine
 10
230.9884999999999
 20
82.0481
 30
0.0
 11
236.3465
 21
80.98269999999999
 31
0.0
  0
LINE
  5
10B
330
1E
100
AcDbEntity
  8
0
100
AcDbLine
 10
235.7575
 20
82.7002
 30
0.0
 11
236.6155
 21
82.7002
 31
0.0
  0
LINE
  5
10C
330
1E
100
AcDbEntity
  8
0
100
AcDbLine
 10
235.7575
 20
82.7002
 30
0.0
 11
235.7575
 21
83.2553548387097
 31
0.0
  0
LINE
  5
10D
330
1E
100
AcDbEntity
  8
0
100
AcDbLine
 10
235.3295
 20
82.7002
 30
0.0
 11
235.7575
 21
82.7002
 31
0.0
  0
LINE
  5
10E
330
1E
100
AcDbEntity
  8
0
100
AcDbLine
 10
235.3295
 20
82.7002
 30
0.0
 11
235.3295
 21
83.31058064516129
 31
0.0
  0
LINE
  5
10F
330
1E
100
AcDbEntity
  8
0
100
AcDbLine
 10
232.0975
 20
83.35120000000001
 30
0.0
 11
232.3203027583919
 21
83.91704713445841
 31
0.0
  0
LINE
  5
110
330
1E
100
AcDbEntity
  8
0
100
AcDbLine
 10
231.6974999999999
 20
83.5041
 30
0.0
 11
232.0975
 21
83.35120000000001
 31
0.0
  0
LINE
  5
111
330
1E
100
AcDbEntity
  8
0
100
AcDbLine
 10
231.6974999999999
 20
83.5041
 30
0.0
 11
231.925179496059
 21
84.0805464154239
 31
0.0
  0
LINE
  5
112
330
1E
100
AcDbEntity
  8
0
100
AcDbLine
 10
235.7575
 20
83.2553548387097
 30
0.0
 11
235.7575
 21
82.7002
 31
0.0
  0
LINE
  5
113
330
1E
100
AcDbEntity
  8
0
100
AcDbLine
 10
235.3295
 20
83.31058064516129
 30
0.0
 11
235.3295
 21
82.7002
 31
0.0
  0
LINE
  5
114
330
1E
100
AcDbEntity
  8
0
100
AcDbLine
 10
236.1864999999999
 20
83.2
 30
0.0
 11
239.2865
 21
83.59999999999999
 31
0.0
  0
LINE
  5
115
330
1E
100
AcDbEntity
  8
0
100
AcDbLine
 10
236.6155
 20
83.2553548387097
 30
0.0
 11
236.6155
 21
82.7002
 31
0.0
  0
LINE
  5
116
330
1E
100
AcDbEntity
  8
0
100
AcDbLine
 10
237.0435
 20
83.31058064516129
 30
0.0
 11
237.0435
 21
82.7002
 31
0.0
  0
LINE
  5
117
330
1E
100
AcDbEntity
  8
0
100
AcDbLine
 10
240.6754999999999
 20
83.5041
 30
0.0
 11
241.4744999999999
 21
83.81
 31
0.0
  0
LINE
  5
118
330
1E
100
AcDbEntity
  8
0
100
AcDbLine
 10
240.2754999999999
 20
83.35120000000001
 30
0.0
 11
240.6754999999999
 21
83.5041
 31
0.0
  0
LINE
  5
119
330
1E
100
AcDbEntity
  8
0
100
AcDbLine
 10
237.0435
 20
82.7002
 30
0.0
 11
237.0435
 21
83.31058064516129
 31
0.0
  0
LINE
  5
11A
330
1E
100
AcDbEntity
  8
0
100
AcDbLine
 10
236.6155
 20
82.7002
 30
0.0
 11
237.0435
 21
82.7002
 31
0.0
  0
LINE
  5
11B
330
1E
100
AcDbEntity
  8
0
100
AcDbLine
 10
236.6155
 20
82.7002
 30
0.0
 11
236.6155
 21
83.2553548387097
 31
0.0
  0
LINE
  5
11C
330
1E
100
AcDbEntity
  8
0
100
AcDbLine
 10
239.2865
 20
83.59999999999999
 30
0.0
 11
242.1864999999999
 21
84.8
 31
0.0
  0
LINE
  5
11D
330
1E
100
AcDbEntity
  8
0
100
AcDbLine
 10
236.1864999999999
 20
83.2
 30
0.0
 11
239.2865
 21
83.59999999999999
 31
0.0
  0
LINE
  5
11E
330
1E
100
AcDbEntity
  8
0
100
AcDbLine
 10
232.1864999999999
 20
88.3
 30
0.0
 11
234.0864999999999
 21
87.5
 31
0.0
  0
LINE
  5
11F
330
1E
100
AcDbEntity
  8
0
100
AcDbLine
 10
231.9865
 20
87.79999999999999
 30
0.0
 11
233.9865
 21
87.0
 31
0.0
  0
LINE
  5
120
330
1E
100
AcDbEntity
  8
0
100
AcDbLine
 10
231.1865
 20
95.20000000000001
 30
0.0
 11
231.3865
 21
93.9
 31
0.0
  0
LINE
  5
121
330
1E
100
AcDbEntity
  8
0
100
AcDbLine
 10
231.1865
 20
95.20000000000001
 30
0.0
 11
231.3865
 21
96.5
 31
0.0
  0
LINE
  5
122
330
1E
100
AcDbEntity
  8
0
100
AcDbLine
 10
231.3865
 20
92.5
 30
0.0
 11
232.2864999999999
 21
91.3
 31
0.0
  0
LINE
  5
123
330
1E
100
AcDbEntity
  8
0
100
AcDbLine
 10
232.2864999999999
 20
91.3
 30
0.0
 11
233.2349800701929
 21
90.58863994735519
 31
0.0
  0
LINE
  5
124
330
1E
100
AcDbEntity
  8
0
100
AcDbLine
 10
232.2864999999999
 20
91.3
 30
0.0
 11
233.4865
 21
90.4
 31
0.0
  0
LINE
  5
125
330
1E
100
AcDbEntity
  8
0
100
AcDbLine
 10
231.8865
 20
92.70000000000001
 30
0.0
 11
232.6865
 21
91.69999999999999
 31
0.0
  0
LINE
  5
126
330
1E
100
AcDbEntity
  8
0
100
AcDbLine
 10
231.5747790088639
 20
92.2489613215149
 30
0.0
 11
232.2864999999999
 21
91.3
 31
0.0
  0
LINE
  5
127
330
1E
100
AcDbEntity
  8
0
100
AcDbLine
 10
231.3865
 20
96.5
 30
0.0
 11
231.8865
 21
97.70000000000001
 31
0.0
  0
LINE
  5
128
330
1E
100
AcDbEntity
  8
0
100
AcDbLine
 10
231.3865
 20
97.9
 30
0.0
 11
232.2864999999999
 21
99.1
 31
0.0
  0
LINE
  5
129
330
1E
100
AcDbEntity
  8
0
100
AcDbLine
 10
231.574685407783
 20
98.15091387704399
 30
0.0
 11
232.2864999999999
 21
99.1
 31
0.0
  0
LINE
  5
12A
330
1E
100
AcDbEntity
  8
0
100
AcDbLine
 10
231.3865
 20
93.9
 30
0.0
 11
231.8865
 21
92.70000000000001
 31
0.0
  0
LINE
  5
12B
330
1E
100
AcDbEntity
  8
0
100
AcDbLine
 10
231.8865
 20
97.70000000000001
 30
0.0
 11
232.6865
 21
98.7
 31
0.0
  0
LINE
  5
12C
330
1E
100
AcDbEntity
  8
0
100
AcDbLine
 10
232.2864999999999
 20
99.1
 30
0.0
 11
233.2350088903609
 21
99.81138166777091
 31
0.0
  0
LINE
  5
12D
330
1E
100
AcDbEntity
  8
0
100
AcDbLine
 10
232.2864999999999
 20
99.1
 30
0.0
 11
233.4865
 21
100.0
 31
0.0
  0
LINE
  5
12E
330
1E
100
AcDbEntity
  8
0
100
AcDbLine
 10
231.9865
 20
102.6
 30
0.0
 11
233.9865
 21
103.4
 31
0.0
  0
LINE
  5
12F
330
1E
100
AcDbEntity
  8
0
100
AcDbLine
 10
232.1864999999999
 20
102.0999999999999
 30
0.0
 11
234.0864999999999
 21
102.9
 31
0.0
  0
LINE
  5
130
330
1E
100
AcDbEntity
  8
0
100
AcDbLine
 10
232.1626824397569
 20
102.6704729759029
 30
0.0
 11
233.9865
 21
103.4
 31
0.0
  0
LINE
  5
131
330
1E
100
AcDbEntity
  8
0
100
AcDbLine
 10
232.0008088121639
 20
101.949125909883
 30
0.0
 11
233.2350088903609
 21
99.81138166777091
 31
0.0
  0
LINE
  5
132
330
1E
100
AcDbEntity
  8
0
100
AcDbLine
 10
232.0008088121639
 20
101.949125909883
 30
0.0
 11
233.2350088903609
 21
99.81138166777091
 31
0.0
  0
LINE
  5
133
330
1E
100
AcDbEntity
  8
0
100
AcDbLine
 10
231.7835802108159
 20
97.45299250595779
 30
0.0
 11
233.925347838172
 21
96.21654351451679
 31
0.0
  0
LINE
  5
134
330
1E
100
AcDbEntity
  8
0
100
AcDbLine
 10
231.7835802108159
 20
97.45299250595779
 30
0.0
 11
233.925347838172
 21
96.21654351451679
 31
0.0
  0
LINE
  5
135
330
1E
100
AcDbEntity
  8
0
100
AcDbLine
 10
231.7836303909399
 20
92.94688706174369
 30
0.0
 11
233.925351194319
 21
94.18344641704329
 31
0.0
  0
LINE
  5
136
330
1E
100
AcDbEntity
  8
0
100
AcDbLine
 10
231.7836303909399
 20
92.94688706174369
 30
0.0
 11
233.925351194319
 21
94.18344641704329
 31
0.0
  0
LINE
  5
137
330
1E
100
AcDbEntity
  8
0
100
AcDbLine
 10
231.224961538462
 20
94.95
 30
0.0
 11
233.7281666666669
 21
94.95
 31
0.0
  0
LINE
  5
138
330
1E
100
AcDbEntity
  8
0
100
AcDbLine
 10
232.000759142654
 20
88.45091444659379
 30
0.0
 11
233.2349800701929
 21
90.58863994735519
 31
0.0
  0
LINE
  5
139
330
1E
100
AcDbEntity
  8
0
100
AcDbLine
 10
239.1865
 20
84.1
 30
0.0
 11
241.8865
 21
85.20000000000001
 31
0.0
  0
LINE
  5
13A
330
1E
100
AcDbEntity
  8
0
100
AcDbLine
 10
236.1864999999999
 20
83.7
 30
0.0
 11
239.1865
 21
84.1
 31
0.0
  0
LINE
  5
13B
330
1E
100
AcDbEntity
  8
0
100
AcDbLine
 10
241.4744999999999
 20
83.81
 30
0.0
 11
241.8735
 21
83.9629
 31
0.0
  0
LINE
  5
13C
330
1E
100
AcDbEntity
  8
0
100
AcDbLine
 10
240.447820503941
 20
84.0805464154239
 30
0.0
 11
240.6754999999999
 21
83.5041
 31
0.0
  0
LINE
  5
13D
330
1E
100
AcDbEntity
  8
0
100
AcDbLine
 10
240.052697241608
 20
83.91704713445841
 30
0.0
 11
240.2754999999999
 21
83.35120000000001
 31
0.0
  0
LINE
  5
13E
330
1E
100
AcDbEntity
  8
0
100
AcDbLine
 10
239.2865
 20
83.59999999999999
 30
0.0
 11
242.1864999999999
 21
84.8
 31
0.0
  0
LINE
  5
13F
330
1E
100
AcDbEntity
  8
0
100
AcDbLine
 10
236.1864999999999
 20
84.19999999999999
 30
0.0
 11
238.9864999999999
 21
84.59999999999999
 31
0.0
  0
LINE
  5
140
330
1E
100
AcDbEntity
  8
0
100
AcDbLine
 10
236.4364999999999
 20
84.23571428571429
 30
0.0
 11
236.4364999999999
 21
92.94999999999999
 31
0.0
  0
LINE
  5
141
330
1E
100
AcDbEntity
  8
0
100
AcDbLine
 10
236.4364999999999
 20
84.23571428571429
 30
0.0
 11
238.9864999999999
 21
84.59999999999999
 31
0.0
  0
LINE
  5
142
330
1E
100
AcDbEntity
  8
0
100
AcDbLine
 10
235.9364999999999
 20
84.23571428571429
 30
0.0
 11
235.9364999999999
 21
92.94999999999999
 31
0.0
  0
LINE
  5
143
330
1E
100
AcDbEntity
  8
0
100
AcDbLine
 10
235.9364999999999
 20
84.23571428571429
 30
0.0
 11
235.9364999999999
 21
86.734090909091
 31
0.0
  0
LINE
  5
144
330
1E
100
AcDbEntity
  8
0
100
AcDbLine
 10
241.238428165441
 20
84.4076944132859
 30
0.0
 11
241.4744999999999
 21
83.81
 31
0.0
  0
LINE
  5
145
330
1E
100
AcDbEntity
  8
0
100
AcDbLine
 10
241.633975609527
 20
84.57136921773509
 30
0.0
 11
241.8735
 21
83.9629
 31
0.0
  0
LINE
  5
146
330
1E
100
AcDbEntity
  8
0
100
AcDbLine
 10
233.1865
 20
84.1
 30
0.0
 11
236.1864999999999
 21
83.7
 31
0.0
  0
LINE
  5
147
330
1E
100
AcDbEntity
  8
0
100
AcDbLine
 10
233.0865
 20
83.59999999999999
 30
0.0
 11
236.1864999999999
 21
83.2
 31
0.0
  0
LINE
  5
148
330
1E
100
AcDbEntity
  8
0
100
AcDbLine
 10
232.6865
 20
98.7
 30
0.0
 11
233.6864999999999
 21
99.50000000000001
 31
0.0
  0
LINE
  5
149
330
1E
100
AcDbEntity
  8
0
100
AcDbLine
 10
233.4865
 20
100.0
 30
0.0
 11
234.7865
 21
100.5
 31
0.0
  0
LINE
  5
14A
330
1E
100
AcDbEntity
  8
0
100
AcDbLine
 10
232.6865
 20
91.69999999999999
 30
0.0
 11
233.6864999999999
 21
90.90000000000001
 31
0.0
  0
LINE
  5
14B
330
1E
100
AcDbEntity
  8
0
100
AcDbLine
 10
233.4865
 20
90.4
 30
0.0
 11
234.7865
 21
89.9
 31
0.0
  0
LINE
  5
14C
330
1E
100
AcDbEntity
  8
0
100
AcDbLine
 10
233.3865
 20
84.59999999999999
 30
0.0
 11
236.1864999999999
 21
84.19999999999999
 31
0.0
  0
LINE
  5
14D
330
1E
100
AcDbEntity
  8
0
100
AcDbLine
 10
234.7865
 20
89.9
 30
0.0
 11
235.9364999999999
 21
89.7357142857143
 31
0.0
  0
LINE
  5
14E
330
1E
100
AcDbEntity
  8
0
100
AcDbLine
 10
234.7865
 20
89.9
 30
0.0
 11
236.1864999999999
 21
89.7
 31
0.0
  0
LINE
  5
14F
330
1E
100
AcDbEntity
  8
0
100
AcDbLine
 10
234.0864999999999
 20
87.5
 30
0.0
 11
236.1864999999999
 21
87.2
 31
0.0
  0
LINE
  5
150
330
1E
100
AcDbEntity
  8
0
100
AcDbLine
 10
233.9865
 20
87.0
 30
0.0
 11
235.9364999999999
 21
86.734090909091
 31
0.0
  0
LINE
  5
151
330
1E
100
AcDbEntity
  8
0
100
AcDbLine
 10
233.9865
 20
87.0
 30
0.0
 11
236.1864999999999
 21
86.69999999999999
 31
0.0
  0
LINE
  5
152
330
1E
100
AcDbEntity
  8
0
100
AcDbLine
 10
235.170174377569
 20
92.9387752074771
 30
0.0
 11
235.5865
 21
92.79999999999999
 31
0.0
  0
LINE
  5
153
330
1E
100
AcDbEntity
  8
0
100
AcDbLine
 10
235.5865
 20
92.79999999999999
 30
0.0
 11
235.9364999999999
 21
92.74166666666671
 31
0.0
  0
LINE
  5
154
330
1E
100
AcDbEntity
  8
0
100
AcDbLine
 10
235.5865
 20
92.79999999999999
 30
0.0
 11
236.1864999999999
 21
92.70000000000001
 31
0.0
  0
LINE
  5
155
330
1E
100
AcDbEntity
  8
0
100
AcDbLine
 10
233.6864999999999
 20
90.90000000000001
 30
0.0
 11
234.8864999999999
 21
90.4
 31
0.0
  0
LINE
  5
156
330
1E
100
AcDbEntity
  8
0
100
AcDbLine
 10
234.8864999999999
 20
90.4
 30
0.0
 11
236.1864999999999
 21
90.20000000000001
 31
0.0
  0
LINE
  5
157
330
1E
100
AcDbEntity
  8
0
100
AcDbLine
 10
233.664810959212
 20
90.3314188618417
 30
0.0
 11
234.7865
 21
89.9
 31
0.0
  0
LINE
  5
158
330
1E
100
AcDbEntity
  8
0
100
AcDbLine
 10
235.9364999999999
 20
90.23846153846159
 30
0.0
 11
235.9364999999999
 21
92.74166666666671
 31
0.0
  0
LINE
  5
159
330
1E
100
AcDbEntity
  8
0
100
AcDbLine
 10
235.9364999999999
 20
87.2357142857143
 30
0.0
 11
235.9364999999999
 21
89.7357142857143
 31
0.0
  0
LINE
  5
15A
330
1E
100
AcDbEntity
  8
0
100
AcDbLine
 10
235.6864999999999
 20
93.3
 30
0.0
 11
236.1864999999999
 21
93.2
 31
0.0
  0
LINE
  5
15B
330
1E
100
AcDbEntity
  8
0
100
AcDbLine
 10
234.9865
 20
93.0
 30
0.0
 11
235.5865
 21
92.79999999999999
 31
0.0
  0
LINE
  5
15C
330
1E
100
AcDbEntity
  8
0
100
AcDbLine
 10
235.9364999999999
 20
92.94999999999999
 30
0.0
 11
236.4364999999999
 21
92.94999999999999
 31
0.0
  0
LINE
  5
15D
330
1E
100
AcDbEntity
  8
0
100
AcDbLine
 10
235.9364999999999
 20
92.94999999999999
 30
0.0
 11
235.9364999999999
 21
84.23571428571429
 31
0.0
  0
LINE
  5
15E
330
1E
100
AcDbEntity
  8
0
100
AcDbLine
 10
235.9364999999999
 20
89.7357142857143
 30
0.0
 11
235.9364999999999
 21
87.2357142857143
 31
0.0
  0
LINE
  5
15F
330
1E
100
AcDbEntity
  8
0
100
AcDbLine
 10
235.9364999999999
 20
86.734090909091
 30
0.0
 11
235.9364999999999
 21
84.23571428571429
 31
0.0
  0
LINE
  5
160
330
1E
100
AcDbEntity
  8
0
100
AcDbLine
 10
236.1864999999999
 20
93.2
 30
0.0
 11
236.6865
 21
93.3
 31
0.0
  0
LINE
  5
161
330
1E
100
AcDbEntity
  8
0
100
AcDbLine
 10
236.1864999999999
 20
92.70000000000001
 30
0.0
 11
236.7865
 21
92.79999999999999
 31
0.0
  0
LINE
  5
162
330
1E
100
AcDbEntity
  8
0
100
AcDbLine
 10
236.1864999999999
 20
90.20000000000001
 30
0.0
 11
237.4865
 21
90.4
 31
0.0
  0
LINE
  5
163
330
1E
100
AcDbEntity
  8
0
100
AcDbLine
 10
236.1864999999999
 20
89.7
 30
0.0
 11
237.5865
 21
89.9
 31
0.0
  0
LINE
  5
164
330
1E
100
AcDbEntity
  8
0
100
AcDbLine
 10
236.1864999999999
 20
87.2
 30
0.0
 11
238.2864999999999
 21
87.5
 31
0.0
  0
LINE
  5
165
330
1E
100
AcDbEntity
  8
0
100
AcDbLine
 10
236.1864999999999
 20
86.69999999999999
 30
0.0
 11
238.3865
 21
87.0
 31
0.0
  0
LINE
  5
166
330
1E
100
AcDbEntity
  8
0
100
AcDbLine
 10
235.9364999999999
 20
92.74166666666671
 30
0.0
 11
235.9364999999999
 21
90.23846153846159
 31
0.0
  0
LINE
  5
167
330
1E
100
AcDbEntity
  8
0
100
AcDbLine
 10
233.7281666666669
 20
95.44999999999999
 30
0.0
 11
233.7864999999999
 21
95.8
 31
0.0
  0
LINE
  5
168
330
1E
100
AcDbEntity
  8
0
100
AcDbLine
 10
233.6864999999999
 20
95.20000000000001
 30
0.0
 11
233.7864999999999
 21
94.59999999999999
 31
0.0
  0
LINE
  5
169
330
1E
100
AcDbEntity
  8
0
100
AcDbLine
 10
233.6864999999999
 20
95.20000000000001
 30
0.0
 11
233.7864999999999
 21
95.8
 31
0.0
  0
LINE
  5
16A
330
1E
100
AcDbEntity
  8
0
100
AcDbLine
 10
233.7864999999999
 20
94.59999999999999
 30
0.0
 11
233.925351194319
 21
94.18344641704329
 31
0.0
  0
LINE
  5
16B
330
1E
100
AcDbEntity
  8
0
100
AcDbLine
 10
233.7864999999999
 20
94.59999999999999
 30
0.0
 11
233.9865
 21
94.0
 31
0.0
  0
LINE
  5
16C
330
1E
100
AcDbEntity
  8
0
100
AcDbLine
 10
233.7281666666669
 20
94.95
 30
0.0
 11
233.7864999999999
 21
94.59999999999999
 31
0.0
  0
LINE
  5
16D
330
1E
100
AcDbEntity
  8
0
100
AcDbLine
 10
233.500629326687
 20
99.3513034613495
 30
0.0
 11
234.7270502112209
 21
97.22703347414709
 31
0.0
  0
LINE
  5
16E
330
1E
100
AcDbEntity
  8
0
100
AcDbLine
 10
233.7864999999999
 20
95.8
 30
0.0
 11
233.925347838172
 21
96.21654351451679
 31
0.0
  0
LINE
  5
16F
330
1E
100
AcDbEntity
  8
0
100
AcDbLine
 10
233.7864999999999
 20
95.8
 30
0.0
 11
233.9865
 21
96.4
 31
0.0
  0
LINE
  5
170
330
1E
100
AcDbEntity
  8
0
100
AcDbLine
 10
233.6864999999999
 20
99.50000000000001
 30
0.0
 11
234.8864999999999
 21
100.0
 31
0.0
  0
LINE
  5
171
330
1E
100
AcDbEntity
  8
0
100
AcDbLine
 10
233.6648448418439
 20
100.06859416994
 30
0.0
 11
234.7865
 21
100.5
 31
0.0
  0
LINE
  5
172
330
1E
100
AcDbEntity
  8
0
100
AcDbLine
 10
233.500629326687
 20
99.3513034613495
 30
0.0
 11
234.7270502112209
 21
97.22703347414709
 31
0.0
  0
LINE
  5
173
330
1E
100
AcDbEntity
  8
0
100
AcDbLine
 10
233.9364999999999
 20
95.44999999999999
 30
0.0
 11
233.9364999999999
 21
94.95
 31
0.0
  0
LINE
  5
174
330
1E
100
AcDbEntity
  8
0
100
AcDbLine
 10
233.9865
 20
94.0
 30
0.0
 11
234.3865
 21
93.40000000000001
 31
0.0
  0
LINE
  5
175
330
1E
100
AcDbEntity
  8
0
100
AcDbLine
 10
234.7865
 20
93.8
 30
0.0
 11
235.1865
 21
93.49999999999999
 31
0.0
  0
LINE
  5
176
330
1E
100
AcDbEntity
  8
0
100
AcDbLine
 10
235.1865
 20
93.49999999999999
 30
0.0
 11
235.6864999999999
 21
93.3
 31
0.0
  0
LINE
  5
177
330
1E
100
AcDbEntity
  8
0
100
AcDbLine
 10
234.3865
 20
93.40000000000001
 30
0.0
 11
234.7270480350559
 21
93.1729679766294
 31
0.0
  0
LINE
  5
178
330
1E
100
AcDbEntity
  8
0
100
AcDbLine
 10
234.3865
 20
93.40000000000001
 30
0.0
 11
234.9865
 21
93.0
 31
0.0
  0
LINE
  5
179
330
1E
100
AcDbEntity
  8
0
100
AcDbLine
 10
234.4864999999999
 20
94.19999999999999
 30
0.0
 11
234.7865
 21
93.8
 31
0.0
  0
LINE
  5
17A
330
1E
100
AcDbEntity
  8
0
100
AcDbLine
 10
234.1591175653139
 20
93.7410736520289
 30
0.0
 11
234.3865
 21
93.40000000000001
 31
0.0
  0
LINE
  5
17B
330
1E
100
AcDbEntity
  8
0
100
AcDbLine
 10
233.9865
 20
96.4
 30
0.0
 11
234.3865
 21
97.0
 31
0.0
  0
LINE
  5
17C
330
1E
100
AcDbEntity
  8
0
100
AcDbLine
 10
234.0864999999999
 20
102.9
 30
0.0
 11
236.1864999999999
 21
103.2
 31
0.0
  0
LINE
  5
17D
330
1E
100
AcDbEntity
  8
0
100
AcDbLine
 10
233.9865
 20
103.4
 30
0.0
 11
235.9364999999999
 21
103.665909090909
 31
0.0
  0
LINE
  5
17E
330
1E
100
AcDbEntity
  8
0
100
AcDbLine
 10
233.9865
 20
103.4
 30
0.0
 11
236.1864999999999
 21
103.7
 31
0.0
  0
LINE
  5
17F
330
1E
100
AcDbEntity
  8
0
100
AcDbLine
 10
234.1591112843949
 20
96.65891692659279
 30
0.0
 11
234.3865
 21
97.0
 31
0.0
  0
LINE
  5
180
330
1E
100
AcDbEntity
  8
0
100
AcDbLine
 10
234.2864999999999
 20
95.7
 30
0.0
 11
234.4864999999999
 21
96.2
 31
0.0
  0
LINE
  5
181
330
1E
100
AcDbEntity
  8
0
100
AcDbLine
 10
234.4864999999999
 20
96.2
 30
0.0
 11
234.7865
 21
96.6
 31
0.0
  0
LINE
  5
182
330
1E
100
AcDbEntity
  8
0
100
AcDbLine
 10
234.7865
 20
96.6
 30
0.0
 11
235.1865
 21
96.90000000000001
 31
0.0
  0
LINE
  5
183
330
1E
100
AcDbEntity
  8
0
100
AcDbLine
 10
235.1865
 20
96.90000000000001
 30
0.0
 11
235.6864999999999
 21
97.1
 31
0.0
  0
LINE
  5
184
330
1E
100
AcDbEntity
  8
0
100
AcDbLine
 10
234.3865
 20
97.0
 30
0.0
 11
234.7270502112209
 21
97.22703347414709
 31
0.0
  0
LINE
  5
185
330
1E
100
AcDbEntity
  8
0
100
AcDbLine
 10
234.3865
 20
97.0
 30
0.0
 11
234.9865
 21
97.40000000000001
 31
0.0
  0
LINE
  5
186
330
1E
100
AcDbEntity
  8
0
100
AcDbLine
 10
234.2864999999999
 20
94.7
 30
0.0
 11
234.4864999999999
 21
94.19999999999999
 31
0.0
  0
LINE
  5
187
330
1E
100
AcDbEntity
  8
0
100
AcDbLine
 10
234.1864999999999
 20
95.20000000000001
 30
0.0
 11
234.2864999999999
 21
94.7
 31
0.0
  0
LINE
  5
188
330
1E
100
AcDbEntity
  8
0
100
AcDbLine
 10
234.1864999999999
 20
95.20000000000001
 30
0.0
 11
234.2864999999999
 21
95.7
 31
0.0
  0
LINE
  5
189
330
1E
100
AcDbEntity
  8
0
100
AcDbLine
 10
235.6864999999999
 20
97.1
 30
0.0
 11
236.1864999999999
 21
97.2
 31
0.0
  0
LINE
  5
18A
330
1E
100
AcDbEntity
  8
0
100
AcDbLine
 10
234.9865
 20
97.40000000000001
 30
0.0
 11
235.5865
 21
97.59999999999999
 31
0.0
  0
LINE
  5
18B
330
1E
100
AcDbEntity
  8
0
100
AcDbLine
 10
235.5865
 20
97.59999999999999
 30
0.0
 11
236.1864999999999
 21
97.70000000000001
 31
0.0
  0
LINE
  5
18C
330
1E
100
AcDbEntity
  8
0
100
AcDbLine
 10
235.1701767085559
 20
97.4612255695186
 30
0.0
 11
235.5865
 21
97.59999999999999
 31
0.0
  0
LINE
  5
18D
330
1E
100
AcDbEntity
  8
0
100
AcDbLine
 10
234.8864999999999
 20
100.0
 30
0.0
 11
236.1864999999999
 21
100.2
 31
0.0
  0
LINE
  5
18E
330
1E
100
AcDbEntity
  8
0
100
AcDbLine
 10
234.7865
 20
100.5
 30
0.0
 11
235.9364999999999
 21
100.664285714286
 31
0.0
  0
LINE
  5
18F
330
1E
100
AcDbEntity
  8
0
100
AcDbLine
 10
234.7865
 20
100.5
 30
0.0
 11
236.1864999999999
 21
100.7
 31
0.0
  0
LINE
  5
190
330
1E
100
AcDbEntity
  8
0
100
AcDbLine
 10
235.9364999999999
 20
100.1615384615389
 30
0.0
 11
235.9364999999999
 21
97.6583333333334
 31
0.0
  0
LINE
  5
191
330
1E
100
AcDbEntity
  8
0
100
AcDbLine
 10
235.9364999999999
 20
103.164285714286
 30
0.0
 11
235.9364999999999
 21
100.664285714286
 31
0.0
  0
LINE
  5
192
330
1E
100
AcDbEntity
  8
0
100
AcDbLine
 10
235.9364999999999
 20
97.45
 30
0.0
 11
236.4364999999999
 21
97.45
 31
0.0
  0
LINE
  5
193
330
1E
100
AcDbEntity
  8
0
100
AcDbLine
 10
235.9364999999999
 20
97.45
 30
0.0
 11
235.9364999999999
 21
106.164285714286
 31
0.0
  0
LINE
  5
194
330
1E
100
AcDbEntity
  8
0
100
AcDbLine
 10
235.9364999999999
 20
100.664285714286
 30
0.0
 11
235.9364999999999
 21
103.164285714286
 31
0.0
  0
LINE
  5
195
330
1E
100
AcDbEntity
  8
0
100
AcDbLine
 10
235.9364999999999
 20
103.665909090909
 30
0.0
 11
235.9364999999999
 21
106.164285714286
 31
0.0
  0
LINE
  5
196
330
1E
100
AcDbEntity
  8
0
100
AcDbLine
 10
236.1864999999999
 20
97.2
 30
0.0
 11
236.6865
 21
97.1
 31
0.0
  0
LINE
  5
197
330
1E
100
AcDbEntity
  8
0
100
AcDbLine
 10
236.1864999999999
 20
97.70000000000001
 30
0.0
 11
236.7865
 21
97.59999999999999
 31
0.0
  0
LINE
  5
198
330
1E
100
AcDbEntity
  8
0
100
AcDbLine
 10
236.1864999999999
 20
100.2
 30
0.0
 11
237.4865
 21
100.0
 31
0.0
  0
LINE
  5
199
330
1E
100
AcDbEntity
  8
0
100
AcDbLine
 10
236.1864999999999
 20
100.7
 30
0.0
 11
237.5865
 21
100.5
 31
0.0
  0
LINE
  5
19A
330
1E
100
AcDbEntity
  8
0
100
AcDbLine
 10
236.1864999999999
 20
103.2
 30
0.0
 11
238.2864999999999
 21
102.9
 31
0.0
  0
LINE
  5
19B
330
1E
100
AcDbEntity
  8
0
100
AcDbLine
 10
236.1864999999999
 20
103.7
 30
0.0
 11
238.3865
 21
103.4
 31
0.0
  0
LINE
  5
19C
330
1E
100
AcDbEntity
  8
0
100
AcDbLine
 10
235.9364999999999
 20
97.6583333333334
 30
0.0
 11
235.9364999999999
 21
100.1615384615389
 31
0.0
  0
LINE
  5
19D
330
1E
100
AcDbEntity
  8
0
100
AcDbLine
 10
234.8445
 20
97.0236
 30
0.0
 11
235.2785
 21
97.2736
 31
0.0
  0
LINE
  5
19E
330
1E
100
AcDbEntity
  8
0
100
AcDbLine
 10
234.1125
 20
96.10850000000001
 30
0.0
 11
234.3625
 21
96.54150000000001
 31
0.0
  0
LINE
  5
19F
330
1E
100
AcDbEntity
  8
0
100
AcDbLine
 10
234.1125
 20
94.29149999999999
 30
0.0
 11
234.3625
 21
93.85850000000001
 31
0.0
  0
LINE
  5
1A0
330
1E
100
AcDbEntity
  8
0
100
AcDbLine
 10
233.9364999999999
 20
94.95
 30
0.0
 11
233.9364999999999
 21
95.44999999999999
 31
0.0
  0
LINE
  5
1A1
330
1E
100
AcDbEntity
  8
0
100
AcDbLine
 10
234.8445
 20
93.3764
 30
0.0
 11
235.2785
 21
93.1264
 31
0.0
  0
LINE
  5
1A2
330
1E
100
AcDbEntity
  8
0
100
AcDbLine
 10
233.5006057380069
 20
91.04871540959441
 30
0.0
 11
234.7270480350559
 21
93.1729679766294
 31
0.0
  0
LINE
  5
1A3
330
1E
100
AcDbEntity
  8
0
100
AcDbLine
 10
233.3865
 20
105.8
 30
0.0
 11
236.1864999999999
 21
106.2
 31
0.0
  0
LINE
  5
1A4
330
1E
100
AcDbEntity
  8
0
100
AcDbLine
 10
233.3865
 20
105.8
 30
0.0
 11
235.9364999999999
 21
106.164285714286
 31
0.0
  0
LINE
  5
1A5
330
1E
100
AcDbEntity
  8
0
100
AcDbLine
 10
236.1864999999999
 20
106.2
 30
0.0
 11
238.9864999999999
 21
105.8
 31
0.0
  0
LINE
  5
1A6
330
1E
100
AcDbEntity
  8
0
100
AcDbLine
 10
235.9364999999999
 20
106.164285714286
 30
0.0
 11
235.9364999999999
 21
97.45
 31
0.0
  0
LINE
  5
1A7
330
1E
100
AcDbEntity
  8
0
100
AcDbLine
 10
235.9364999999999
 20
106.164285714286
 30
0.0
 11
235.9364999999999
 21
103.665909090909
 31
0.0
  0
LINE
  5
1A8
330
1E
100
AcDbEntity
  8
0
100
AcDbLine
 10
233.1865
 20
106.2999999999999
 30
0.0
 11
236.1864999999999
 21
106.6999999999999
 31
0.0
  0
LINE
  5
1A9
330
1E
100
AcDbEntity
  8
0
100
AcDbLine
 10
233.0865
 20
106.8
 30
0.0
 11
236.1864999999999
 21
107.2
 31
0.0
  0
LINE
  5
1AA
330
1E
100
AcDbEntity
  8
0
100
AcDbLine
 10
236.4364999999999
 20
92.74166666666671
 30
0.0
 11
236.7865
 21
92.79999999999999
 31
0.0
  0
LINE
  5
1AB
330
1E
100
AcDbEntity
  8
0
100
AcDbLine
 10
236.7865
 20
92.79999999999999
 30
0.0
 11
237.3865
 21
93.0
 31
0.0
  0
LINE
  5
1AC
330
1E
100
AcDbEntity
  8
0
100
AcDbLine
 10
236.4364999999999
 20
89.7357142857143
 30
0.0
 11
237.5865
 21
89.9
 31
0.0
  0
LINE
  5
1AD
330
1E
100
AcDbEntity
  8
0
100
AcDbLine
 10
236.4364999999999
 20
86.734090909091
 30
0.0
 11
238.3865
 21
87.0
 31
0.0
  0
LINE
  5
1AE
330
1E
100
AcDbEntity
  8
0
100
AcDbLine
 10
237.5865
 20
89.9
 30
0.0
 11
238.8865
 21
90.4
 31
0.0
  0
LINE
  5
1AF
330
1E
100
AcDbEntity
  8
0
100
AcDbLine
 10
238.2864999999999
 20
87.5
 30
0.0
 11
240.1864999999999
 21
88.3
 31
0.0
  0
LINE
  5
1B0
330
1E
100
AcDbEntity
  8
0
100
AcDbLine
 10
238.2864999999999
 20
87.5
 30
0.0
 11
239.9407695923399
 21
88.1965345651959
 31
0.0
  0
LINE
  5
1B1
330
1E
100
AcDbEntity
  8
0
100
AcDbLine
 10
238.3865
 20
87.0
 30
0.0
 11
240.3865
 21
87.79999999999999
 31
0.0
  0
LINE
  5
1B2
330
1E
100
AcDbEntity
  8
0
100
AcDbLine
 10
238.9864999999999
 20
84.59999999999999
 30
0.0
 11
241.6865
 21
85.7
 31
0.0
  0
LINE
  5
1B3
330
1E
100
AcDbEntity
  8
0
100
AcDbLine
 10
238.9864999999999
 20
84.59999999999999
 30
0.0
 11
241.4401060049999
 21
85.59961726129609
 31
0.0
  0
LINE
  5
1B4
330
1E
100
AcDbEntity
  8
0
100
AcDbLine
 10
238.8723942619929
 20
91.04871540959441
 30
0.0
 11
239.6865
 21
91.69999999999999
 31
0.0
  0
LINE
  5
1B5
330
1E
100
AcDbEntity
  8
0
100
AcDbLine
 10
238.6864999999999
 20
90.90000000000001
 30
0.0
 11
239.6865
 21
91.69999999999999
 31
0.0
  0
LINE
  5
1B6
330
1E
100
AcDbEntity
  8
0
100
AcDbLine
 10
237.4865
 20
90.4
 30
0.0
 11
238.6864999999999
 21
90.90000000000001
 31
0.0
  0
LINE
  5
1B7
330
1E
100
AcDbEntity
  8
0
100
AcDbLine
 10
237.4865
 20
90.4
 30
0.0
 11
238.439368241426
 21
90.79702843392771
 31
0.0
  0
LINE
  5
1B8
330
1E
100
AcDbEntity
  8
0
100
AcDbLine
 10
238.8865
 20
90.4
 30
0.0
 11
240.0865
 21
91.3
 31
0.0
  0
LINE
  5
1B9
330
1E
100
AcDbEntity
  8
0
100
AcDbLine
 10
238.708189040788
 20
90.3314188618417
 30
0.0
 11
239.9407695923399
 21
88.1965345651959
 31
0.0
  0
LINE
  5
1BA
330
1E
100
AcDbEntity
  8
0
100
AcDbLine
 10
237.202825622431
 20
92.9387752074771
 30
0.0
 11
238.439368241426
 21
90.79702843392771
 31
0.0
  0
LINE
  5
1BB
330
1E
100
AcDbEntity
  8
0
100
AcDbLine
 10
237.3865
 20
93.0
 30
0.0
 11
237.9865
 21
93.40000000000001
 31
0.0
  0
LINE
  5
1BC
330
1E
100
AcDbEntity
  8
0
100
AcDbLine
 10
236.4364999999999
 20
100.1615384615389
 30
0.0
 11
237.4865
 21
100.0
 31
0.0
  0
LINE
  5
1BD
330
1E
100
AcDbEntity
  8
0
100
AcDbLine
 10
236.4364999999999
 20
103.164285714286
 30
0.0
 11
238.2864999999999
 21
102.9
 31
0.0
  0
LINE
  5
1BE
330
1E
100
AcDbEntity
  8
0
100
AcDbLine
 10
236.4364999999999
 20
106.164285714286
 30
0.0
 11
236.4364999999999
 21
97.45
 31
0.0
  0
LINE
  5
1BF
330
1E
100
AcDbEntity
  8
0
100
AcDbLine
 10
236.4364999999999
 20
106.164285714286
 30
0.0
 11
238.9864999999999
 21
105.8
 31
0.0
  0
LINE
  5
1C0
330
1E
100
AcDbEntity
  8
0
100
AcDbLine
 10
237.1865
 20
96.90000000000001
 30
0.0
 11
237.5865
 21
96.6
 31
0.0
  0
LINE
  5
1C1
330
1E
100
AcDbEntity
  8
0
100
AcDbLine
 10
237.1865
 20
93.49999999999999
 30
0.0
 11
237.5865
 21
93.8
 31
0.0
  0
LINE
  5
1C2
330
1E
100
AcDbEntity
  8
0
100
AcDbLine
 10
236.6865
 20
93.3
 30
0.0
 11
237.1865
 21
93.49999999999999
 31
0.0
  0
LINE
  5
1C3
330
1E
100
AcDbEntity
  8
0
100
AcDbLine
 10
236.6865
 20
97.1
 30
0.0
 11
237.1865
 21
96.90000000000001
 31
0.0
  0
LINE
  5
1C4
330
1E
100
AcDbEntity
  8
0
100
AcDbLine
 10
236.7865
 20
97.59999999999999
 30
0.0
 11
237.3865
 21
97.40000000000001
 31
0.0
  0
LINE
  5
1C5
330
1E
100
AcDbEntity
  8
0
100
AcDbLine
 10
237.3865
 20
97.40000000000001
 30
0.0
 11
237.9865
 21
97.0
 31
0.0
  0
LINE
  5
1C6
330
1E
100
AcDbEntity
  8
0
100
AcDbLine
 10
237.4865
 20
100.0
 30
0.0
 11
238.6864999999999
 21
99.50000000000001
 31
0.0
  0
LINE
  5
1C7
330
1E
100
AcDbEntity
  8
0
100
AcDbLine
 10
237.4865
 20
100.0
 30
0.0
 11
238.439340424432
 21
99.6029831564868
 31
0.0
  0
LINE
  5
1C8
330
1E
100
AcDbEntity
  8
0
100
AcDbLine
 10
237.202823291444
 20
97.4612255695186
 30
0.0
 11
238.439340424432
 21
99.6029831564868
 31
0.0
  0
LINE
  5
1C9
330
1E
100
AcDbEntity
  8
0
100
AcDbLine
 10
237.0945
 20
97.2736
 30
0.0
 11
237.5285
 21
97.0236
 31
0.0
  0
LINE
  5
1CA
330
1E
100
AcDbEntity
  8
0
100
AcDbLine
 10
237.0945
 20
97.2736
 30
0.0
 11
241.440015732329
 21
104.8004195164589
 31
0.0
  0
LINE
  5
1CB
330
1E
100
AcDbEntity
  8
0
100
AcDbLine
 10
237.5285
 20
97.0236
 30
0.0
 11
241.878459651438
 21
104.558116779372
 31
0.0
  0
LINE
  5
1CC
330
1E
100
AcDbEntity
  8
0
100
AcDbLine
 10
236.4364999999999
 20
97.45
 30
0.0
 11
236.4364999999999
 21
106.164285714286
 31
0.0
  0
LINE
  5
1CD
330
1E
100
AcDbEntity
  8
0
100
AcDbLine
 10
237.0945
 20
93.1264
 30
0.0
 11
237.5285
 21
93.3764
 31
0.0
  0
LINE
  5
1CE
330
1E
100
AcDbEntity
  8
0
100
AcDbLine
 10
237.0945
 20
93.1264
 30
0.0
 11
241.4401060049999
 21
85.59961726129609
 31
0.0
  0
LINE
  5
1CF
330
1E
100
AcDbEntity
  8
0
100
AcDbLine
 10
237.5865
 20
93.8
 30
0.0
 11
237.8865
 21
94.19999999999999
 31
0.0
  0
LINE
  5
1D0
330
1E
100
AcDbEntity
  8
0
100
AcDbLine
 10
237.8865
 20
94.19999999999999
 30
0.0
 11
238.0865
 21
94.7
 31
0.0
  0
LINE
  5
1D1
330
1E
100
AcDbEntity
  8
0
100
AcDbLine
 10
237.9865
 20
93.40000000000001
 30
0.0
 11
238.3865
 21
94.0
 31
0.0
  0
LINE
  5
1D2
330
1E
100
AcDbEntity
  8
0
100
AcDbLine
 10
238.3865
 20
94.0
 30
0.0
 11
238.5864999999999
 21
94.59999999999999
 31
0.0
  0
LINE
  5
1D3
330
1E
100
AcDbEntity
  8
0
100
AcDbLine
 10
238.2138824346859
 20
93.7410736520289
 30
0.0
 11
240.338165718799
 21
92.5145821484992
 31
0.0
  0
LINE
  5
1D4
330
1E
100
AcDbEntity
  8
0
100
AcDbLine
 10
238.0104999999999
 20
93.85850000000001
 30
0.0
 11
238.2605
 21
94.29149999999999
 31
0.0
  0
LINE
  5
1D5
330
1E
100
AcDbEntity
  8
0
100
AcDbLine
 10
238.0104999999999
 20
93.85850000000001
 30
0.0
 11
245.5448797944959
 21
89.508396192554
 31
0.0
  0
LINE
  5
1D6
330
1E
100
AcDbEntity
  8
0
100
AcDbLine
 10
238.0865
 20
94.7
 30
0.0
 11
238.1864999999999
 21
95.20000000000001
 31
0.0
  0
LINE
  5
1D7
330
1E
100
AcDbEntity
  8
0
100
AcDbLine
 10
237.8865
 20
96.2
 30
0.0
 11
238.0865
 21
95.7
 31
0.0
  0
LINE
  5
1D8
330
1E
100
AcDbEntity
  8
0
100
AcDbLine
 10
238.0865
 20
95.7
 30
0.0
 11
238.1864999999999
 21
95.20000000000001
 31
0.0
  0
LINE
  5
1D9
330
1E
100
AcDbEntity
  8
0
100
AcDbLine
 10
237.5865
 20
96.6
 30
0.0
 11
237.8865
 21
96.2
 31
0.0
  0
LINE
  5
1DA
330
1E
100
AcDbEntity
  8
0
100
AcDbLine
 10
237.9865
 20
97.0
 30
0.0
 11
238.3865
 21
96.4
 31
0.0
  0
LINE
  5
1DB
330
1E
100
AcDbEntity
  8
0
100
AcDbLine
 10
237.5865
 20
100.5
 30
0.0
 11
238.708155158156
 21
100.06859416994
 31
0.0
  0
LINE
  5
1DC
330
1E
100
AcDbEntity
  8
0
100
AcDbLine
 10
237.5865
 20
100.5
 30
0.0
 11
238.8865
 21
100.0
 31
0.0
  0
LINE
  5
1DD
330
1E
100
AcDbEntity
  8
0
100
AcDbLine
 10
238.213888715605
 20
96.65891692659279
 30
0.0
 11
240.3382474371579
 21
97.88531570355292
 31
0.0
  0
LINE
  5
1DE
330
1E
100
AcDbEntity
  8
0
100
AcDbLine
 10
238.0104999999999
 20
96.54150000000001
 30
0.0
 11
238.2605
 21
96.10850000000001
 31
0.0
  0
LINE
  5
1DF
330
1E
100
AcDbEntity
  8
0
100
AcDbLine
 10
238.0104999999999
 20
96.54150000000001
 30
0.0
 11
245.545130200564
 21
100.8912650227659
 31
0.0
  0
LINE
  5
1E0
330
1E
100
AcDbEntity
  8
0
100
AcDbLine
 10
238.3865
 20
96.4
 30
0.0
 11
238.5864999999999
 21
95.8
 31
0.0
  0
LINE
  5
1E1
330
1E
100
AcDbEntity
  8
0
100
AcDbLine
 10
238.2864999999999
 20
102.9
 30
0.0
 11
240.1864999999999
 21
102.0999999999999
 31
0.0
  0
LINE
  5
1E2
330
1E
100
AcDbEntity
  8
0
100
AcDbLine
 10
238.2864999999999
 20
102.9
 30
0.0
 11
239.940710840572
 21
102.203490172391
 31
0.0
  0
LINE
  5
1E3
330
1E
100
AcDbEntity
  8
0
100
AcDbLine
 10
238.3865
 20
103.4
 30
0.0
 11
240.3865
 21
102.6
 31
0.0
  0
LINE
  5
1E4
330
1E
100
AcDbEntity
  8
0
100
AcDbLine
 10
238.2605
 20
96.10850000000001
 30
0.0
 11
245.7869164696599
 21
100.453523210834
 31
0.0
  0
LINE
  5
1E5
330
1E
100
AcDbEntity
  8
0
100
AcDbLine
 10
238.4364999999999
 20
95.44999999999999
 30
0.0
 11
247.150785714286
 21
95.44999999999999
 31
0.0
  0
LINE
  5
1E6
330
1E
100
AcDbEntity
  8
0
100
AcDbLine
 10
238.4364999999999
 20
95.44999999999999
 30
0.0
 11
238.4364999999999
 21
94.95
 31
0.0
  0
LINE
  5
1E7
330
1E
100
AcDbEntity
  8
0
100
AcDbLine
 10
238.5864999999999
 20
94.59999999999999
 30
0.0
 11
238.6864999999999
 21
95.20000000000001
 31
0.0
  0
LINE
  5
1E8
330
1E
100
AcDbEntity
  8
0
100
AcDbLine
 10
238.5864999999999
 20
95.8
 30
0.0
 11
238.6864999999999
 21
95.20000000000001
 31
0.0
  0
LINE
  5
1E9
330
1E
100
AcDbEntity
  8
0
100
AcDbLine
 10
238.6864999999999
 20
99.50000000000001
 30
0.0
 11
239.6865
 21
98.7
 31
0.0
  0
LINE
  5
1EA
330
1E
100
AcDbEntity
  8
0
100
AcDbLine
 10
238.8723706733129
 20
99.3513034613495
 30
0.0
 11
239.6865
 21
98.7
 31
0.0
  0
LINE
  5
1EB
330
1E
100
AcDbEntity
  8
0
100
AcDbLine
 10
238.8865
 20
100.0
 30
0.0
 11
240.0865
 21
99.1
 31
0.0
  0
LINE
  5
1EC
330
1E
100
AcDbEntity
  8
0
100
AcDbLine
 10
238.9864999999999
 20
105.8
 30
0.0
 11
241.6865
 21
104.7
 31
0.0
  0
LINE
  5
1ED
330
1E
100
AcDbEntity
  8
0
100
AcDbLine
 10
238.9864999999999
 20
105.8
 30
0.0
 11
241.440015732329
 21
104.8004195164589
 31
0.0
  0
LINE
  5
1EE
330
1E
100
AcDbEntity
  8
0
100
AcDbLine
 10
238.708155158156
 20
100.06859416994
 30
0.0
 11
239.940710840572
 21
102.203490172391
 31
0.0
  0
LINE
  5
1EF
330
1E
100
AcDbEntity
  8
0
100
AcDbLine
 10
238.644833333333
 20
94.95
 30
0.0
 11
241.148038461538
 21
94.95
 31
0.0
  0
LINE
  5
1F0
330
1E
100
AcDbEntity
  8
0
100
AcDbLine
 10
238.4364999999999
 20
94.95
 30
0.0
 11
247.150785714286
 21
94.95
 31
0.0
  0
LINE
  5
1F1
330
1E
100
AcDbEntity
  8
0
100
AcDbLine
 10
238.4364999999999
 20
94.95
 30
0.0
 11
238.4364999999999
 21
95.44999999999999
 31
0.0
  0
LINE
  5
1F2
330
1E
100
AcDbEntity
  8
0
100
AcDbLine
 10
238.2605
 20
94.29149999999999
 30
0.0
 11
245.786757219029
 21
89.94608590125341
 31
0.0
  0
LINE
  5
1F3
330
1E
100
AcDbEntity
  8
0
100
AcDbLine
 10
237.5285
 20
93.3764
 30
0.0
 11
241.878537886104
 21
85.8419410462508
 31
0.0
  0
LINE
  5
1F4
330
1E
100
AcDbEntity
  8
0
100
AcDbLine
 10
236.4364999999999
 20
92.94999999999999
 30
0.0
 11
236.4364999999999
 21
84.23571428571429
 31
0.0
  0
LINE
  5
1F5
330
1E
100
AcDbEntity
  8
0
100
AcDbLine
 10
236.1864999999999
 20
106.6999999999999
 30
0.0
 11
239.1865
 21
106.2999999999999
 31
0.0
  0
LINE
  5
1F6
330
1E
100
AcDbEntity
  8
0
100
AcDbLine
 10
236.1864999999999
 20
107.2
 30
0.0
 11
239.2865
 21
106.8
 31
0.0
  0
LINE
  5
1F7
330
1E
100
AcDbEntity
  8
0
100
AcDbLine
 10
241.6865
 20
85.7
 30
0.0
 11
243.9865
 21
87.4
 31
0.0
  0
LINE
  5
1F8
330
1E
100
AcDbEntity
  8
0
100
AcDbLine
 10
239.6865
 20
98.7
 30
0.0
 11
240.4865
 21
97.70000000000001
 31
0.0
  0
LINE
  5
1F9
330
1E
100
AcDbEntity
  8
0
100
AcDbLine
 10
239.6865
 20
98.7
 30
0.0
 11
240.3382474371579
 21
97.88531570355292
 31
0.0
  0
LINE
  5
1FA
330
1E
100
AcDbEntity
  8
0
100
AcDbLine
 10
240.0865
 20
99.1
 30
0.0
 11
240.9864999999999
 21
97.9
 31
0.0
  0
LINE
  5
1FB
330
1E
100
AcDbEntity
  8
0
100
AcDbLine
 10
240.3721911878359
 20
101.949125909883
 30
0.0
 11
241.7864999999999
 21
100.8
 31
0.0
  0
LINE
  5
1FC
330
1E
100
AcDbEntity
  8
0
100
AcDbLine
 10
240.1864999999999
 20
102.0999999999999
 30
0.0
 11
241.7864999999999
 21
100.8
 31
0.0
  0
LINE
  5
1FD
330
1E
100
AcDbEntity
  8
0
100
AcDbLine
 10
239.6865
 20
91.69999999999999
 30
0.0
 11
240.4865
 21
92.70000000000001
 31
0.0
  0
LINE
  5
1FE
330
1E
100
AcDbEntity
  8
0
100
AcDbLine
 10
239.6865
 20
91.69999999999999
 30
0.0
 11
240.338165718799
 21
92.5145821484992
 31
0.0
  0
LINE
  5
1FF
330
1E
100
AcDbEntity
  8
0
100
AcDbLine
 10
240.0865
 20
91.3
 30
0.0
 11
240.9864999999999
 21
92.5
 31
0.0
  0
LINE
  5
200
330
1E
100
AcDbEntity
  8
0
100
AcDbLine
 10
240.3865
 20
102.6
 30
0.0
 11
242.1864999999999
 21
101.2
 31
0.0
  0
LINE
  5
201
330
1E
100
AcDbEntity
  8
0
100
AcDbLine
 10
240.372240857346
 20
88.45091444659379
 30
0.0
 11
241.7864999999999
 21
89.59999999999999
 31
0.0
  0
LINE
  5
202
330
1E
100
AcDbEntity
  8
0
100
AcDbLine
 10
240.1864999999999
 20
88.3
 30
0.0
 11
241.7864999999999
 21
89.59999999999999
 31
0.0
  0
LINE
  5
203
330
1E
100
AcDbEntity
  8
0
100
AcDbLine
 10
240.4865
 20
97.70000000000001
 30
0.0
 11
240.9864999999999
 21
96.5
 31
0.0
  0
LINE
  5
204
330
1E
100
AcDbEntity
  8
0
100
AcDbLine
 10
240.589419789184
 20
97.45299250595779
 30
0.0
 11
240.9864999999999
 21
96.5
 31
0.0
  0
LINE
  5
205
330
1E
100
AcDbEntity
  8
0
100
AcDbLine
 10
240.58936960906
 20
92.94688706174369
 30
0.0
 11
240.9864999999999
 21
93.9
 31
0.0
  0
LINE
  5
206
330
1E
100
AcDbEntity
  8
0
100
AcDbLine
 10
240.4865
 20
92.70000000000001
 30
0.0
 11
240.9864999999999
 21
93.9
 31
0.0
  0
LINE
  5
207
330
1E
100
AcDbEntity
  8
0
100
AcDbLine
 10
240.3865
 20
87.79999999999999
 30
0.0
 11
242.1864999999999
 21
89.19999999999999
 31
0.0
  0
LINE
  5
208
330
1E
100
AcDbEntity
  8
0
100
AcDbLine
 10
240.210317560243
 20
102.6704729759029
 30
0.0
 11
241.440015732329
 21
104.8004195164589
 31
0.0
  0
LINE
  5
209
330
1E
100
AcDbEntity
  8
0
100
AcDbLine
 10
240.9864999999999
 20
93.9
 30
0.0
 11
241.1865
 21
95.20000000000001
 31
0.0
  0
LINE
  5
20A
330
1E
100
AcDbEntity
  8
0
100
AcDbLine
 10
240.9864999999999
 20
93.9
 30
0.0
 11
241.148038461538
 21
94.95
 31
0.0
  0
LINE
  5
20B
330
1E
100
AcDbEntity
  8
0
100
AcDbLine
 10
240.9864999999999
 20
92.5
 30
0.0
 11
241.4865
 21
93.8
 31
0.0
  0
LINE
  5
20C
330
1E
100
AcDbEntity
  8
0
100
AcDbLine
 10
241.4865
 20
93.8
 30
0.0
 11
241.6865
 21
95.20000000000001
 31
0.0
  0
LINE
  5
20D
330
1E
100
AcDbEntity
  8
0
100
AcDbLine
 10
240.9864999999999
 20
96.5
 30
0.0
 11
241.1865
 21
95.20000000000001
 31
0.0
  0
LINE
  5
20E
330
1E
100
AcDbEntity
  8
0
100
AcDbLine
 10
240.9864999999999
 20
96.5
 30
0.0
 11
241.148038461538
 21
95.44999999999999
 31
0.0
  0
LINE
  5
20F
330
1E
100
AcDbEntity
  8
0
100
AcDbLine
 10
240.9864999999999
 20
97.9
 30
0.0
 11
241.4865
 21
96.6
 31
0.0
  0
LINE
  5
210
330
1E
100
AcDbEntity
  8
0
100
AcDbLine
 10
241.4865
 20
96.6
 30
0.0
 11
241.6865
 21
95.20000000000001
 31
0.0
  0
LINE
  5
211
330
1E
100
AcDbEntity
  8
0
100
AcDbLine
 10
241.6865
 20
104.7
 30
0.0
 11
243.9865
 21
103.0
 31
0.0
  0
LINE
  5
212
330
1E
100
AcDbEntity
  8
0
100
AcDbLine
 10
240.798314592217
 20
98.15091387704399
 30
0.0
 11
242.936124208846
 21
99.3850778968054
 31
0.0
  0
LINE
  5
213
330
1E
100
AcDbEntity
  8
0
100
AcDbLine
 10
241.6507857142859
 20
94.95
 30
0.0
 11
244.1507857142859
 21
94.95
 31
0.0
  0
LINE
  5
214
330
1E
100
AcDbEntity
  8
0
100
AcDbLine
 10
240.798220991136
 20
92.2489613215149
 30
0.0
 11
242.935949449794
 21
91.0147070151307
 31
0.0
  0
LINE
  5
215
330
1E
100
AcDbEntity
  8
0
100
AcDbLine
 10
240.210382512351
 20
87.72955300494048
 30
0.0
 11
241.4401060049999
 21
85.59961726129609
 31
0.0
  0
LINE
  5
216
330
1E
100
AcDbEntity
  8
0
100
AcDbLine
 10
239.1865
 20
106.2999999999999
 30
0.0
 11
241.8865
 21
105.2
 31
0.0
  0
LINE
  5
217
330
1E
100
AcDbEntity
  8
0
100
AcDbLine
 10
239.2865
 20
106.8
 30
0.0
 11
242.1864999999999
 21
105.6
 31
0.0
  0
LINE
  5
218
330
1E
100
AcDbEntity
  8
0
100
AcDbLine
 10
232.3203027583919
 20
83.91704713445841
 30
0.0
 11
233.0865
 21
83.59999999999999
 31
0.0
  0
LINE
  5
219
330
1E
100
AcDbEntity
  8
0
100
AcDbLine
 10
233.0865
 20
83.59999999999999
 30
0.0
 11
235.3295
 21
83.31058064516129
 31
0.0
  0
LINE
  5
21A
330
1E
100
AcDbEntity
  8
0
100
AcDbLine
 10
233.0865
 20
83.59999999999999
 30
0.0
 11
236.1864999999999
 21
83.2
 31
0.0
  0
LINE
  5
21B
330
1E
100
AcDbEntity
  8
0
100
AcDbLine
 10
230.9884999999999
 20
107.9169999999999
 30
0.0
 11
236.3465
 21
108.9829999999999
 31
0.0
  0
LINE
  5
21C
330
1E
100
AcDbEntity
  8
0
100
AcDbLine
 10
241.1865
 20
109.0
 30
0.0
 11
242.1864999999999
 21
109.0
 31
0.0
  0
LINE
  5
21D
330
1E
100
AcDbEntity
  8
0
100
AcDbLine
 10
241.1865
 20
109.0
 30
0.0
 11
241.1865
 21
128.0
 31
0.0
  0
LINE
  5
21E
330
1E
100
AcDbEntity
  8
0
100
AcDbLine
 10
236.3465
 20
108.9829999999999
 30
0.0
 11
241.7044999999999
 21
107.9169999999999
 31
0.0
  0
LINE
  5
21F
330
1E
100
AcDbEntity
  8
0
100
AcDbLine
 10
241.7044999999999
 20
107.9169999999999
 30
0.0
 11
246.2464999999999
 21
104.882
 31
0.0
  0
LINE
  5
220
330
1E
100
AcDbEntity
  8
0
100
AcDbLine
 10
241.7864999999999
 20
100.8
 30
0.0
 11
243.0865
 21
99.20000000000001
 31
0.0
  0
LINE
  5
221
330
1E
100
AcDbEntity
  8
0
100
AcDbLine
 10
241.7864999999999
 20
100.8
 30
0.0
 11
242.936124208846
 21
99.3850778968054
 31
0.0
  0
LINE
  5
222
330
1E
100
AcDbEntity
  8
0
100
AcDbLine
 10
241.878459651438
 20
104.558116779372
 30
0.0
 11
243.9865
 21
103.0
 31
0.0
  0
LINE
  5
223
330
1E
100
AcDbEntity
  8
0
100
AcDbLine
 10
241.7864999999999
 20
89.59999999999999
 30
0.0
 11
243.0865
 21
91.2
 31
0.0
  0
LINE
  5
224
330
1E
100
AcDbEntity
  8
0
100
AcDbLine
 10
241.7864999999999
 20
89.59999999999999
 30
0.0
 11
242.935949449794
 21
91.0147070151307
 31
0.0
  0
LINE
  5
225
330
1E
100
AcDbEntity
  8
0
100
AcDbLine
 10
241.878537886104
 20
85.8419410462508
 30
0.0
 11
243.9865
 21
87.4
 31
0.0
  0
LINE
  5
226
330
1E
100
AcDbEntity
  8
0
100
AcDbLine
 10
242.1864999999999
 20
101.2
 30
0.0
 11
243.5865
 21
99.40000000000001
 31
0.0
  0
LINE
  5
227
330
1E
100
AcDbEntity
  8
0
100
AcDbLine
 10
242.1864999999999
 20
89.19999999999999
 30
0.0
 11
243.5865
 21
91.0
 31
0.0
  0
LINE
  5
228
330
1E
100
AcDbEntity
  8
0
100
AcDbLine
 10
241.8865
 20
105.2
 30
0.0
 11
244.2864999999999
 21
103.2999999999999
 31
0.0
  0
LINE
  5
229
330
1E
100
AcDbEntity
  8
0
100
AcDbLine
 10
242.1864999999999
 20
105.6
 30
0.0
 11
244.6864999999999
 21
103.7
 31
0.0
  0
LINE
  5
22A
330
1E
100
AcDbEntity
  8
0
100
AcDbLine
 10
241.8865
 20
85.20000000000001
 30
0.0
 11
244.2864999999999
 21
87.09999999999999
 31
0.0
  0
LINE
  5
22B
330
1E
100
AcDbEntity
  8
0
100
AcDbLine
 10
242.1864999999999
 20
84.8
 30
0.0
 11
244.6864999999999
 21
86.69999999999999
 31
0.0
  0
LINE
  5
22C
330
1E
100
AcDbEntity
  8
0
100
AcDbLine
 10
242.1864999999999
 20
84.8
 30
0.0
 11
244.6864999999999
 21
86.69999999999999
 31
0.0
  0
LINE
  5
22D
330
1E
100
AcDbEntity
  8
0
100
AcDbLine
 10
241.878537886104
 20
85.8419410462508
 30
0.0
 11
243.9865
 21
87.4
 31
0.0
  0
LINE
  5
22E
330
1E
100
AcDbEntity
  8
0
100
AcDbLine
 10
242.1864999999999
 20
109.0
 30
0.0
 11
242.1864999999999
 21
128.0
 31
0.0
  0
LINE
  5
22F
330
1E
100
AcDbEntity
  8
0
100
AcDbLine
 10
241.7044999999999
 20
82.0481
 30
0.0
 11
246.2464999999999
 21
85.08329999999999
 31
0.0
  0
LINE
  5
230
330
1E
100
AcDbEntity
  8
0
100
AcDbLine
 10
236.1864999999999
 20
110.0
 30
0.0
 11
241.1865
 21
109.0
 31
0.0
  0
LINE
  5
231
330
1E
100
AcDbEntity
  8
0
100
AcDbLine
 10
241.1865
 20
129.0
 30
0.0
 11
242.1864999999999
 21
128.0
 31
0.0
  0
LINE
  5
232
330
1E
100
AcDbEntity
  8
0
100
AcDbLine
 10
241.1865
 20
129.0
 30
0.0
 11
241.1865
 21
128.0
 31
0.0
  0
LINE
  5
233
330
1E
100
AcDbEntity
  8
0
100
AcDbLine
 10
242.1864999999999
 20
128.0
 30
0.0
 11
242.1864999999999
 21
109.0
 31
0.0
  0
LINE
  5
234
330
1E
100
AcDbEntity
  8
0
100
AcDbLine
 10
241.1865
 20
128.0
 30
0.0
 11
241.1865
 21
129.0
 31
0.0
  0
LINE
  5
235
330
1E
100
AcDbEntity
  8
0
100
AcDbLine
 10
241.1865
 20
128.0
 30
0.0
 11
242.1864999999999
 21
128.0
 31
0.0
  0
LINE
  5
236
330
1E
100
AcDbEntity
  8
0
100
AcDbLine
 10
241.1865
 20
128.0
 30
0.0
 11
241.1865
 21
109.0
 31
0.0
  0
LINE
  5
237
330
1E
100
AcDbEntity
  8
0
100
AcDbLine
 10
232.2864999999999
 20
109.4999999999999
 30
0.0
 11
236.1864999999999
 21
110.0
 31
0.0
  0
LINE
  5
238
330
1E
100
AcDbEntity
  8
0
100
AcDbLine
 10
228.6865
 20
108.0
 30
0.0
 11
232.2864999999999
 21
109.4999999999999
 31
0.0
  0
LINE
  5
239
330
1E
100
AcDbEntity
  8
0
100
AcDbLine
 10
228.6865
 20
82.0
 30
0.0
 11
232.2864999999999
 21
80.5
 31
0.0
  0
LINE
  5
23A
330
1E
100
AcDbEntity
  8
0
100
AcDbLine
 10
227.1174999999999
 20
84.3397
 30
0.0
 11
227.981199140307
 21
82.5460393752461
 31
0.0
  0
LINE
  5
23B
330
1E
100
AcDbEntity
  8
0
100
AcDbLine
 10
242.1864999999999
 20
69.3757711035267
 30
0.0
 11
245.9105
 21
67.4084
 31
0.0
  0
LINE
  5
23C
330
1E
100
AcDbEntity
  8
0
100
AcDbLine
 10
298.6005
 20
37.8541
 30
0.0
 11
305.1425
 21
38.8057
 31
0.0
  0
LINE
  5
23D
330
1E
100
AcDbEntity
  8
0
100
AcDbLine
 10
288.1125
 20
37.5625
 30
0.0
 11
298.6005
 21
37.8541
 31
0.0
  0
LINE
  5
23E
330
1E
100
AcDbEntity
  8
0
100
AcDbLine
 10
285.4715
 20
37.5253
 30
0.0
 11
288.1125
 21
37.5625
 31
0.0
  0
LINE
  5
23F
330
1E
100
AcDbEntity
  8
0
100
AcDbLine
 10
274.1375
 20
37.6297
 30
0.0
 11
285.4715
 21
37.5253
 31
0.0
  0
LINE
  5
240
330
1E
100
AcDbEntity
  8
0
100
AcDbLine
 10
276.7335
 20
53.356
 30
0.0
 11
285.494582403067
 21
53.2752224182883
 31
0.0
  0
LINE
  5
241
330
1E
100
AcDbEntity
  8
0
100
AcDbLine
 10
261.8045
 20
54.40699999999999
 30
0.0
 11
276.7335
 21
53.356
 31
0.0
  0
LINE
  5
242
330
1E
100
AcDbEntity
  8
0
100
AcDbLine
 10
242.8255
 20
56.0915
 30
0.0
 11
261.8045
 21
54.40699999999999
 31
0.0
  0
LINE
  5
244
330
1E
100
AcDbEntity
  8
0
100
AcDbLine
 10
277.1724999999999
 20
56.0148
 30
0.0
 11
285.5832263190781
 21
53.2460413944413
 31
0.0
  0
LINE
  5
245
330
1E
100
AcDbEntity
  8
0
100
AcDbLine
 10
264.9554999999999
 20
59.9838
 30
0.0
 11
277.1724999999999
 21
56.0148
 31
0.0
  0
LINE
  5
247
330
1E
100
AcDbEntity
  8
0
100
AcDbLine
 10
300.4155
 20
47.0063
 30
0.0
 11
303.8505
 21
44.48699999999999
 31
0.0
  0
LINE
  5
248
330
1E
100
AcDbEntity
  8
0
100
AcDbLine
 10
294.8065
 20
49.86679999999999
 30
0.0
 11
300.4155
 21
47.0063
 31
0.0
  0
LINE
  5
249
330
1E
100
AcDbEntity
  8
0
100
AcDbLine
 10
285.3284999999999
 20
53.2392
 30
0.0
 11
285.583226319078
 21
53.24604139444129
 31
0.0
  0
LINE
  5
24A
330
1E
100
AcDbEntity
  8
0
100
AcDbLine
 10
285.5832263190781
 20
53.2460413944413
 30
0.0
 11
294.8065
 21
49.86679999999999
 31
0.0
  0
LINE
  5
24C
330
1E
100
AcDbEntity
  8
0
100
AcDbLine
 10
244.0559125129559
 20
86.22075350984641
 30
0.0
 11
244.4414999999999
 21
85.82019999999999
 31
0.0
  0
LINE
  5
24D
330
1E
100
AcDbEntity
  8
0
100
AcDbLine
 10
243.714759304626
 20
85.9614770715161
 30
0.0
 11
244.1305
 21
85.5296
 31
0.0
  0
LINE
  5
24E
330
1E
100
AcDbEntity
  8
0
100
AcDbLine
 10
244.4414999999999
 20
85.82019999999999
 30
0.0
 11
245.0635
 21
86.4015
 31
0.0
  0
LINE
  5
24F
330
1E
100
AcDbEntity
  8
0
100
AcDbLine
 10
245.0635
 20
86.4015
 30
0.0
 11
245.3745
 21
86.69209999999999
 31
0.0
  0
LINE
  5
250
330
1E
100
AcDbEntity
  8
0
100
AcDbLine
 10
244.1305
 20
85.5296
 30
0.0
 11
244.4414999999999
 21
85.82019999999999
 31
0.0
  0
LINE
  5
251
330
1E
100
AcDbEntity
  8
0
100
AcDbLine
 10
243.0865
 20
99.20000000000001
 30
0.0
 11
243.8865
 21
97.3
 31
0.0
  0
LINE
  5
252
330
1E
100
AcDbEntity
  8
0
100
AcDbLine
 10
243.189956676916
 20
98.95429039232521
 30
0.0
 11
243.8865
 21
97.3
 31
0.0
  0
LINE
  5
253
330
1E
100
AcDbEntity
  8
0
100
AcDbLine
 10
243.189849564877
 20
91.44545521658359
 30
0.0
 11
243.8865
 21
93.1
 31
0.0
  0
LINE
  5
254
330
1E
100
AcDbEntity
  8
0
100
AcDbLine
 10
243.0865
 20
91.2
 30
0.0
 11
243.8865
 21
93.1
 31
0.0
  0
LINE
  5
255
330
1E
100
AcDbEntity
  8
0
100
AcDbLine
 10
243.8865
 20
97.3
 30
0.0
 11
244.1864999999999
 21
95.20000000000001
 31
0.0
  0
LINE
  5
256
330
1E
100
AcDbEntity
  8
0
100
AcDbLine
 10
243.8865
 20
97.3
 30
0.0
 11
244.1507857142859
 21
95.44999999999999
 31
0.0
  0
LINE
  5
257
330
1E
100
AcDbEntity
  8
0
100
AcDbLine
 10
243.5865
 20
99.40000000000001
 30
0.0
 11
244.3865
 21
97.40000000000001
 31
0.0
  0
LINE
  5
258
330
1E
100
AcDbEntity
  8
0
100
AcDbLine
 10
243.8865
 20
93.1
 30
0.0
 11
244.1864999999999
 21
95.20000000000001
 31
0.0
  0
LINE
  5
259
330
1E
100
AcDbEntity
  8
0
100
AcDbLine
 10
243.8865
 20
93.1
 30
0.0
 11
244.1507857142859
 21
94.95
 31
0.0
  0
LINE
  5
25A
330
1E
100
AcDbEntity
  8
0
100
AcDbLine
 10
243.5865
 20
91.0
 30
0.0
 11
244.3865
 21
93.0
 31
0.0
  0
LINE
  5
25B
330
1E
100
AcDbEntity
  8
0
100
AcDbLine
 10
243.9865
 20
87.4
 30
0.0
 11
245.6865
 21
89.7
 31
0.0
  0
LINE
  5
25C
330
1E
100
AcDbEntity
  8
0
100
AcDbLine
 10
243.9865
 20
87.4
 30
0.0
 11
245.5448797944959
 21
89.508396192554
 31
0.0
  0
LINE
  5
25D
330
1E
100
AcDbEntity
  8
0
100
AcDbLine
 10
243.9865
 20
103.0
 30
0.0
 11
245.6865
 21
100.7
 31
0.0
  0
LINE
  5
25E
330
1E
100
AcDbEntity
  8
0
100
AcDbLine
 10
243.9865
 20
103.0
 30
0.0
 11
245.545130200564
 21
100.8912650227659
 31
0.0
  0
LINE
  5
25F
330
1E
100
AcDbEntity
  8
0
100
AcDbLine
 10
243.392974250437
 20
99.64881882086729
 30
0.0
 11
245.545130200564
 21
100.8912650227659
 31
0.0
  0
LINE
  5
260
330
1E
100
AcDbEntity
  8
0
100
AcDbLine
 10
243.392788914468
 20
90.75094289003009
 30
0.0
 11
245.5448797944959
 21
89.508396192554
 31
0.0
  0
LINE
  5
261
330
1E
100
AcDbEntity
  8
0
100
AcDbLine
 10
244.2864999999999
 20
103.2999999999999
 30
0.0
 11
246.1864999999999
 21
100.9
 31
0.0
  0
LINE
  5
262
330
1E
100
AcDbEntity
  8
0
100
AcDbLine
 10
244.3865
 20
97.40000000000001
 30
0.0
 11
244.6864999999999
 21
95.20000000000001
 31
0.0
  0
LINE
  5
263
330
1E
100
AcDbEntity
  8
0
100
AcDbLine
 10
244.3865
 20
93.0
 30
0.0
 11
244.6864999999999
 21
95.20000000000001
 31
0.0
  0
LINE
  5
264
330
1E
100
AcDbEntity
  8
0
100
AcDbLine
 10
244.652409090909
 20
94.95
 30
0.0
 11
247.150785714286
 21
94.95
 31
0.0
  0
LINE
  5
265
330
1E
100
AcDbEntity
  8
0
100
AcDbLine
 10
244.7260777550479
 20
86.75207599348409
 30
0.0
 11
245.0635
 21
86.4015
 31
0.0
  0
LINE
  5
266
330
1E
100
AcDbEntity
  8
0
100
AcDbLine
 10
245.6865
 20
100.7
 30
0.0
 11
246.7864999999999
 21
98.0
 31
0.0
  0
LINE
  5
267
330
1E
100
AcDbEntity
  8
0
100
AcDbLine
 10
245.7869164696599
 20
100.453523210834
 30
0.0
 11
246.7864999999999
 21
98.0
 31
0.0
  0
LINE
  5
268
330
1E
100
AcDbEntity
  8
0
100
AcDbLine
 10
245.786757219029
 20
89.94608590125341
 30
0.0
 11
246.7864999999999
 21
92.4
 31
0.0
  0
LINE
  5
269
330
1E
100
AcDbEntity
  8
0
100
AcDbLine
 10
245.6865
 20
89.7
 30
0.0
 11
246.7864999999999
 21
92.4
 31
0.0
  0
LINE
  5
26A
330
1E
100
AcDbEntity
  8
0
100
AcDbLine
 10
244.9866795712079
 20
87.0949731200109
 30
0.0
 11
245.3745
 21
86.69209999999999
 31
0.0
  0
LINE
  5
26B
330
1E
100
AcDbEntity
  8
0
100
AcDbLine
 10
244.6864999999999
 20
103.7
 30
0.0
 11
246.5864999999999
 21
101.2
 31
0.0
  0
LINE
  5
26C
330
1E
100
AcDbEntity
  8
0
100
AcDbLine
 10
244.2864999999999
 20
87.09999999999999
 30
0.0
 11
246.1864999999999
 21
89.50000000000001
 31
0.0
  0
LINE
  5
26D
330
1E
100
AcDbEntity
  8
0
100
AcDbLine
 10
244.6864999999999
 20
86.69999999999999
 30
0.0
 11
246.5864999999999
 21
89.19999999999999
 31
0.0
  0
LINE
  5
26E
330
1E
100
AcDbEntity
  8
0
100
AcDbLine
 10
246.1864999999999
 20
100.9
 30
0.0
 11
247.2865
 21
98.2
 31
0.0
  0
LINE
  5
26F
330
1E
100
AcDbEntity
  8
0
100
AcDbLine
 10
246.1864999999999
 20
89.50000000000001
 30
0.0
 11
247.2865
 21
92.2
 31
0.0
  0
LINE
  5
270
330
1E
100
AcDbEntity
  8
0
100
AcDbLine
 10
246.2464999999999
 20
104.882
 30
0.0
 11
249.2814999999999
 21
100.34
 31
0.0
  0
LINE
  5
271
330
1E
100
AcDbEntity
  8
0
100
AcDbLine
 10
246.2464999999999
 20
85.08329999999999
 30
0.0
 11
249.2814999999999
 21
89.6249
 31
0.0
  0
LINE
  5
272
330
1E
100
AcDbEntity
  8
0
100
AcDbLine
 10
246.5864999999999
 20
89.19999999999999
 30
0.0
 11
247.7864999999999
 21
92.09999999999999
 31
0.0
  0
LINE
  5
273
330
1E
100
AcDbEntity
  8
0
100
AcDbLine
 10
246.7864999999999
 20
92.4
 30
0.0
 11
247.1865
 21
95.20000000000001
 31
0.0
  0
LINE
  5
274
330
1E
100
AcDbEntity
  8
0
100
AcDbLine
 10
246.7864999999999
 20
92.4
 30
0.0
 11
247.150785714286
 21
94.95
 31
0.0
  0
LINE
  5
275
330
1E
100
AcDbEntity
  8
0
100
AcDbLine
 10
247.2865
 20
98.2
 30
0.0
 11
247.6865
 21
95.20000000000001
 31
0.0
  0
LINE
  5
276
330
1E
100
AcDbEntity
  8
0
100
AcDbLine
 10
246.5864999999999
 20
101.2
 30
0.0
 11
247.7864999999999
 21
98.3
 31
0.0
  0
LINE
  5
277
330
1E
100
AcDbEntity
  8
0
100
AcDbLine
 10
246.7864999999999
 20
98.0
 30
0.0
 11
247.1865
 21
95.20000000000001
 31
0.0
  0
LINE
  5
278
330
1E
100
AcDbEntity
  8
0
100
AcDbLine
 10
246.7864999999999
 20
98.0
 30
0.0
 11
247.150785714286
 21
95.44999999999999
 31
0.0
  0
LINE
  5
279
330
1E
100
AcDbEntity
  8
0
100
AcDbLine
 10
247.7864999999999
 20
98.3
 30
0.0
 11
248.1864999999999
 21
95.20000000000001
 31
0.0
  0
LINE
  5
27A
330
1E
100
AcDbEntity
  8
0
100
AcDbLine
 10
247.2865
 20
92.2
 30
0.0
 11
247.6865
 21
95.20000000000001
 31
0.0
  0
LINE
  5
27B
330
1E
100
AcDbEntity
  8
0
100
AcDbLine
 10
247.7864999999999
 20
92.09999999999999
 30
0.0
 11
248.1864999999999
 21
95.20000000000001
 31
0.0
  0
LINE
  5
27C
330
1E
100
AcDbEntity
  8
0
100
AcDbLine
 10
249.2814999999999
 20
100.34
 30
0.0
 11
250.3464999999999
 21
94.98269999999999
 31
0.0
  0
LINE
  5
27D
330
1E
100
AcDbEntity
  8
0
100
AcDbLine
 10
249.2814999999999
 20
89.6249
 30
0.0
 11
250.3464999999999
 21
94.98269999999999
 31
0.0
  0
LINE
  5
27E
330
1E
100
AcDbEntity
  8
0
100
AcDbLine
 10
246.431170983633
 20
85.3596432419334
 30
0.0
 11
247.7195
 21
84.5086
 31
0.0
  0
LINE
  5
27F
330
1E
100
AcDbEntity
  8
0
100
AcDbLine
 10
247.7195
 20
84.5086
 30
0.0
 11
253.5855
 21
81.35850000000001
 31
0.0
  0
LINE
  5
280
330
1E
100
AcDbEntity
  8
0
100
AcDbLine
 10
253.5855
 20
81.35850000000001
 30
0.0
 11
261.1505
 21
78.069
 31
0.0
  0
LINE
  5
282
330
1E
100
AcDbEntity
  8
0
100
AcDbLine
 10
245.9105
 20
67.4084
 30
0.0
 11
253.6704999999999
 21
64.06919999999999
 31
0.0
  0
LINE
  5
283
330
1E
100
AcDbEntity
  8
0
100
AcDbLine
 10
253.6704999999999
 20
64.06919999999999
 30
0.0
 11
262.5604999999999
 21
60.82589999999999
 31
0.0
  0
LINE
  5
287
330
1E
100
AcDbEntity
  8
0
100
AcDbLine
 10
308.7505
 20
60.6618
 30
0.0
 11
312.2765
 21
58.07459999999999
 31
0.0
  0
LINE
  5
288
330
1E
100
AcDbEntity
  8
0
100
AcDbLine
 10
302.8614999999999
 20
63.66579999999999
 30
0.0
 11
308.7505
 21
60.6618
 31
0.0
  0
LINE
  5
289
330
1E
100
AcDbEntity
  8
0
100
AcDbLine
 10
293.0235
 20
67.31270000000001
 30
0.0
 11
302.8614999999999
 21
63.66579999999999
 31
0.0
  0
LINE
  5
28A
330
1E
100
AcDbEntity
  8
0
100
AcDbLine
 10
290.5345
 20
68.1969
 30
0.0
 11
293.0235
 21
67.31270000000001
 31
0.0
  0
LINE
  5
28B
330
1E
100
AcDbEntity
  8
0
100
AcDbLine
 10
268.307029646852
 20
75.4645471745637
 30
0.0
 11
279.7685
 21
71.741
 31
0.0
  0
LINE
  5
28D
330
1E
100
AcDbEntity
  8
0
100
AcDbLine
 10
279.7685
 20
71.741
 30
0.0
 11
290.5345
 21
68.1969
 31
0.0
  0
LINE
  5
28E
330
1E
100
AcDbEntity
  8
0
100
AcDbLine
 10
262.5604999999999
 20
60.82589999999999
 30
0.0
 11
264.9554999999999
 21
59.9838
 31
0.0
  0
LINE
  5
290
330
1E
100
AcDbEntity
  8
0
100
AcDbLine
 10
309.3125
 20
40.1225
 30
0.0
 11
312.1684999999999
 21
41.4596
 31
0.0
  0
LINE
  5
291
330
1E
100
AcDbEntity
  8
0
100
AcDbLine
 10
305.1425
 20
38.8057
 30
0.0
 11
309.3125
 21
40.1225
 31
0.0
  0
LINE
  5
292
330
1E
100
AcDbEntity
  8
0
100
AcDbLine
 10
312.2765
 20
58.07459999999999
 30
0.0
 11
314.5514999999999
 21
55.8905
 31
0.0
  0
LINE
  5
293
330
1E
100
AcDbEntity
  8
0
100
AcDbLine
 10
314.5514999999999
 20
55.8905
 30
0.0
 11
315.8244999999999
 21
53.165
 31
0.0
  0
LINE
  5
294
330
1E
100
AcDbEntity
  8
0
100
AcDbLine
 10
315.8244999999999
 20
53.165
 30
0.0
 11
316.7244999999999
 21
51.2497
 31
0.0
  0
LINE
  5
295
330
1E
100
AcDbEntity
  8
0
100
AcDbLine
 10
316.7244999999999
 20
51.2497
 30
0.0
 11
316.8134999999999
 21
48.105
 31
0.0
  0
LINE
  5
296
330
1E
100
AcDbEntity
  8
0
100
AcDbLine
 10
315.7185
 20
45.1557
 30
0.0
 11
316.8134999999999
 21
48.105
 31
0.0
  0
LINE
  5
297
330
1E
100
AcDbEntity
  8
0
100
AcDbLine
 10
314.2504999999999
 20
43.6314
 30
0.0
 11
315.7185
 21
45.1557
 31
0.0
  0
LINE
  5
298
330
1E
100
AcDbEntity
  8
0
100
AcDbLine
 10
312.1684999999999
 20
41.4596
 30
0.0
 11
314.2504999999999
 21
43.6314
 31
0.0
  0
LINE
  5
299
330
1E
100
AcDbEntity
  8
0
100
AcDbLine
 10
259.2085
 20
38.68079999999999
 30
0.0
 11
274.1375
 21
37.6297
 31
0.0
  0
LINE
  5
29A
330
1E
100
AcDbEntity
  8
0
100
AcDbLine
 10
242.1864999999999
 20
40.1915148321829
 30
0.0
 11
259.2085
 21
38.68079999999999
 31
0.0
  0
LINE
  5
29F
330
1E
100
AcDbEntity
  8
0
100
AcDbLine
 10
142.1864999999999
 20
95.0
 30
0.0
 11
141.1864999999999
 21
87.79999999999999
 31
0.0
  0
LINE
  5
2A0
330
1E
100
AcDbEntity
  8
0
100
AcDbLine
 10
133.9865
 20
75.2
 30
0.0
 11
126.7186583154205
 21
70.53023173446354
 31
0.0
  0
LINE
  5
2A1
330
1E
100
AcDbEntity
  8
0
100
AcDbLine
 10
126.7186583154205
 20
70.53023173446354
 30
0.0
 11
119.1864999999999
 21
67.6944444444445
 31
0.0
  0
LINE
  5
2A2
330
1E
100
AcDbEntity
  8
0
100
AcDbLine
 10
119.1864999999999
 20
67.6944444444445
 30
0.0
 11
109.1865
 21
67.6944444444445
 31
0.0
  0
LINE
  5
2A3
330
1E
100
AcDbEntity
  8
0
100
AcDbLine
 10
106.9865
 20
68.0
 30
0.0
 11
100.2865
 21
70.8
 31
0.0
  0
LINE
  5
2A4
330
1E
100
AcDbEntity
  8
0
100
AcDbLine
 10
171.1864999999999
 20
85.0
 30
0.0
 11
174.6897222335555
 21
85.47875977175369
 31
0.0
  0
LINE
  5
2A5
330
1E
100
AcDbEntity
  8
0
100
AcDbLine
 10
174.6897222335555
 20
85.47875977175369
 30
0.0
 11
177.7174450882249
 21
87.2402526830602
 31
0.0
  0
LINE
  5
2A6
330
1E
100
AcDbEntity
  8
0
100
AcDbLine
 10
177.7174450882249
 20
87.2402526830602
 30
0.0
 11
179.5250402042069
 21
89.85990913512194
 31
0.0
  0
LINE
  5
2A7
330
1E
100
AcDbEntity
  8
0
100
AcDbLine
 10
179.5250402042069
 20
89.85990913512194
 30
0.0
 11
180.9259273065783
 21
92.88606369121447
 31
0.0
  0
LINE
  5
2A8
330
1E
100
AcDbEntity
  8
0
100
AcDbLine
 10
180.9259273065783
 20
92.88606369121447
 30
0.0
 11
181.1865
 21
95.0
 31
0.0
  0
LINE
  5
2A9
330
1E
100
AcDbEntity
  8
0
100
AcDbLine
 10
268.307029646852
 20
75.4645471745637
 30
0.0
 11
261.1505
 21
78.069
 31
0.0
  0
ENDSEC
  0
SECTION
  2
OBJECTS
  0
DICTIONARY
  5
C
330
0
100
AcDbDictionary
281
     1
  3
ACAD_GROUP
350
D
  3
ACAD_LAYOUT
350
19
  3
ACAD_MLINESTYLE
350
16
  3
ACAD_PLOTSETTINGS
350
18
  3
ACAD_PLOTSTYLENAME
350
E
  3
AcDbVariableDictionary
350
2AA
  0
DICTIONARY
  5
D
102
{ACAD_REACTORS
330
C
102
}
330
C
100
AcDbDictionary
281
     1
  0
DICTIONARY
  5
19
102
{ACAD_REACTORS
330
C
102
}
330
C
100
AcDbDictionary
281
     1
  3
Layout1
350
1D
  3
Model
350
21
  0
DICTIONARY
  5
16
102
{ACAD_REACTORS
330
C
102
}
330
C
100
AcDbDictionary
281
     1
  3
Standard
350
17
  0
DICTIONARY
  5
18
102
{ACAD_REACTORS
330
C
102
}
330
C
100
AcDbDictionary
281
     1
  0
ACDBDICTIONARYWDFLT
  5
E
102
{ACAD_REACTORS
330
C
102
}
330
C
100
AcDbDictionary
281
     1
  3
Normal
350
F
100
AcDbDictionaryWithDefault
340
F
  0
DICTIONARY
  5
2AA
102
{ACAD_REACTORS
330
C
102
}
330
C
100
AcDbDictionary
281
     1
  3
DIMASSOC
350
2AB
  0
LAYOUT
  5
1D
102
{ACAD_REACTORS
330
19
102
}
330
19
100
AcDbPlotSettings
  1

  2
hp deskjet 980c series
  4

  6

 40
0.0
 41
0.0
 42
0.0
 43
0.0
 44
0.0
 45
0.0
 46
0.0
 47
0.0
 48
0.0
 49
0.0
140
0.0
141
0.0
142
1.0
143
1.0
 70
   688
 72
     0
 73
     0
 74
     5
  7

 75
    16
147
1.0
148
0.0
149
0.0
100
AcDbLayout
  1
Layout1
 70
     1
 71
     1
 10
0.0
 20
0.0
 11
12.0
 21
9.0
 12
0.0
 22
0.0
 32
0.0
 14
1.000000000000000E+20
 24
1.000000000000000E+20
 34
1.000000000000000E+20
 15
-1.000000000000000E+20
 25
-1.000000000000000E+20
 35
-1.000000000000000E+20
146
0.0
 13
0.0
 23
0.0
 33
0.0
 16
1.0
 26
0.0
 36
0.0
 17
0.0
 27
1.0
 37
0.0
 76
     0
330
1A
  0
LAYOUT
  5
21
102
{ACAD_REACTORS
330
19
102
}
330
19
100
AcDbPlotSettings
  1

  2
hp deskjet 980c series
  4

  6

 40
0.0
 41
0.0
 42
0.0
 43
0.0
 44
0.0
 45
0.0
 46
0.0
 47
0.0
 48
0.0
 49
0.0
140
0.0
141
0.0
142
1.0
143
1.0
 70
  1712
 72
     0
 73
     0
 74
     0
  7

 75
     0
147
1.0
148
0.0
149
0.0
100
AcDbLayout
  1
Model
 70
     1
 71
     0
 10
0.0
 20
0.0
 11
12.0
 21
9.0
 12
0.0
 22
0.0
 32
0.0
 14
0.0
 24
0.0
 34
0.0
 15
0.0
 25
0.0
 35
0.0
146
0.0
 13
0.0
 23
0.0
 33
0.0
 16
1.0
 26
0.0
 36
0.0
 17
0.0
 27
1.0
 37
0.0
 76
     0
330
1E
  0
MLINESTYLE
  5
17
102
{ACAD_REACTORS
330
16
102
}
330
16
100
AcDbMlineStyle
  2
STANDARD
 70
     0
  3

 62
   256
 51
90.0
 52
90.0
 71
     2
 49
0.5
 62
   256
  6
BYLAYER
 49
-0.5
 62
   256
  6
BYLAYER
  0
ACDBPLACEHOLDER
  5
F
102
{ACAD_REACTORS
330
E
102
}
330
E
  0
DICTIONARYVAR
  5
2AB
102
{ACAD_REACTORS
330
2AA
102
}
330
2AA
100
DictionaryVariables
280
     0
  1
1
  0
ENDSEC
  0
EOF
