  0
SECTION
  2
HEADER
  9
$ACADVER
  1
AC1015
  9
$ACADMAINTVER
 70
    13
  9
$DWGCODEPAGE
  3
ANSI_1252
  9
$INSBASE
 10
0.0
 20
0.0
 30
0.0
  9
$EXTMIN
 10
0.0000000000000087
 20
0.15710000000007
 30
0.0
  9
$EXTMAX
 10
129.0
 20
747.8429
 30
0.0
  9
$LIMMIN
 10
0.0
 20
0.0
  9
$LIMMAX
 10
12.0
 20
9.0
  9
$ORTHOMODE
 70
     0
  9
$REGENMODE
 70
     1
  9
$FILLMODE
 70
     1
  9
$QTEXTMODE
 70
     0
  9
$MIRRTEXT
 70
     1
  9
$LTSCALE
 40
1.0
  9
$ATTMODE
 70
     1
  9
$TEXTSIZE
 40
0.2
  9
$TRACEWID
 40
0.05
  9
$TEXTSTYLE
  7
Standard
  9
$CLAYER
  8
0
  9
$CELTYPE
  6
Continuous
  9
$CECOLOR
 62
   256
  9
$CELTSCALE
 40
1.0
  9
$DISPSILH
 70
     0
  9
$DIMSCALE
 40
1.0
  9
$DIMASZ
 40
0.18
  9
$DIMEXO
 40
0.0625
  9
$DIMDLI
 40
0.38
  9
$DIMRND
 40
0.0
  9
$DIMDLE
 40
0.0
  9
$DIMEXE
 40
0.18
  9
$DIMTP
 40
0.0
  9
$DIMTM
 40
0.0
  9
$DIMTXT
 40
0.18
  9
$DIMCEN
 40
0.09
  9
$DIMTSZ
 40
0.0
  9
$DIMTOL
 70
     0
  9
$DIMLIM
 70
     0
  9
$DIMTIH
 70
     1
  9
$DIMTOH
 70
     1
  9
$DIMSE1
 70
     0
  9
$DIMSE2
 70
     0
  9
$DIMTAD
 70
     0
  9
$DIMZIN
 70
     0
  9
$DIMBLK
  1

  9
$DIMASO
 70
     1
  9
$DIMSHO
 70
     1
  9
$DIMPOST
  1

  9
$DIMAPOST
  1

  9
$DIMALT
 70
     0
  9
$DIMALTD
 70
     2
  9
$DIMALTF
 40
25.4
  9
$DIMLFAC
 40
1.0
  9
$DIMTOFL
 70
     0
  9
$DIMTVP
 40
0.0
  9
$DIMTIX
 70
     0
  9
$DIMSOXD
 70
     0
  9
$DIMSAH
 70
     0
  9
$DIMBLK1
  1

  9
$DIMBLK2
  1

  9
$DIMSTYLE
  2
Standard
  9
$DIMCLRD
 70
     0
  9
$DIMCLRE
 70
     0
  9
$DIMCLRT
 70
     0
  9
$DIMTFAC
 40
1.0
  9
$DIMGAP
 40
0.09
  9
$DIMJUST
 70
     0
  9
$DIMSD1
 70
     0
  9
$DIMSD2
 70
     0
  9
$DIMTOLJ
 70
     1
  9
$DIMTZIN
 70
     0
  9
$DIMALTZ
 70
     0
  9
$DIMALTTZ
 70
     0
  9
$DIMUPT
 70
     0
  9
$DIMDEC
 70
     4
  9
$DIMTDEC
 70
     4
  9
$DIMALTU
 70
     2
  9
$DIMALTTD
 70
     2
  9
$DIMTXSTY
  7
Standard
  9
$DIMAUNIT
 70
     0
  9
$DIMADEC
 70
     0
  9
$DIMALTRND
 40
0.0
  9
$DIMAZIN
 70
     0
  9
$DIMDSEP
 70
    46
  9
$DIMATFIT
 70
     3
  9
$DIMFRAC
 70
     0
  9
$DIMLDRBLK
  1

  9
$DIMLUNIT
 70
     2
  9
$DIMLWD
 70
    -2
  9
$DIMLWE
 70
    -2
  9
$DIMTMOVE
 70
     0
  9
$LUNITS
 70
     2
  9
$LUPREC
 70
     4
  9
$SKETCHINC
 40
0.1
  9
$FILLETRAD
 40
0.0
  9
$AUNITS
 70
     0
  9
$AUPREC
 70
     0
  9
$MENU
  1
.
  9
$ELEVATION
 40
0.0
  9
$PELEVATION
 40
0.0
  9
$THICKNESS
 40
0.0
  9
$LIMCHECK
 70
     0
  9
$CHAMFERA
 40
0.0
  9
$CHAMFERB
 40
0.0
  9
$CHAMFERC
 40
0.0
  9
$CHAMFERD
 40
0.0
  9
$SKPOLY
 70
     0
  9
$TDCREATE
 40
2454874.790019710
  9
$TDUCREATE
 40
2454874.748353044
  9
$TDUPDATE
 40
2454874.791577327
  9
$TDUUPDATE
 40
2454874.749910659
  9
$TDINDWG
 40
0.0015576157
  9
$TDUSRTIMER
 40
0.0015576157
  9
$USRTIMER
 70
     1
  9
$ANGBASE
 50
0.0
  9
$ANGDIR
 70
     0
  9
$PDMODE
 70
     0
  9
$PDSIZE
 40
0.0
  9
$PLINEWID
 40
0.0
  9
$SPLFRAME
 70
     0
  9
$SPLINETYPE
 70
     6
  9
$SPLINESEGS
 70
     8
  9
$HANDSEED
  5
391
  9
$SURFTAB1
 70
     6
  9
$SURFTAB2
 70
     6
  9
$SURFTYPE
 70
     6
  9
$SURFU
 70
     6
  9
$SURFV
 70
     6
  9
$UCSBASE
  2

  9
$UCSNAME
  2

  9
$UCSORG
 10
0.0
 20
0.0
 30
0.0
  9
$UCSXDIR
 10
1.0
 20
0.0
 30
0.0
  9
$UCSYDIR
 10
0.0
 20
1.0
 30
0.0
  9
$UCSORTHOREF
  2

  9
$UCSORTHOVIEW
 70
     1
  9
$UCSORGTOP
 10
0.0
 20
0.0
 30
0.0
  9
$UCSORGBOTTOM
 10
0.0
 20
0.0
 30
0.0
  9
$UCSORGLEFT
 10
0.0
 20
0.0
 30
0.0
  9
$UCSORGRIGHT
 10
0.0
 20
0.0
 30
0.0
  9
$UCSORGFRONT
 10
0.0
 20
0.0
 30
0.0
  9
$UCSORGBACK
 10
0.0
 20
0.0
 30
0.0
  9
$PUCSBASE
  2

  9
$PUCSNAME
  2

  9
$PUCSORG
 10
0.0
 20
0.0
 30
0.0
  9
$PUCSXDIR
 10
1.0
 20
0.0
 30
0.0
  9
$PUCSYDIR
 10
0.0
 20
1.0
 30
0.0
  9
$PUCSORTHOREF
  2

  9
$PUCSORTHOVIEW
 70
     0
  9
$PUCSORGTOP
 10
0.0
 20
0.0
 30
0.0
  9
$PUCSORGBOTTOM
 10
0.0
 20
0.0
 30
0.0
  9
$PUCSORGLEFT
 10
0.0
 20
0.0
 30
0.0
  9
$PUCSORGRIGHT
 10
0.0
 20
0.0
 30
0.0
  9
$PUCSORGFRONT
 10
0.0
 20
0.0
 30
0.0
  9
$PUCSORGBACK
 10
0.0
 20
0.0
 30
0.0
  9
$USERI1
 70
     0
  9
$USERI2
 70
     0
  9
$USERI3
 70
     0
  9
$USERI4
 70
     0
  9
$USERI5
 70
     0
  9
$USERR1
 40
0.0
  9
$USERR2
 40
0.0
  9
$USERR3
 40
0.0
  9
$USERR4
 40
0.0
  9
$USERR5
 40
0.0
  9
$WORLDVIEW
 70
     1
  9
$SHADEDGE
 70
     3
  9
$SHADEDIF
 70
    70
  9
$TILEMODE
 70
     1
  9
$MAXACTVP
 70
    64
  9
$PINSBASE
 10
0.0
 20
0.0
 30
0.0
  9
$PLIMCHECK
 70
     0
  9
$PEXTMIN
 10
1.000000000000000E+20
 20
1.000000000000000E+20
 30
1.000000000000000E+20
  9
$PEXTMAX
 10
-1.000000000000000E+20
 20
-1.000000000000000E+20
 30
-1.000000000000000E+20
  9
$PLIMMIN
 10
0.0
 20
0.0
  9
$PLIMMAX
 10
12.0
 20
9.0
  9
$UNITMODE
 70
     0
  9
$VISRETAIN
 70
     1
  9
$PLINEGEN
 70
     0
  9
$PSLTSCALE
 70
     1
  9
$TREEDEPTH
 70
  3020
  9
$CMLSTYLE
  2
Standard
  9
$CMLJUST
 70
     0
  9
$CMLSCALE
 40
1.0
  9
$PROXYGRAPHICS
 70
     1
  9
$MEASUREMENT
 70
     0
  9
$CELWEIGHT
370
    -1
  9
$ENDCAPS
280
     0
  9
$JOINSTYLE
280
     0
  9
$LWDISPLAY
290
     0
  9
$INSUNITS
 70
     0
  9
$HYPERLINKBASE
  1

  9
$STYLESHEET
  1

  9
$XEDIT
290
     1
  9
$CEPSNTYPE
380
     0
  9
$PSTYLEMODE
290
     1
  9
$FINGERPRINTGUID
  2
{2B0802E6-2EAB-4E56-992E-B12091968198}
  9
$VERSIONGUID
  2
{60EA3A0A-427D-4BCD-A586-0B1D4705578D}
  9
$EXTNAMES
290
     1
  9
$PSVPSCALE
 40
0.0
  9
$OLESTARTUP
290
     0
  0
ENDSEC
  0
SECTION
  2
CLASSES
  0
CLASS
  1
ACDBDICTIONARYWDFLT
  2
AcDbDictionaryWithDefault
  3
AutoCAD 2000
 90
        0
280
     0
281
     0
  0
CLASS
  1
ACDBPLACEHOLDER
  2
AcDbPlaceHolder
  3
AutoCAD 2000
 90
        0
280
     0
281
     0
  0
CLASS
  1
LAYOUT
  2
AcDbLayout
  3
AutoCAD 2000
 90
        0
280
     0
281
     0
  0
CLASS
  1
DICTIONARYVAR
  2
AcDbDictionaryVar
  3
AutoCAD 2000
 90
        0
280
     0
281
     0
  0
ENDSEC
  0
SECTION
  2
TABLES
  0
TABLE
  2
VPORT
  5
8
330
0
100
AcDbSymbolTable
 70
     2
  0
VPORT
  5
390
330
8
100
AcDbSymbolTableRecord
100
AcDbViewportTableRecord
  2
*Active
 70
     0
 10
0.0
 20
0.0
 11
1.0
 21
1.0
 12
64.50000000000001
 22
374.0
 13
0.0
 23
0.0
 14
1.0
 24
1.0
 15
0.0
 25
0.0
 16
0.0
 26
0.0
 36
1.0
 17
0.0
 27
0.0
 37
0.0
 40
752.4080261052631
 41
1.968387776606954
 42
50.0
 43
0.0
 44
0.0
 50
0.0
 51
0.0
 71
     0
 72
   100
 73
     1
 74
     3
 75
     0
 76
     0
 77
     0
 78
     0
281
     0
 65
     1
110
0.0
120
0.0
130
0.0
111
1.0
121
0.0
131
0.0
112
0.0
122
1.0
132
0.0
 79
     1
146
0.0
  0
ENDTAB
  0
TABLE
  2
LTYPE
  5
5
330
0
100
AcDbSymbolTable
 70
     1
  0
LTYPE
  5
13
330
5
100
AcDbSymbolTableRecord
100
AcDbLinetypeTableRecord
  2
ByBlock
 70
     0
  3

 72
    65
 73
     0
 40
0.0
  0
LTYPE
  5
14
330
5
100
AcDbSymbolTableRecord
100
AcDbLinetypeTableRecord
  2
ByLayer
 70
     0
  3

 72
    65
 73
     0
 40
0.0
  0
LTYPE
  5
15
330
5
100
AcDbSymbolTableRecord
100
AcDbLinetypeTableRecord
  2
Continuous
 70
     0
  3
Solid line
 72
    65
 73
     0
 40
0.0
  0
ENDTAB
  0
TABLE
  2
LAYER
  5
2
330
0
100
AcDbSymbolTable
 70
     1
  0
LAYER
  5
10
330
2
100
AcDbSymbolTableRecord
100
AcDbLayerTableRecord
  2
0
 70
     0
 62
     7
  6
Continuous
370
    -3
390
F
  0
ENDTAB
  0
TABLE
  2
STYLE
  5
3
330
0
100
AcDbSymbolTable
 70
     1
  0
STYLE
  5
11
330
3
100
AcDbSymbolTableRecord
100
AcDbTextStyleTableRecord
  2
Standard
 70
     0
 40
0.0
 41
1.0
 50
0.0
 71
     0
 42
0.2
  3
txt
  4

  0
ENDTAB
  0
TABLE
  2
VIEW
  5
6
330
0
100
AcDbSymbolTable
 70
     0
  0
ENDTAB
  0
TABLE
  2
UCS
  5
7
330
0
100
AcDbSymbolTable
 70
     0
  0
ENDTAB
  0
TABLE
  2
APPID
  5
9
330
0
100
AcDbSymbolTable
 70
     1
  0
APPID
  5
12
330
9
100
AcDbSymbolTableRecord
100
AcDbRegAppTableRecord
  2
ACAD
 70
     0
  0
ENDTAB
  0
TABLE
  2
DIMSTYLE
  5
A
330
0
100
AcDbSymbolTable
 70
     1
100
AcDbDimStyleTable
 71
     0
  0
DIMSTYLE
105
38A
330
A
100
AcDbSymbolTableRecord
100
AcDbDimStyleTableRecord
  2
Standard
 70
     0
340
11
  0
ENDTAB
  0
TABLE
  2
BLOCK_RECORD
  5
1
330
0
100
AcDbSymbolTable
 70
     0
  0
BLOCK_RECORD
  5
1E
330
1
100
AcDbSymbolTableRecord
100
AcDbBlockTableRecord
  2
*Model_Space
340
21
  0
BLOCK_RECORD
  5
1A
330
1
100
AcDbSymbolTableRecord
100
AcDbBlockTableRecord
  2
*Paper_Space
340
1D
  0
ENDTAB
  0
ENDSEC
  0
SECTION
  2
BLOCKS
  0
BLOCK
  5
1F
330
1E
100
AcDbEntity
  8
0
100
AcDbBlockBegin
  2
*Model_Space
 70
     0
 10
0.0
 20
0.0
 30
0.0
  3
*Model_Space
  1

  0
ENDBLK
  5
20
330
1E
100
AcDbEntity
  8
0
100
AcDbBlockEnd
  0
BLOCK
  5
1B
330
1A
100
AcDbEntity
 67
     1
  8
0
100
AcDbBlockBegin
  2
*Paper_Space
 70
     0
 10
0.0
 20
0.0
 30
0.0
  3
*Paper_Space
  1

  0
ENDBLK
  5
1C
330
1A
100
AcDbEntity
 67
     1
  8
0
100
AcDbBlockEnd
  0
ENDSEC
  0
SECTION
  2
ENTITIES
  0
LINE
  5
22
330
1E
100
AcDbEntity
  8
0
100
AcDbLine
 10
0.0000000000000087
 20
533.8428999999999
 30
0.0
 11
1.000000000000009
 21
533.8428999999999
 31
0.0
  0
LINE
  5
23
330
1E
100
AcDbEntity
  8
0
100
AcDbLine
 10
0.0000000000000087
 20
533.8428999999999
 30
0.0
 11
1.000000000000009
 21
532.8428999999999
 31
0.0
  0
LINE
  5
24
330
1E
100
AcDbEntity
  8
0
100
AcDbLine
 10
0.0000000000000088
 20
533.8428999999999
 30
0.0
 11
1.000000000000009
 21
532.8428999999999
 31
0.0
  0
LINE
  5
25
330
1E
100
AcDbEntity
  8
0
100
AcDbLine
 10
0.0000000000000088
 20
533.8428999999999
 30
0.0
 11
0.0000000000000116
 21
579.8359
 31
0.0
  0
LINE
  5
26
330
1E
100
AcDbEntity
  8
0
100
AcDbLine
 10
0.0000000000000088
 20
533.8428999999999
 30
0.0
 11
0.0000000000000116
 21
579.8428999999999
 31
0.0
  0
LINE
  5
27
330
1E
100
AcDbEntity
  8
0
100
AcDbLine
 10
0.0000000000000088
 20
533.8428999999999
 30
0.0
 11
1.000000000000009
 21
533.8428999999999
 31
0.0
  0
LINE
  5
28
330
1E
100
AcDbEntity
  8
0
100
AcDbLine
 10
0.0000000000000116
 20
579.8428999999999
 30
0.0
 11
1.000000000000009
 21
579.8428999999999
 31
0.0
  0
LINE
  5
29
330
1E
100
AcDbEntity
  8
0
100
AcDbLine
 10
0.0000000000000116
 20
579.8428999999999
 30
0.0
 11
1.000000000000009
 21
580.8429
 31
0.0
  0
LINE
  5
2A
330
1E
100
AcDbEntity
  8
0
100
AcDbLine
 10
0.0000000000000116
 20
579.8428999999999
 30
0.0
 11
1.000000000000009
 21
580.8429
 31
0.0
  0
LINE
  5
2B
330
1E
100
AcDbEntity
  8
0
100
AcDbLine
 10
0.0000000000000116
 20
579.8428999999999
 30
0.0
 11
1.000000000000009
 21
579.8428999999999
 31
0.0
  0
LINE
  5
2C
330
1E
100
AcDbEntity
  8
0
100
AcDbLine
 10
0.0000000000000131
 20
604.8428999999999
 30
0.0
 11
0.0000000000000131
 21
605.0229
 31
0.0
  0
LINE
  5
2D
330
1E
100
AcDbEntity
  8
0
100
AcDbLine
 10
0.0000000000000131
 20
604.8428999999999
 30
0.0
 11
67.0
 21
604.8428999999999
 31
0.0
  0
LINE
  5
2E
330
1E
100
AcDbEntity
  8
0
100
AcDbLine
 10
0.0000000000000131
 20
605.0229
 30
0.0
 11
0.0000000000000132
 21
605.5028999999999
 31
0.0
  0
LINE
  5
2F
330
1E
100
AcDbEntity
  8
0
100
AcDbLine
 10
0.0000000000000132
 20
605.5028999999999
 30
0.0
 11
0.0000000000000132
 21
606.3029
 31
0.0
  0
LINE
  5
30
330
1E
100
AcDbEntity
  8
0
100
AcDbLine
 10
0.0000000000000132
 20
606.3029
 30
0.0
 11
0.0000000000000133
 21
607.3628999999999
 31
0.0
  0
LINE
  5
31
330
1E
100
AcDbEntity
  8
0
100
AcDbLine
 10
0.0000000000000133
 20
607.3628999999999
 30
0.0
 11
0.0000000000000133
 21
608.5628999999999
 31
0.0
  0
LINE
  5
32
330
1E
100
AcDbEntity
  8
0
100
AcDbLine
 10
0.0000000000000133
 20
608.5628999999999
 30
0.0
 11
0.0000000000000134
 21
609.8429
 31
0.0
  0
LINE
  5
33
330
1E
100
AcDbEntity
  8
0
100
AcDbLine
 10
15.0
 20
528.8428999999999
 30
0.0
 11
15.0633
 21
528.8428999999999
 31
0.0
  0
LINE
  5
34
330
1E
100
AcDbEntity
  8
0
100
AcDbLine
 10
15.0
 20
528.8428999999999
 30
0.0
 11
15.0
 21
532.8428999999999
 31
0.0
  0
LINE
  5
35
330
1E
100
AcDbEntity
  8
0
100
AcDbLine
 10
15.0633
 20
528.8428999999999
 30
0.0
 11
15.57649999999999
 21
528.8428999999999
 31
0.0
  0
LINE
  5
36
330
1E
100
AcDbEntity
  8
0
100
AcDbLine
 10
15.57649999999999
 20
528.8428999999999
 30
0.0
 11
16.5
 21
528.8428999999999
 31
0.0
  0
LINE
  5
37
330
1E
100
AcDbEntity
  8
0
100
AcDbLine
 10
16.5
 20
528.8428999999999
 30
0.0
 11
17.6
 21
528.8428999999999
 31
0.0
  0
LINE
  5
38
330
1E
100
AcDbEntity
  8
0
100
AcDbLine
 10
24.93669999999999
 20
528.8428999999999
 30
0.0
 11
25.0
 21
528.8428999999999
 31
0.0
  0
LINE
  5
39
330
1E
100
AcDbEntity
  8
0
100
AcDbLine
 10
24.4235
 20
528.8428999999999
 30
0.0
 11
24.93669999999999
 21
528.8428999999999
 31
0.0
  0
LINE
  5
3A
330
1E
100
AcDbEntity
  8
0
100
AcDbLine
 10
23.5
 20
528.8428999999999
 30
0.0
 11
24.4235
 21
528.8428999999999
 31
0.0
  0
LINE
  5
3B
330
1E
100
AcDbEntity
  8
0
100
AcDbLine
 10
22.39999999999999
 20
528.8428999999999
 30
0.0
 11
23.5
 21
528.8428999999999
 31
0.0
  0
LINE
  5
3C
330
1E
100
AcDbEntity
  8
0
100
AcDbLine
 10
21.2
 20
528.8428999999999
 30
0.0
 11
22.39999999999999
 21
528.8428999999999
 31
0.0
  0
LINE
  5
3D
330
1E
100
AcDbEntity
  8
0
100
AcDbLine
 10
20.0
 20
528.8428999999999
 30
0.0
 11
21.2
 21
528.8428999999999
 31
0.0
  0
LINE
  5
3E
330
1E
100
AcDbEntity
  8
0
100
AcDbLine
 10
17.6
 20
528.8428999999999
 30
0.0
 11
18.8
 21
528.8428999999999
 31
0.0
  0
LINE
  5
3F
330
1E
100
AcDbEntity
  8
0
100
AcDbLine
 10
15.0
 20
532.8428999999999
 30
0.0
 11
15.0
 21
528.8428999999999
 31
0.0
  0
LINE
  5
40
330
1E
100
AcDbEntity
  8
0
100
AcDbLine
 10
18.8
 20
528.8428999999999
 30
0.0
 11
20.0
 21
528.8428999999999
 31
0.0
  0
LINE
  5
41
330
1E
100
AcDbEntity
  8
0
100
AcDbLine
 10
1.000000000000009
 20
532.8428999999999
 30
0.0
 11
1.000000000000009
 21
533.8428999999999
 31
0.0
  0
LINE
  5
42
330
1E
100
AcDbEntity
  8
0
100
AcDbLine
 10
1.000000000000009
 20
532.8428999999999
 30
0.0
 11
81.0
 21
532.8428999999999
 31
0.0
  0
LINE
  5
43
330
1E
100
AcDbEntity
  8
0
100
AcDbLine
 10
1.000000000000009
 20
532.8428999999999
 30
0.0
 11
15.0
 21
532.8428999999999
 31
0.0
  0
LINE
  5
44
330
1E
100
AcDbEntity
  8
0
100
AcDbLine
 10
1.0
 20
533.8428999999999
 30
0.0
 11
81.0
 21
533.8428999999999
 31
0.0
  0
LINE
  5
45
330
1E
100
AcDbEntity
  8
0
100
AcDbLine
 10
1.000000000000019
 20
579.8428999999999
 30
0.0
 11
81.0
 21
579.8428999999999
 31
0.0
  0
LINE
  5
46
330
1E
100
AcDbEntity
  8
0
100
AcDbLine
 10
1.000000000000009
 20
533.8428999999999
 30
0.0
 11
1.000000000000009
 21
579.8428999999999
 31
0.0
  0
LINE
  5
47
330
1E
100
AcDbEntity
  8
0
100
AcDbLine
 10
1.000000000000009
 20
533.8428999999999
 30
0.0
 11
1.000000000000009
 21
532.8428999999999
 31
0.0
  0
LINE
  5
48
330
1E
100
AcDbEntity
  8
0
100
AcDbLine
 10
1.000000000000009
 20
533.8428999999999
 30
0.0
 11
81.0
 21
533.8428999999999
 31
0.0
  0
LINE
  5
49
330
1E
100
AcDbEntity
  8
0
100
AcDbLine
 10
1.0
 20
532.8428999999999
 30
0.0
 11
15.0
 21
532.8428999999999
 31
0.0
  0
LINE
  5
4A
330
1E
100
AcDbEntity
  8
0
100
AcDbLine
 10
1.0
 20
532.8428999999999
 30
0.0
 11
81.0
 21
532.8428999999999
 31
0.0
  0
LINE
  5
4B
330
1E
100
AcDbEntity
  8
0
100
AcDbLine
 10
25.0
 20
532.8428999999999
 30
0.0
 11
25.0
 21
528.8428999999999
 31
0.0
  0
LINE
  5
4C
330
1E
100
AcDbEntity
  8
0
100
AcDbLine
 10
25.0
 20
528.8428999999999
 30
0.0
 11
25.0
 21
532.8428999999999
 31
0.0
  0
LINE
  5
4D
330
1E
100
AcDbEntity
  8
0
100
AcDbLine
 10
25.0
 20
532.8428999999999
 30
0.0
 11
82.0222
 21
532.8428999999999
 31
0.0
  0
LINE
  5
4E
330
1E
100
AcDbEntity
  8
0
100
AcDbLine
 10
25.0
 20
532.8428999999999
 30
0.0
 11
82.0222
 21
532.8428999999999
 31
0.0
  0
LINE
  5
4F
330
1E
100
AcDbEntity
  8
0
100
AcDbLine
 10
1.000000000000019
 20
580.8429
 30
0.0
 11
81.0
 21
580.8429
 31
0.0
  0
LINE
  5
50
330
1E
100
AcDbEntity
  8
0
100
AcDbLine
 10
1.000000000000009
 20
580.8429
 30
0.0
 11
1.000000000000009
 21
579.8428999999999
 31
0.0
  0
LINE
  5
51
330
1E
100
AcDbEntity
  8
0
100
AcDbLine
 10
1.000000000000009
 20
580.8429
 30
0.0
 11
81.0
 21
580.8429
 31
0.0
  0
LINE
  5
52
330
1E
100
AcDbEntity
  8
0
100
AcDbLine
 10
1.000000000000009
 20
579.8428999999999
 30
0.0
 11
81.0
 21
579.8428999999999
 31
0.0
  0
LINE
  5
53
330
1E
100
AcDbEntity
  8
0
100
AcDbLine
 10
1.000000000000009
 20
579.8428999999999
 30
0.0
 11
1.000000000000009
 21
580.8429
 31
0.0
  0
LINE
  5
54
330
1E
100
AcDbEntity
  8
0
100
AcDbLine
 10
0.0000000000000143
 20
604.8428999999999
 30
0.0
 11
67.0
 21
604.8428999999999
 31
0.0
  0
LINE
  5
55
330
1E
100
AcDbEntity
  8
0
100
AcDbLine
 10
0.0000000000000136
 20
612.3229
 30
0.0
 11
0.0000000000000136
 21
613.3828999999999
 31
0.0
  0
LINE
  5
56
330
1E
100
AcDbEntity
  8
0
100
AcDbLine
 10
0.0000000000000137
 20
614.8429
 30
0.0
 11
67.0
 21
614.8429
 31
0.0
  0
LINE
  5
57
330
1E
100
AcDbEntity
  8
0
100
AcDbLine
 10
0.0000000000000143
 20
614.8429
 30
0.0
 11
67.0
 21
614.8429
 31
0.0
  0
LINE
  5
58
330
1E
100
AcDbEntity
  8
0
100
AcDbLine
 10
0.0000000000000137
 20
614.6629
 30
0.0
 11
0.0000000000000137
 21
614.8429
 31
0.0
  0
LINE
  5
59
330
1E
100
AcDbEntity
  8
0
100
AcDbLine
 10
0.0000000000000137
 20
614.1829
 30
0.0
 11
0.0000000000000137
 21
614.6629
 31
0.0
  0
LINE
  5
5A
330
1E
100
AcDbEntity
  8
0
100
AcDbLine
 10
0.0000000000000136
 20
613.3828999999999
 30
0.0
 11
0.0000000000000137
 21
614.1829
 31
0.0
  0
LINE
  5
5B
330
1E
100
AcDbEntity
  8
0
100
AcDbLine
 10
0.0000000000000135
 20
611.1228999999999
 30
0.0
 11
0.0000000000000136
 21
612.3229
 31
0.0
  0
LINE
  5
5C
330
1E
100
AcDbEntity
  8
0
100
AcDbLine
 10
0.0000000000000134
 20
609.8429
 30
0.0
 11
0.0000000000000135
 21
611.1228999999999
 31
0.0
  0
LINE
  5
5D
330
1E
100
AcDbEntity
  8
0
100
AcDbLine
 10
37.5253
 20
78.65690000000009
 30
0.0
 11
37.6297
 21
58.73290000000011
 31
0.0
  0
LINE
  5
5E
330
1E
100
AcDbEntity
  8
0
100
AcDbLine
 10
37.5253
 20
78.65690000000009
 30
0.0
 11
37.81499999999999
 21
101.0718999999999
 31
0.0
  0
LINE
  5
5F
330
1E
100
AcDbEntity
  8
0
100
AcDbLine
 10
38.7476
 20
123.3859
 30
0.0
 11
40.0549
 21
145.7009
 31
0.0
  0
LINE
  5
60
330
1E
100
AcDbEntity
  8
0
100
AcDbLine
 10
37.81499999999999
 20
101.0718999999999
 30
0.0
 11
38.7476
 21
123.3859
 31
0.0
  0
LINE
  5
61
330
1E
100
AcDbEntity
  8
0
100
AcDbLine
 10
37.6297
 20
58.73290000000011
 30
0.0
 11
37.6566
 21
56.6889000000001
 31
0.0
  0
LINE
  5
62
330
1E
100
AcDbEntity
  8
0
100
AcDbLine
 10
37.6566
 20
56.6889000000001
 30
0.0
 11
38.7633
 21
40.4509
 31
0.0
  0
LINE
  5
63
330
1E
100
AcDbEntity
  8
0
100
AcDbLine
 10
41.5449
 20
165.2268999999999
 30
0.0
 11
43.4258
 21
184.7519
 31
0.0
  0
LINE
  5
64
330
1E
100
AcDbEntity
  8
0
100
AcDbLine
 10
40.0549
 20
145.7009
 30
0.0
 11
41.5449
 21
165.2268999999999
 31
0.0
  0
LINE
  5
65
330
1E
100
AcDbEntity
  8
0
100
AcDbLine
 10
38.7633
 20
40.4509
 30
0.0
 11
40.4622
 21
23.71490000000009
 31
0.0
  0
LINE
  5
66
330
1E
100
AcDbEntity
  8
0
100
AcDbLine
 10
40.4622
 20
23.71490000000009
 30
0.0
 11
42.7717
 21
14.0514000000001
 31
0.0
  0
LINE
  5
67
330
1E
100
AcDbEntity
  8
0
100
AcDbLine
 10
43.4258
 20
184.7519
 30
0.0
 11
45.971
 21
207.0669
 31
0.0
  0
LINE
  5
68
330
1E
100
AcDbEntity
  8
0
100
AcDbLine
 10
45.971
 20
207.0669
 30
0.0
 11
48.89079999999999
 21
229.3808999999999
 31
0.0
  0
LINE
  5
69
330
1E
100
AcDbEntity
  8
0
100
AcDbLine
 10
42.7717
 20
14.0514000000001
 30
0.0
 11
45.77119999999999
 21
7.47660000000005
 31
0.0
  0
LINE
  5
6A
330
1E
100
AcDbEntity
  8
0
100
AcDbLine
 10
45.77119999999999
 20
7.47660000000005
 30
0.0
 11
47.23539999999999
 21
4.729600000000039
 31
0.0
  0
LINE
  5
6B
330
1E
100
AcDbEntity
  8
0
100
AcDbLine
 10
48.89079999999999
 20
229.3808999999999
 30
0.0
 11
52.4707
 21
251.7958999999999
 31
0.0
  0
LINE
  5
6C
330
1E
100
AcDbEntity
  8
0
100
AcDbLine
 10
47.23539999999999
 20
4.729600000000039
 30
0.0
 11
49.4976
 21
2.81810000000006
 31
0.0
  0
LINE
  5
6D
330
1E
100
AcDbEntity
  8
0
100
AcDbLine
 10
49.4976
 20
2.81810000000006
 30
0.0
 11
52.0955
 21
1.02500000000004
 31
0.0
  0
LINE
  5
6E
330
1E
100
AcDbEntity
  8
0
100
AcDbLine
 10
53.2515
 20
77.2629000000001
 30
0.0
 11
53.356
 21
57.3389000000001
 31
0.0
  0
LINE
  5
6F
330
1E
100
AcDbEntity
  8
0
100
AcDbLine
 10
53.2515
 20
77.2629000000001
 30
0.0
 11
53.5413
 21
99.67690000000009
 31
0.0
  0
LINE
  5
70
330
1E
100
AcDbEntity
  8
0
100
AcDbLine
 10
54.4739
 20
121.9918999999999
 30
0.0
 11
55.7812
 21
144.3069
 31
0.0
  0
LINE
  5
71
330
1E
100
AcDbEntity
  8
0
100
AcDbLine
 10
53.5413
 20
99.67690000000009
 30
0.0
 11
54.4739
 21
121.9918999999999
 31
0.0
  0
LINE
  5
72
330
1E
100
AcDbEntity
  8
0
100
AcDbLine
 10
53.3492845566996
 20
58.6192683475277
 30
0.0
 11
54.3494
 21
43.8429000000001
 31
0.0
  0
LINE
  5
73
330
1E
100
AcDbEntity
  8
0
100
AcDbLine
 10
54.3494
 20
43.8429000000001
 30
0.0
 11
55.9697
 21
27.7049000000001
 31
0.0
  0
LINE
  5
74
330
1E
100
AcDbEntity
  8
0
100
AcDbLine
 10
55.7812
 20
144.3069
 30
0.0
 11
57.2712
 21
163.8318999999999
 31
0.0
  0
LINE
  5
75
330
1E
100
AcDbEntity
  8
0
100
AcDbLine
 10
55.9697
 20
27.7049000000001
 30
0.0
 11
58.1507
 21
18.4398000000001
 31
0.0
  0
LINE
  5
76
330
1E
100
AcDbEntity
  8
0
100
AcDbLine
 10
55.0909
 20
0.15710000000007
 30
0.0
 11
58.1894
 21
0.484600000000053
 31
0.0
  0
LINE
  5
78
330
1E
100
AcDbEntity
  8
0
100
AcDbLine
 10
52.4707
 20
251.7958999999999
 30
0.0
 11
56.0148
 21
271.7198999999999
 31
0.0
  0
LINE
  5
79
330
1E
100
AcDbEntity
  8
0
100
AcDbLine
 10
56.9148050837545
 20
23.69000173705019
 30
0.0
 11
59.0792
 21
28.9939000000001
 31
0.0
  0
LINE
  5
7A
330
1E
100
AcDbEntity
  8
0
100
AcDbLine
 10
57.2712
 20
163.8318999999999
 30
0.0
 11
59.1521
 21
183.3568999999999
 31
0.0
  0
LINE
  5
81
330
1E
100
AcDbEntity
  8
0
100
AcDbLine
 10
58.1507
 20
18.4398000000001
 30
0.0
 11
60.99689999999999
 21
12.1638000000001
 31
0.0
  0
LINE
  5
82
330
1E
100
AcDbEntity
  8
0
100
AcDbLine
 10
60.8014
 20
2.05990000000007
 30
0.0
 11
63.6514
 21
3.75340000000006
 31
0.0
  0
LINE
  5
83
330
1E
100
AcDbEntity
  8
0
100
AcDbLine
 10
59.0792
 20
28.9939000000001
 30
0.0
 11
63.48559999999999
 21
45.13290000000011
 31
0.0
  0
LINE
  5
84
330
1E
100
AcDbEntity
  8
0
100
AcDbLine
 10
58.1894
 20
0.484600000000053
 30
0.0
 11
60.8014
 21
2.05990000000007
 31
0.0
  0
LINE
  5
85
330
1E
100
AcDbEntity
  8
0
100
AcDbLine
 10
59.1521
 20
183.3568999999999
 30
0.0
 11
61.6972
 21
205.6719
 31
0.0
  0
LINE
  5
86
330
1E
100
AcDbEntity
  8
0
100
AcDbLine
 10
65.5628
 20
6.18660000000005
 30
0.0
 11
69.6974
 21
12.7615000000001
 31
0.0
  0
LINE
  5
87
330
1E
100
AcDbEntity
  8
0
100
AcDbLine
 10
63.6514
 20
3.75340000000006
 30
0.0
 11
65.5628
 21
6.18660000000005
 31
0.0
  0
LINE
  5
88
330
1E
100
AcDbEntity
  8
0
100
AcDbLine
 10
63.48559999999999
 20
45.13290000000011
 30
0.0
 11
67.1965
 21
60.5739
 31
0.0
  0
LINE
  5
89
330
1E
100
AcDbEntity
  8
0
100
AcDbLine
 10
61.6972
 20
205.6719
 30
0.0
 11
64.617
 21
227.9869
 31
0.0
  0
LINE
  5
8A
330
1E
100
AcDbEntity
  8
0
100
AcDbLine
 10
64.617
 20
227.9869
 30
0.0
 11
68.1969
 21
250.4008999999999
 31
0.0
  0
LINE
  5
8B
330
1E
100
AcDbEntity
  8
0
100
AcDbLine
 10
67.0001438817406
 20
59.756865096865
 30
0.0
 11
70.3621
 21
78.65690000000009
 31
0.0
  0
LINE
  5
8C
330
1E
100
AcDbEntity
  8
0
100
AcDbLine
 10
69.6974
 20
12.7615000000001
 30
0.0
 11
73.6752
 21
22.4246000000001
 31
0.0
  0
LINE
  5
8D
330
1E
100
AcDbEntity
  8
0
100
AcDbLine
 10
70.3621
 20
78.65690000000009
 30
0.0
 11
73.94199999999999
 21
101.0718999999999
 31
0.0
  0
LINE
  5
8F
330
1E
100
AcDbEntity
  8
0
100
AcDbLine
 10
89.66829999999999
 20
99.67690000000009
 30
0.0
 11
92.5881
 21
121.9918999999999
 31
0.0
  0
LINE
  5
90
330
1E
100
AcDbEntity
  8
0
100
AcDbLine
 10
86.08839999999998
 20
77.2629000000001
 30
0.0
 11
89.66829999999999
 21
99.67690000000009
 31
0.0
  0
LINE
  5
91
330
1E
100
AcDbEntity
  8
0
100
AcDbLine
 10
82.54430000000001
 20
57.3389000000001
 30
0.0
 11
86.08839999999998
 21
77.2629000000001
 31
0.0
  0
LINE
  5
92
330
1E
100
AcDbEntity
  8
0
100
AcDbLine
 10
82.17350000000001
 20
55.3989000000001
 30
0.0
 11
82.54430000000001
 21
57.3389000000001
 31
0.0
  0
LINE
  5
93
330
1E
100
AcDbEntity
  8
0
100
AcDbLine
 10
78.2634
 20
39.16090000000009
 30
0.0
 11
82.17350000000001
 21
55.3989000000001
 31
0.0
  0
LINE
  5
94
330
1E
100
AcDbEntity
  8
0
100
AcDbLine
 10
73.6752
 20
22.4246000000001
 30
0.0
 11
78.2634
 21
39.16090000000009
 31
0.0
  0
LINE
  5
95
330
1E
100
AcDbEntity
  8
0
100
AcDbLine
 10
95.1332
 20
144.3069
 30
0.0
 11
97.0141
 21
163.8318999999999
 31
0.0
  0
LINE
  5
96
330
1E
100
AcDbEntity
  8
0
100
AcDbLine
 10
92.5881
 20
121.9918999999999
 30
0.0
 11
95.1332
 21
144.3069
 31
0.0
  0
LINE
  5
97
330
1E
100
AcDbEntity
  8
0
100
AcDbLine
 10
81.2879
 20
165.2268999999999
 30
0.0
 11
82.77790000000001
 21
184.7519
 31
0.0
  0
LINE
  5
98
330
1E
100
AcDbEntity
  8
0
100
AcDbLine
 10
82.77790000000001
 20
184.7519
 30
0.0
 11
84.08509999999999
 21
207.0669
 31
0.0
  0
LINE
  5
99
330
1E
100
AcDbEntity
  8
0
100
AcDbLine
 10
84.08509999999999
 20
207.0669
 30
0.0
 11
85.0178
 21
229.3808999999999
 31
0.0
  0
LINE
  5
9A
330
1E
100
AcDbEntity
  8
0
100
AcDbLine
 10
85.0178
 20
229.3808999999999
 30
0.0
 11
85.29261946394349
 21
250.6445461314939
 31
0.0
  0
LINE
  5
9B
330
1E
100
AcDbEntity
  8
0
100
AcDbLine
 10
97.0141
 20
163.8318999999999
 30
0.0
 11
98.5041
 21
183.3568999999999
 31
0.0
  0
LINE
  5
9C
330
1E
100
AcDbEntity
  8
0
100
AcDbLine
 10
98.5041
 20
183.3568999999999
 30
0.0
 11
99.81140000000001
 21
205.6719
 31
0.0
  0
LINE
  5
9D
330
1E
100
AcDbEntity
  8
0
100
AcDbLine
 10
99.81140000000001
 20
205.6719
 30
0.0
 11
100.744
 21
227.9869
 31
0.0
  0
LINE
  5
9E
330
1E
100
AcDbEntity
  8
0
100
AcDbLine
 10
100.996
 20
251.9479
 30
0.0
 11
101.034
 21
250.4008999999999
 31
0.0
  0
LINE
  5
9F
330
1E
100
AcDbEntity
  8
0
100
AcDbLine
 10
100.744
 20
227.9869
 30
0.0
 11
101.034
 21
250.4008999999999
 31
0.0
  0
LINE
  5
A0
330
1E
100
AcDbEntity
  8
0
100
AcDbLine
 10
79.40699999999999
 20
145.7009
 30
0.0
 11
81.2879
 21
165.2268999999999
 31
0.0
  0
LINE
  5
A1
330
1E
100
AcDbEntity
  8
0
100
AcDbLine
 10
76.8618
 20
123.3859
 30
0.0
 11
79.40699999999999
 21
145.7009
 31
0.0
  0
LINE
  5
A2
330
1E
100
AcDbEntity
  8
0
100
AcDbLine
 10
73.94199999999999
 20
101.0718999999999
 30
0.0
 11
76.8618
 21
123.3859
 31
0.0
  0
LINE
  5
A3
330
1E
100
AcDbEntity
  8
0
100
AcDbLine
 10
71.741
 20
270.3249
 30
0.0
 11
75.70999999999999
 21
293.3408999999999
 31
0.0
  0
LINE
  5
A6
330
1E
100
AcDbEntity
  8
0
100
AcDbLine
 10
68.1969
 20
250.4008999999999
 30
0.0
 11
71.741
 21
270.3249
 31
0.0
  0
LINE
  5
AE
330
1E
100
AcDbEntity
  8
0
100
AcDbLine
 10
78.92839999999999
 20
313.2649
 30
0.0
 11
82.25039999999999
 21
336.2769
 31
0.0
  0
LINE
  5
AF
330
1E
100
AcDbEntity
  8
0
100
AcDbLine
 10
75.70999999999999
 20
293.3408999999999
 30
0.0
 11
78.92839999999999
 21
313.2649
 31
0.0
  0
LINE
  5
B1
330
1E
100
AcDbEntity
  8
0
100
AcDbLine
 10
81.03441551254631
 20
327.8535902392279
 30
0.0
 11
85.3199
 21
250.1498999999999
 31
0.0
  0
LINE
  5
B2
330
1E
100
AcDbEntity
  8
0
100
AcDbLine
 10
95.6586
 20
347.7828999999999
 30
0.0
 11
95.87990000000001
 21
367.7069
 31
0.0
  0
LINE
  5
B3
330
1E
100
AcDbEntity
  8
0
100
AcDbLine
 10
95.6709788459023
 20
348.89738768982
 30
0.0
 11
100.996
 21
251.9479
 31
0.0
  0
LINE
  5
B4
330
1E
100
AcDbEntity
  8
0
100
AcDbLine
 10
85.4513
 20
361.2819
 30
0.0
 11
88.382
 21
385.9869
 31
0.0
  0
LINE
  5
B5
330
1E
100
AcDbEntity
  8
0
100
AcDbLine
 10
82.25039999999999
 20
336.2769
 30
0.0
 11
85.4513
 21
361.2819
 31
0.0
  0
LINE
  5
B6
330
1E
100
AcDbEntity
  8
0
100
AcDbLine
 10
67.0
 20
604.8481173913041
 30
0.0
 11
67.0
 21
584.3428999999999
 31
0.0
  0
LINE
  5
B7
330
1E
100
AcDbEntity
  8
0
100
AcDbLine
 10
67.0
 20
614.8429
 30
0.0
 11
67.0
 21
616.3428999999999
 31
0.0
  0
LINE
  5
B8
330
1E
100
AcDbEntity
  8
0
100
AcDbLine
 10
67.0
 20
584.3428999999999
 30
0.0
 11
67.0
 21
604.8481173913041
 31
0.0
  0
LINE
  5
B9
330
1E
100
AcDbEntity
  8
0
100
AcDbLine
 10
67.0
 20
584.3428999999999
 30
0.0
 11
68.5
 21
582.8428999999999
 31
0.0
  0
LINE
  5
BA
330
1E
100
AcDbEntity
  8
0
100
AcDbLine
 10
67.0
 20
584.3428999999999
 30
0.0
 11
68.0
 21
584.3428999999999
 31
0.0
  0
LINE
  5
BB
330
1E
100
AcDbEntity
  8
0
100
AcDbLine
 10
67.0
 20
616.3428999999999
 30
0.0
 11
67.3
 21
617.0429
 31
0.0
  0
LINE
  5
BC
330
1E
100
AcDbEntity
  8
0
100
AcDbLine
 10
67.0
 20
616.3428999999999
 30
0.0
 11
67.0
 21
614.8429
 31
0.0
  0
LINE
  5
BD
330
1E
100
AcDbEntity
  8
0
100
AcDbLine
 10
68.5
 20
582.8428999999999
 30
0.0
 11
69.40000000000001
 21
582.8428999999999
 31
0.0
  0
LINE
  5
BE
330
1E
100
AcDbEntity
  8
0
100
AcDbLine
 10
68.0
 20
584.3428999999999
 30
0.0
 11
70.8
 21
584.3428999999999
 31
0.0
  0
LINE
  5
BF
330
1E
100
AcDbEntity
  8
0
100
AcDbLine
 10
69.40000000000001
 20
582.8428999999999
 30
0.0
 11
70.66666666666669
 21
582.8428999999999
 31
0.0
  0
LINE
  5
C0
330
1E
100
AcDbEntity
  8
0
100
AcDbLine
 10
69.40000000000001
 20
582.8428999999999
 30
0.0
 11
72.0
 21
582.8428999999999
 31
0.0
  0
LINE
  5
C1
330
1E
100
AcDbEntity
  8
0
100
AcDbLine
 10
67.3
 20
617.0429
 30
0.0
 11
67.8
 21
617.5429
 31
0.0
  0
LINE
  5
C2
330
1E
100
AcDbEntity
  8
0
100
AcDbLine
 10
68.5
 20
617.8429
 30
0.0
 11
69.40000000000001
 21
617.8429
 31
0.0
  0
LINE
  5
C3
330
1E
100
AcDbEntity
  8
0
100
AcDbLine
 10
69.40000000000001
 20
617.8429
 30
0.0
 11
72.0
 21
617.8429
 31
0.0
  0
LINE
  5
C4
330
1E
100
AcDbEntity
  8
0
100
AcDbLine
 10
67.8
 20
617.5429
 30
0.0
 11
68.5
 21
617.8429
 31
0.0
  0
LINE
  5
C5
330
1E
100
AcDbEntity
  8
0
100
AcDbLine
 10
72.0
 20
582.8428999999999
 30
0.0
 11
76.2
 21
582.8428999999999
 31
0.0
  0
LINE
  5
C6
330
1E
100
AcDbEntity
  8
0
100
AcDbLine
 10
70.8
 20
584.3428999999999
 30
0.0
 11
75.2
 21
584.3428999999999
 31
0.0
  0
LINE
  5
C7
330
1E
100
AcDbEntity
  8
0
100
AcDbLine
 10
72.0
 20
617.8429
 30
0.0
 11
76.2
 21
617.8429
 31
0.0
  0
LINE
  5
C8
330
1E
100
AcDbEntity
  8
0
100
AcDbLine
 10
70.5
 20
581.8429
 30
0.0
 11
70.66666666666669
 21
582.8428999999999
 31
0.0
  0
LINE
  5
C9
330
1E
100
AcDbEntity
  8
0
100
AcDbLine
 10
70.5
 20
581.8429
 30
0.0
 11
70.5
 21
580.8429
 31
0.0
  0
LINE
  5
CA
330
1E
100
AcDbEntity
  8
0
100
AcDbLine
 10
70.5
 20
580.8429
 30
0.0
 11
70.5
 21
581.8429
 31
0.0
  0
LINE
  5
CB
330
1E
100
AcDbEntity
  8
0
100
AcDbLine
 10
96.53069999999999
 20
390.7189
 30
0.0
 11
97.6467
 21
415.7239
 31
0.0
  0
LINE
  5
CC
330
1E
100
AcDbEntity
  8
0
100
AcDbLine
 10
95.87990000000001
 20
367.7069
 30
0.0
 11
96.53069999999999
 21
390.7189
 31
0.0
  0
LINE
  5
CD
330
1E
100
AcDbEntity
  8
0
100
AcDbLine
 10
90.89730000000001
 20
408.8999
 30
0.0
 11
94.0445
 21
441.7739
 31
0.0
  0
LINE
  5
CE
330
1E
100
AcDbEntity
  8
0
100
AcDbLine
 10
88.382
 20
385.9869
 30
0.0
 11
90.89730000000001
 21
408.8999
 31
0.0
  0
LINE
  5
CF
330
1E
100
AcDbEntity
  8
0
100
AcDbLine
 10
76.2
 20
582.8428999999999
 30
0.0
 11
81.79999999999999
 21
582.8428999999999
 31
0.0
  0
LINE
  5
D0
330
1E
100
AcDbEntity
  8
0
100
AcDbLine
 10
75.2
 20
584.3428999999999
 30
0.0
 11
81.09999999999999
 21
584.3428999999999
 31
0.0
  0
LINE
  5
D1
330
1E
100
AcDbEntity
  8
0
100
AcDbLine
 10
76.2
 20
617.8429
 30
0.0
 11
81.79999999999999
 21
617.8429
 31
0.0
  0
LINE
  5
D2
330
1E
100
AcDbEntity
  8
0
100
AcDbLine
 10
98.9811
 20
440.4298999999999
 30
0.0
 11
100.421
 21
463.3418999999999
 31
0.0
  0
LINE
  5
D3
330
1E
100
AcDbEntity
  8
0
100
AcDbLine
 10
97.6467
 20
415.7239
 30
0.0
 11
98.9811
 21
440.4298999999999
 31
0.0
  0
LINE
  5
D4
330
1E
100
AcDbEntity
  8
0
100
AcDbLine
 10
81.0
 20
532.8428999999999
 30
0.0
 11
81.0
 21
533.8428999999999
 31
0.0
  0
LINE
  5
D5
330
1E
100
AcDbEntity
  8
0
100
AcDbLine
 10
80.0
 20
532.8428999999999
 30
0.0
 11
80.5
 21
532.8428999999999
 31
0.0
  0
LINE
  5
D6
330
1E
100
AcDbEntity
  8
0
100
AcDbLine
 10
80.0
 20
532.8428999999999
 30
0.0
 11
81.0
 21
532.8428999999999
 31
0.0
  0
LINE
  5
D7
330
1E
100
AcDbEntity
  8
0
100
AcDbLine
 10
80.5
 20
532.8428999999999
 30
0.0
 11
82.0
 21
532.8428999999999
 31
0.0
  0
LINE
  5
D8
330
1E
100
AcDbEntity
  8
0
100
AcDbLine
 10
98.427
 20
532.7088999999999
 30
0.0
 11
101.347
 21
532.7088999999999
 31
0.0
  0
LINE
  5
D9
330
1E
100
AcDbEntity
  8
0
100
AcDbLine
 10
94.98269999999999
 20
532.7088999999999
 30
0.0
 11
98.427
 21
532.7088999999999
 31
0.0
  0
LINE
  5
DA
330
1E
100
AcDbEntity
  8
0
100
AcDbLine
 10
91.5384
 20
532.7088999999999
 30
0.0
 11
94.98269999999999
 21
532.7088999999999
 31
0.0
  0
LINE
  5
DB
330
1E
100
AcDbEntity
  8
0
100
AcDbLine
 10
88.61879999999999
 20
532.7088999999999
 30
0.0
 11
91.5384
 21
532.7088999999999
 31
0.0
  0
LINE
  5
DC
330
1E
100
AcDbEntity
  8
0
100
AcDbLine
 10
86.6676
 20
532.7098999999999
 30
0.0
 11
88.61879999999999
 21
532.7088999999999
 31
0.0
  0
LINE
  5
DD
330
1E
100
AcDbEntity
  8
0
100
AcDbLine
 10
85.98269999999999
 20
532.7098999999999
 30
0.0
 11
86.6676
 21
532.7098999999999
 31
0.0
  0
LINE
  5
DE
330
1E
100
AcDbEntity
  8
0
100
AcDbLine
 10
98.98423391659278
 20
493.2369
 30
0.0
 11
101.347
 21
493.2369
 31
0.0
  0
LINE
  5
DF
330
1E
100
AcDbEntity
  8
0
100
AcDbLine
 10
82.0222
 20
532.8428999999999
 30
0.0
 11
84.5727878087349
 21
507.3370219126509
 31
0.0
  0
LINE
  5
E0
330
1E
100
AcDbEntity
  8
0
100
AcDbLine
 10
82.0
 20
532.8428999999999
 30
0.0
 11
84.40000000000001
 21
532.8428999999999
 31
0.0
  0
LINE
  5
E1
330
1E
100
AcDbEntity
  8
0
100
AcDbLine
 10
81.0
 20
533.8428999999999
 30
0.0
 11
81.0
 21
532.8428999999999
 31
0.0
  0
LINE
  5
E2
330
1E
100
AcDbEntity
  8
0
100
AcDbLine
 10
81.0
 20
533.8428999999999
 30
0.0
 11
81.0
 21
579.8428999999999
 31
0.0
  0
LINE
  5
E3
330
1E
100
AcDbEntity
  8
0
100
AcDbLine
 10
81.0
 20
579.8428999999999
 30
0.0
 11
81.0
 21
580.8429
 31
0.0
  0
LINE
  5
E4
330
1E
100
AcDbEntity
  8
0
100
AcDbLine
 10
81.0
 20
579.8428999999999
 30
0.0
 11
81.0
 21
533.8428999999999
 31
0.0
  0
LINE
  5
E5
330
1E
100
AcDbEntity
  8
0
100
AcDbLine
 10
81.0
 20
572.5715
 30
0.0
 11
85.98269999999999
 21
532.7098999999999
 31
0.0
  0
LINE
  5
E6
330
1E
100
AcDbEntity
  8
0
100
AcDbLine
 10
81.0
 20
572.7098999999999
 30
0.0
 11
82.0481
 21
572.7098999999999
 31
0.0
  0
LINE
  5
E7
330
1E
100
AcDbEntity
  8
0
100
AcDbLine
 10
81.79999999999999
 20
582.8428999999999
 30
0.0
 11
83.2
 21
582.8428999999999
 31
0.0
  0
LINE
  5
E8
330
1E
100
AcDbEntity
  8
0
100
AcDbLine
 10
81.09999999999999
 20
584.3428999999999
 30
0.0
 11
83.2
 21
584.3428999999999
 31
0.0
  0
LINE
  5
E9
330
1E
100
AcDbEntity
  8
0
100
AcDbLine
 10
81.79999999999999
 20
617.8429
 30
0.0
 11
83.2
 21
617.8429
 31
0.0
  0
LINE
  5
EA
330
1E
100
AcDbEntity
  8
0
100
AcDbLine
 10
81.0
 20
580.8429
 30
0.0
 11
82.0
 21
580.8429
 31
0.0
  0
LINE
  5
EB
330
1E
100
AcDbEntity
  8
0
100
AcDbLine
 10
81.0
 20
580.8429
 30
0.0
 11
81.0
 21
579.8428999999999
 31
0.0
  0
LINE
  5
EC
330
1E
100
AcDbEntity
  8
0
100
AcDbLine
 10
85.20000000000001
 20
572.7088999999999
 30
0.0
 11
85.20000000000001
 21
572.8429
 31
0.0
  0
LINE
  5
ED
330
1E
100
AcDbEntity
  8
0
100
AcDbLine
 10
100.34
 20
572.7088999999999
 30
0.0
 11
104.882
 21
572.7088999999999
 31
0.0
  0
LINE
  5
EE
330
1E
100
AcDbEntity
  8
0
100
AcDbLine
 10
94.98269999999999
 20
572.7088999999999
 30
0.0
 11
100.34
 21
572.7088999999999
 31
0.0
  0
LINE
  5
EF
330
1E
100
AcDbEntity
  8
0
100
AcDbLine
 10
89.6249
 20
572.7088999999999
 30
0.0
 11
94.98269999999999
 21
572.7088999999999
 31
0.0
  0
LINE
  5
F0
330
1E
100
AcDbEntity
  8
0
100
AcDbLine
 10
85.08329999999999
 20
572.7088999999999
 30
0.0
 11
89.6249
 21
572.7088999999999
 31
0.0
  0
LINE
  5
F1
330
1E
100
AcDbEntity
  8
0
100
AcDbLine
 10
84.59999999999999
 20
572.8429
 30
0.0
 11
85.20000000000001
 21
572.8429
 31
0.0
  0
LINE
  5
F2
330
1E
100
AcDbEntity
  8
0
100
AcDbLine
 10
84.59999999999999
 20
572.8429
 30
0.0
 11
85.7
 21
572.8429
 31
0.0
  0
LINE
  5
F3
330
1E
100
AcDbEntity
  8
0
100
AcDbLine
 10
82.7002
 20
655.8429
 30
0.0
 11
82.7002
 21
656.3429
 31
0.0
  0
LINE
  5
F4
330
1E
100
AcDbEntity
  8
0
100
AcDbLine
 10
82.7002
 20
655.8429
 30
0.0
 11
83.2
 21
655.8429
 31
0.0
  0
LINE
  5
F5
330
1E
100
AcDbEntity
  8
0
100
AcDbLine
 10
82.7002
 20
662.6429
 30
0.0
 11
82.7002
 21
663.1429
 31
0.0
  0
LINE
  5
F6
330
1E
100
AcDbEntity
  8
0
100
AcDbLine
 10
82.7002
 20
662.6429
 30
0.0
 11
83.2
 21
662.6429
 31
0.0
  0
LINE
  5
F7
330
1E
100
AcDbEntity
  8
0
100
AcDbLine
 10
82.7002
 20
657.8428999999999
 30
0.0
 11
82.7002
 21
657.3428999999999
 31
0.0
  0
LINE
  5
F8
330
1E
100
AcDbEntity
  8
0
100
AcDbLine
 10
82.7002
 20
657.8428999999999
 30
0.0
 11
83.2
 21
657.8428999999999
 31
0.0
  0
LINE
  5
F9
330
1E
100
AcDbEntity
  8
0
100
AcDbLine
 10
82.7002
 20
657.3428999999999
 30
0.0
 11
82.7002
 21
657.8428999999999
 31
0.0
  0
LINE
  5
FA
330
1E
100
AcDbEntity
  8
0
100
AcDbLine
 10
82.7002
 20
657.3428999999999
 30
0.0
 11
82.7002
 21
656.3429
 31
0.0
  0
LINE
  5
FB
330
1E
100
AcDbEntity
  8
0
100
AcDbLine
 10
82.7002
 20
657.3428999999999
 30
0.0
 11
83.35120000000001
 21
657.3428999999999
 31
0.0
  0
LINE
  5
FC
330
1E
100
AcDbEntity
  8
0
100
AcDbLine
 10
82.7002
 20
656.3429
 30
0.0
 11
82.7002
 21
655.8429
 31
0.0
  0
LINE
  5
FD
330
1E
100
AcDbEntity
  8
0
100
AcDbLine
 10
82.7002
 20
656.3429
 30
0.0
 11
82.7002
 21
657.3428999999999
 31
0.0
  0
LINE
  5
FE
330
1E
100
AcDbEntity
  8
0
100
AcDbLine
 10
82.7002
 20
656.3429
 30
0.0
 11
83.35120000000001
 21
656.3429
 31
0.0
  0
LINE
  5
FF
330
1E
100
AcDbEntity
  8
0
100
AcDbLine
 10
83.2
 20
657.8428999999999
 30
0.0
 11
83.2
 21
662.6429
 31
0.0
  0
LINE
  5
100
330
1E
100
AcDbEntity
  8
0
100
AcDbLine
 10
82.7002
 20
663.1429
 30
0.0
 11
83.35120000000001
 21
663.1429
 31
0.0
  0
LINE
  5
101
330
1E
100
AcDbEntity
  8
0
100
AcDbLine
 10
82.7002
 20
663.1429
 30
0.0
 11
82.7002
 21
662.6429
 31
0.0
  0
LINE
  5
102
330
1E
100
AcDbEntity
  8
0
100
AcDbLine
 10
82.7002
 20
663.1429
 30
0.0
 11
82.7002
 21
664.1429
 31
0.0
  0
LINE
  5
103
330
1E
100
AcDbEntity
  8
0
100
AcDbLine
 10
82.7002
 20
669.4429
 30
0.0
 11
82.7002
 21
669.9429
 31
0.0
  0
LINE
  5
104
330
1E
100
AcDbEntity
  8
0
100
AcDbLine
 10
82.7002
 20
669.4429
 30
0.0
 11
83.2
 21
669.4429
 31
0.0
  0
LINE
  5
105
330
1E
100
AcDbEntity
  8
0
100
AcDbLine
 10
82.7002
 20
669.9429
 30
0.0
 11
83.3495765472313
 21
669.9429
 31
0.0
  0
LINE
  5
106
330
1E
100
AcDbEntity
  8
0
100
AcDbLine
 10
82.7002
 20
669.9429
 30
0.0
 11
82.7002
 21
669.4429
 31
0.0
  0
LINE
  5
107
330
1E
100
AcDbEntity
  8
0
100
AcDbLine
 10
82.7002
 20
669.9429
 30
0.0
 11
82.7002
 21
670.9429
 31
0.0
  0
LINE
  5
108
330
1E
100
AcDbEntity
  8
0
100
AcDbLine
 10
82.7002
 20
670.9429
 30
0.0
 11
82.7002
 21
671.4428999999999
 31
0.0
  0
LINE
  5
109
330
1E
100
AcDbEntity
  8
0
100
AcDbLine
 10
82.7002
 20
670.9429
 30
0.0
 11
83.3469706840391
 21
670.9429
 31
0.0
  0
LINE
  5
10A
330
1E
100
AcDbEntity
  8
0
100
AcDbLine
 10
82.7002
 20
670.9429
 30
0.0
 11
82.7002
 21
669.9429
 31
0.0
  0
LINE
  5
10B
330
1E
100
AcDbEntity
  8
0
100
AcDbLine
 10
82.7002
 20
671.4428999999999
 30
0.0
 11
82.7002
 21
670.9429
 31
0.0
  0
LINE
  5
10C
330
1E
100
AcDbEntity
  8
0
100
AcDbLine
 10
82.7002
 20
671.4428999999999
 30
0.0
 11
83.2
 21
671.4428999999999
 31
0.0
  0
LINE
  5
10D
330
1E
100
AcDbEntity
  8
0
100
AcDbLine
 10
82.7002
 20
664.1429
 30
0.0
 11
82.7002
 21
664.6429
 31
0.0
  0
LINE
  5
10E
330
1E
100
AcDbEntity
  8
0
100
AcDbLine
 10
82.7002
 20
664.1429
 30
0.0
 11
83.35120000000001
 21
664.1429
 31
0.0
  0
LINE
  5
10F
330
1E
100
AcDbEntity
  8
0
100
AcDbLine
 10
82.7002
 20
664.1429
 30
0.0
 11
82.7002
 21
663.1429
 31
0.0
  0
LINE
  5
110
330
1E
100
AcDbEntity
  8
0
100
AcDbLine
 10
82.7002
 20
664.6429
 30
0.0
 11
82.7002
 21
664.1429
 31
0.0
  0
LINE
  5
111
330
1E
100
AcDbEntity
  8
0
100
AcDbLine
 10
82.7002
 20
664.6429
 30
0.0
 11
83.2
 21
664.6429
 31
0.0
  0
LINE
  5
112
330
1E
100
AcDbEntity
  8
0
100
AcDbLine
 10
82.7002
 20
676.2429
 30
0.0
 11
82.7002
 21
676.7428999999999
 31
0.0
  0
LINE
  5
113
330
1E
100
AcDbEntity
  8
0
100
AcDbLine
 10
82.7002
 20
676.2429
 30
0.0
 11
83.2
 21
676.2429
 31
0.0
  0
LINE
  5
114
330
1E
100
AcDbEntity
  8
0
100
AcDbLine
 10
82.7002
 20
676.2429
 30
0.0
 11
83.33315960912051
 21
676.2429
 31
0.0
  0
LINE
  5
115
330
1E
100
AcDbEntity
  8
0
100
AcDbLine
 10
83.2
 20
671.4428999999999
 30
0.0
 11
83.2
 21
676.2429
 31
0.0
  0
LINE
  5
116
330
1E
100
AcDbEntity
  8
0
100
AcDbLine
 10
83.2
 20
664.6429
 30
0.0
 11
83.2
 21
669.4429
 31
0.0
  0
LINE
  5
117
330
1E
100
AcDbEntity
  8
0
100
AcDbLine
 10
82.7002
 20
676.7428999999999
 30
0.0
 11
82.7002
 21
677.7428999999999
 31
0.0
  0
LINE
  5
118
330
1E
100
AcDbEntity
  8
0
100
AcDbLine
 10
82.7002
 20
676.7428999999999
 30
0.0
 11
83.3318566775244
 21
676.7428999999999
 31
0.0
  0
LINE
  5
119
330
1E
100
AcDbEntity
  8
0
100
AcDbLine
 10
82.7002
 20
676.7428999999999
 30
0.0
 11
82.7002
 21
676.2429
 31
0.0
  0
LINE
  5
11A
330
1E
100
AcDbEntity
  8
0
100
AcDbLine
 10
82.7002
 20
683.0429
 30
0.0
 11
82.7002
 21
683.5429
 31
0.0
  0
LINE
  5
11B
330
1E
100
AcDbEntity
  8
0
100
AcDbLine
 10
82.7002
 20
683.0429
 30
0.0
 11
83.3154397394137
 21
683.0429
 31
0.0
  0
LINE
  5
11C
330
1E
100
AcDbEntity
  8
0
100
AcDbLine
 10
82.7002
 20
683.0429
 30
0.0
 11
83.2
 21
683.0429
 31
0.0
  0
LINE
  5
11D
330
1E
100
AcDbEntity
  8
0
100
AcDbLine
 10
82.7002
 20
683.5429
 30
0.0
 11
83.31413680781759
 21
683.5429
 31
0.0
  0
LINE
  5
11E
330
1E
100
AcDbEntity
  8
0
100
AcDbLine
 10
82.7002
 20
683.5429
 30
0.0
 11
82.7002
 21
683.0429
 31
0.0
  0
LINE
  5
11F
330
1E
100
AcDbEntity
  8
0
100
AcDbLine
 10
82.7002
 20
683.5429
 30
0.0
 11
82.7002
 21
684.5429
 31
0.0
  0
LINE
  5
120
330
1E
100
AcDbEntity
  8
0
100
AcDbLine
 10
82.7002
 20
684.5429
 30
0.0
 11
82.7002
 21
685.0429
 31
0.0
  0
LINE
  5
121
330
1E
100
AcDbEntity
  8
0
100
AcDbLine
 10
82.7002
 20
684.5429
 30
0.0
 11
83.31153094462541
 21
684.5429
 31
0.0
  0
LINE
  5
122
330
1E
100
AcDbEntity
  8
0
100
AcDbLine
 10
82.7002
 20
684.5429
 30
0.0
 11
82.7002
 21
683.5429
 31
0.0
  0
LINE
  5
123
330
1E
100
AcDbEntity
  8
0
100
AcDbLine
 10
82.7002
 20
685.0429
 30
0.0
 11
82.7002
 21
684.5429
 31
0.0
  0
LINE
  5
124
330
1E
100
AcDbEntity
  8
0
100
AcDbLine
 10
82.7002
 20
685.0429
 30
0.0
 11
83.3102280130293
 21
685.0429
 31
0.0
  0
LINE
  5
125
330
1E
100
AcDbEntity
  8
0
100
AcDbLine
 10
82.7002
 20
678.2428999999999
 30
0.0
 11
82.7002
 21
677.7428999999999
 31
0.0
  0
LINE
  5
126
330
1E
100
AcDbEntity
  8
0
100
AcDbLine
 10
82.7002
 20
678.2428999999999
 30
0.0
 11
83.32794788273622
 21
678.2428999999999
 31
0.0
  0
LINE
  5
127
330
1E
100
AcDbEntity
  8
0
100
AcDbLine
 10
82.7002
 20
677.7428999999999
 30
0.0
 11
82.7002
 21
676.7428999999999
 31
0.0
  0
LINE
  5
128
330
1E
100
AcDbEntity
  8
0
100
AcDbLine
 10
82.7002
 20
677.7428999999999
 30
0.0
 11
82.7002
 21
678.2428999999999
 31
0.0
  0
LINE
  5
129
330
1E
100
AcDbEntity
  8
0
100
AcDbLine
 10
82.7002
 20
677.7428999999999
 30
0.0
 11
83.32925081433229
 21
677.7428999999999
 31
0.0
  0
LINE
  5
12A
330
1E
100
AcDbEntity
  8
0
100
AcDbLine
 10
82.7002
 20
689.8429
 30
0.0
 11
82.7002
 21
690.3429
 31
0.0
  0
LINE
  5
12B
330
1E
100
AcDbEntity
  8
0
100
AcDbLine
 10
82.7002
 20
689.8429
 30
0.0
 11
83.2
 21
689.8429
 31
0.0
  0
LINE
  5
12C
330
1E
100
AcDbEntity
  8
0
100
AcDbLine
 10
82.7002
 20
689.8429
 30
0.0
 11
83.2977198697068
 21
689.8429
 31
0.0
  0
LINE
  5
12D
330
1E
100
AcDbEntity
  8
0
100
AcDbLine
 10
83.2
 20
685.0429
 30
0.0
 11
83.2
 21
689.8429
 31
0.0
  0
LINE
  5
12E
330
1E
100
AcDbEntity
  8
0
100
AcDbLine
 10
83.2
 20
678.2428999999999
 30
0.0
 11
83.2
 21
683.0429
 31
0.0
  0
LINE
  5
12F
330
1E
100
AcDbEntity
  8
0
100
AcDbLine
 10
82.7002
 20
690.3429
 30
0.0
 11
82.7002
 21
691.3428999999999
 31
0.0
  0
LINE
  5
130
330
1E
100
AcDbEntity
  8
0
100
AcDbLine
 10
82.7002
 20
690.3429
 30
0.0
 11
83.2964169381108
 21
690.3429
 31
0.0
  0
LINE
  5
131
330
1E
100
AcDbEntity
  8
0
100
AcDbLine
 10
82.7002
 20
690.3429
 30
0.0
 11
82.7002
 21
689.8429
 31
0.0
  0
LINE
  5
132
330
1E
100
AcDbEntity
  8
0
100
AcDbLine
 10
82.7002
 20
696.6429
 30
0.0
 11
82.7002
 21
697.1429
 31
0.0
  0
LINE
  5
133
330
1E
100
AcDbEntity
  8
0
100
AcDbLine
 10
82.7002
 20
696.6429
 30
0.0
 11
83.2
 21
696.6429
 31
0.0
  0
LINE
  5
134
330
1E
100
AcDbEntity
  8
0
100
AcDbLine
 10
82.7002
 20
696.6429
 30
0.0
 11
83.28000000000001
 21
696.6429
 31
0.0
  0
LINE
  5
135
330
1E
100
AcDbEntity
  8
0
100
AcDbLine
 10
82.7002
 20
697.1429
 30
0.0
 11
82.7002
 21
698.1429
 31
0.0
  0
LINE
  5
136
330
1E
100
AcDbEntity
  8
0
100
AcDbLine
 10
82.7002
 20
697.1429
 30
0.0
 11
83.2786970684039
 21
697.1429
 31
0.0
  0
LINE
  5
137
330
1E
100
AcDbEntity
  8
0
100
AcDbLine
 10
82.7002
 20
697.1429
 30
0.0
 11
82.7002
 21
696.6429
 31
0.0
  0
LINE
  5
138
330
1E
100
AcDbEntity
  8
0
100
AcDbLine
 10
82.7002
 20
698.6429000000001
 30
0.0
 11
82.7002
 21
698.1429
 31
0.0
  0
LINE
  5
139
330
1E
100
AcDbEntity
  8
0
100
AcDbLine
 10
82.7002
 20
698.6429000000001
 30
0.0
 11
83.27478827361558
 21
698.6429000000001
 31
0.0
  0
LINE
  5
13A
330
1E
100
AcDbEntity
  8
0
100
AcDbLine
 10
82.7002
 20
698.1429
 30
0.0
 11
82.7002
 21
697.1429
 31
0.0
  0
LINE
  5
13B
330
1E
100
AcDbEntity
  8
0
100
AcDbLine
 10
82.7002
 20
698.1429
 30
0.0
 11
82.7002
 21
698.6429000000001
 31
0.0
  0
LINE
  5
13C
330
1E
100
AcDbEntity
  8
0
100
AcDbLine
 10
82.7002
 20
698.1429
 30
0.0
 11
83.2760912052117
 21
698.1429
 31
0.0
  0
LINE
  5
13D
330
1E
100
AcDbEntity
  8
0
100
AcDbLine
 10
82.7002
 20
691.8428999999999
 30
0.0
 11
82.7002
 21
691.3428999999999
 31
0.0
  0
LINE
  5
13E
330
1E
100
AcDbEntity
  8
0
100
AcDbLine
 10
82.7002
 20
691.8428999999999
 30
0.0
 11
83.29250814332249
 21
691.8428999999999
 31
0.0
  0
LINE
  5
13F
330
1E
100
AcDbEntity
  8
0
100
AcDbLine
 10
82.7002
 20
691.3428999999999
 30
0.0
 11
82.7002
 21
690.3429
 31
0.0
  0
LINE
  5
140
330
1E
100
AcDbEntity
  8
0
100
AcDbLine
 10
82.7002
 20
691.3428999999999
 30
0.0
 11
82.7002
 21
691.8428999999999
 31
0.0
  0
LINE
  5
141
330
1E
100
AcDbEntity
  8
0
100
AcDbLine
 10
82.7002
 20
691.3428999999999
 30
0.0
 11
83.2938110749186
 21
691.3428999999999
 31
0.0
  0
LINE
  5
142
330
1E
100
AcDbEntity
  8
0
100
AcDbLine
 10
82.7002
 20
703.4429
 30
0.0
 11
82.7002
 21
703.9429
 31
0.0
  0
LINE
  5
143
330
1E
100
AcDbEntity
  8
0
100
AcDbLine
 10
82.7002
 20
703.4429
 30
0.0
 11
83.2622801302932
 21
703.4429
 31
0.0
  0
LINE
  5
144
330
1E
100
AcDbEntity
  8
0
100
AcDbLine
 10
82.7002
 20
703.4429
 30
0.0
 11
83.2
 21
703.4429
 31
0.0
  0
LINE
  5
145
330
1E
100
AcDbEntity
  8
0
100
AcDbLine
 10
83.2
 20
698.6429000000001
 30
0.0
 11
83.2
 21
703.4429
 31
0.0
  0
LINE
  5
146
330
1E
100
AcDbEntity
  8
0
100
AcDbLine
 10
83.2
 20
691.8428999999999
 30
0.0
 11
83.2
 21
696.6429
 31
0.0
  0
LINE
  5
147
330
1E
100
AcDbEntity
  8
0
100
AcDbLine
 10
82.7002
 20
703.9429
 30
0.0
 11
83.26097719869709
 21
703.9429
 31
0.0
  0
LINE
  5
148
330
1E
100
AcDbEntity
  8
0
100
AcDbLine
 10
82.7002
 20
703.9429
 30
0.0
 11
82.7002
 21
703.4429
 31
0.0
  0
LINE
  5
149
330
1E
100
AcDbEntity
  8
0
100
AcDbLine
 10
82.7002
 20
703.9429
 30
0.0
 11
82.7002
 21
704.9428999999999
 31
0.0
  0
LINE
  5
14A
330
1E
100
AcDbEntity
  8
0
100
AcDbLine
 10
82.7002
 20
712.2428999999999
 30
0.0
 11
82.7002
 21
711.7428999999999
 31
0.0
  0
LINE
  5
14B
330
1E
100
AcDbEntity
  8
0
100
AcDbLine
 10
82.7002
 20
712.2428999999999
 30
0.0
 11
83.23934853420201
 21
712.2428999999999
 31
0.0
  0
LINE
  5
14C
330
1E
100
AcDbEntity
  8
0
100
AcDbLine
 10
82.7002
 20
711.7428999999999
 30
0.0
 11
82.7002
 21
712.2428999999999
 31
0.0
  0
LINE
  5
14D
330
1E
100
AcDbEntity
  8
0
100
AcDbLine
 10
82.7002
 20
711.7428999999999
 30
0.0
 11
82.7002
 21
710.7428999999999
 31
0.0
  0
LINE
  5
14E
330
1E
100
AcDbEntity
  8
0
100
AcDbLine
 10
82.7002
 20
711.7428999999999
 30
0.0
 11
83.2406514657981
 21
711.7428999999999
 31
0.0
  0
LINE
  5
14F
330
1E
100
AcDbEntity
  8
0
100
AcDbLine
 10
82.7002
 20
710.2428999999999
 30
0.0
 11
82.7002
 21
710.7428999999999
 31
0.0
  0
LINE
  5
150
330
1E
100
AcDbEntity
  8
0
100
AcDbLine
 10
82.7002
 20
710.2428999999999
 30
0.0
 11
83.2
 21
710.2428999999999
 31
0.0
  0
LINE
  5
151
330
1E
100
AcDbEntity
  8
0
100
AcDbLine
 10
82.7002
 20
710.2428999999999
 30
0.0
 11
83.2445602605863
 21
710.2428999999999
 31
0.0
  0
LINE
  5
152
330
1E
100
AcDbEntity
  8
0
100
AcDbLine
 10
82.7002
 20
710.7428999999999
 30
0.0
 11
82.7002
 21
710.2428999999999
 31
0.0
  0
LINE
  5
153
330
1E
100
AcDbEntity
  8
0
100
AcDbLine
 10
82.7002
 20
710.7428999999999
 30
0.0
 11
83.24325732899019
 21
710.7428999999999
 31
0.0
  0
LINE
  5
154
330
1E
100
AcDbEntity
  8
0
100
AcDbLine
 10
82.7002
 20
710.7428999999999
 30
0.0
 11
82.7002
 21
711.7428999999999
 31
0.0
  0
LINE
  5
155
330
1E
100
AcDbEntity
  8
0
100
AcDbLine
 10
82.7002
 20
704.9428999999999
 30
0.0
 11
82.7002
 21
705.4428999999999
 31
0.0
  0
LINE
  5
156
330
1E
100
AcDbEntity
  8
0
100
AcDbLine
 10
82.7002
 20
704.9428999999999
 30
0.0
 11
83.25837133550491
 21
704.9428999999999
 31
0.0
  0
LINE
  5
157
330
1E
100
AcDbEntity
  8
0
100
AcDbLine
 10
82.7002
 20
704.9428999999999
 30
0.0
 11
82.7002
 21
703.9429
 31
0.0
  0
LINE
  5
158
330
1E
100
AcDbEntity
  8
0
100
AcDbLine
 10
82.7002
 20
705.4428999999999
 30
0.0
 11
82.7002
 21
704.9428999999999
 31
0.0
  0
LINE
  5
159
330
1E
100
AcDbEntity
  8
0
100
AcDbLine
 10
82.7002
 20
705.4428999999999
 30
0.0
 11
83.25706840390878
 21
705.4428999999999
 31
0.0
  0
LINE
  5
15A
330
1E
100
AcDbEntity
  8
0
100
AcDbLine
 10
82.7002
 20
717.0429
 30
0.0
 11
82.7002
 21
717.5429
 31
0.0
  0
LINE
  5
15B
330
1E
100
AcDbEntity
  8
0
100
AcDbLine
 10
82.7002
 20
717.0429
 30
0.0
 11
83.22684039087951
 21
717.0429
 31
0.0
  0
LINE
  5
15C
330
1E
100
AcDbEntity
  8
0
100
AcDbLine
 10
82.7002
 20
717.0429
 30
0.0
 11
83.2
 21
717.0429
 31
0.0
  0
LINE
  5
15D
330
1E
100
AcDbEntity
  8
0
100
AcDbLine
 10
83.2
 20
712.2428999999999
 30
0.0
 11
83.2
 21
717.0429
 31
0.0
  0
LINE
  5
15E
330
1E
100
AcDbEntity
  8
0
100
AcDbLine
 10
83.2
 20
705.4428999999999
 30
0.0
 11
83.2
 21
710.2428999999999
 31
0.0
  0
LINE
  5
15F
330
1E
100
AcDbEntity
  8
0
100
AcDbLine
 10
82.7002
 20
719.0429
 30
0.0
 11
82.7002
 21
718.5429
 31
0.0
  0
LINE
  5
160
330
1E
100
AcDbEntity
  8
0
100
AcDbLine
 10
82.7002
 20
719.0429
 30
0.0
 11
83.22162866449509
 21
719.0429
 31
0.0
  0
LINE
  5
161
330
1E
100
AcDbEntity
  8
0
100
AcDbLine
 10
82.7002
 20
718.5429
 30
0.0
 11
82.7002
 21
717.5429
 31
0.0
  0
LINE
  5
162
330
1E
100
AcDbEntity
  8
0
100
AcDbLine
 10
82.7002
 20
718.5429
 30
0.0
 11
83.2229315960912
 21
718.5429
 31
0.0
  0
LINE
  5
163
330
1E
100
AcDbEntity
  8
0
100
AcDbLine
 10
82.7002
 20
718.5429
 30
0.0
 11
82.7002
 21
719.0429
 31
0.0
  0
LINE
  5
164
330
1E
100
AcDbEntity
  8
0
100
AcDbLine
 10
82.7002
 20
717.5429
 30
0.0
 11
82.7002
 21
717.0429
 31
0.0
  0
LINE
  5
165
330
1E
100
AcDbEntity
  8
0
100
AcDbLine
 10
82.7002
 20
717.5429
 30
0.0
 11
82.7002
 21
718.5429
 31
0.0
  0
LINE
  5
166
330
1E
100
AcDbEntity
  8
0
100
AcDbLine
 10
82.7002
 20
717.5429
 30
0.0
 11
83.22553745928342
 21
717.5429
 31
0.0
  0
LINE
  5
167
330
1E
100
AcDbEntity
  8
0
100
AcDbLine
 10
82.7002
 20
723.8429
 30
0.0
 11
82.7002
 21
724.3428999999999
 31
0.0
  0
LINE
  5
168
330
1E
100
AcDbEntity
  8
0
100
AcDbLine
 10
82.7002
 20
723.8429
 30
0.0
 11
83.2
 21
723.8429
 31
0.0
  0
LINE
  5
169
330
1E
100
AcDbEntity
  8
0
100
AcDbLine
 10
82.7002
 20
723.8429
 30
0.0
 11
83.2091205211727
 21
723.8429
 31
0.0
  0
LINE
  5
16A
330
1E
100
AcDbEntity
  8
0
100
AcDbLine
 10
82.7002
 20
724.3428999999999
 30
0.0
 11
82.7002
 21
725.3428999999999
 31
0.0
  0
LINE
  5
16B
330
1E
100
AcDbEntity
  8
0
100
AcDbLine
 10
82.7002
 20
724.3428999999999
 30
0.0
 11
83.20781758957659
 21
724.3428999999999
 31
0.0
  0
LINE
  5
16C
330
1E
100
AcDbEntity
  8
0
100
AcDbLine
 10
82.7002
 20
724.3428999999999
 30
0.0
 11
82.7002
 21
723.8429
 31
0.0
  0
LINE
  5
16D
330
1E
100
AcDbEntity
  8
0
100
AcDbLine
 10
82.7002
 20
725.8428999999999
 30
0.0
 11
82.7002
 21
725.3428999999999
 31
0.0
  0
LINE
  5
16E
330
1E
100
AcDbEntity
  8
0
100
AcDbLine
 10
82.7002
 20
725.8428999999999
 30
0.0
 11
83.20390879478829
 21
725.8428999999999
 31
0.0
  0
LINE
  5
16F
330
1E
100
AcDbEntity
  8
0
100
AcDbLine
 10
82.7002
 20
725.3428999999999
 30
0.0
 11
82.7002
 21
724.3428999999999
 31
0.0
  0
LINE
  5
170
330
1E
100
AcDbEntity
  8
0
100
AcDbLine
 10
82.7002
 20
725.3428999999999
 30
0.0
 11
82.7002
 21
725.8428999999999
 31
0.0
  0
LINE
  5
171
330
1E
100
AcDbEntity
  8
0
100
AcDbLine
 10
82.7002
 20
725.3428999999999
 30
0.0
 11
83.20521172638441
 21
725.3428999999999
 31
0.0
  0
LINE
  5
172
330
1E
100
AcDbEntity
  8
0
100
AcDbLine
 10
83.2
 20
725.8428999999999
 30
0.0
 11
83.2
 21
727.3429
 31
0.0
  0
LINE
  5
173
330
1E
100
AcDbEntity
  8
0
100
AcDbLine
 10
83.2
 20
719.0429
 30
0.0
 11
83.2
 21
723.8429
 31
0.0
  0
LINE
  5
174
330
1E
100
AcDbEntity
  8
0
100
AcDbLine
 10
83.2
 20
723.8429
 30
0.0
 11
83.2
 21
719.0429
 31
0.0
  0
LINE
  5
175
330
1E
100
AcDbEntity
  8
0
100
AcDbLine
 10
83.2
 20
717.0429
 30
0.0
 11
83.2
 21
712.2428999999999
 31
0.0
  0
LINE
  5
176
330
1E
100
AcDbEntity
  8
0
100
AcDbLine
 10
83.2
 20
710.2428999999999
 30
0.0
 11
83.2
 21
705.4428999999999
 31
0.0
  0
LINE
  5
177
330
1E
100
AcDbEntity
  8
0
100
AcDbLine
 10
83.2
 20
703.4429
 30
0.0
 11
83.2
 21
698.6429000000001
 31
0.0
  0
LINE
  5
178
330
1E
100
AcDbEntity
  8
0
100
AcDbLine
 10
83.2
 20
696.6429
 30
0.0
 11
83.2
 21
691.8428999999999
 31
0.0
  0
LINE
  5
179
330
1E
100
AcDbEntity
  8
0
100
AcDbLine
 10
83.2
 20
689.8429
 30
0.0
 11
83.2
 21
685.0429
 31
0.0
  0
LINE
  5
17A
330
1E
100
AcDbEntity
  8
0
100
AcDbLine
 10
83.2
 20
683.0429
 30
0.0
 11
83.2
 21
678.2428999999999
 31
0.0
  0
LINE
  5
17B
330
1E
100
AcDbEntity
  8
0
100
AcDbLine
 10
83.2
 20
676.2429
 30
0.0
 11
83.2
 21
671.4428999999999
 31
0.0
  0
LINE
  5
17C
330
1E
100
AcDbEntity
  8
0
100
AcDbLine
 10
83.2
 20
669.4429
 30
0.0
 11
83.2
 21
664.6429
 31
0.0
  0
LINE
  5
17D
330
1E
100
AcDbEntity
  8
0
100
AcDbLine
 10
83.2
 20
662.6429
 30
0.0
 11
83.2
 21
657.8428999999999
 31
0.0
  0
LINE
  5
17E
330
1E
100
AcDbEntity
  8
0
100
AcDbLine
 10
83.2
 20
655.8429
 30
0.0
 11
83.2
 21
573.8429
 31
0.0
  0
LINE
  5
17F
330
1E
100
AcDbEntity
  8
0
100
AcDbLine
 10
83.2
 20
728.3428999999999
 30
0.0
 11
84.19999999999999
 21
727.8429
 31
0.0
  0
LINE
  5
180
330
1E
100
AcDbEntity
  8
0
100
AcDbLine
 10
83.2
 20
728.3428999999999
 30
0.0
 11
83.2
 21
747.3429
 31
0.0
  0
LINE
  5
181
330
1E
100
AcDbEntity
  8
0
100
AcDbLine
 10
83.2
 20
728.3428999999999
 30
0.0
 11
83.59999999999999
 21
728.3428999999999
 31
0.0
  0
LINE
  5
182
330
1E
100
AcDbEntity
  8
0
100
AcDbLine
 10
83.2
 20
727.3429
 30
0.0
 11
83.2
 21
725.8428999999999
 31
0.0
  0
LINE
  5
183
330
1E
100
AcDbEntity
  8
0
100
AcDbLine
 10
83.2
 20
727.3429
 30
0.0
 11
84.19999999999999
 21
727.8429
 31
0.0
  0
LINE
  5
184
330
1E
100
AcDbEntity
  8
0
100
AcDbLine
 10
83.2
 20
727.3429
 30
0.0
 11
83.59999999999999
 21
727.3429
 31
0.0
  0
LINE
  5
185
330
1E
100
AcDbEntity
  8
0
100
AcDbLine
 10
83.35120000000001
 20
711.7428999999999
 30
0.0
 11
83.5041
 21
712.2428999999999
 31
0.0
  0
LINE
  5
186
330
1E
100
AcDbEntity
  8
0
100
AcDbLine
 10
83.35120000000001
 20
711.7428999999999
 30
0.0
 11
83.35120000000001
 21
710.7428999999999
 31
0.0
  0
LINE
  5
187
330
1E
100
AcDbEntity
  8
0
100
AcDbLine
 10
83.35120000000001
 20
724.3428999999999
 30
0.0
 11
83.35120000000001
 21
725.3428999999999
 31
0.0
  0
LINE
  5
188
330
1E
100
AcDbEntity
  8
0
100
AcDbLine
 10
83.35120000000001
 20
724.3428999999999
 30
0.0
 11
83.5041
 21
723.8429
 31
0.0
  0
LINE
  5
189
330
1E
100
AcDbEntity
  8
0
100
AcDbLine
 10
83.35120000000001
 20
725.3428999999999
 30
0.0
 11
83.5041
 21
725.8428999999999
 31
0.0
  0
LINE
  5
18A
330
1E
100
AcDbEntity
  8
0
100
AcDbLine
 10
83.35120000000001
 20
725.3428999999999
 30
0.0
 11
83.35120000000001
 21
724.3428999999999
 31
0.0
  0
LINE
  5
18B
330
1E
100
AcDbEntity
  8
0
100
AcDbLine
 10
83.35120000000001
 20
718.5429
 30
0.0
 11
83.35120000000001
 21
717.5429
 31
0.0
  0
LINE
  5
18C
330
1E
100
AcDbEntity
  8
0
100
AcDbLine
 10
83.35120000000001
 20
718.5429
 30
0.0
 11
83.5041
 21
719.0429
 31
0.0
  0
LINE
  5
18D
330
1E
100
AcDbEntity
  8
0
100
AcDbLine
 10
83.35120000000001
 20
717.5429
 30
0.0
 11
83.5041
 21
717.0429
 31
0.0
  0
LINE
  5
18E
330
1E
100
AcDbEntity
  8
0
100
AcDbLine
 10
83.35120000000001
 20
717.5429
 30
0.0
 11
83.35120000000001
 21
718.5429
 31
0.0
  0
LINE
  5
18F
330
1E
100
AcDbEntity
  8
0
100
AcDbLine
 10
83.35120000000001
 20
710.7428999999999
 30
0.0
 11
83.5041
 21
710.2428999999999
 31
0.0
  0
LINE
  5
190
330
1E
100
AcDbEntity
  8
0
100
AcDbLine
 10
83.35120000000001
 20
710.7428999999999
 30
0.0
 11
83.35120000000001
 21
711.7428999999999
 31
0.0
  0
LINE
  5
191
330
1E
100
AcDbEntity
  8
0
100
AcDbLine
 10
83.35120000000001
 20
703.9429
 30
0.0
 11
83.5041
 21
703.4429
 31
0.0
  0
LINE
  5
192
330
1E
100
AcDbEntity
  8
0
100
AcDbLine
 10
83.35120000000001
 20
703.9429
 30
0.0
 11
83.35120000000001
 21
704.9428999999999
 31
0.0
  0
LINE
  5
193
330
1E
100
AcDbEntity
  8
0
100
AcDbLine
 10
83.35120000000001
 20
704.9428999999999
 30
0.0
 11
83.5041
 21
705.4428999999999
 31
0.0
  0
LINE
  5
194
330
1E
100
AcDbEntity
  8
0
100
AcDbLine
 10
83.35120000000001
 20
704.9428999999999
 30
0.0
 11
83.35120000000001
 21
703.9429
 31
0.0
  0
LINE
  5
195
330
1E
100
AcDbEntity
  8
0
100
AcDbLine
 10
83.35120000000001
 20
697.1429
 30
0.0
 11
83.35120000000001
 21
698.1429
 31
0.0
  0
LINE
  5
196
330
1E
100
AcDbEntity
  8
0
100
AcDbLine
 10
83.35120000000001
 20
697.1429
 30
0.0
 11
83.5041
 21
696.6429
 31
0.0
  0
LINE
  5
197
330
1E
100
AcDbEntity
  8
0
100
AcDbLine
 10
83.35120000000001
 20
698.1429
 30
0.0
 11
83.5041
 21
698.6429000000001
 31
0.0
  0
LINE
  5
198
330
1E
100
AcDbEntity
  8
0
100
AcDbLine
 10
83.35120000000001
 20
698.1429
 30
0.0
 11
83.35120000000001
 21
697.1429
 31
0.0
  0
LINE
  5
199
330
1E
100
AcDbEntity
  8
0
100
AcDbLine
 10
83.35120000000001
 20
690.3429
 30
0.0
 11
83.35120000000001
 21
691.3428999999999
 31
0.0
  0
LINE
  5
19A
330
1E
100
AcDbEntity
  8
0
100
AcDbLine
 10
83.35120000000001
 20
690.3429
 30
0.0
 11
83.5041
 21
689.8429
 31
0.0
  0
LINE
  5
19B
330
1E
100
AcDbEntity
  8
0
100
AcDbLine
 10
83.35120000000001
 20
691.3428999999999
 30
0.0
 11
83.5041
 21
691.8428999999999
 31
0.0
  0
LINE
  5
19C
330
1E
100
AcDbEntity
  8
0
100
AcDbLine
 10
83.35120000000001
 20
691.3428999999999
 30
0.0
 11
83.35120000000001
 21
690.3429
 31
0.0
  0
LINE
  5
19D
330
1E
100
AcDbEntity
  8
0
100
AcDbLine
 10
83.35120000000001
 20
683.5429
 30
0.0
 11
83.5041
 21
683.0429
 31
0.0
  0
LINE
  5
19E
330
1E
100
AcDbEntity
  8
0
100
AcDbLine
 10
83.35120000000001
 20
683.5429
 30
0.0
 11
83.35120000000001
 21
684.5429
 31
0.0
  0
LINE
  5
19F
330
1E
100
AcDbEntity
  8
0
100
AcDbLine
 10
83.35120000000001
 20
684.5429
 30
0.0
 11
83.5041
 21
685.0429
 31
0.0
  0
LINE
  5
1A0
330
1E
100
AcDbEntity
  8
0
100
AcDbLine
 10
83.35120000000001
 20
684.5429
 30
0.0
 11
83.35120000000001
 21
683.5429
 31
0.0
  0
LINE
  5
1A1
330
1E
100
AcDbEntity
  8
0
100
AcDbLine
 10
83.35120000000001
 20
676.7428999999999
 30
0.0
 11
83.35120000000001
 21
677.7428999999999
 31
0.0
  0
LINE
  5
1A2
330
1E
100
AcDbEntity
  8
0
100
AcDbLine
 10
83.35120000000001
 20
676.7428999999999
 30
0.0
 11
83.5041
 21
676.2429
 31
0.0
  0
LINE
  5
1A3
330
1E
100
AcDbEntity
  8
0
100
AcDbLine
 10
83.35120000000001
 20
677.7428999999999
 30
0.0
 11
83.5041
 21
678.2428999999999
 31
0.0
  0
LINE
  5
1A4
330
1E
100
AcDbEntity
  8
0
100
AcDbLine
 10
83.35120000000001
 20
677.7428999999999
 30
0.0
 11
83.35120000000001
 21
676.7428999999999
 31
0.0
  0
LINE
  5
1A5
330
1E
100
AcDbEntity
  8
0
100
AcDbLine
 10
83.35120000000001
 20
669.9429
 30
0.0
 11
83.5041
 21
669.4429
 31
0.0
  0
LINE
  5
1A6
330
1E
100
AcDbEntity
  8
0
100
AcDbLine
 10
83.35120000000001
 20
669.9429
 30
0.0
 11
83.35120000000001
 21
670.9429
 31
0.0
  0
LINE
  5
1A7
330
1E
100
AcDbEntity
  8
0
100
AcDbLine
 10
83.35120000000001
 20
670.9429
 30
0.0
 11
83.5041
 21
671.4428999999999
 31
0.0
  0
LINE
  5
1A8
330
1E
100
AcDbEntity
  8
0
100
AcDbLine
 10
83.35120000000001
 20
670.9429
 30
0.0
 11
83.35120000000001
 21
669.9429
 31
0.0
  0
LINE
  5
1A9
330
1E
100
AcDbEntity
  8
0
100
AcDbLine
 10
83.35120000000001
 20
663.1429
 30
0.0
 11
83.5041
 21
662.6429
 31
0.0
  0
LINE
  5
1AA
330
1E
100
AcDbEntity
  8
0
100
AcDbLine
 10
83.35120000000001
 20
663.1429
 30
0.0
 11
83.35120000000001
 21
664.1429
 31
0.0
  0
LINE
  5
1AB
330
1E
100
AcDbEntity
  8
0
100
AcDbLine
 10
83.35120000000001
 20
664.1429
 30
0.0
 11
83.5041
 21
664.6429
 31
0.0
  0
LINE
  5
1AC
330
1E
100
AcDbEntity
  8
0
100
AcDbLine
 10
83.35120000000001
 20
664.1429
 30
0.0
 11
83.35120000000001
 21
663.1429
 31
0.0
  0
LINE
  5
1AD
330
1E
100
AcDbEntity
  8
0
100
AcDbLine
 10
83.35120000000001
 20
657.3428999999999
 30
0.0
 11
83.5041
 21
657.8428999999999
 31
0.0
  0
LINE
  5
1AE
330
1E
100
AcDbEntity
  8
0
100
AcDbLine
 10
83.35120000000001
 20
657.3428999999999
 30
0.0
 11
83.35120000000001
 21
656.3429
 31
0.0
  0
LINE
  5
1AF
330
1E
100
AcDbEntity
  8
0
100
AcDbLine
 10
83.5041
 20
662.6429
 30
0.0
 11
83.81
 21
662.6429
 31
0.0
  0
LINE
  5
1B0
330
1E
100
AcDbEntity
  8
0
100
AcDbLine
 10
83.5041
 20
662.6429
 30
0.0
 11
84.29149999999999
 21
662.6429
 31
0.0
  0
LINE
  5
1B1
330
1E
100
AcDbEntity
  8
0
100
AcDbLine
 10
83.5041
 20
712.2428999999999
 30
0.0
 11
83.81
 21
712.2428999999999
 31
0.0
  0
LINE
  5
1B2
330
1E
100
AcDbEntity
  8
0
100
AcDbLine
 10
83.5041
 20
723.8429
 30
0.0
 11
83.81
 21
723.8429
 31
0.0
  0
LINE
  5
1B3
330
1E
100
AcDbEntity
  8
0
100
AcDbLine
 10
83.5041
 20
723.8429
 30
0.0
 11
84.29149999999999
 21
723.8429
 31
0.0
  0
LINE
  5
1B4
330
1E
100
AcDbEntity
  8
0
100
AcDbLine
 10
83.5041
 20
725.8428999999999
 30
0.0
 11
83.81
 21
725.8428999999999
 31
0.0
  0
LINE
  5
1B5
330
1E
100
AcDbEntity
  8
0
100
AcDbLine
 10
83.5041
 20
719.0429
 30
0.0
 11
83.81
 21
719.0429
 31
0.0
  0
LINE
  5
1B6
330
1E
100
AcDbEntity
  8
0
100
AcDbLine
 10
83.5041
 20
717.0429
 30
0.0
 11
83.81
 21
717.0429
 31
0.0
  0
LINE
  5
1B7
330
1E
100
AcDbEntity
  8
0
100
AcDbLine
 10
83.5041
 20
717.0429
 30
0.0
 11
84.29149999999999
 21
717.0429
 31
0.0
  0
LINE
  5
1B8
330
1E
100
AcDbEntity
  8
0
100
AcDbLine
 10
83.5041
 20
710.2428999999999
 30
0.0
 11
84.29149999999999
 21
710.2428999999999
 31
0.0
  0
LINE
  5
1B9
330
1E
100
AcDbEntity
  8
0
100
AcDbLine
 10
83.5041
 20
710.2428999999999
 30
0.0
 11
83.81
 21
710.2428999999999
 31
0.0
  0
LINE
  5
1BA
330
1E
100
AcDbEntity
  8
0
100
AcDbLine
 10
83.5041
 20
703.4429
 30
0.0
 11
83.81
 21
703.4429
 31
0.0
  0
LINE
  5
1BB
330
1E
100
AcDbEntity
  8
0
100
AcDbLine
 10
83.5041
 20
703.4429
 30
0.0
 11
84.29149999999999
 21
703.4429
 31
0.0
  0
LINE
  5
1BC
330
1E
100
AcDbEntity
  8
0
100
AcDbLine
 10
83.5041
 20
705.4428999999999
 30
0.0
 11
83.81
 21
705.4428999999999
 31
0.0
  0
LINE
  5
1BD
330
1E
100
AcDbEntity
  8
0
100
AcDbLine
 10
83.5041
 20
696.6429
 30
0.0
 11
83.81
 21
696.6429
 31
0.0
  0
LINE
  5
1BE
330
1E
100
AcDbEntity
  8
0
100
AcDbLine
 10
83.5041
 20
696.6429
 30
0.0
 11
84.29149999999999
 21
696.6429
 31
0.0
  0
LINE
  5
1BF
330
1E
100
AcDbEntity
  8
0
100
AcDbLine
 10
83.5041
 20
698.6429000000001
 30
0.0
 11
83.81
 21
698.6429000000001
 31
0.0
  0
LINE
  5
1C0
330
1E
100
AcDbEntity
  8
0
100
AcDbLine
 10
83.5041
 20
689.8429
 30
0.0
 11
83.81
 21
689.8429
 31
0.0
  0
LINE
  5
1C1
330
1E
100
AcDbEntity
  8
0
100
AcDbLine
 10
83.5041
 20
689.8429
 30
0.0
 11
84.29149999999999
 21
689.8429
 31
0.0
  0
LINE
  5
1C2
330
1E
100
AcDbEntity
  8
0
100
AcDbLine
 10
83.5041
 20
691.8428999999999
 30
0.0
 11
83.81
 21
691.8428999999999
 31
0.0
  0
LINE
  5
1C3
330
1E
100
AcDbEntity
  8
0
100
AcDbLine
 10
83.5041
 20
683.0429
 30
0.0
 11
83.81
 21
683.0429
 31
0.0
  0
LINE
  5
1C4
330
1E
100
AcDbEntity
  8
0
100
AcDbLine
 10
83.5041
 20
683.0429
 30
0.0
 11
84.29149999999999
 21
683.0429
 31
0.0
  0
LINE
  5
1C5
330
1E
100
AcDbEntity
  8
0
100
AcDbLine
 10
83.5041
 20
685.0429
 30
0.0
 11
83.81
 21
685.0429
 31
0.0
  0
LINE
  5
1C6
330
1E
100
AcDbEntity
  8
0
100
AcDbLine
 10
83.5041
 20
676.2429
 30
0.0
 11
83.81
 21
676.2429
 31
0.0
  0
LINE
  5
1C7
330
1E
100
AcDbEntity
  8
0
100
AcDbLine
 10
83.5041
 20
676.2429
 30
0.0
 11
84.29149999999999
 21
676.2429
 31
0.0
  0
LINE
  5
1C8
330
1E
100
AcDbEntity
  8
0
100
AcDbLine
 10
83.5041
 20
678.2428999999999
 30
0.0
 11
83.81
 21
678.2428999999999
 31
0.0
  0
LINE
  5
1C9
330
1E
100
AcDbEntity
  8
0
100
AcDbLine
 10
83.5041
 20
669.4429
 30
0.0
 11
83.81
 21
669.4429
 31
0.0
  0
LINE
  5
1CA
330
1E
100
AcDbEntity
  8
0
100
AcDbLine
 10
83.5041
 20
669.4429
 30
0.0
 11
84.29149999999999
 21
669.4429
 31
0.0
  0
LINE
  5
1CB
330
1E
100
AcDbEntity
  8
0
100
AcDbLine
 10
83.5041
 20
671.4428999999999
 30
0.0
 11
83.81
 21
671.4428999999999
 31
0.0
  0
LINE
  5
1CC
330
1E
100
AcDbEntity
  8
0
100
AcDbLine
 10
83.5041
 20
664.6429
 30
0.0
 11
83.81
 21
664.6429
 31
0.0
  0
LINE
  5
1CD
330
1E
100
AcDbEntity
  8
0
100
AcDbLine
 10
83.5041
 20
657.8428999999999
 30
0.0
 11
83.81
 21
657.8428999999999
 31
0.0
  0
LINE
  5
1CE
330
1E
100
AcDbEntity
  8
0
100
AcDbLine
 10
83.5041
 20
655.8429
 30
0.0
 11
83.81
 21
655.8429
 31
0.0
  0
LINE
  5
1CF
330
1E
100
AcDbEntity
  8
0
100
AcDbLine
 10
83.5041
 20
655.8429
 30
0.0
 11
84.24104234527691
 21
655.8429
 31
0.0
  0
LINE
  5
1D0
330
1E
100
AcDbEntity
  8
0
100
AcDbLine
 10
83.35120000000001
 20
656.3429
 30
0.0
 11
83.5041
 21
655.8429
 31
0.0
  0
LINE
  5
1D1
330
1E
100
AcDbEntity
  8
0
100
AcDbLine
 10
83.35120000000001
 20
656.3429
 30
0.0
 11
83.35120000000001
 21
657.3428999999999
 31
0.0
  0
LINE
  5
1D2
330
1E
100
AcDbEntity
  8
0
100
AcDbLine
 10
83.59999999999999
 20
728.3428999999999
 30
0.0
 11
84.8
 21
728.3428999999999
 31
0.0
  0
LINE
  5
1D3
330
1E
100
AcDbEntity
  8
0
100
AcDbLine
 10
83.59999999999999
 20
727.3429
 30
0.0
 11
84.8
 21
727.3429
 31
0.0
  0
LINE
  5
1D4
330
1E
100
AcDbEntity
  8
0
100
AcDbLine
 10
83.9629
 20
657.3428999999999
 30
0.0
 11
83.9629
 21
656.3429
 31
0.0
  0
LINE
  5
1D6
330
1E
100
AcDbEntity
  8
0
100
AcDbLine
 10
83.81
 20
712.2428999999999
 30
0.0
 11
83.9629
 21
711.7428999999999
 31
0.0
  0
LINE
  5
1D8
330
1E
100
AcDbEntity
  8
0
100
AcDbLine
 10
83.81
 20
723.8429
 30
0.0
 11
83.9629
 21
724.3428999999999
 31
0.0
  0
LINE
  5
1DA
330
1E
100
AcDbEntity
  8
0
100
AcDbLine
 10
83.81
 20
725.8428999999999
 30
0.0
 11
83.9629
 21
725.3428999999999
 31
0.0
  0
LINE
  5
1DD
330
1E
100
AcDbEntity
  8
0
100
AcDbLine
 10
83.81
 20
719.0429
 30
0.0
 11
83.9629
 21
718.5429
 31
0.0
  0
LINE
  5
1DE
330
1E
100
AcDbEntity
  8
0
100
AcDbLine
 10
83.81
 20
717.0429
 30
0.0
 11
83.9629
 21
717.5429
 31
0.0
  0
LINE
  5
1E0
330
1E
100
AcDbEntity
  8
0
100
AcDbLine
 10
83.81
 20
710.2428999999999
 30
0.0
 11
83.9629
 21
710.7428999999999
 31
0.0
  0
LINE
  5
1E2
330
1E
100
AcDbEntity
  8
0
100
AcDbLine
 10
83.81
 20
703.4429
 30
0.0
 11
83.9629
 21
703.9429
 31
0.0
  0
LINE
  5
1E5
330
1E
100
AcDbEntity
  8
0
100
AcDbLine
 10
83.81
 20
705.4428999999999
 30
0.0
 11
83.9629
 21
704.9428999999999
 31
0.0
  0
LINE
  5
1E6
330
1E
100
AcDbEntity
  8
0
100
AcDbLine
 10
83.81
 20
696.6429
 30
0.0
 11
83.9629
 21
697.1429
 31
0.0
  0
LINE
  5
1E8
330
1E
100
AcDbEntity
  8
0
100
AcDbLine
 10
83.81
 20
698.6429000000001
 30
0.0
 11
83.9629
 21
698.1429
 31
0.0
  0
LINE
  5
1EA
330
1E
100
AcDbEntity
  8
0
100
AcDbLine
 10
83.81
 20
689.8429
 30
0.0
 11
83.9629
 21
690.3429
 31
0.0
  0
LINE
  5
1EC
330
1E
100
AcDbEntity
  8
0
100
AcDbLine
 10
83.81
 20
691.8428999999999
 30
0.0
 11
83.9629
 21
691.3428999999999
 31
0.0
  0
LINE
  5
1EE
330
1E
100
AcDbEntity
  8
0
100
AcDbLine
 10
83.81
 20
683.0429
 30
0.0
 11
83.9629
 21
683.5429
 31
0.0
  0
LINE
  5
1F1
330
1E
100
AcDbEntity
  8
0
100
AcDbLine
 10
83.81
 20
685.0429
 30
0.0
 11
83.9629
 21
684.5429
 31
0.0
  0
LINE
  5
1F2
330
1E
100
AcDbEntity
  8
0
100
AcDbLine
 10
83.81
 20
676.2429
 30
0.0
 11
83.9629
 21
676.7428999999999
 31
0.0
  0
LINE
  5
1F3
330
1E
100
AcDbEntity
  8
0
100
AcDbLine
 10
83.81
 20
676.2429
 30
0.0
 11
84.4005211726384
 21
676.2429
 31
0.0
  0
LINE
  5
1F4
330
1E
100
AcDbEntity
  8
0
100
AcDbLine
 10
83.81
 20
678.2428999999999
 30
0.0
 11
83.9629
 21
677.7428999999999
 31
0.0
  0
LINE
  5
1F5
330
1E
100
AcDbEntity
  8
0
100
AcDbLine
 10
83.81
 20
678.2428999999999
 30
0.0
 11
84.4161563517915
 21
678.2428999999999
 31
0.0
  0
LINE
  5
1F6
330
1E
100
AcDbEntity
  8
0
100
AcDbLine
 10
83.81
 20
669.4429
 30
0.0
 11
83.9629
 21
669.9429
 31
0.0
  0
LINE
  5
1F7
330
1E
100
AcDbEntity
  8
0
100
AcDbLine
 10
83.81
 20
669.4429
 30
0.0
 11
84.34736156351791
 21
669.4429
 31
0.0
  0
LINE
  5
1F9
330
1E
100
AcDbEntity
  8
0
100
AcDbLine
 10
83.81
 20
671.4428999999999
 30
0.0
 11
83.9629
 21
670.9429
 31
0.0
  0
LINE
  5
1FA
330
1E
100
AcDbEntity
  8
0
100
AcDbLine
 10
83.81
 20
662.6429
 30
0.0
 11
83.9629
 21
663.1429
 31
0.0
  0
LINE
  5
1FB
330
1E
100
AcDbEntity
  8
0
100
AcDbLine
 10
83.81
 20
662.6429
 30
0.0
 11
84.29420195439741
 21
662.6429
 31
0.0
  0
LINE
  5
1FD
330
1E
100
AcDbEntity
  8
0
100
AcDbLine
 10
83.9629
 20
663.1429
 30
0.0
 11
83.9629
 21
664.1429
 31
0.0
  0
LINE
  5
1FF
330
1E
100
AcDbEntity
  8
0
100
AcDbLine
 10
83.9629
 20
711.7428999999999
 30
0.0
 11
83.9629
 21
710.7428999999999
 31
0.0
  0
LINE
  5
200
330
1E
100
AcDbEntity
  8
0
100
AcDbLine
 10
83.9629
 20
717.5429
 30
0.0
 11
83.9629
 21
718.5429
 31
0.0
  0
LINE
  5
202
330
1E
100
AcDbEntity
  8
0
100
AcDbLine
 10
83.9629
 20
724.3428999999999
 30
0.0
 11
83.9629
 21
725.3428999999999
 31
0.0
  0
LINE
  5
205
330
1E
100
AcDbEntity
  8
0
100
AcDbLine
 10
83.9629
 20
725.3428999999999
 30
0.0
 11
83.9629
 21
724.3428999999999
 31
0.0
  0
LINE
  5
207
330
1E
100
AcDbEntity
  8
0
100
AcDbLine
 10
83.9629
 20
718.5429
 30
0.0
 11
83.9629
 21
717.5429
 31
0.0
  0
LINE
  5
209
330
1E
100
AcDbEntity
  8
0
100
AcDbLine
 10
83.9629
 20
710.7428999999999
 30
0.0
 11
83.9629
 21
711.7428999999999
 31
0.0
  0
LINE
  5
20B
330
1E
100
AcDbEntity
  8
0
100
AcDbLine
 10
83.9629
 20
703.9429
 30
0.0
 11
83.9629
 21
704.9428999999999
 31
0.0
  0
LINE
  5
20D
330
1E
100
AcDbEntity
  8
0
100
AcDbLine
 10
83.9629
 20
704.9428999999999
 30
0.0
 11
83.9629
 21
703.9429
 31
0.0
  0
LINE
  5
20F
330
1E
100
AcDbEntity
  8
0
100
AcDbLine
 10
83.9629
 20
697.1429
 30
0.0
 11
83.9629
 21
698.1429
 31
0.0
  0
LINE
  5
210
330
1E
100
AcDbEntity
  8
0
100
AcDbLine
 10
83.9629
 20
698.1429
 30
0.0
 11
83.9629
 21
697.1429
 31
0.0
  0
LINE
  5
213
330
1E
100
AcDbEntity
  8
0
100
AcDbLine
 10
83.9629
 20
690.3429
 30
0.0
 11
83.9629
 21
691.3428999999999
 31
0.0
  0
LINE
  5
214
330
1E
100
AcDbEntity
  8
0
100
AcDbLine
 10
83.9629
 20
691.3428999999999
 30
0.0
 11
83.9629
 21
690.3429
 31
0.0
  0
LINE
  5
217
330
1E
100
AcDbEntity
  8
0
100
AcDbLine
 10
83.9629
 20
683.5429
 30
0.0
 11
83.9629
 21
684.5429
 31
0.0
  0
LINE
  5
219
330
1E
100
AcDbEntity
  8
0
100
AcDbLine
 10
83.9629
 20
684.5429
 30
0.0
 11
83.9629
 21
683.5429
 31
0.0
  0
LINE
  5
21B
330
1E
100
AcDbEntity
  8
0
100
AcDbLine
 10
83.9629
 20
676.7428999999999
 30
0.0
 11
83.9629
 21
677.7428999999999
 31
0.0
  0
LINE
  5
21C
330
1E
100
AcDbEntity
  8
0
100
AcDbLine
 10
83.9629
 20
677.7428999999999
 30
0.0
 11
83.9629
 21
676.7428999999999
 31
0.0
  0
LINE
  5
21F
330
1E
100
AcDbEntity
  8
0
100
AcDbLine
 10
83.9629
 20
669.9429
 30
0.0
 11
83.9629
 21
670.9429
 31
0.0
  0
LINE
  5
221
330
1E
100
AcDbEntity
  8
0
100
AcDbLine
 10
83.9629
 20
670.9429
 30
0.0
 11
83.9629
 21
669.9429
 31
0.0
  0
LINE
  5
223
330
1E
100
AcDbEntity
  8
0
100
AcDbLine
 10
83.9629
 20
664.1429
 30
0.0
 11
83.9629
 21
663.1429
 31
0.0
  0
LINE
  5
224
330
1E
100
AcDbEntity
  8
0
100
AcDbLine
 10
83.81
 20
664.6429
 30
0.0
 11
84.3098371335505
 21
664.6429
 31
0.0
  0
LINE
  5
225
330
1E
100
AcDbEntity
  8
0
100
AcDbLine
 10
83.81
 20
664.6429
 30
0.0
 11
83.9629
 21
664.1429
 31
0.0
  0
LINE
  5
226
330
1E
100
AcDbEntity
  8
0
100
AcDbLine
 10
83.81
 20
657.8428999999999
 30
0.0
 11
83.9629
 21
657.3428999999999
 31
0.0
  0
LINE
  5
227
330
1E
100
AcDbEntity
  8
0
100
AcDbLine
 10
83.81
 20
657.8428999999999
 30
0.0
 11
84.25667752443001
 21
657.8428999999999
 31
0.0
  0
LINE
  5
228
330
1E
100
AcDbEntity
  8
0
100
AcDbLine
 10
83.9629
 20
656.3429
 30
0.0
 11
83.9629
 21
657.3428999999999
 31
0.0
  0
LINE
  5
22A
330
1E
100
AcDbEntity
  8
0
100
AcDbLine
 10
83.81
 20
655.8429
 30
0.0
 11
83.9629
 21
656.3429
 31
0.0
  0
LINE
  5
22C
330
1E
100
AcDbEntity
  8
0
100
AcDbLine
 10
84.59999999999999
 20
727.8429
 30
0.0
 11
85.7
 21
727.8429
 31
0.0
  0
LINE
  5
22D
330
1E
100
AcDbEntity
  8
0
100
AcDbLine
 10
83.59999999999999
 20
747.3429
 30
0.0
 11
84.8
 21
747.3429
 31
0.0
  0
LINE
  5
22E
330
1E
100
AcDbEntity
  8
0
100
AcDbLine
 10
84.8
 20
728.3428999999999
 30
0.0
 11
86.69999999999999
 21
728.3428999999999
 31
0.0
  0
LINE
  5
22F
330
1E
100
AcDbEntity
  8
0
100
AcDbLine
 10
84.19999999999999
 20
727.8429
 30
0.0
 11
84.59999999999999
 21
727.8429
 31
0.0
  0
LINE
  5
230
330
1E
100
AcDbEntity
  8
0
100
AcDbLine
 10
84.8
 20
747.3429
 30
0.0
 11
86.69999999999999
 21
747.3429
 31
0.0
  0
LINE
  5
231
330
1E
100
AcDbEntity
  8
0
100
AcDbLine
 10
84.8
 20
727.3429
 30
0.0
 11
86.69999999999999
 21
727.3429
 31
0.0
  0
LINE
  5
232
330
1E
100
AcDbEntity
  8
0
100
AcDbLine
 10
84.8
 20
573.8429
 30
0.0
 11
86.69999999999999
 21
573.8429
 31
0.0
  0
LINE
  5
233
330
1E
100
AcDbEntity
  8
0
100
AcDbLine
 10
83.59999999999999
 20
573.8429
 30
0.0
 11
84.8
 21
573.8429
 31
0.0
  0
LINE
  5
234
330
1E
100
AcDbEntity
  8
0
100
AcDbLine
 10
84.1
 20
747.8429
 30
0.0
 11
85.20000000000001
 21
747.8429
 31
0.0
  0
LINE
  5
235
330
1E
100
AcDbEntity
  8
0
100
AcDbLine
 10
83.7
 20
747.8429
 30
0.0
 11
84.1
 21
747.8429
 31
0.0
  0
LINE
  5
236
330
1E
100
AcDbEntity
  8
0
100
AcDbLine
 10
83.2
 20
747.3429
 30
0.0
 11
83.7
 21
747.8429
 31
0.0
  0
LINE
  5
237
330
1E
100
AcDbEntity
  8
0
100
AcDbLine
 10
83.2
 20
747.3429
 30
0.0
 11
83.59999999999999
 21
747.3429
 31
0.0
  0
LINE
  5
238
330
1E
100
AcDbEntity
  8
0
100
AcDbLine
 10
83.2
 20
573.8429
 30
0.0
 11
84.19999999999999
 21
572.8429
 31
0.0
  0
LINE
  5
239
330
1E
100
AcDbEntity
  8
0
100
AcDbLine
 10
83.2
 20
573.8429
 30
0.0
 11
83.59999999999999
 21
573.8429
 31
0.0
  0
LINE
  5
23A
330
1E
100
AcDbEntity
  8
0
100
AcDbLine
 10
83.2
 20
573.8429
 30
0.0
 11
83.2
 21
655.8429
 31
0.0
  0
LINE
  5
23B
330
1E
100
AcDbEntity
  8
0
100
AcDbLine
 10
84.19999999999999
 20
572.8429
 30
0.0
 11
84.59999999999999
 21
572.8429
 31
0.0
  0
LINE
  5
23C
330
1E
100
AcDbEntity
  8
0
100
AcDbLine
 10
87.4
 20
572.8429
 30
0.0
 11
89.7
 21
572.8429
 31
0.0
  0
LINE
  5
23D
330
1E
100
AcDbEntity
  8
0
100
AcDbLine
 10
89.7
 20
572.8429
 30
0.0
 11
92.4
 21
572.8429
 31
0.0
  0
LINE
  5
23E
330
1E
100
AcDbEntity
  8
0
100
AcDbLine
 10
88.1
 20
572.8429
 30
0.0
 11
90.20000000000001
 21
572.8429
 31
0.0
  0
LINE
  5
23F
330
1E
100
AcDbEntity
  8
0
100
AcDbLine
 10
98.0
 20
572.8429
 30
0.0
 11
100.7
 21
572.8429
 31
0.0
  0
LINE
  5
240
330
1E
100
AcDbEntity
  8
0
100
AcDbLine
 10
100.2
 20
572.8429
 30
0.0
 11
102.2999999999999
 21
572.8429
 31
0.0
  0
LINE
  5
241
330
1E
100
AcDbEntity
  8
0
100
AcDbLine
 10
97.80000000000001
 20
572.8429
 30
0.0
 11
100.2
 21
572.8429
 31
0.0
  0
LINE
  5
242
330
1E
100
AcDbEntity
  8
0
100
AcDbLine
 10
95.20000000000001
 20
572.8429
 30
0.0
 11
97.80000000000001
 21
572.8429
 31
0.0
  0
LINE
  5
243
330
1E
100
AcDbEntity
  8
0
100
AcDbLine
 10
95.20000000000001
 20
572.8429
 30
0.0
 11
98.0
 21
572.8429
 31
0.0
  0
LINE
  5
244
330
1E
100
AcDbEntity
  8
0
100
AcDbLine
 10
92.4
 20
572.8429
 30
0.0
 11
95.20000000000001
 21
572.8429
 31
0.0
  0
LINE
  5
245
330
1E
100
AcDbEntity
  8
0
100
AcDbLine
 10
90.20000000000001
 20
572.8429
 30
0.0
 11
92.59999999999999
 21
572.8429
 31
0.0
  0
LINE
  5
246
330
1E
100
AcDbEntity
  8
0
100
AcDbLine
 10
92.59999999999999
 20
572.8429
 30
0.0
 11
95.20000000000001
 21
572.8429
 31
0.0
  0
LINE
  5
247
330
1E
100
AcDbEntity
  8
0
100
AcDbLine
 10
85.7
 20
572.8429
 30
0.0
 11
87.4
 21
572.8429
 31
0.0
  0
LINE
  5
248
330
1E
100
AcDbEntity
  8
0
100
AcDbLine
 10
86.5
 20
572.8429
 30
0.0
 11
88.1
 21
572.8429
 31
0.0
  0
LINE
  5
249
330
1E
100
AcDbEntity
  8
0
100
AcDbLine
 10
85.6
 20
572.8429
 30
0.0
 11
86.5
 21
572.8429
 31
0.0
  0
LINE
  5
24A
330
1E
100
AcDbEntity
  8
0
100
AcDbLine
 10
85.5296
 20
711.7428999999999
 30
0.0
 11
85.82019999999999
 21
712.2428999999999
 31
0.0
  0
LINE
  5
24B
330
1E
100
AcDbEntity
  8
0
100
AcDbLine
 10
85.5296
 20
711.7428999999999
 30
0.0
 11
85.5296
 21
710.7428999999999
 31
0.0
  0
LINE
  5
24C
330
1E
100
AcDbEntity
  8
0
100
AcDbLine
 10
85.5296
 20
724.3428999999999
 30
0.0
 11
85.5296
 21
725.3428999999999
 31
0.0
  0
LINE
  5
24D
330
1E
100
AcDbEntity
  8
0
100
AcDbLine
 10
85.5296
 20
724.3428999999999
 30
0.0
 11
85.82019999999999
 21
723.8429
 31
0.0
  0
LINE
  5
24E
330
1E
100
AcDbEntity
  8
0
100
AcDbLine
 10
85.5296
 20
725.3428999999999
 30
0.0
 11
85.82019999999999
 21
725.8428999999999
 31
0.0
  0
LINE
  5
24F
330
1E
100
AcDbEntity
  8
0
100
AcDbLine
 10
85.5296
 20
725.3428999999999
 30
0.0
 11
85.5296
 21
724.3428999999999
 31
0.0
  0
LINE
  5
250
330
1E
100
AcDbEntity
  8
0
100
AcDbLine
 10
85.5296
 20
718.5429
 30
0.0
 11
85.5296
 21
717.5429
 31
0.0
  0
LINE
  5
251
330
1E
100
AcDbEntity
  8
0
100
AcDbLine
 10
85.5296
 20
718.5429
 30
0.0
 11
85.82019999999999
 21
719.0429
 31
0.0
  0
LINE
  5
252
330
1E
100
AcDbEntity
  8
0
100
AcDbLine
 10
85.5296
 20
717.5429
 30
0.0
 11
85.82019999999999
 21
717.0429
 31
0.0
  0
LINE
  5
253
330
1E
100
AcDbEntity
  8
0
100
AcDbLine
 10
85.5296
 20
717.5429
 30
0.0
 11
85.5296
 21
718.5429
 31
0.0
  0
LINE
  5
254
330
1E
100
AcDbEntity
  8
0
100
AcDbLine
 10
85.5296
 20
710.7428999999999
 30
0.0
 11
85.82019999999999
 21
710.2428999999999
 31
0.0
  0
LINE
  5
255
330
1E
100
AcDbEntity
  8
0
100
AcDbLine
 10
85.5296
 20
710.7428999999999
 30
0.0
 11
85.5296
 21
711.7428999999999
 31
0.0
  0
LINE
  5
256
330
1E
100
AcDbEntity
  8
0
100
AcDbLine
 10
85.5296
 20
703.9429
 30
0.0
 11
85.82019999999999
 21
703.4429
 31
0.0
  0
LINE
  5
257
330
1E
100
AcDbEntity
  8
0
100
AcDbLine
 10
85.5296
 20
703.9429
 30
0.0
 11
85.5296
 21
704.9428999999999
 31
0.0
  0
LINE
  5
258
330
1E
100
AcDbEntity
  8
0
100
AcDbLine
 10
85.5296
 20
704.9428999999999
 30
0.0
 11
85.82019999999999
 21
705.4428999999999
 31
0.0
  0
LINE
  5
259
330
1E
100
AcDbEntity
  8
0
100
AcDbLine
 10
85.5296
 20
704.9428999999999
 30
0.0
 11
85.5296
 21
703.9429
 31
0.0
  0
LINE
  5
25A
330
1E
100
AcDbEntity
  8
0
100
AcDbLine
 10
85.5296
 20
698.1429
 30
0.0
 11
85.82019999999999
 21
698.6429000000001
 31
0.0
  0
LINE
  5
25B
330
1E
100
AcDbEntity
  8
0
100
AcDbLine
 10
85.5296
 20
698.1429
 30
0.0
 11
85.5296
 21
697.1429
 31
0.0
  0
LINE
  5
25C
330
1E
100
AcDbEntity
  8
0
100
AcDbLine
 10
85.5296
 20
697.1429
 30
0.0
 11
85.82019999999999
 21
696.6429
 31
0.0
  0
LINE
  5
25D
330
1E
100
AcDbEntity
  8
0
100
AcDbLine
 10
85.5296
 20
697.1429
 30
0.0
 11
85.5296
 21
698.1429
 31
0.0
  0
LINE
  5
25E
330
1E
100
AcDbEntity
  8
0
100
AcDbLine
 10
85.5296
 20
691.3428999999999
 30
0.0
 11
85.82019999999999
 21
691.8428999999999
 31
0.0
  0
LINE
  5
25F
330
1E
100
AcDbEntity
  8
0
100
AcDbLine
 10
85.5296
 20
691.3428999999999
 30
0.0
 11
85.5296
 21
690.3429
 31
0.0
  0
LINE
  5
260
330
1E
100
AcDbEntity
  8
0
100
AcDbLine
 10
85.5296
 20
690.3429
 30
0.0
 11
85.82019999999999
 21
689.8429
 31
0.0
  0
LINE
  5
261
330
1E
100
AcDbEntity
  8
0
100
AcDbLine
 10
85.5296
 20
690.3429
 30
0.0
 11
85.5296
 21
691.3428999999999
 31
0.0
  0
LINE
  5
262
330
1E
100
AcDbEntity
  8
0
100
AcDbLine
 10
85.5296
 20
683.5429
 30
0.0
 11
85.82019999999999
 21
683.0429
 31
0.0
  0
LINE
  5
263
330
1E
100
AcDbEntity
  8
0
100
AcDbLine
 10
85.5296
 20
683.5429
 30
0.0
 11
85.5296
 21
684.5429
 31
0.0
  0
LINE
  5
264
330
1E
100
AcDbEntity
  8
0
100
AcDbLine
 10
85.5296
 20
684.5429
 30
0.0
 11
85.82019999999999
 21
685.0429
 31
0.0
  0
LINE
  5
265
330
1E
100
AcDbEntity
  8
0
100
AcDbLine
 10
85.5296
 20
684.5429
 30
0.0
 11
85.5296
 21
683.5429
 31
0.0
  0
LINE
  5
266
330
1E
100
AcDbEntity
  8
0
100
AcDbLine
 10
85.5296
 20
677.7428999999999
 30
0.0
 11
85.82019999999999
 21
678.2428999999999
 31
0.0
  0
LINE
  5
267
330
1E
100
AcDbEntity
  8
0
100
AcDbLine
 10
85.5296
 20
677.7428999999999
 30
0.0
 11
85.5296
 21
676.7428999999999
 31
0.0
  0
LINE
  5
268
330
1E
100
AcDbEntity
  8
0
100
AcDbLine
 10
85.5296
 20
676.7428999999999
 30
0.0
 11
85.82019999999999
 21
676.2429
 31
0.0
  0
LINE
  5
269
330
1E
100
AcDbEntity
  8
0
100
AcDbLine
 10
85.5296
 20
676.7428999999999
 30
0.0
 11
85.5296
 21
677.7428999999999
 31
0.0
  0
LINE
  5
26A
330
1E
100
AcDbEntity
  8
0
100
AcDbLine
 10
85.5296
 20
669.9429
 30
0.0
 11
85.82019999999999
 21
669.4429
 31
0.0
  0
LINE
  5
26B
330
1E
100
AcDbEntity
  8
0
100
AcDbLine
 10
85.5296
 20
669.9429
 30
0.0
 11
85.5296
 21
670.9429
 31
0.0
  0
LINE
  5
26C
330
1E
100
AcDbEntity
  8
0
100
AcDbLine
 10
85.5296
 20
670.9429
 30
0.0
 11
85.82019999999999
 21
671.4428999999999
 31
0.0
  0
LINE
  5
26D
330
1E
100
AcDbEntity
  8
0
100
AcDbLine
 10
85.5296
 20
670.9429
 30
0.0
 11
85.5296
 21
669.9429
 31
0.0
  0
LINE
  5
26E
330
1E
100
AcDbEntity
  8
0
100
AcDbLine
 10
85.5296
 20
663.1429
 30
0.0
 11
85.82019999999999
 21
662.6429
 31
0.0
  0
LINE
  5
26F
330
1E
100
AcDbEntity
  8
0
100
AcDbLine
 10
85.5296
 20
663.1429
 30
0.0
 11
85.5296
 21
664.1429
 31
0.0
  0
LINE
  5
270
330
1E
100
AcDbEntity
  8
0
100
AcDbLine
 10
85.5296
 20
664.1429
 30
0.0
 11
85.82019999999999
 21
664.6429
 31
0.0
  0
LINE
  5
271
330
1E
100
AcDbEntity
  8
0
100
AcDbLine
 10
85.5296
 20
664.1429
 30
0.0
 11
85.5296
 21
663.1429
 31
0.0
  0
LINE
  5
272
330
1E
100
AcDbEntity
  8
0
100
AcDbLine
 10
85.5296
 20
657.3428999999999
 30
0.0
 11
85.82019999999999
 21
657.8428999999999
 31
0.0
  0
LINE
  5
273
330
1E
100
AcDbEntity
  8
0
100
AcDbLine
 10
85.5296
 20
657.3428999999999
 30
0.0
 11
85.5296
 21
656.3429
 31
0.0
  0
LINE
  5
274
330
1E
100
AcDbEntity
  8
0
100
AcDbLine
 10
85.5296
 20
656.3429
 30
0.0
 11
85.82019999999999
 21
655.8429
 31
0.0
  0
LINE
  5
275
330
1E
100
AcDbEntity
  8
0
100
AcDbLine
 10
85.5296
 20
656.3429
 30
0.0
 11
85.5296
 21
657.3428999999999
 31
0.0
  0
LINE
  5
276
330
1E
100
AcDbEntity
  8
0
100
AcDbLine
 10
85.20000000000001
 20
747.8429
 30
0.0
 11
87.09999999999999
 21
747.8429
 31
0.0
  0
LINE
  5
277
330
1E
100
AcDbEntity
  8
0
100
AcDbLine
 10
86.69999999999999
 20
573.8429
 30
0.0
 11
89.19999999999999
 21
573.8429
 31
0.0
  0
LINE
  5
278
330
1E
100
AcDbEntity
  8
0
100
AcDbLine
 10
98.3
 20
573.8429
 30
0.0
 11
101.2
 21
573.8429
 31
0.0
  0
LINE
  5
279
330
1E
100
AcDbEntity
  8
0
100
AcDbLine
 10
95.20000000000001
 20
573.8429
 30
0.0
 11
98.3
 21
573.8429
 31
0.0
  0
LINE
  5
27A
330
1E
100
AcDbEntity
  8
0
100
AcDbLine
 10
89.19999999999999
 20
573.8429
 30
0.0
 11
92.09999999999999
 21
573.8429
 31
0.0
  0
LINE
  5
27B
330
1E
100
AcDbEntity
  8
0
100
AcDbLine
 10
86.4015
 20
655.8429
 30
0.0
 11
86.69209999999999
 21
656.3429
 31
0.0
  0
LINE
  5
27C
330
1E
100
AcDbEntity
  8
0
100
AcDbLine
 10
86.4015
 20
655.8429
 30
0.0
 11
86.69999999999999
 21
655.8429
 31
0.0
  0
LINE
  5
27D
330
1E
100
AcDbEntity
  8
0
100
AcDbLine
 10
86.69209999999999
 20
657.3428999999999
 30
0.0
 11
86.69209999999999
 21
656.3429
 31
0.0
  0
LINE
  5
27F
330
1E
100
AcDbEntity
  8
0
100
AcDbLine
 10
85.82019999999999
 20
657.8428999999999
 30
0.0
 11
86.4015
 21
657.8428999999999
 31
0.0
  0
LINE
  5
280
330
1E
100
AcDbEntity
  8
0
100
AcDbLine
 10
85.82019999999999
 20
712.2428999999999
 30
0.0
 11
86.4015
 21
712.2428999999999
 31
0.0
  0
LINE
  5
281
330
1E
100
AcDbEntity
  8
0
100
AcDbLine
 10
85.82019999999999
 20
723.8429
 30
0.0
 11
86.4015
 21
723.8429
 31
0.0
  0
LINE
  5
282
330
1E
100
AcDbEntity
  8
0
100
AcDbLine
 10
85.82019999999999
 20
723.8429
 30
0.0
 11
86.43309999999999
 21
723.8429
 31
0.0
  0
LINE
  5
283
330
1E
100
AcDbEntity
  8
0
100
AcDbLine
 10
85.82019999999999
 20
725.8428999999999
 30
0.0
 11
86.4015
 21
725.8428999999999
 31
0.0
  0
LINE
  5
284
330
1E
100
AcDbEntity
  8
0
100
AcDbLine
 10
85.82019999999999
 20
719.0429
 30
0.0
 11
86.4015
 21
719.0429
 31
0.0
  0
LINE
  5
285
330
1E
100
AcDbEntity
  8
0
100
AcDbLine
 10
85.82019999999999
 20
717.0429
 30
0.0
 11
86.4015
 21
717.0429
 31
0.0
  0
LINE
  5
286
330
1E
100
AcDbEntity
  8
0
100
AcDbLine
 10
85.82019999999999
 20
717.0429
 30
0.0
 11
86.43309999999999
 21
717.0429
 31
0.0
  0
LINE
  5
287
330
1E
100
AcDbEntity
  8
0
100
AcDbLine
 10
85.82019999999999
 20
710.2428999999999
 30
0.0
 11
86.4015
 21
710.2428999999999
 31
0.0
  0
LINE
  5
288
330
1E
100
AcDbEntity
  8
0
100
AcDbLine
 10
85.82019999999999
 20
710.2428999999999
 30
0.0
 11
86.43309999999999
 21
710.2428999999999
 31
0.0
  0
LINE
  5
289
330
1E
100
AcDbEntity
  8
0
100
AcDbLine
 10
85.82019999999999
 20
703.4429
 30
0.0
 11
86.4015
 21
703.4429
 31
0.0
  0
LINE
  5
28A
330
1E
100
AcDbEntity
  8
0
100
AcDbLine
 10
85.82019999999999
 20
703.4429
 30
0.0
 11
86.40416938110751
 21
703.4429
 31
0.0
  0
LINE
  5
28B
330
1E
100
AcDbEntity
  8
0
100
AcDbLine
 10
85.82019999999999
 20
705.4428999999999
 30
0.0
 11
86.4015
 21
705.4428999999999
 31
0.0
  0
LINE
  5
28C
330
1E
100
AcDbEntity
  8
0
100
AcDbLine
 10
85.82019999999999
 20
698.6429000000001
 30
0.0
 11
86.4015
 21
698.6429000000001
 31
0.0
  0
LINE
  5
28D
330
1E
100
AcDbEntity
  8
0
100
AcDbLine
 10
85.82019999999999
 20
696.6429
 30
0.0
 11
86.4015
 21
696.6429
 31
0.0
  0
LINE
  5
28E
330
1E
100
AcDbEntity
  8
0
100
AcDbLine
 10
85.82019999999999
 20
696.6429
 30
0.0
 11
86.31999999999999
 21
696.6429
 31
0.0
  0
LINE
  5
28F
330
1E
100
AcDbEntity
  8
0
100
AcDbLine
 10
85.82019999999999
 20
691.8428999999999
 30
0.0
 11
86.4015
 21
691.8428999999999
 31
0.0
  0
LINE
  5
290
330
1E
100
AcDbEntity
  8
0
100
AcDbLine
 10
85.82019999999999
 20
689.8429
 30
0.0
 11
86.4015
 21
689.8429
 31
0.0
  0
LINE
  5
291
330
1E
100
AcDbEntity
  8
0
100
AcDbLine
 10
85.82019999999999
 20
689.8429
 30
0.0
 11
86.23583061889249
 21
689.8429
 31
0.0
  0
LINE
  5
292
330
1E
100
AcDbEntity
  8
0
100
AcDbLine
 10
85.82019999999999
 20
683.0429
 30
0.0
 11
86.4015
 21
683.0429
 31
0.0
  0
LINE
  5
293
330
1E
100
AcDbEntity
  8
0
100
AcDbLine
 10
85.82019999999999
 20
683.0429
 30
0.0
 11
86.15166123778498
 21
683.0429
 31
0.0
  0
LINE
  5
294
330
1E
100
AcDbEntity
  8
0
100
AcDbLine
 10
85.82019999999999
 20
685.0429
 30
0.0
 11
86.4015
 21
685.0429
 31
0.0
  0
LINE
  5
295
330
1E
100
AcDbEntity
  8
0
100
AcDbLine
 10
85.82019999999999
 20
678.2428999999999
 30
0.0
 11
86.4015
 21
678.2428999999999
 31
0.0
  0
LINE
  5
296
330
1E
100
AcDbEntity
  8
0
100
AcDbLine
 10
85.82019999999999
 20
676.2429
 30
0.0
 11
86.4015
 21
676.2429
 31
0.0
  0
LINE
  5
297
330
1E
100
AcDbEntity
  8
0
100
AcDbLine
 10
85.82019999999999
 20
676.2429
 30
0.0
 11
86.0674918566775
 21
676.2429
 31
0.0
  0
LINE
  5
298
330
1E
100
AcDbEntity
  8
0
100
AcDbLine
 10
85.82019999999999
 20
669.4429
 30
0.0
 11
86.4015
 21
669.4429
 31
0.0
  0
LINE
  5
299
330
1E
100
AcDbEntity
  8
0
100
AcDbLine
 10
85.82019999999999
 20
669.4429
 30
0.0
 11
86.43309999999999
 21
669.4429
 31
0.0
  0
LINE
  5
29A
330
1E
100
AcDbEntity
  8
0
100
AcDbLine
 10
85.82019999999999
 20
671.4428999999999
 30
0.0
 11
86.4015
 21
671.4428999999999
 31
0.0
  0
LINE
  5
29B
330
1E
100
AcDbEntity
  8
0
100
AcDbLine
 10
85.82019999999999
 20
662.6429
 30
0.0
 11
86.4015
 21
662.6429
 31
0.0
  0
LINE
  5
29C
330
1E
100
AcDbEntity
  8
0
100
AcDbLine
 10
85.82019999999999
 20
662.6429
 30
0.0
 11
86.43309999999999
 21
662.6429
 31
0.0
  0
LINE
  5
29E
330
1E
100
AcDbEntity
  8
0
100
AcDbLine
 10
86.69209999999999
 20
663.1429
 30
0.0
 11
86.69209999999999
 21
664.1429
 31
0.0
  0
LINE
  5
29F
330
1E
100
AcDbEntity
  8
0
100
AcDbLine
 10
86.69209999999999
 20
664.1429
 30
0.0
 11
86.69209999999999
 21
663.1429
 31
0.0
  0
LINE
  5
2A1
330
1E
100
AcDbEntity
  8
0
100
AcDbLine
 10
86.4015
 20
662.6429
 30
0.0
 11
86.69999999999999
 21
662.6429
 31
0.0
  0
LINE
  5
2A2
330
1E
100
AcDbEntity
  8
0
100
AcDbLine
 10
86.4015
 20
662.6429
 30
0.0
 11
86.69209999999999
 21
663.1429
 31
0.0
  0
LINE
  5
2A3
330
1E
100
AcDbEntity
  8
0
100
AcDbLine
 10
86.4015
 20
712.2428999999999
 30
0.0
 11
86.69209999999999
 21
711.7428999999999
 31
0.0
  0
LINE
  5
2A4
330
1E
100
AcDbEntity
  8
0
100
AcDbLine
 10
86.4015
 20
712.2428999999999
 30
0.0
 11
86.69999999999999
 21
712.2428999999999
 31
0.0
  0
LINE
  5
2A5
330
1E
100
AcDbEntity
  8
0
100
AcDbLine
 10
86.4015
 20
723.8429
 30
0.0
 11
86.69209999999999
 21
724.3428999999999
 31
0.0
  0
LINE
  5
2A6
330
1E
100
AcDbEntity
  8
0
100
AcDbLine
 10
86.4015
 20
723.8429
 30
0.0
 11
86.69999999999999
 21
723.8429
 31
0.0
  0
LINE
  5
2A7
330
1E
100
AcDbEntity
  8
0
100
AcDbLine
 10
86.4015
 20
725.8428999999999
 30
0.0
 11
86.69209999999999
 21
725.3428999999999
 31
0.0
  0
LINE
  5
2A8
330
1E
100
AcDbEntity
  8
0
100
AcDbLine
 10
86.4015
 20
725.8428999999999
 30
0.0
 11
86.69999999999999
 21
725.8428999999999
 31
0.0
  0
LINE
  5
2A9
330
1E
100
AcDbEntity
  8
0
100
AcDbLine
 10
86.4015
 20
719.0429
 30
0.0
 11
86.69999999999999
 21
719.0429
 31
0.0
  0
LINE
  5
2AA
330
1E
100
AcDbEntity
  8
0
100
AcDbLine
 10
86.4015
 20
719.0429
 30
0.0
 11
86.69209999999999
 21
718.5429
 31
0.0
  0
LINE
  5
2AB
330
1E
100
AcDbEntity
  8
0
100
AcDbLine
 10
86.4015
 20
717.0429
 30
0.0
 11
86.69209999999999
 21
717.5429
 31
0.0
  0
LINE
  5
2AC
330
1E
100
AcDbEntity
  8
0
100
AcDbLine
 10
86.4015
 20
717.0429
 30
0.0
 11
86.69999999999999
 21
717.0429
 31
0.0
  0
LINE
  5
2AD
330
1E
100
AcDbEntity
  8
0
100
AcDbLine
 10
86.4015
 20
710.2428999999999
 30
0.0
 11
86.69209999999999
 21
710.7428999999999
 31
0.0
  0
LINE
  5
2AE
330
1E
100
AcDbEntity
  8
0
100
AcDbLine
 10
86.4015
 20
710.2428999999999
 30
0.0
 11
86.69999999999999
 21
710.2428999999999
 31
0.0
  0
LINE
  5
2AF
330
1E
100
AcDbEntity
  8
0
100
AcDbLine
 10
86.4015
 20
703.4429
 30
0.0
 11
86.69999999999999
 21
703.4429
 31
0.0
  0
LINE
  5
2B0
330
1E
100
AcDbEntity
  8
0
100
AcDbLine
 10
86.4015
 20
703.4429
 30
0.0
 11
86.69209999999999
 21
703.9429
 31
0.0
  0
LINE
  5
2B1
330
1E
100
AcDbEntity
  8
0
100
AcDbLine
 10
86.4015
 20
705.4428999999999
 30
0.0
 11
86.69999999999999
 21
705.4428999999999
 31
0.0
  0
LINE
  5
2B2
330
1E
100
AcDbEntity
  8
0
100
AcDbLine
 10
86.4015
 20
705.4428999999999
 30
0.0
 11
86.69209999999999
 21
704.9428999999999
 31
0.0
  0
LINE
  5
2B3
330
1E
100
AcDbEntity
  8
0
100
AcDbLine
 10
86.4015
 20
698.6429000000001
 30
0.0
 11
86.69209999999999
 21
698.1429
 31
0.0
  0
LINE
  5
2B4
330
1E
100
AcDbEntity
  8
0
100
AcDbLine
 10
86.4015
 20
698.6429000000001
 30
0.0
 11
86.69999999999999
 21
698.6429000000001
 31
0.0
  0
LINE
  5
2B5
330
1E
100
AcDbEntity
  8
0
100
AcDbLine
 10
86.4015
 20
696.6429
 30
0.0
 11
86.69209999999999
 21
697.1429
 31
0.0
  0
LINE
  5
2B6
330
1E
100
AcDbEntity
  8
0
100
AcDbLine
 10
86.4015
 20
696.6429
 30
0.0
 11
86.69999999999999
 21
696.6429
 31
0.0
  0
LINE
  5
2B7
330
1E
100
AcDbEntity
  8
0
100
AcDbLine
 10
86.4015
 20
691.8428999999999
 30
0.0
 11
86.69209999999999
 21
691.3428999999999
 31
0.0
  0
LINE
  5
2B8
330
1E
100
AcDbEntity
  8
0
100
AcDbLine
 10
86.4015
 20
691.8428999999999
 30
0.0
 11
86.69999999999999
 21
691.8428999999999
 31
0.0
  0
LINE
  5
2B9
330
1E
100
AcDbEntity
  8
0
100
AcDbLine
 10
86.4015
 20
689.8429
 30
0.0
 11
86.69209999999999
 21
690.3429
 31
0.0
  0
LINE
  5
2BA
330
1E
100
AcDbEntity
  8
0
100
AcDbLine
 10
86.4015
 20
689.8429
 30
0.0
 11
86.69999999999999
 21
689.8429
 31
0.0
  0
LINE
  5
2BB
330
1E
100
AcDbEntity
  8
0
100
AcDbLine
 10
86.4015
 20
683.0429
 30
0.0
 11
86.69999999999999
 21
683.0429
 31
0.0
  0
LINE
  5
2BC
330
1E
100
AcDbEntity
  8
0
100
AcDbLine
 10
86.4015
 20
683.0429
 30
0.0
 11
86.69209999999999
 21
683.5429
 31
0.0
  0
LINE
  5
2BD
330
1E
100
AcDbEntity
  8
0
100
AcDbLine
 10
86.4015
 20
685.0429
 30
0.0
 11
86.69999999999999
 21
685.0429
 31
0.0
  0
LINE
  5
2BE
330
1E
100
AcDbEntity
  8
0
100
AcDbLine
 10
86.4015
 20
685.0429
 30
0.0
 11
86.69209999999999
 21
684.5429
 31
0.0
  0
LINE
  5
2BF
330
1E
100
AcDbEntity
  8
0
100
AcDbLine
 10
86.4015
 20
678.2428999999999
 30
0.0
 11
86.69209999999999
 21
677.7428999999999
 31
0.0
  0
LINE
  5
2C0
330
1E
100
AcDbEntity
  8
0
100
AcDbLine
 10
86.4015
 20
678.2428999999999
 30
0.0
 11
86.69999999999999
 21
678.2428999999999
 31
0.0
  0
LINE
  5
2C1
330
1E
100
AcDbEntity
  8
0
100
AcDbLine
 10
86.4015
 20
676.2429
 30
0.0
 11
86.69209999999999
 21
676.7428999999999
 31
0.0
  0
LINE
  5
2C2
330
1E
100
AcDbEntity
  8
0
100
AcDbLine
 10
86.4015
 20
676.2429
 30
0.0
 11
86.69999999999999
 21
676.2429
 31
0.0
  0
LINE
  5
2C3
330
1E
100
AcDbEntity
  8
0
100
AcDbLine
 10
86.4015
 20
669.4429
 30
0.0
 11
86.69999999999999
 21
669.4429
 31
0.0
  0
LINE
  5
2C4
330
1E
100
AcDbEntity
  8
0
100
AcDbLine
 10
86.4015
 20
669.4429
 30
0.0
 11
86.69209999999999
 21
669.9429
 31
0.0
  0
LINE
  5
2C6
330
1E
100
AcDbEntity
  8
0
100
AcDbLine
 10
86.69209999999999
 20
669.9429
 30
0.0
 11
86.69209999999999
 21
670.9429
 31
0.0
  0
LINE
  5
2C7
330
1E
100
AcDbEntity
  8
0
100
AcDbLine
 10
86.69209999999999
 20
711.7428999999999
 30
0.0
 11
86.69209999999999
 21
710.7428999999999
 31
0.0
  0
LINE
  5
2C9
330
1E
100
AcDbEntity
  8
0
100
AcDbLine
 10
86.69209999999999
 20
724.3428999999999
 30
0.0
 11
86.69209999999999
 21
725.3428999999999
 31
0.0
  0
LINE
  5
2CC
330
1E
100
AcDbEntity
  8
0
100
AcDbLine
 10
86.69209999999999
 20
725.3428999999999
 30
0.0
 11
86.69209999999999
 21
724.3428999999999
 31
0.0
  0
LINE
  5
2CD
330
1E
100
AcDbEntity
  8
0
100
AcDbLine
 10
86.69209999999999
 20
717.5429
 30
0.0
 11
86.69209999999999
 21
718.5429
 31
0.0
  0
LINE
  5
2D0
330
1E
100
AcDbEntity
  8
0
100
AcDbLine
 10
86.69209999999999
 20
718.5429
 30
0.0
 11
86.69209999999999
 21
717.5429
 31
0.0
  0
LINE
  5
2D2
330
1E
100
AcDbEntity
  8
0
100
AcDbLine
 10
86.69209999999999
 20
710.7428999999999
 30
0.0
 11
86.69209999999999
 21
711.7428999999999
 31
0.0
  0
LINE
  5
2D4
330
1E
100
AcDbEntity
  8
0
100
AcDbLine
 10
86.69209999999999
 20
703.9429
 30
0.0
 11
86.69209999999999
 21
704.9428999999999
 31
0.0
  0
LINE
  5
2D5
330
1E
100
AcDbEntity
  8
0
100
AcDbLine
 10
86.69209999999999
 20
704.9428999999999
 30
0.0
 11
86.69209999999999
 21
703.9429
 31
0.0
  0
LINE
  5
2D7
330
1E
100
AcDbEntity
  8
0
100
AcDbLine
 10
86.69209999999999
 20
698.1429
 30
0.0
 11
86.69209999999999
 21
697.1429
 31
0.0
  0
LINE
  5
2D9
330
1E
100
AcDbEntity
  8
0
100
AcDbLine
 10
86.69209999999999
 20
697.1429
 30
0.0
 11
86.69209999999999
 21
698.1429
 31
0.0
  0
LINE
  5
2DB
330
1E
100
AcDbEntity
  8
0
100
AcDbLine
 10
86.69209999999999
 20
691.3428999999999
 30
0.0
 11
86.69209999999999
 21
690.3429
 31
0.0
  0
LINE
  5
2DD
330
1E
100
AcDbEntity
  8
0
100
AcDbLine
 10
86.69209999999999
 20
690.3429
 30
0.0
 11
86.69209999999999
 21
691.3428999999999
 31
0.0
  0
LINE
  5
2E0
330
1E
100
AcDbEntity
  8
0
100
AcDbLine
 10
86.69209999999999
 20
683.5429
 30
0.0
 11
86.69209999999999
 21
684.5429
 31
0.0
  0
LINE
  5
2E1
330
1E
100
AcDbEntity
  8
0
100
AcDbLine
 10
86.69209999999999
 20
684.5429
 30
0.0
 11
86.69209999999999
 21
683.5429
 31
0.0
  0
LINE
  5
2E3
330
1E
100
AcDbEntity
  8
0
100
AcDbLine
 10
86.69209999999999
 20
677.7428999999999
 30
0.0
 11
86.69209999999999
 21
676.7428999999999
 31
0.0
  0
LINE
  5
2E5
330
1E
100
AcDbEntity
  8
0
100
AcDbLine
 10
86.69209999999999
 20
676.7428999999999
 30
0.0
 11
86.69209999999999
 21
677.7428999999999
 31
0.0
  0
LINE
  5
2E7
330
1E
100
AcDbEntity
  8
0
100
AcDbLine
 10
86.69209999999999
 20
670.9429
 30
0.0
 11
86.69209999999999
 21
669.9429
 31
0.0
  0
LINE
  5
2E9
330
1E
100
AcDbEntity
  8
0
100
AcDbLine
 10
86.4015
 20
671.4428999999999
 30
0.0
 11
86.69999999999999
 21
671.4428999999999
 31
0.0
  0
LINE
  5
2EA
330
1E
100
AcDbEntity
  8
0
100
AcDbLine
 10
86.4015
 20
671.4428999999999
 30
0.0
 11
86.69209999999999
 21
670.9429
 31
0.0
  0
LINE
  5
2EB
330
1E
100
AcDbEntity
  8
0
100
AcDbLine
 10
86.4015
 20
664.6429
 30
0.0
 11
86.69999999999999
 21
664.6429
 31
0.0
  0
LINE
  5
2EC
330
1E
100
AcDbEntity
  8
0
100
AcDbLine
 10
86.4015
 20
664.6429
 30
0.0
 11
86.69209999999999
 21
664.1429
 31
0.0
  0
LINE
  5
2ED
330
1E
100
AcDbEntity
  8
0
100
AcDbLine
 10
85.82019999999999
 20
664.6429
 30
0.0
 11
86.4015
 21
664.6429
 31
0.0
  0
LINE
  5
2EE
330
1E
100
AcDbEntity
  8
0
100
AcDbLine
 10
86.4015
 20
657.8428999999999
 30
0.0
 11
86.69209999999999
 21
657.3428999999999
 31
0.0
  0
LINE
  5
2EF
330
1E
100
AcDbEntity
  8
0
100
AcDbLine
 10
86.4015
 20
657.8428999999999
 30
0.0
 11
86.69999999999999
 21
657.8428999999999
 31
0.0
  0
LINE
  5
2F0
330
1E
100
AcDbEntity
  8
0
100
AcDbLine
 10
86.69209999999999
 20
656.3429
 30
0.0
 11
86.69209999999999
 21
657.3428999999999
 31
0.0
  0
LINE
  5
2F2
330
1E
100
AcDbEntity
  8
0
100
AcDbLine
 10
85.82019999999999
 20
655.8429
 30
0.0
 11
86.4015
 21
655.8429
 31
0.0
  0
LINE
  5
2F3
330
1E
100
AcDbEntity
  8
0
100
AcDbLine
 10
85.82019999999999
 20
655.8429
 30
0.0
 11
86.43309999999999
 21
655.8429
 31
0.0
  0
LINE
  5
2F4
330
1E
100
AcDbEntity
  8
0
100
AcDbLine
 10
86.69999999999999
 20
727.3429
 30
0.0
 11
89.19999999999999
 21
727.3429
 31
0.0
  0
LINE
  5
2F5
330
1E
100
AcDbEntity
  8
0
100
AcDbLine
 10
87.09999999999999
 20
747.8429
 30
0.0
 11
89.50000000000001
 21
747.8429
 31
0.0
  0
LINE
  5
2F6
330
1E
100
AcDbEntity
  8
0
100
AcDbLine
 10
86.69999999999999
 20
747.3429
 30
0.0
 11
89.19999999999999
 21
747.3429
 31
0.0
  0
LINE
  5
2F7
330
1E
100
AcDbEntity
  8
0
100
AcDbLine
 10
86.69999999999999
 20
728.3428999999999
 30
0.0
 11
89.19999999999999
 21
728.3428999999999
 31
0.0
  0
LINE
  5
2F8
330
1E
100
AcDbEntity
  8
0
100
AcDbLine
 10
89.50000000000001
 20
747.8429
 30
0.0
 11
92.2
 21
747.8429
 31
0.0
  0
LINE
  5
2F9
330
1E
100
AcDbEntity
  8
0
100
AcDbLine
 10
89.19999999999999
 20
747.3429
 30
0.0
 11
92.09999999999999
 21
747.3429
 31
0.0
  0
LINE
  5
2FA
330
1E
100
AcDbEntity
  8
0
100
AcDbLine
 10
89.19999999999999
 20
728.3428999999999
 30
0.0
 11
92.09999999999999
 21
728.3428999999999
 31
0.0
  0
LINE
  5
2FB
330
1E
100
AcDbEntity
  8
0
100
AcDbLine
 10
87.4
 20
727.8429
 30
0.0
 11
89.7
 21
727.8429
 31
0.0
  0
LINE
  5
2FC
330
1E
100
AcDbEntity
  8
0
100
AcDbLine
 10
92.09999999999999
 20
728.3428999999999
 30
0.0
 11
95.20000000000001
 21
728.3428999999999
 31
0.0
  0
LINE
  5
2FD
330
1E
100
AcDbEntity
  8
0
100
AcDbLine
 10
89.7
 20
727.8429
 30
0.0
 11
92.4
 21
727.8429
 31
0.0
  0
LINE
  5
2FE
330
1E
100
AcDbEntity
  8
0
100
AcDbLine
 10
89.19999999999999
 20
727.3429
 30
0.0
 11
92.09999999999999
 21
727.3429
 31
0.0
  0
LINE
  5
2FF
330
1E
100
AcDbEntity
  8
0
100
AcDbLine
 10
95.20000000000001
 20
727.8429
 30
0.0
 11
98.0
 21
727.8429
 31
0.0
  0
LINE
  5
300
330
1E
100
AcDbEntity
  8
0
100
AcDbLine
 10
98.0
 20
727.8429
 30
0.0
 11
100.7
 21
727.8429
 31
0.0
  0
LINE
  5
301
330
1E
100
AcDbEntity
  8
0
100
AcDbLine
 10
98.3
 20
727.3429
 30
0.0
 11
101.2
 21
727.3429
 31
0.0
  0
LINE
  5
302
330
1E
100
AcDbEntity
  8
0
100
AcDbLine
 10
95.20000000000001
 20
727.3429
 30
0.0
 11
98.3
 21
727.3429
 31
0.0
  0
LINE
  5
303
330
1E
100
AcDbEntity
  8
0
100
AcDbLine
 10
95.20000000000001
 20
747.8429
 30
0.0
 11
98.2
 21
747.8429
 31
0.0
  0
LINE
  5
304
330
1E
100
AcDbEntity
  8
0
100
AcDbLine
 10
98.2
 20
747.8429
 30
0.0
 11
100.9
 21
747.8429
 31
0.0
  0
LINE
  5
305
330
1E
100
AcDbEntity
  8
0
100
AcDbLine
 10
98.3
 20
747.3429
 30
0.0
 11
101.2
 21
747.3429
 31
0.0
  0
LINE
  5
306
330
1E
100
AcDbEntity
  8
0
100
AcDbLine
 10
95.20000000000001
 20
747.3429
 30
0.0
 11
98.3
 21
747.3429
 31
0.0
  0
LINE
  5
307
330
1E
100
AcDbEntity
  8
0
100
AcDbLine
 10
98.3
 20
728.3428999999999
 30
0.0
 11
101.2
 21
728.3428999999999
 31
0.0
  0
LINE
  5
308
330
1E
100
AcDbEntity
  8
0
100
AcDbLine
 10
95.20000000000001
 20
728.3428999999999
 30
0.0
 11
98.3
 21
728.3428999999999
 31
0.0
  0
LINE
  5
309
330
1E
100
AcDbEntity
  8
0
100
AcDbLine
 10
92.2
 20
747.8429
 30
0.0
 11
95.20000000000001
 21
747.8429
 31
0.0
  0
LINE
  5
30A
330
1E
100
AcDbEntity
  8
0
100
AcDbLine
 10
92.09999999999999
 20
747.3429
 30
0.0
 11
95.20000000000001
 21
747.3429
 31
0.0
  0
LINE
  5
30B
330
1E
100
AcDbEntity
  8
0
100
AcDbLine
 10
92.4
 20
727.8429
 30
0.0
 11
95.20000000000001
 21
727.8429
 31
0.0
  0
LINE
  5
30C
330
1E
100
AcDbEntity
  8
0
100
AcDbLine
 10
92.09999999999999
 20
727.3429
 30
0.0
 11
95.20000000000001
 21
727.3429
 31
0.0
  0
LINE
  5
30D
330
1E
100
AcDbEntity
  8
0
100
AcDbLine
 10
92.09999999999999
 20
573.8429
 30
0.0
 11
95.20000000000001
 21
573.8429
 31
0.0
  0
LINE
  5
30E
330
1E
100
AcDbEntity
  8
0
100
AcDbLine
 10
85.7
 20
727.8429
 30
0.0
 11
87.4
 21
727.8429
 31
0.0
  0
LINE
  5
30F
330
1E
100
AcDbEntity
  8
0
100
AcDbLine
 10
85.20000000000001
 20
572.8429
 30
0.0
 11
85.20000000000001
 21
572.7088999999999
 31
0.0
  0
LINE
  5
310
330
1E
100
AcDbEntity
  8
0
100
AcDbLine
 10
85.20000000000001
 20
572.8429
 30
0.0
 11
85.6
 21
572.8429
 31
0.0
  0
LINE
  5
311
330
1E
100
AcDbEntity
  8
0
100
AcDbLine
 10
85.08329999999999
 20
572.7109
 30
0.0
 11
85.20000000000001
 21
572.7109
 31
0.0
  0
LINE
  5
312
330
1E
100
AcDbEntity
  8
0
100
AcDbLine
 10
82.0481
 20
572.7098999999999
 30
0.0
 11
85.08329999999999
 21
572.7088999999999
 31
0.0
  0
LINE
  5
313
330
1E
100
AcDbEntity
  8
0
100
AcDbLine
 10
82.0481
 20
572.7098999999999
 30
0.0
 11
85.08329999999999
 21
572.7109
 31
0.0
  0
LINE
  5
314
330
1E
100
AcDbEntity
  8
0
100
AcDbLine
 10
82.0
 20
580.8429
 30
0.0
 11
83.2
 21
580.8429
 31
0.0
  0
LINE
  5
315
330
1E
100
AcDbEntity
  8
0
100
AcDbLine
 10
84.40000000000001
 20
532.8428999999999
 30
0.0
 11
85.96607500000001
 21
532.8428999999999
 31
0.0
  0
LINE
  5
316
330
1E
100
AcDbEntity
  8
0
100
AcDbLine
 10
103.2979999999999
 20
532.7098999999999
 30
0.0
 11
103.9829999999999
 21
532.7098999999999
 31
0.0
  0
LINE
  5
317
330
1E
100
AcDbEntity
  8
0
100
AcDbLine
 10
101.347
 20
532.7088999999999
 30
0.0
 11
103.2979999999999
 21
532.7098999999999
 31
0.0
  0
LINE
  5
318
330
1E
100
AcDbEntity
  8
0
100
AcDbLine
 10
103.2979999999999
 20
493.2379
 30
0.0
 11
103.9829999999999
 21
493.2379
 31
0.0
  0
LINE
  5
319
330
1E
100
AcDbEntity
  8
0
100
AcDbLine
 10
103.9829999999999
 20
532.7098999999999
 30
0.0
 11
108.9829999999999
 21
572.7098999999999
 31
0.0
  0
LINE
  5
31A
330
1E
100
AcDbEntity
  8
0
100
AcDbLine
 10
103.9829999999999
 20
493.2379
 30
0.0
 11
107.9434999999999
 21
532.8428999999999
 31
0.0
  0
LINE
  5
31B
330
1E
100
AcDbEntity
  8
0
100
AcDbLine
 10
101.347
 20
493.2369
 30
0.0
 11
103.2979999999999
 21
493.2379
 31
0.0
  0
LINE
  5
31C
330
1E
100
AcDbEntity
  8
0
100
AcDbLine
 10
109.0
 20
532.8428999999999
 30
0.0
 11
128.0
 21
532.8428999999999
 31
0.0
  0
LINE
  5
31D
330
1E
100
AcDbEntity
  8
0
100
AcDbLine
 10
109.0
 20
532.8428999999999
 30
0.0
 11
109.0
 21
533.8428999999999
 31
0.0
  0
LINE
  5
31E
330
1E
100
AcDbEntity
  8
0
100
AcDbLine
 10
109.0
 20
532.8428999999999
 30
0.0
 11
110.0
 21
532.8428999999999
 31
0.0
  0
LINE
  5
31F
330
1E
100
AcDbEntity
  8
0
100
AcDbLine
 10
107.9434999999999
 20
532.8428999999999
 30
0.0
 11
128.0
 21
532.8428999999999
 31
0.0
  0
LINE
  5
320
330
1E
100
AcDbEntity
  8
0
100
AcDbLine
 10
128.0
 20
532.8428999999999
 30
0.0
 11
129.0
 21
533.8428999999999
 31
0.0
  0
LINE
  5
321
330
1E
100
AcDbEntity
  8
0
100
AcDbLine
 10
128.0
 20
532.8428999999999
 30
0.0
 11
128.0
 21
533.8428999999999
 31
0.0
  0
LINE
  5
322
330
1E
100
AcDbEntity
  8
0
100
AcDbLine
 10
109.4999999999999
 20
532.8428999999999
 30
0.0
 11
110.0
 21
532.8428999999999
 31
0.0
  0
LINE
  5
323
330
1E
100
AcDbEntity
  8
0
100
AcDbLine
 10
108.0
 20
532.8428999999999
 30
0.0
 11
109.4999999999999
 21
532.8428999999999
 31
0.0
  0
LINE
  5
324
330
1E
100
AcDbEntity
  8
0
100
AcDbLine
 10
105.6
 20
532.8428999999999
 30
0.0
 11
108.0
 21
532.8428999999999
 31
0.0
  0
LINE
  5
325
330
1E
100
AcDbEntity
  8
0
100
AcDbLine
 10
103.0
 20
572.8429
 30
0.0
 11
104.7
 21
572.8429
 31
0.0
  0
LINE
  5
326
330
1E
100
AcDbEntity
  8
0
100
AcDbLine
 10
102.2999999999999
 20
572.8429
 30
0.0
 11
103.9
 21
572.8429
 31
0.0
  0
LINE
  5
327
330
1E
100
AcDbEntity
  8
0
100
AcDbLine
 10
105.2
 20
572.7090047775949
 30
0.0
 11
105.2
 21
572.8429
 31
0.0
  0
LINE
  5
328
330
1E
100
AcDbEntity
  8
0
100
AcDbLine
 10
104.7
 20
572.8429
 30
0.0
 11
105.8
 21
572.8429
 31
0.0
  0
LINE
  5
329
330
1E
100
AcDbEntity
  8
0
100
AcDbLine
 10
103.9
 20
572.8429
 30
0.0
 11
104.8
 21
572.8429
 31
0.0
  0
LINE
  5
32A
330
1E
100
AcDbEntity
  8
0
100
AcDbLine
 10
104.8
 20
572.8429
 30
0.0
 11
105.2
 21
572.8429
 31
0.0
  0
LINE
  5
32B
330
1E
100
AcDbEntity
  8
0
100
AcDbLine
 10
105.2
 20
572.8429
 30
0.0
 11
105.2
 21
572.7090047775949
 31
0.0
  0
LINE
  5
32C
330
1E
100
AcDbEntity
  8
0
100
AcDbLine
 10
105.2
 20
572.8429
 30
0.0
 11
105.8
 21
572.8429
 31
0.0
  0
LINE
  5
32D
330
1E
100
AcDbEntity
  8
0
100
AcDbLine
 10
100.9
 20
747.8429
 30
0.0
 11
103.2999999999999
 21
747.8429
 31
0.0
  0
LINE
  5
32E
330
1E
100
AcDbEntity
  8
0
100
AcDbLine
 10
101.2
 20
728.3428999999999
 30
0.0
 11
103.7
 21
728.3428999999999
 31
0.0
  0
LINE
  5
32F
330
1E
100
AcDbEntity
  8
0
100
AcDbLine
 10
100.7
 20
727.8429
 30
0.0
 11
103.0
 21
727.8429
 31
0.0
  0
LINE
  5
330
330
1E
100
AcDbEntity
  8
0
100
AcDbLine
 10
101.2
 20
727.3429
 30
0.0
 11
103.7
 21
727.3429
 31
0.0
  0
LINE
  5
331
330
1E
100
AcDbEntity
  8
0
100
AcDbLine
 10
103.7
 20
728.3428999999999
 30
0.0
 11
105.6
 21
728.3428999999999
 31
0.0
  0
LINE
  5
332
330
1E
100
AcDbEntity
  8
0
100
AcDbLine
 10
103.0
 20
727.8429
 30
0.0
 11
104.7
 21
727.8429
 31
0.0
  0
LINE
  5
333
330
1E
100
AcDbEntity
  8
0
100
AcDbLine
 10
103.7
 20
727.3429
 30
0.0
 11
105.6
 21
727.3429
 31
0.0
  0
LINE
  5
334
330
1E
100
AcDbEntity
  8
0
100
AcDbLine
 10
103.7
 20
747.3429
 30
0.0
 11
105.6
 21
747.3429
 31
0.0
  0
LINE
  5
335
330
1E
100
AcDbEntity
  8
0
100
AcDbLine
 10
104.7
 20
727.8429
 30
0.0
 11
105.8
 21
727.8429
 31
0.0
  0
LINE
  5
336
330
1E
100
AcDbEntity
  8
0
100
AcDbLine
 10
103.7
 20
573.8429
 30
0.0
 11
105.6
 21
573.8429
 31
0.0
  0
LINE
  5
337
330
1E
100
AcDbEntity
  8
0
100
AcDbLine
 10
103.2999999999999
 20
747.8429
 30
0.0
 11
105.2
 21
747.8429
 31
0.0
  0
LINE
  5
338
330
1E
100
AcDbEntity
  8
0
100
AcDbLine
 10
101.2
 20
747.3429
 30
0.0
 11
103.7
 21
747.3429
 31
0.0
  0
LINE
  5
339
330
1E
100
AcDbEntity
  8
0
100
AcDbLine
 10
101.2
 20
573.8429
 30
0.0
 11
103.7
 21
573.8429
 31
0.0
  0
LINE
  5
33A
330
1E
100
AcDbEntity
  8
0
100
AcDbLine
 10
100.7
 20
572.8429
 30
0.0
 11
103.0
 21
572.8429
 31
0.0
  0
LINE
  5
33B
330
1E
100
AcDbEntity
  8
0
100
AcDbLine
 10
105.6
 20
573.8429
 30
0.0
 11
106.8
 21
573.8429
 31
0.0
  0
LINE
  5
33C
330
1E
100
AcDbEntity
  8
0
100
AcDbLine
 10
107.2
 20
573.8429
 30
0.0
 11
107.2
 21
727.3429
 31
0.0
  0
LINE
  5
33D
330
1E
100
AcDbEntity
  8
0
100
AcDbLine
 10
106.2
 20
572.8429
 30
0.0
 11
107.2
 21
573.8429
 31
0.0
  0
LINE
  5
33E
330
1E
100
AcDbEntity
  8
0
100
AcDbLine
 10
106.8
 20
573.8429
 30
0.0
 11
107.2
 21
573.8429
 31
0.0
  0
LINE
  5
33F
330
1E
100
AcDbEntity
  8
0
100
AcDbLine
 10
105.8
 20
572.8429
 30
0.0
 11
106.2
 21
572.8429
 31
0.0
  0
LINE
  5
340
330
1E
100
AcDbEntity
  8
0
100
AcDbLine
 10
107.2
 20
585.3524238095239
 30
0.0
 11
108.2
 21
585.5428999999999
 31
0.0
  0
LINE
  5
341
330
1E
100
AcDbEntity
  8
0
100
AcDbLine
 10
107.2
 20
586.73842238806
 30
0.0
 11
108.9
 21
587.0429
 31
0.0
  0
LINE
  5
342
330
1E
100
AcDbEntity
  8
0
100
AcDbLine
 10
105.6
 20
727.3429
 30
0.0
 11
106.8
 21
727.3429
 31
0.0
  0
LINE
  5
343
330
1E
100
AcDbEntity
  8
0
100
AcDbLine
 10
105.2
 20
747.8429
 30
0.0
 11
106.2999999999999
 21
747.8429
 31
0.0
  0
LINE
  5
344
330
1E
100
AcDbEntity
  8
0
100
AcDbLine
 10
105.6
 20
747.3429
 30
0.0
 11
106.8
 21
747.3429
 31
0.0
  0
LINE
  5
345
330
1E
100
AcDbEntity
  8
0
100
AcDbLine
 10
105.6
 20
728.3428999999999
 30
0.0
 11
106.8
 21
728.3428999999999
 31
0.0
  0
LINE
  5
346
330
1E
100
AcDbEntity
  8
0
100
AcDbLine
 10
105.8
 20
727.8429
 30
0.0
 11
106.2
 21
727.8429
 31
0.0
  0
LINE
  5
347
330
1E
100
AcDbEntity
  8
0
100
AcDbLine
 10
107.2
 20
728.3428999999999
 30
0.0
 11
107.2
 21
747.3429
 31
0.0
  0
LINE
  5
348
330
1E
100
AcDbEntity
  8
0
100
AcDbLine
 10
106.2999999999999
 20
747.8429
 30
0.0
 11
106.6999999999999
 21
747.8429
 31
0.0
  0
LINE
  5
349
330
1E
100
AcDbEntity
  8
0
100
AcDbLine
 10
106.6999999999999
 20
747.8429
 30
0.0
 11
107.2
 21
747.3429
 31
0.0
  0
LINE
  5
34A
330
1E
100
AcDbEntity
  8
0
100
AcDbLine
 10
106.8
 20
747.3429
 30
0.0
 11
107.2
 21
747.3429
 31
0.0
  0
LINE
  5
34B
330
1E
100
AcDbEntity
  8
0
100
AcDbLine
 10
106.8
 20
728.3428999999999
 30
0.0
 11
107.2
 21
728.3428999999999
 31
0.0
  0
LINE
  5
34C
330
1E
100
AcDbEntity
  8
0
100
AcDbLine
 10
106.2
 20
727.8429
 30
0.0
 11
107.2
 21
727.3429
 31
0.0
  0
LINE
  5
34D
330
1E
100
AcDbEntity
  8
0
100
AcDbLine
 10
106.2
 20
727.8429
 30
0.0
 11
107.2
 21
728.3428999999999
 31
0.0
  0
LINE
  5
34E
330
1E
100
AcDbEntity
  8
0
100
AcDbLine
 10
106.8
 20
727.3429
 30
0.0
 11
107.2
 21
727.3429
 31
0.0
  0
LINE
  5
34F
330
1E
100
AcDbEntity
  8
0
100
AcDbLine
 10
107.2
 20
727.3429
 30
0.0
 11
107.2
 21
573.8429
 31
0.0
  0
LINE
  5
350
330
1E
100
AcDbEntity
  8
0
100
AcDbLine
 10
107.2
 20
617.8429
 30
0.0
 11
108.2
 21
617.8429
 31
0.0
  0
LINE
  5
351
330
1E
100
AcDbEntity
  8
0
100
AcDbLine
 10
105.2
 20
572.710795222405
 30
0.0
 11
107.9169999999999
 21
572.7098999999999
 31
0.0
  0
LINE
  5
352
330
1E
100
AcDbEntity
  8
0
100
AcDbLine
 10
104.882
 20
572.7088999999999
 30
0.0
 11
107.9169999999999
 21
572.7098999999999
 31
0.0
  0
LINE
  5
353
330
1E
100
AcDbEntity
  8
0
100
AcDbLine
 10
107.9169999999999
 20
572.7098999999999
 30
0.0
 11
108.9829999999999
 21
572.7098999999999
 31
0.0
  0
LINE
  5
354
330
1E
100
AcDbEntity
  8
0
100
AcDbLine
 10
109.0
 20
579.8428999999999
 30
0.0
 11
128.0
 21
579.8428999999999
 31
0.0
  0
LINE
  5
355
330
1E
100
AcDbEntity
  8
0
100
AcDbLine
 10
109.0
 20
579.8428999999999
 30
0.0
 11
109.0
 21
580.8429
 31
0.0
  0
LINE
  5
356
330
1E
100
AcDbEntity
  8
0
100
AcDbLine
 10
109.0
 20
579.8428999999999
 30
0.0
 11
109.0
 21
533.8428999999999
 31
0.0
  0
LINE
  5
357
330
1E
100
AcDbEntity
  8
0
100
AcDbLine
 10
109.0
 20
533.8428999999999
 30
0.0
 11
109.0
 21
532.8428999999999
 31
0.0
  0
LINE
  5
358
330
1E
100
AcDbEntity
  8
0
100
AcDbLine
 10
109.0
 20
533.8428999999999
 30
0.0
 11
128.0
 21
533.8428999999999
 31
0.0
  0
LINE
  5
359
330
1E
100
AcDbEntity
  8
0
100
AcDbLine
 10
109.0
 20
533.8428999999999
 30
0.0
 11
109.0
 21
579.8428999999999
 31
0.0
  0
LINE
  5
35A
330
1E
100
AcDbEntity
  8
0
100
AcDbLine
 10
128.0
 20
533.8428999999999
 30
0.0
 11
129.0
 21
533.8428999999999
 31
0.0
  0
LINE
  5
35B
330
1E
100
AcDbEntity
  8
0
100
AcDbLine
 10
128.0
 20
533.8428999999999
 30
0.0
 11
128.0
 21
532.8428999999999
 31
0.0
  0
LINE
  5
35C
330
1E
100
AcDbEntity
  8
0
100
AcDbLine
 10
128.0
 20
533.8428999999999
 30
0.0
 11
128.0
 21
579.8428999999999
 31
0.0
  0
LINE
  5
35D
330
1E
100
AcDbEntity
  8
0
100
AcDbLine
 10
109.0
 20
580.8429
 30
0.0
 11
109.0
 21
579.8428999999999
 31
0.0
  0
LINE
  5
35E
330
1E
100
AcDbEntity
  8
0
100
AcDbLine
 10
109.0
 20
580.8429
 30
0.0
 11
128.0
 21
580.8429
 31
0.0
  0
LINE
  5
35F
330
1E
100
AcDbEntity
  8
0
100
AcDbLine
 10
128.0
 20
579.8428999999999
 30
0.0
 11
129.0
 21
579.8428999999999
 31
0.0
  0
LINE
  5
360
330
1E
100
AcDbEntity
  8
0
100
AcDbLine
 10
128.0
 20
579.8428999999999
 30
0.0
 11
128.0
 21
533.8428999999999
 31
0.0
  0
LINE
  5
361
330
1E
100
AcDbEntity
  8
0
100
AcDbLine
 10
128.0
 20
579.8428999999999
 30
0.0
 11
128.0
 21
580.8429
 31
0.0
  0
LINE
  5
362
330
1E
100
AcDbEntity
  8
0
100
AcDbLine
 10
129.0
 20
579.8428999999999
 30
0.0
 11
129.0
 21
533.8428999999999
 31
0.0
  0
LINE
  5
363
330
1E
100
AcDbEntity
  8
0
100
AcDbLine
 10
129.0
 20
533.8428999999999
 30
0.0
 11
129.0
 21
579.8428999999999
 31
0.0
  0
LINE
  5
364
330
1E
100
AcDbEntity
  8
0
100
AcDbLine
 10
128.0
 20
580.8429
 30
0.0
 11
129.0
 21
579.8428999999999
 31
0.0
  0
LINE
  5
365
330
1E
100
AcDbEntity
  8
0
100
AcDbLine
 10
128.0
 20
580.8429
 30
0.0
 11
128.0
 21
579.8428999999999
 31
0.0
  0
LINE
  5
366
330
1E
100
AcDbEntity
  8
0
100
AcDbLine
 10
119.5
 20
580.8429
 30
0.0
 11
119.5
 21
581.8429
 31
0.0
  0
LINE
  5
367
330
1E
100
AcDbEntity
  8
0
100
AcDbLine
 10
108.2
 20
585.5428999999999
 30
0.0
 11
113.7999999999999
 21
586.7129
 31
0.0
  0
LINE
  5
368
330
1E
100
AcDbEntity
  8
0
100
AcDbLine
 10
118.0
 20
587.5429
 30
0.0
 11
120.5999999999999
 21
588.1128999999999
 31
0.0
  0
LINE
  5
369
330
1E
100
AcDbEntity
  8
0
100
AcDbLine
 10
113.7999999999999
 20
586.7129
 30
0.0
 11
118.0
 21
587.5429
 31
0.0
  0
LINE
  5
36A
330
1E
100
AcDbEntity
  8
0
100
AcDbLine
 10
108.9
 20
587.0429
 30
0.0
 11
114.7999999999999
 21
588.2128999999999
 31
0.0
  0
LINE
  5
36B
330
1E
100
AcDbEntity
  8
0
100
AcDbLine
 10
114.7999999999999
 20
588.2128999999999
 30
0.0
 11
119.1999999999999
 21
589.0429
 31
0.0
  0
LINE
  5
36C
330
1E
100
AcDbEntity
  8
0
100
AcDbLine
 10
118.0
 20
617.8429
 30
0.0
 11
120.5999999999999
 21
617.8429
 31
0.0
  0
LINE
  5
36D
330
1E
100
AcDbEntity
  8
0
100
AcDbLine
 10
113.7999999999999
 20
617.8429
 30
0.0
 11
118.0
 21
617.8429
 31
0.0
  0
LINE
  5
36E
330
1E
100
AcDbEntity
  8
0
100
AcDbLine
 10
108.2
 20
617.8429
 30
0.0
 11
113.7999999999999
 21
617.8429
 31
0.0
  0
LINE
  5
36F
330
1E
100
AcDbEntity
  8
0
100
AcDbLine
 10
118.093189964158
 20
587.563330107527
 30
0.0
 11
119.0
 21
584.8429
 31
0.0
  0
LINE
  5
370
330
1E
100
AcDbEntity
  8
0
100
AcDbLine
 10
120.5999999999999
 20
588.1128999999999
 30
0.0
 11
121.5
 21
588.3428999999999
 31
0.0
  0
LINE
  5
371
330
1E
100
AcDbEntity
  8
0
100
AcDbLine
 10
119.1999999999999
 20
589.0429
 30
0.0
 11
122.0
 21
589.6129
 31
0.0
  0
LINE
  5
372
330
1E
100
AcDbEntity
  8
0
100
AcDbLine
 10
120.5999999999999
 20
617.8429
 30
0.0
 11
121.5
 21
617.8429
 31
0.0
  0
LINE
  5
373
330
1E
100
AcDbEntity
  8
0
100
AcDbLine
 10
121.5
 20
588.3428999999999
 30
0.0
 11
123.0
 21
589.8429
 31
0.0
  0
LINE
  5
374
330
1E
100
AcDbEntity
  8
0
100
AcDbLine
 10
122.0
 20
589.6129
 30
0.0
 11
123.0
 21
589.8429
 31
0.0
  0
LINE
  5
375
330
1E
100
AcDbEntity
  8
0
100
AcDbLine
 10
123.0
 20
589.8429
 30
0.0
 11
123.0
 21
616.3428999999999
 31
0.0
  0
LINE
  5
376
330
1E
100
AcDbEntity
  8
0
100
AcDbLine
 10
123.0
 20
616.3428999999999
 30
0.0
 11
123.0
 21
589.8429
 31
0.0
  0
LINE
  5
377
330
1E
100
AcDbEntity
  8
0
100
AcDbLine
 10
122.7
 20
617.0429
 30
0.0
 11
123.0
 21
616.3428999999999
 31
0.0
  0
LINE
  5
378
330
1E
100
AcDbEntity
  8
0
100
AcDbLine
 10
122.1999999999999
 20
617.5429
 30
0.0
 11
122.7
 21
617.0429
 31
0.0
  0
LINE
  5
379
330
1E
100
AcDbEntity
  8
0
100
AcDbLine
 10
121.5
 20
617.8429
 30
0.0
 11
122.1999999999999
 21
617.5429
 31
0.0
  0
LINE
  5
37A
330
1E
100
AcDbEntity
  8
0
100
AcDbLine
 10
119.5
 20
581.8429
 30
0.0
 11
119.5
 21
580.8429
 31
0.0
  0
LINE
  5
37B
330
1E
100
AcDbEntity
  8
0
100
AcDbLine
 10
119.0
 20
584.8429
 30
0.0
 11
119.5
 21
581.8429
 31
0.0
  0
LINE
  5
37C
330
1E
100
AcDbEntity
  8
0
100
AcDbLine
 10
108.0
 20
580.8429
 30
0.0
 11
109.0
 21
580.8429
 31
0.0
  0
LINE
  5
37D
330
1E
100
AcDbEntity
  8
0
100
AcDbLine
 10
107.2
 20
580.8429
 30
0.0
 11
108.0
 21
580.8429
 31
0.0
  0
LINE
  5
37E
330
1E
100
AcDbEntity
  8
0
100
AcDbLine
 10
103.9996249999999
 20
532.8428999999999
 30
0.0
 11
105.6
 21
532.8428999999999
 31
0.0
  0
LINE
  5
37F
330
1E
100
AcDbEntity
  8
0
100
AcDbLine
 10
100.421
 20
463.3418999999999
 30
0.0
 11
102.7208094543559
 21
493.237604156563
 31
0.0
  0
LINE
  5
380
330
1E
100
AcDbEntity
  8
0
100
AcDbLine
 10
94.0445
 20
441.7739
 30
0.0
 11
102.7730683766139
 21
532.7096309422739
 31
0.0
  0
LINE
  5
381
330
1E
100
AcDbEntity
  8
0
100
AcDbLine
 10
78.3182
 20
443.1689
 30
0.0
 11
87.0459111688681
 21
532.7097061135869
 31
0.0
  0
LINE
  5
382
330
1E
100
AcDbEntity
  8
0
100
AcDbLine
 10
75.17100000000001
 20
410.2939
 30
0.0
 11
78.3182
 21
443.1689
 31
0.0
  0
LINE
  5
383
330
1E
100
AcDbEntity
  8
0
100
AcDbLine
 10
72.6557
 20
387.3818999999999
 30
0.0
 11
75.17100000000001
 21
410.2939
 31
0.0
  0
LINE
  5
384
330
1E
100
AcDbEntity
  8
0
100
AcDbLine
 10
69.725
 20
362.6759
 30
0.0
 11
72.6557
 21
387.3818999999999
 31
0.0
  0
LINE
  5
385
330
1E
100
AcDbEntity
  8
0
100
AcDbLine
 10
66.52419999999999
 20
337.6719
 30
0.0
 11
69.725
 21
362.6759
 31
0.0
  0
LINE
  5
386
330
1E
100
AcDbEntity
  8
0
100
AcDbLine
 10
63.2021
 20
314.6599
 30
0.0
 11
66.52419999999999
 21
337.6719
 31
0.0
  0
LINE
  5
387
330
1E
100
AcDbEntity
  8
0
100
AcDbLine
 10
56.0148
 20
271.7198999999999
 30
0.0
 11
63.2021
 21
314.6599
 31
0.0
  0
LINE
  5
389
330
1E
100
AcDbEntity
  8
0
100
AcDbLine
 10
52.0955
 20
1.02500000000004
 30
0.0
 11
55.0909
 21
0.15710000000007
 31
0.0
  0
ENDSEC
  0
SECTION
  2
OBJECTS
  0
DICTIONARY
  5
C
330
0
100
AcDbDictionary
281
     1
  3
ACAD_GROUP
350
D
  3
ACAD_LAYOUT
350
19
  3
ACAD_MLINESTYLE
350
16
  3
ACAD_PLOTSETTINGS
350
18
  3
ACAD_PLOTSTYLENAME
350
E
  3
AcDbVariableDictionary
350
38E
  0
DICTIONARY
  5
D
102
{ACAD_REACTORS
330
C
102
}
330
C
100
AcDbDictionary
281
     1
  0
DICTIONARY
  5
19
102
{ACAD_REACTORS
330
C
102
}
330
C
100
AcDbDictionary
281
     1
  3
Layout1
350
1D
  3
Model
350
21
  0
DICTIONARY
  5
16
102
{ACAD_REACTORS
330
C
102
}
330
C
100
AcDbDictionary
281
     1
  3
Standard
350
17
  0
DICTIONARY
  5
18
102
{ACAD_REACTORS
330
C
102
}
330
C
100
AcDbDictionary
281
     1
  0
ACDBDICTIONARYWDFLT
  5
E
102
{ACAD_REACTORS
330
C
102
}
330
C
100
AcDbDictionary
281
     1
  3
Normal
350
F
100
AcDbDictionaryWithDefault
340
F
  0
DICTIONARY
  5
38E
102
{ACAD_REACTORS
330
C
102
}
330
C
100
AcDbDictionary
281
     1
  3
DIMASSOC
350
38F
  0
LAYOUT
  5
1D
102
{ACAD_REACTORS
330
19
102
}
330
19
100
AcDbPlotSettings
  1

  2
hp deskjet 980c series
  4

  6

 40
0.0
 41
0.0
 42
0.0
 43
0.0
 44
0.0
 45
0.0
 46
0.0
 47
0.0
 48
0.0
 49
0.0
140
0.0
141
0.0
142
1.0
143
1.0
 70
   688
 72
     0
 73
     0
 74
     5
  7

 75
    16
147
1.0
148
0.0
149
0.0
100
AcDbLayout
  1
Layout1
 70
     1
 71
     1
 10
0.0
 20
0.0
 11
12.0
 21
9.0
 12
0.0
 22
0.0
 32
0.0
 14
1.000000000000000E+20
 24
1.000000000000000E+20
 34
1.000000000000000E+20
 15
-1.000000000000000E+20
 25
-1.000000000000000E+20
 35
-1.000000000000000E+20
146
0.0
 13
0.0
 23
0.0
 33
0.0
 16
1.0
 26
0.0
 36
0.0
 17
0.0
 27
1.0
 37
0.0
 76
     0
330
1A
  0
LAYOUT
  5
21
102
{ACAD_REACTORS
330
19
102
}
330
19
100
AcDbPlotSettings
  1

  2
hp deskjet 980c series
  4

  6

 40
0.0
 41
0.0
 42
0.0
 43
0.0
 44
0.0
 45
0.0
 46
0.0
 47
0.0
 48
0.0
 49
0.0
140
0.0
141
0.0
142
1.0
143
1.0
 70
  1712
 72
     0
 73
     0
 74
     0
  7

 75
     0
147
1.0
148
0.0
149
0.0
100
AcDbLayout
  1
Model
 70
     1
 71
     0
 10
0.0
 20
0.0
 11
12.0
 21
9.0
 12
0.0
 22
0.0
 32
0.0
 14
0.0
 24
0.0
 34
0.0
 15
0.0
 25
0.0
 35
0.0
146
0.0
 13
0.0
 23
0.0
 33
0.0
 16
1.0
 26
0.0
 36
0.0
 17
0.0
 27
1.0
 37
0.0
 76
     0
330
1E
  0
MLINESTYLE
  5
17
102
{ACAD_REACTORS
330
16
102
}
330
16
100
AcDbMlineStyle
  2
STANDARD
 70
     0
  3

 62
   256
 51
90.0
 52
90.0
 71
     2
 49
0.5
 62
   256
  6
BYLAYER
 49
-0.5
 62
   256
  6
BYLAYER
  0
ACDBPLACEHOLDER
  5
F
102
{ACAD_REACTORS
330
E
102
}
330
E
  0
DICTIONARYVAR
  5
38F
102
{ACAD_REACTORS
330
38E
102
}
330
38E
100
DictionaryVariables
280
     0
  1
1
  0
ENDSEC
  0
EOF
