  0
SECTION
  2
HEADER
  9
$ACADVER
  1
AC1015
  9
$ACADMAINTVER
 70
    13
  9
$DWGCODEPAGE
  3
ANSI_1252
  9
$INSBASE
 10
0.0
 20
0.0
 30
0.0
  9
$EXTMIN
 10
0.186500000000006
 20
0.15710000000007
 30
0.0
  9
$EXTMAX
 10
316.8134999999999
 20
747.8429
 30
0.0
  9
$LIMMIN
 10
0.0
 20
0.0
  9
$LIMMAX
 10
12.0
 20
9.0
  9
$ORTHOMODE
 70
     0
  9
$REGENMODE
 70
     1
  9
$FILLMODE
 70
     1
  9
$QTEXTMODE
 70
     0
  9
$MIRRTEXT
 70
     1
  9
$LTSCALE
 40
1.0
  9
$ATTMODE
 70
     1
  9
$TEXTSIZE
 40
0.2
  9
$TRACEWID
 40
0.05
  9
$TEXTSTYLE
  7
Standard
  9
$CLAYER
  8
0
  9
$CELTYPE
  6
Continuous
  9
$CECOLOR
 62
   256
  9
$CELTSCALE
 40
1.0
  9
$DISPSILH
 70
     0
  9
$DIMSCALE
 40
1.0
  9
$DIMASZ
 40
0.18
  9
$DIMEXO
 40
0.0625
  9
$DIMDLI
 40
0.38
  9
$DIMRND
 40
0.0
  9
$DIMDLE
 40
0.0
  9
$DIMEXE
 40
0.18
  9
$DIMTP
 40
0.0
  9
$DIMTM
 40
0.0
  9
$DIMTXT
 40
0.18
  9
$DIMCEN
 40
0.09
  9
$DIMTSZ
 40
0.0
  9
$DIMTOL
 70
     0
  9
$DIMLIM
 70
     0
  9
$DIMTIH
 70
     1
  9
$DIMTOH
 70
     1
  9
$DIMSE1
 70
     0
  9
$DIMSE2
 70
     0
  9
$DIMTAD
 70
     0
  9
$DIMZIN
 70
     0
  9
$DIMBLK
  1

  9
$DIMASO
 70
     1
  9
$DIMSHO
 70
     1
  9
$DIMPOST
  1

  9
$DIMAPOST
  1

  9
$DIMALT
 70
     0
  9
$DIMALTD
 70
     2
  9
$DIMALTF
 40
25.4
  9
$DIMLFAC
 40
1.0
  9
$DIMTOFL
 70
     0
  9
$DIMTVP
 40
0.0
  9
$DIMTIX
 70
     0
  9
$DIMSOXD
 70
     0
  9
$DIMSAH
 70
     0
  9
$DIMBLK1
  1

  9
$DIMBLK2
  1

  9
$DIMSTYLE
  2
Standard
  9
$DIMCLRD
 70
     0
  9
$DIMCLRE
 70
     0
  9
$DIMCLRT
 70
     0
  9
$DIMTFAC
 40
1.0
  9
$DIMGAP
 40
0.09
  9
$DIMJUST
 70
     0
  9
$DIMSD1
 70
     0
  9
$DIMSD2
 70
     0
  9
$DIMTOLJ
 70
     1
  9
$DIMTZIN
 70
     0
  9
$DIMALTZ
 70
     0
  9
$DIMALTTZ
 70
     0
  9
$DIMUPT
 70
     0
  9
$DIMDEC
 70
     4
  9
$DIMTDEC
 70
     4
  9
$DIMALTU
 70
     2
  9
$DIMALTTD
 70
     2
  9
$DIMTXSTY
  7
Standard
  9
$DIMAUNIT
 70
     0
  9
$DIMADEC
 70
     0
  9
$DIMALTRND
 40
0.0
  9
$DIMAZIN
 70
     0
  9
$DIMDSEP
 70
    46
  9
$DIMATFIT
 70
     3
  9
$DIMFRAC
 70
     0
  9
$DIMLDRBLK
  1

  9
$DIMLUNIT
 70
     2
  9
$DIMLWD
 70
    -2
  9
$DIMLWE
 70
    -2
  9
$DIMTMOVE
 70
     0
  9
$LUNITS
 70
     2
  9
$LUPREC
 70
     4
  9
$SKETCHINC
 40
0.1
  9
$FILLETRAD
 40
0.0
  9
$AUNITS
 70
     0
  9
$AUPREC
 70
     0
  9
$MENU
  1
.
  9
$ELEVATION
 40
0.0
  9
$PELEVATION
 40
0.0
  9
$THICKNESS
 40
0.0
  9
$LIMCHECK
 70
     0
  9
$CHAMFERA
 40
0.0
  9
$CHAMFERB
 40
0.0
  9
$CHAMFERC
 40
0.0
  9
$CHAMFERD
 40
0.0
  9
$SKPOLY
 70
     0
  9
$TDCREATE
 40
2454874.790016632
  9
$TDUCREATE
 40
2454874.748349965
  9
$TDUPDATE
 40
2454874.792932581
  9
$TDUUPDATE
 40
2454874.751265914
  9
$TDINDWG
 40
0.0029161227
  9
$TDUSRTIMER
 40
0.0029161227
  9
$USRTIMER
 70
     1
  9
$ANGBASE
 50
0.0
  9
$ANGDIR
 70
     0
  9
$PDMODE
 70
     0
  9
$PDSIZE
 40
0.0
  9
$PLINEWID
 40
0.0
  9
$SPLFRAME
 70
     0
  9
$SPLINETYPE
 70
     6
  9
$SPLINESEGS
 70
     8
  9
$HANDSEED
  5
4CC
  9
$SURFTAB1
 70
     6
  9
$SURFTAB2
 70
     6
  9
$SURFTYPE
 70
     6
  9
$SURFU
 70
     6
  9
$SURFV
 70
     6
  9
$UCSBASE
  2

  9
$UCSNAME
  2

  9
$UCSORG
 10
0.0
 20
0.0
 30
0.0
  9
$UCSXDIR
 10
1.0
 20
0.0
 30
0.0
  9
$UCSYDIR
 10
0.0
 20
1.0
 30
0.0
  9
$UCSORTHOREF
  2

  9
$UCSORTHOVIEW
 70
     1
  9
$UCSORGTOP
 10
0.0
 20
0.0
 30
0.0
  9
$UCSORGBOTTOM
 10
0.0
 20
0.0
 30
0.0
  9
$UCSORGLEFT
 10
0.0
 20
0.0
 30
0.0
  9
$UCSORGRIGHT
 10
0.0
 20
0.0
 30
0.0
  9
$UCSORGFRONT
 10
0.0
 20
0.0
 30
0.0
  9
$UCSORGBACK
 10
0.0
 20
0.0
 30
0.0
  9
$PUCSBASE
  2

  9
$PUCSNAME
  2

  9
$PUCSORG
 10
0.0
 20
0.0
 30
0.0
  9
$PUCSXDIR
 10
1.0
 20
0.0
 30
0.0
  9
$PUCSYDIR
 10
0.0
 20
1.0
 30
0.0
  9
$PUCSORTHOREF
  2

  9
$PUCSORTHOVIEW
 70
     0
  9
$PUCSORGTOP
 10
0.0
 20
0.0
 30
0.0
  9
$PUCSORGBOTTOM
 10
0.0
 20
0.0
 30
0.0
  9
$PUCSORGLEFT
 10
0.0
 20
0.0
 30
0.0
  9
$PUCSORGRIGHT
 10
0.0
 20
0.0
 30
0.0
  9
$PUCSORGFRONT
 10
0.0
 20
0.0
 30
0.0
  9
$PUCSORGBACK
 10
0.0
 20
0.0
 30
0.0
  9
$USERI1
 70
     0
  9
$USERI2
 70
     0
  9
$USERI3
 70
     0
  9
$USERI4
 70
     0
  9
$USERI5
 70
     0
  9
$USERR1
 40
0.0
  9
$USERR2
 40
0.0
  9
$USERR3
 40
0.0
  9
$USERR4
 40
0.0
  9
$USERR5
 40
0.0
  9
$WORLDVIEW
 70
     1
  9
$SHADEDGE
 70
     3
  9
$SHADEDIF
 70
    70
  9
$TILEMODE
 70
     1
  9
$MAXACTVP
 70
    64
  9
$PINSBASE
 10
0.0
 20
0.0
 30
0.0
  9
$PLIMCHECK
 70
     0
  9
$PEXTMIN
 10
1.000000000000000E+20
 20
1.000000000000000E+20
 30
1.000000000000000E+20
  9
$PEXTMAX
 10
-1.000000000000000E+20
 20
-1.000000000000000E+20
 30
-1.000000000000000E+20
  9
$PLIMMIN
 10
0.0
 20
0.0
  9
$PLIMMAX
 10
12.0
 20
9.0
  9
$UNITMODE
 70
     0
  9
$VISRETAIN
 70
     1
  9
$PLINEGEN
 70
     0
  9
$PSLTSCALE
 70
     1
  9
$TREEDEPTH
 70
  3020
  9
$CMLSTYLE
  2
Standard
  9
$CMLJUST
 70
     0
  9
$CMLSCALE
 40
1.0
  9
$PROXYGRAPHICS
 70
     1
  9
$MEASUREMENT
 70
     0
  9
$CELWEIGHT
370
    -1
  9
$ENDCAPS
280
     0
  9
$JOINSTYLE
280
     0
  9
$LWDISPLAY
290
     0
  9
$INSUNITS
 70
     0
  9
$HYPERLINKBASE
  1

  9
$STYLESHEET
  1

  9
$XEDIT
290
     1
  9
$CEPSNTYPE
380
     0
  9
$PSTYLEMODE
290
     1
  9
$FINGERPRINTGUID
  2
{87E1860A-9191-4199-A855-266482328767}
  9
$VERSIONGUID
  2
{6F7F0F6B-EAB8-44E8-8755-62DC1FAD8E76}
  9
$EXTNAMES
290
     1
  9
$PSVPSCALE
 40
0.0
  9
$OLESTARTUP
290
     0
  0
ENDSEC
  0
SECTION
  2
CLASSES
  0
CLASS
  1
ACDBDICTIONARYWDFLT
  2
AcDbDictionaryWithDefault
  3
AutoCAD 2000
 90
        0
280
     0
281
     0
  0
CLASS
  1
ACDBPLACEHOLDER
  2
AcDbPlaceHolder
  3
AutoCAD 2000
 90
        0
280
     0
281
     0
  0
CLASS
  1
LAYOUT
  2
AcDbLayout
  3
AutoCAD 2000
 90
        0
280
     0
281
     0
  0
CLASS
  1
DICTIONARYVAR
  2
AcDbDictionaryVar
  3
AutoCAD 2000
 90
        0
280
     0
281
     0
  0
ENDSEC
  0
SECTION
  2
TABLES
  0
TABLE
  2
VPORT
  5
8
330
0
100
AcDbSymbolTable
 70
     2
  0
VPORT
  5
4CB
330
8
100
AcDbSymbolTableRecord
100
AcDbViewportTableRecord
  2
*Active
 70
     0
 10
0.0
 20
0.0
 11
1.0
 21
1.0
 12
158.4999999999999
 22
374.0
 13
0.0
 23
0.0
 14
1.0
 24
1.0
 15
0.0
 25
0.0
 16
0.0
 26
0.0
 36
1.0
 17
0.0
 27
0.0
 37
0.0
 40
752.4080261052631
 41
1.968387776606954
 42
50.0
 43
0.0
 44
0.0
 50
0.0
 51
0.0
 71
     0
 72
   100
 73
     1
 74
     3
 75
     0
 76
     0
 77
     0
 78
     0
281
     0
 65
     1
110
0.0
120
0.0
130
0.0
111
1.0
121
0.0
131
0.0
112
0.0
122
1.0
132
0.0
 79
     1
146
0.0
  0
ENDTAB
  0
TABLE
  2
LTYPE
  5
5
330
0
100
AcDbSymbolTable
 70
     1
  0
LTYPE
  5
13
330
5
100
AcDbSymbolTableRecord
100
AcDbLinetypeTableRecord
  2
ByBlock
 70
     0
  3

 72
    65
 73
     0
 40
0.0
  0
LTYPE
  5
14
330
5
100
AcDbSymbolTableRecord
100
AcDbLinetypeTableRecord
  2
ByLayer
 70
     0
  3

 72
    65
 73
     0
 40
0.0
  0
LTYPE
  5
15
330
5
100
AcDbSymbolTableRecord
100
AcDbLinetypeTableRecord
  2
Continuous
 70
     0
  3
Solid line
 72
    65
 73
     0
 40
0.0
  0
ENDTAB
  0
TABLE
  2
LAYER
  5
2
330
0
100
AcDbSymbolTable
 70
     1
  0
LAYER
  5
10
330
2
100
AcDbSymbolTableRecord
100
AcDbLayerTableRecord
  2
0
 70
     0
 62
     7
  6
Continuous
370
    -3
390
F
  0
ENDTAB
  0
TABLE
  2
STYLE
  5
3
330
0
100
AcDbSymbolTable
 70
     1
  0
STYLE
  5
11
330
3
100
AcDbSymbolTableRecord
100
AcDbTextStyleTableRecord
  2
Standard
 70
     0
 40
0.0
 41
1.0
 50
0.0
 71
     0
 42
0.2
  3
txt
  4

  0
ENDTAB
  0
TABLE
  2
VIEW
  5
6
330
0
100
AcDbSymbolTable
 70
     0
  0
ENDTAB
  0
TABLE
  2
UCS
  5
7
330
0
100
AcDbSymbolTable
 70
     0
  0
ENDTAB
  0
TABLE
  2
APPID
  5
9
330
0
100
AcDbSymbolTable
 70
     1
  0
APPID
  5
12
330
9
100
AcDbSymbolTableRecord
100
AcDbRegAppTableRecord
  2
ACAD
 70
     0
  0
ENDTAB
  0
TABLE
  2
DIMSTYLE
  5
A
330
0
100
AcDbSymbolTable
 70
     1
100
AcDbDimStyleTable
 71
     0
  0
DIMSTYLE
105
4C2
330
A
100
AcDbSymbolTableRecord
100
AcDbDimStyleTableRecord
  2
Standard
 70
     0
340
11
  0
ENDTAB
  0
TABLE
  2
BLOCK_RECORD
  5
1
330
0
100
AcDbSymbolTable
 70
     0
  0
BLOCK_RECORD
  5
1E
330
1
100
AcDbSymbolTableRecord
100
AcDbBlockTableRecord
  2
*Model_Space
340
21
  0
BLOCK_RECORD
  5
1A
330
1
100
AcDbSymbolTableRecord
100
AcDbBlockTableRecord
  2
*Paper_Space
340
1D
  0
ENDTAB
  0
ENDSEC
  0
SECTION
  2
BLOCKS
  0
BLOCK
  5
1F
330
1E
100
AcDbEntity
  8
0
100
AcDbBlockBegin
  2
*Model_Space
 70
     0
 10
0.0
 20
0.0
 30
0.0
  3
*Model_Space
  1

  0
ENDBLK
  5
20
330
1E
100
AcDbEntity
  8
0
100
AcDbBlockEnd
  0
BLOCK
  5
1B
330
1A
100
AcDbEntity
 67
     1
  8
0
100
AcDbBlockBegin
  2
*Paper_Space
 70
     0
 10
0.0
 20
0.0
 30
0.0
  3
*Paper_Space
  1

  0
ENDBLK
  5
1C
330
1A
100
AcDbEntity
 67
     1
  8
0
100
AcDbBlockEnd
  0
ENDSEC
  0
SECTION
  2
ENTITIES
  0
LINE
  5
22
330
1E
100
AcDbEntity
  8
0
100
AcDbLine
 10
76.0716
 20
164.5289
 30
0.0
 11
76.983
 21
145.4019
 31
0.0
  0
LINE
  5
23
330
1E
100
AcDbEntity
  8
0
100
AcDbLine
 10
76.0716
 20
164.5289
 30
0.0
 11
77.5281
 21
183.6559
 31
0.0
  0
LINE
  5
24
330
1E
100
AcDbEntity
  8
0
100
AcDbLine
 10
61.7531
 20
184.4528999999999
 30
0.0
 11
65.9332
 21
207.7639
 31
0.0
  0
LINE
  5
25
330
1E
100
AcDbEntity
  8
0
100
AcDbLine
 10
1.186500000000009
 20
533.8428999999999
 30
0.0
 11
1.186500000000009
 21
532.8428999999999
 31
0.0
  0
LINE
  5
26
330
1E
100
AcDbEntity
  8
0
100
AcDbLine
 10
1.186500000000009
 20
533.8428999999999
 30
0.0
 11
1.186500000000009
 21
579.8359
 31
0.0
  0
LINE
  5
27
330
1E
100
AcDbEntity
  8
0
100
AcDbLine
 10
1.186500000000009
 20
533.8428999999999
 30
0.0
 11
241.1865
 21
533.8428999999999
 31
0.0
  0
LINE
  5
28
330
1E
100
AcDbEntity
  8
0
100
AcDbLine
 10
1.186500000000009
 20
532.8428999999999
 30
0.0
 11
241.1865
 21
532.8428999999999
 31
0.0
  0
LINE
  5
29
330
1E
100
AcDbEntity
  8
0
100
AcDbLine
 10
1.186500000000009
 20
532.8428999999999
 30
0.0
 11
1.186500000000009
 21
533.8428999999999
 31
0.0
  0
LINE
  5
2A
330
1E
100
AcDbEntity
  8
0
100
AcDbLine
 10
1.186500000000009
 20
532.8428999999999
 30
0.0
 11
90.18649999999999
 21
532.8428999999999
 31
0.0
  0
LINE
  5
2B
330
1E
100
AcDbEntity
  8
0
100
AcDbLine
 10
0.186500000000006
 20
533.8428999999999
 30
0.0
 11
1.186500000000009
 21
532.8428999999999
 31
0.0
  0
LINE
  5
2C
330
1E
100
AcDbEntity
  8
0
100
AcDbLine
 10
0.186500000000006
 20
533.8428999999999
 30
0.0
 11
1.186500000000009
 21
533.8428999999999
 31
0.0
  0
LINE
  5
2D
330
1E
100
AcDbEntity
  8
0
100
AcDbLine
 10
0.186500000000006
 20
533.8428999999999
 30
0.0
 11
0.186500000000006
 21
579.8428999999999
 31
0.0
  0
LINE
  5
2E
330
1E
100
AcDbEntity
  8
0
100
AcDbLine
 10
1.186500000000009
 20
580.8429
 30
0.0
 11
1.186500000000009
 21
579.8359
 31
0.0
  0
LINE
  5
2F
330
1E
100
AcDbEntity
  8
0
100
AcDbLine
 10
1.186500000000009
 20
580.8429
 30
0.0
 11
241.1865
 21
580.8429
 31
0.0
  0
LINE
  5
30
330
1E
100
AcDbEntity
  8
0
100
AcDbLine
 10
0.186500000000006
 20
579.8428999999999
 30
0.0
 11
1.186500000000009
 21
580.8429
 31
0.0
  0
LINE
  5
31
330
1E
100
AcDbEntity
  8
0
100
AcDbLine
 10
0.186500000000006
 20
579.8428999999999
 30
0.0
 11
1.186500000000009
 21
579.8359
 31
0.0
  0
LINE
  5
32
330
1E
100
AcDbEntity
  8
0
100
AcDbLine
 10
0.186500000000006
 20
579.8428999999999
 30
0.0
 11
0.186500000000006
 21
533.8428999999999
 31
0.0
  0
LINE
  5
33
330
1E
100
AcDbEntity
  8
0
100
AcDbLine
 10
1.186500000000019
 20
579.8359
 30
0.0
 11
241.1865
 21
579.8428999999999
 31
0.0
  0
LINE
  5
34
330
1E
100
AcDbEntity
  8
0
100
AcDbLine
 10
1.186500000000019
 20
533.8428999999999
 30
0.0
 11
241.1865
 21
533.8428999999999
 31
0.0
  0
LINE
  5
35
330
1E
100
AcDbEntity
  8
0
100
AcDbLine
 10
1.186500000000019
 20
532.8428999999999
 30
0.0
 11
90.18649999999999
 21
532.8428999999999
 31
0.0
  0
LINE
  5
36
330
1E
100
AcDbEntity
  8
0
100
AcDbLine
 10
1.186500000000019
 20
532.8428999999999
 30
0.0
 11
241.1865
 21
532.8428999999999
 31
0.0
  0
LINE
  5
37
330
1E
100
AcDbEntity
  8
0
100
AcDbLine
 10
1.186500000000019
 20
580.8429
 30
0.0
 11
241.1865
 21
580.8429
 31
0.0
  0
LINE
  5
38
330
1E
100
AcDbEntity
  8
0
100
AcDbLine
 10
1.186500000000009
 20
579.8359
 30
0.0
 11
1.186500000000009
 21
580.8429
 31
0.0
  0
LINE
  5
39
330
1E
100
AcDbEntity
  8
0
100
AcDbLine
 10
1.186500000000009
 20
579.8359
 30
0.0
 11
241.1865
 21
579.8428999999999
 31
0.0
  0
LINE
  5
3A
330
1E
100
AcDbEntity
  8
0
100
AcDbLine
 10
1.186500000000009
 20
579.8359
 30
0.0
 11
1.186500000000009
 21
533.8428999999999
 31
0.0
  0
LINE
  5
3B
330
1E
100
AcDbEntity
  8
0
100
AcDbLine
 10
65.9332
 20
207.7639
 30
0.0
 11
72.68429999999999
 21
231.4738999999999
 31
0.0
  0
LINE
  5
3C
330
1E
100
AcDbEntity
  8
0
100
AcDbLine
 10
72.68429999999999
 20
231.4738999999999
 30
0.0
 11
83.57779999999999
 21
255.0828999999999
 31
0.0
  0
LINE
  5
3D
330
1E
100
AcDbEntity
  8
0
100
AcDbLine
 10
60.2852
 20
164.5289
 30
0.0
 11
61.18529999999999
 21
144.6048999999999
 31
0.0
  0
LINE
  5
3E
330
1E
100
AcDbEntity
  8
0
100
AcDbLine
 10
60.2852
 20
164.5289
 30
0.0
 11
61.7531
 21
184.4528999999999
 31
0.0
  0
LINE
  5
3F
330
1E
100
AcDbEntity
  8
0
100
AcDbLine
 10
77.5281
 20
183.6559
 30
0.0
 11
81.4825
 21
204.9748999999999
 31
0.0
  0
LINE
  5
40
330
1E
100
AcDbEntity
  8
0
100
AcDbLine
 10
76.983
 20
145.4019
 30
0.0
 11
80.3298
 21
124.0839
 31
0.0
  0
LINE
  5
41
330
1E
100
AcDbEntity
  8
0
100
AcDbLine
 10
61.18529999999999
 20
144.6048999999999
 30
0.0
 11
64.70100000000001
 21
121.2938999999999
 31
0.0
  0
LINE
  5
42
330
1E
100
AcDbEntity
  8
0
100
AcDbLine
 10
81.4825
 20
204.9748999999999
 30
0.0
 11
87.4059
 21
225.9949
 31
0.0
  0
LINE
  5
43
330
1E
100
AcDbEntity
  8
0
100
AcDbLine
 10
83.57779999999999
 20
255.0828999999999
 30
0.0
 11
127.0695
 21
353.1628999999999
 31
0.0
  0
LINE
  5
44
330
1E
100
AcDbEntity
  8
0
100
AcDbLine
 10
80.3298
 20
124.0839
 30
0.0
 11
85.65409999999999
 21
103.0639
 31
0.0
  0
LINE
  5
45
330
1E
100
AcDbEntity
  8
0
100
AcDbLine
 10
64.70100000000001
 20
121.2938999999999
 30
0.0
 11
70.77639999999999
 21
97.58490000000001
 31
0.0
  0
LINE
  5
46
330
1E
100
AcDbEntity
  8
0
100
AcDbLine
 10
86.1865
 20
584.3428999999999
 30
0.0
 11
87.1865
 21
584.3428999999999
 31
0.0
  0
LINE
  5
47
330
1E
100
AcDbEntity
  8
0
100
AcDbLine
 10
86.1865
 20
584.3428999999999
 30
0.0
 11
87.68649999999999
 21
582.8428999999999
 31
0.0
  0
LINE
  5
48
330
1E
100
AcDbEntity
  8
0
100
AcDbLine
 10
86.1865
 20
584.3428999999999
 30
0.0
 11
86.1865
 21
616.3428999999999
 31
0.0
  0
LINE
  5
49
330
1E
100
AcDbEntity
  8
0
100
AcDbLine
 10
86.1865
 20
616.3428999999999
 30
0.0
 11
86.48650000000001
 21
617.0429
 31
0.0
  0
LINE
  5
4A
330
1E
100
AcDbEntity
  8
0
100
AcDbLine
 10
86.1865
 20
616.3428999999999
 30
0.0
 11
86.1865
 21
584.3428999999999
 31
0.0
  0
LINE
  5
4B
330
1E
100
AcDbEntity
  8
0
100
AcDbLine
 10
87.68649999999999
 20
582.8428999999999
 30
0.0
 11
88.5865
 21
582.8428999999999
 31
0.0
  0
LINE
  5
4C
330
1E
100
AcDbEntity
  8
0
100
AcDbLine
 10
87.1865
 20
584.3428999999999
 30
0.0
 11
89.98650000000001
 21
584.3428999999999
 31
0.0
  0
LINE
  5
4D
330
1E
100
AcDbEntity
  8
0
100
AcDbLine
 10
86.48650000000001
 20
617.0429
 30
0.0
 11
86.9865
 21
617.5429
 31
0.0
  0
LINE
  5
4E
330
1E
100
AcDbEntity
  8
0
100
AcDbLine
 10
86.9865
 20
617.5429
 30
0.0
 11
87.68649999999999
 21
617.8429
 31
0.0
  0
LINE
  5
4F
330
1E
100
AcDbEntity
  8
0
100
AcDbLine
 10
88.5865
 20
582.8428999999999
 30
0.0
 11
91.1865
 21
582.8428999999999
 31
0.0
  0
LINE
  5
50
330
1E
100
AcDbEntity
  8
0
100
AcDbLine
 10
88.5865
 20
617.8429
 30
0.0
 11
91.1865
 21
617.8429
 31
0.0
  0
LINE
  5
51
330
1E
100
AcDbEntity
  8
0
100
AcDbLine
 10
87.68649999999999
 20
617.8429
 30
0.0
 11
88.5865
 21
617.8429
 31
0.0
  0
LINE
  5
52
330
1E
100
AcDbEntity
  8
0
100
AcDbLine
 10
89.6865
 20
580.8429
 30
0.0
 11
89.6865
 21
581.8429
 31
0.0
  0
LINE
  5
53
330
1E
100
AcDbEntity
  8
0
100
AcDbLine
 10
90.88649999999999
 20
528.8428999999999
 30
0.0
 11
91.68649999999999
 21
528.8428999999999
 31
0.0
  0
LINE
  5
54
330
1E
100
AcDbEntity
  8
0
100
AcDbLine
 10
90.3865
 20
528.8428999999999
 30
0.0
 11
90.88649999999999
 21
528.8428999999999
 31
0.0
  0
LINE
  5
55
330
1E
100
AcDbEntity
  8
0
100
AcDbLine
 10
90.18649999999999
 20
532.8428999999999
 30
0.0
 11
90.18649999999999
 21
528.8428999999999
 31
0.0
  0
LINE
  5
56
330
1E
100
AcDbEntity
  8
0
100
AcDbLine
 10
90.18649999999999
 20
528.8428999999999
 30
0.0
 11
90.3865
 21
528.8428999999999
 31
0.0
  0
LINE
  5
57
330
1E
100
AcDbEntity
  8
0
100
AcDbLine
 10
90.18649999999999
 20
528.8428999999999
 30
0.0
 11
90.18649999999999
 21
532.8428999999999
 31
0.0
  0
LINE
  5
58
330
1E
100
AcDbEntity
  8
0
100
AcDbLine
 10
93.93649999999999
 20
528.8428999999999
 30
0.0
 11
95.18649999999999
 21
528.8428999999999
 31
0.0
  0
LINE
  5
59
330
1E
100
AcDbEntity
  8
0
100
AcDbLine
 10
92.7453
 20
528.8428999999999
 30
0.0
 11
93.93649999999999
 21
528.8428999999999
 31
0.0
  0
LINE
  5
5A
330
1E
100
AcDbEntity
  8
0
100
AcDbLine
 10
91.68649999999999
 20
528.8428999999999
 30
0.0
 11
92.7453
 21
528.8428999999999
 31
0.0
  0
LINE
  5
5B
330
1E
100
AcDbEntity
  8
0
100
AcDbLine
 10
91.1865
 20
582.8428999999999
 30
0.0
 11
95.3865
 21
582.8428999999999
 31
0.0
  0
LINE
  5
5C
330
1E
100
AcDbEntity
  8
0
100
AcDbLine
 10
94.3865
 20
584.3428999999999
 30
0.0
 11
100.2865
 21
584.3428999999999
 31
0.0
  0
LINE
  5
5D
330
1E
100
AcDbEntity
  8
0
100
AcDbLine
 10
89.98650000000001
 20
584.3428999999999
 30
0.0
 11
94.3865
 21
584.3428999999999
 31
0.0
  0
LINE
  5
5E
330
1E
100
AcDbEntity
  8
0
100
AcDbLine
 10
91.1865
 20
617.8429
 30
0.0
 11
95.3865
 21
617.8429
 31
0.0
  0
LINE
  5
5F
330
1E
100
AcDbEntity
  8
0
100
AcDbLine
 10
89.6865
 20
581.8429
 30
0.0
 11
89.6865
 21
580.8429
 31
0.0
  0
LINE
  5
60
330
1E
100
AcDbEntity
  8
0
100
AcDbLine
 10
89.6865
 20
581.8429
 30
0.0
 11
89.85316666666669
 21
582.8428999999999
 31
0.0
  0
LINE
  5
61
330
1E
100
AcDbEntity
  8
0
100
AcDbLine
 10
87.4059
 20
225.9949
 30
0.0
 11
97.17870000000001
 21
247.1138999999999
 31
0.0
  0
LINE
  5
62
330
1E
100
AcDbEntity
  8
0
100
AcDbLine
 10
85.65409999999999
 20
103.0639
 30
0.0
 11
94.82499999999999
 21
81.94490000000008
 31
0.0
  0
LINE
  5
63
330
1E
100
AcDbEntity
  8
0
100
AcDbLine
 10
70.77639999999999
 20
97.58490000000001
 30
0.0
 11
80.997
 21
73.97490000000009
 31
0.0
  0
LINE
  5
64
330
1E
100
AcDbEntity
  8
0
100
AcDbLine
 10
95.18649999999999
 20
528.8428999999999
 30
0.0
 11
114.1864999999999
 21
528.8428999999999
 31
0.0
  0
LINE
  5
65
330
1E
100
AcDbEntity
  8
0
100
AcDbLine
 10
95.3865
 20
582.8428999999999
 30
0.0
 11
100.9865
 21
582.8428999999999
 31
0.0
  0
LINE
  5
66
330
1E
100
AcDbEntity
  8
0
100
AcDbLine
 10
100.9865
 20
582.8428999999999
 30
0.0
 11
107.2864999999999
 21
582.8428999999999
 31
0.0
  0
LINE
  5
67
330
1E
100
AcDbEntity
  8
0
100
AcDbLine
 10
100.2865
 20
584.3428999999999
 30
0.0
 11
106.9865
 21
584.3428999999999
 31
0.0
  0
LINE
  5
68
330
1E
100
AcDbEntity
  8
0
100
AcDbLine
 10
100.9865
 20
617.8429
 30
0.0
 11
107.2864999999999
 21
617.8429
 31
0.0
  0
LINE
  5
69
330
1E
100
AcDbEntity
  8
0
100
AcDbLine
 10
95.3865
 20
617.8429
 30
0.0
 11
100.9865
 21
617.8429
 31
0.0
  0
LINE
  5
6A
330
1E
100
AcDbEntity
  8
0
100
AcDbLine
 10
97.17870000000001
 20
247.1138999999999
 30
0.0
 11
139.7624999999999
 21
343.7988999999999
 31
0.0
  0
LINE
  5
6B
330
1E
100
AcDbEntity
  8
0
100
AcDbLine
 10
94.82499999999999
 20
81.94490000000008
 30
0.0
 11
104.7194999999999
 21
63.1169
 31
0.0
  0
LINE
  5
6C
330
1E
100
AcDbEntity
  8
0
100
AcDbLine
 10
80.997
 20
73.97490000000009
 30
0.0
 11
92.53579999999999
 21
52.8559
 31
0.0
  0
LINE
  5
6D
330
1E
100
AcDbEntity
  8
0
100
AcDbLine
 10
114.1864999999999
 20
528.8428999999999
 30
0.0
 11
133.1865
 21
528.8428999999999
 31
0.0
  0
LINE
  5
6E
330
1E
100
AcDbEntity
  8
0
100
AcDbLine
 10
114.1864999999999
 20
582.8428999999999
 30
0.0
 11
121.0865
 21
582.8428999999999
 31
0.0
  0
LINE
  5
6F
330
1E
100
AcDbEntity
  8
0
100
AcDbLine
 10
112.9064999999999
 20
605.0229
 30
0.0
 11
114.1864999999999
 21
604.8428999999999
 31
0.0
  0
LINE
  5
70
330
1E
100
AcDbEntity
  8
0
100
AcDbLine
 10
111.7064999999999
 20
605.5028999999999
 30
0.0
 11
112.9064999999999
 21
605.0229
 31
0.0
  0
LINE
  5
71
330
1E
100
AcDbEntity
  8
0
100
AcDbLine
 10
110.6465
 20
606.3029
 30
0.0
 11
111.7064999999999
 21
605.5028999999999
 31
0.0
  0
LINE
  5
72
330
1E
100
AcDbEntity
  8
0
100
AcDbLine
 10
109.8465
 20
607.3628999999999
 30
0.0
 11
110.6465
 21
606.3029
 31
0.0
  0
LINE
  5
73
330
1E
100
AcDbEntity
  8
0
100
AcDbLine
 10
109.3665
 20
608.5628999999999
 30
0.0
 11
109.8465
 21
607.3628999999999
 31
0.0
  0
LINE
  5
74
330
1E
100
AcDbEntity
  8
0
100
AcDbLine
 10
114.1864999999999
 20
604.8428999999999
 30
0.0
 11
115.4665
 21
605.0229
 31
0.0
  0
LINE
  5
75
330
1E
100
AcDbEntity
  8
0
100
AcDbLine
 10
114.1864999999999
 20
614.8429
 30
0.0
 11
115.4665
 21
614.6629
 31
0.0
  0
LINE
  5
76
330
1E
100
AcDbEntity
  8
0
100
AcDbLine
 10
112.9064999999999
 20
614.6629
 30
0.0
 11
114.1864999999999
 21
614.8429
 31
0.0
  0
LINE
  5
77
330
1E
100
AcDbEntity
  8
0
100
AcDbLine
 10
111.7064999999999
 20
614.1829
 30
0.0
 11
112.9064999999999
 21
614.6629
 31
0.0
  0
LINE
  5
78
330
1E
100
AcDbEntity
  8
0
100
AcDbLine
 10
110.6465
 20
613.3828999999999
 30
0.0
 11
111.7064999999999
 21
614.1829
 31
0.0
  0
LINE
  5
79
330
1E
100
AcDbEntity
  8
0
100
AcDbLine
 10
109.8465
 20
612.3229
 30
0.0
 11
110.6465
 21
613.3828999999999
 31
0.0
  0
LINE
  5
7A
330
1E
100
AcDbEntity
  8
0
100
AcDbLine
 10
109.3665
 20
611.1228999999999
 30
0.0
 11
109.8465
 21
612.3229
 31
0.0
  0
LINE
  5
7B
330
1E
100
AcDbEntity
  8
0
100
AcDbLine
 10
109.1865
 20
609.8429
 30
0.0
 11
109.3665
 21
611.1228999999999
 31
0.0
  0
LINE
  5
7C
330
1E
100
AcDbEntity
  8
0
100
AcDbLine
 10
109.1865
 20
609.8429
 30
0.0
 11
109.3665
 21
608.5628999999999
 31
0.0
  0
LINE
  5
7D
330
1E
100
AcDbEntity
  8
0
100
AcDbLine
 10
114.1864999999999
 20
584.3428999999999
 30
0.0
 11
121.3864999999999
 21
584.3428999999999
 31
0.0
  0
LINE
  5
7E
330
1E
100
AcDbEntity
  8
0
100
AcDbLine
 10
115.4665
 20
605.0229
 30
0.0
 11
116.6665
 21
605.5028999999999
 31
0.0
  0
LINE
  5
7F
330
1E
100
AcDbEntity
  8
0
100
AcDbLine
 10
116.6665
 20
605.5028999999999
 30
0.0
 11
117.7265
 21
606.3029
 31
0.0
  0
LINE
  5
80
330
1E
100
AcDbEntity
  8
0
100
AcDbLine
 10
117.7265
 20
606.3029
 30
0.0
 11
118.5265
 21
607.3628999999999
 31
0.0
  0
LINE
  5
81
330
1E
100
AcDbEntity
  8
0
100
AcDbLine
 10
115.4665
 20
614.6629
 30
0.0
 11
116.6665
 21
614.1829
 31
0.0
  0
LINE
  5
82
330
1E
100
AcDbEntity
  8
0
100
AcDbLine
 10
116.6665
 20
614.1829
 30
0.0
 11
117.7265
 21
613.3828999999999
 31
0.0
  0
LINE
  5
83
330
1E
100
AcDbEntity
  8
0
100
AcDbLine
 10
117.7265
 20
613.3828999999999
 30
0.0
 11
118.5265
 21
612.3229
 31
0.0
  0
LINE
  5
84
330
1E
100
AcDbEntity
  8
0
100
AcDbLine
 10
114.1864999999999
 20
617.8429
 30
0.0
 11
121.0865
 21
617.8429
 31
0.0
  0
LINE
  5
85
330
1E
100
AcDbEntity
  8
0
100
AcDbLine
 10
107.2864999999999
 20
582.8428999999999
 30
0.0
 11
114.1864999999999
 21
582.8428999999999
 31
0.0
  0
LINE
  5
86
330
1E
100
AcDbEntity
  8
0
100
AcDbLine
 10
106.9865
 20
584.3428999999999
 30
0.0
 11
114.1864999999999
 21
584.3428999999999
 31
0.0
  0
LINE
  5
87
330
1E
100
AcDbEntity
  8
0
100
AcDbLine
 10
107.2864999999999
 20
617.8429
 30
0.0
 11
114.1864999999999
 21
617.8429
 31
0.0
  0
LINE
  5
88
330
1E
100
AcDbEntity
  8
0
100
AcDbLine
 10
104.7194999999999
 20
63.1169
 30
0.0
 11
118.3194999999999
 21
48.1739000000001
 31
0.0
  0
LINE
  5
89
330
1E
100
AcDbEntity
  8
0
100
AcDbLine
 10
92.53579999999999
 20
52.8559
 30
0.0
 11
107.9865
 21
36.2189
 31
0.0
  0
LINE
  5
8A
330
1E
100
AcDbEntity
  8
0
100
AcDbLine
 10
118.5265
 20
607.3628999999999
 30
0.0
 11
119.0065
 21
608.5628999999999
 31
0.0
  0
LINE
  5
8B
330
1E
100
AcDbEntity
  8
0
100
AcDbLine
 10
119.0065
 20
608.5628999999999
 30
0.0
 11
119.1864999999999
 21
609.8429
 31
0.0
  0
LINE
  5
8C
330
1E
100
AcDbEntity
  8
0
100
AcDbLine
 10
118.5265
 20
612.3229
 30
0.0
 11
119.0065
 21
611.1228999999999
 31
0.0
  0
LINE
  5
8D
330
1E
100
AcDbEntity
  8
0
100
AcDbLine
 10
119.0065
 20
611.1228999999999
 30
0.0
 11
119.1864999999999
 21
609.8429
 31
0.0
  0
LINE
  5
8E
330
1E
100
AcDbEntity
  8
0
100
AcDbLine
 10
121.0865
 20
582.8428999999999
 30
0.0
 11
127.3865
 21
582.8428999999999
 31
0.0
  0
LINE
  5
8F
330
1E
100
AcDbEntity
  8
0
100
AcDbLine
 10
127.3865
 20
582.8428999999999
 30
0.0
 11
132.9865
 21
582.8428999999999
 31
0.0
  0
LINE
  5
90
330
1E
100
AcDbEntity
  8
0
100
AcDbLine
 10
121.3864999999999
 20
584.3428999999999
 30
0.0
 11
128.0865
 21
584.3428999999999
 31
0.0
  0
LINE
  5
91
330
1E
100
AcDbEntity
  8
0
100
AcDbLine
 10
121.0865
 20
617.8429
 30
0.0
 11
127.3865
 21
617.8429
 31
0.0
  0
LINE
  5
92
330
1E
100
AcDbEntity
  8
0
100
AcDbLine
 10
133.1865
 20
528.8428999999999
 30
0.0
 11
134.4365
 21
528.8428999999999
 31
0.0
  0
LINE
  5
93
330
1E
100
AcDbEntity
  8
0
100
AcDbLine
 10
134.4365
 20
528.8428999999999
 30
0.0
 11
135.6274999999999
 21
528.8428999999999
 31
0.0
  0
LINE
  5
94
330
1E
100
AcDbEntity
  8
0
100
AcDbLine
 10
135.6274999999999
 20
528.8428999999999
 30
0.0
 11
136.6864999999999
 21
528.8428999999999
 31
0.0
  0
LINE
  5
95
330
1E
100
AcDbEntity
  8
0
100
AcDbLine
 10
132.9865
 20
582.8428999999999
 30
0.0
 11
137.1864999999999
 21
582.8428999999999
 31
0.0
  0
LINE
  5
96
330
1E
100
AcDbEntity
  8
0
100
AcDbLine
 10
128.0865
 20
584.3428999999999
 30
0.0
 11
133.9865
 21
584.3428999999999
 31
0.0
  0
LINE
  5
97
330
1E
100
AcDbEntity
  8
0
100
AcDbLine
 10
133.9865
 20
584.3428999999999
 30
0.0
 11
138.3865
 21
584.3428999999999
 31
0.0
  0
LINE
  5
98
330
1E
100
AcDbEntity
  8
0
100
AcDbLine
 10
127.3865
 20
617.8429
 30
0.0
 11
139.7864999999999
 21
617.8429
 31
0.0
  0
LINE
  5
99
330
1E
100
AcDbEntity
  8
0
100
AcDbLine
 10
127.0695
 20
353.1628999999999
 30
0.0
 11
136.040533852343
 21
372.289285233347
 31
0.0
  0
LINE
  5
9A
330
1E
100
AcDbEntity
  8
0
100
AcDbLine
 10
127.0695
 20
353.1628999999999
 30
0.0
 11
136.040533852343
 21
372.289285233348
 31
0.0
  0
LINE
  5
9B
330
1E
100
AcDbEntity
  8
0
100
AcDbLine
 10
118.3194999999999
 20
48.1739000000001
 30
0.0
 11
135.6605
 21
32.6329000000001
 31
0.0
  0
LINE
  5
9C
330
1E
100
AcDbEntity
  8
0
100
AcDbLine
 10
107.9865
 20
36.2189
 30
0.0
 11
127.5695
 21
18.7859000000001
 31
0.0
  0
LINE
  5
9D
330
1E
100
AcDbEntity
  8
0
100
AcDbLine
 10
136.6864999999999
 20
528.8428999999999
 30
0.0
 11
137.4865
 21
528.8428999999999
 31
0.0
  0
LINE
  5
9E
330
1E
100
AcDbEntity
  8
0
100
AcDbLine
 10
137.4865
 20
528.8428999999999
 30
0.0
 11
137.9865
 21
528.8428999999999
 31
0.0
  0
LINE
  5
9F
330
1E
100
AcDbEntity
  8
0
100
AcDbLine
 10
138.1864999999999
 20
528.8428999999999
 30
0.0
 11
138.1864999999999
 21
532.8428999999999
 31
0.0
  0
LINE
  5
A0
330
1E
100
AcDbEntity
  8
0
100
AcDbLine
 10
137.9865
 20
528.8428999999999
 30
0.0
 11
138.1864999999999
 21
528.8428999999999
 31
0.0
  0
LINE
  5
A1
330
1E
100
AcDbEntity
  8
0
100
AcDbLine
 10
138.1864999999999
 20
532.8428999999999
 30
0.0
 11
155.8770604
 21
532.8428999999999
 31
0.0
  0
LINE
  5
A2
330
1E
100
AcDbEntity
  8
0
100
AcDbLine
 10
138.1864999999999
 20
532.8428999999999
 30
0.0
 11
138.1864999999999
 21
528.8428999999999
 31
0.0
  0
LINE
  5
A3
330
1E
100
AcDbEntity
  8
0
100
AcDbLine
 10
138.1864999999999
 20
532.8428999999999
 30
0.0
 11
155.8770604
 21
532.8428999999999
 31
0.0
  0
LINE
  5
A4
330
1E
100
AcDbEntity
  8
0
100
AcDbLine
 10
137.1864999999999
 20
582.8428999999999
 30
0.0
 11
139.7864999999999
 21
582.8428999999999
 31
0.0
  0
LINE
  5
A5
330
1E
100
AcDbEntity
  8
0
100
AcDbLine
 10
138.6865
 20
581.8429
 30
0.0
 11
138.6865
 21
580.8429
 31
0.0
  0
LINE
  5
A6
330
1E
100
AcDbEntity
  8
0
100
AcDbLine
 10
138.3865
 20
584.3428999999999
 30
0.0
 11
141.1864999999999
 21
584.3428999999999
 31
0.0
  0
LINE
  5
A7
330
1E
100
AcDbEntity
  8
0
100
AcDbLine
 10
138.5198333333329
 20
582.8428999999999
 30
0.0
 11
138.6865
 21
581.8429
 31
0.0
  0
LINE
  5
A8
330
1E
100
AcDbEntity
  8
0
100
AcDbLine
 10
139.7864999999999
 20
582.8428999999999
 30
0.0
 11
140.6864999999999
 21
582.8428999999999
 31
0.0
  0
LINE
  5
A9
330
1E
100
AcDbEntity
  8
0
100
AcDbLine
 10
141.1864999999999
 20
584.3428999999999
 30
0.0
 11
142.1864999999999
 21
584.3428999999999
 31
0.0
  0
LINE
  5
AA
330
1E
100
AcDbEntity
  8
0
100
AcDbLine
 10
139.7864999999999
 20
617.8429
 30
0.0
 11
140.6864999999999
 21
617.8429
 31
0.0
  0
LINE
  5
AB
330
1E
100
AcDbEntity
  8
0
100
AcDbLine
 10
140.6864999999999
 20
582.8428999999999
 30
0.0
 11
142.1864999999999
 21
584.3428999999999
 31
0.0
  0
LINE
  5
AC
330
1E
100
AcDbEntity
  8
0
100
AcDbLine
 10
142.1864999999999
 20
584.3428999999999
 30
0.0
 11
142.1864999999999
 21
616.3428999999999
 31
0.0
  0
LINE
  5
AD
330
1E
100
AcDbEntity
  8
0
100
AcDbLine
 10
142.1864999999999
 20
616.3428999999999
 30
0.0
 11
142.1864999999999
 21
584.3428999999999
 31
0.0
  0
LINE
  5
AE
330
1E
100
AcDbEntity
  8
0
100
AcDbLine
 10
141.8865
 20
617.0429
 30
0.0
 11
142.1864999999999
 21
616.3428999999999
 31
0.0
  0
LINE
  5
AF
330
1E
100
AcDbEntity
  8
0
100
AcDbLine
 10
141.3865
 20
617.5429
 30
0.0
 11
141.8865
 21
617.0429
 31
0.0
  0
LINE
  5
B0
330
1E
100
AcDbEntity
  8
0
100
AcDbLine
 10
140.6864999999999
 20
617.8429
 30
0.0
 11
141.3865
 21
617.5429
 31
0.0
  0
LINE
  5
B1
330
1E
100
AcDbEntity
  8
0
100
AcDbLine
 10
138.6865
 20
580.8429
 30
0.0
 11
138.6865
 21
581.8429
 31
0.0
  0
LINE
  5
B2
330
1E
100
AcDbEntity
  8
0
100
AcDbLine
 10
136.5437086330899
 20
373.572645367333
 30
0.0
 11
144.3454999999999
 21
395.4019
 31
0.0
  0
LINE
  5
B3
330
1E
100
AcDbEntity
  8
0
100
AcDbLine
 10
150.7965
 20
419.7798999999999
 30
0.0
 11
155.6785
 21
443.8869
 31
0.0
  0
LINE
  5
B4
330
1E
100
AcDbEntity
  8
0
100
AcDbLine
 10
149.3254999999999
 20
364.0209
 30
0.0
 11
157.9464999999999
 21
387.4318999999999
 31
0.0
  0
LINE
  5
B5
330
1E
100
AcDbEntity
  8
0
100
AcDbLine
 10
136.5437086330899
 20
373.572645367333
 30
0.0
 11
144.3454999999999
 21
395.4019
 31
0.0
  0
LINE
  5
B6
330
1E
100
AcDbEntity
  8
0
100
AcDbLine
 10
139.7624999999999
 20
343.7988999999999
 30
0.0
 11
149.3254999999999
 21
364.0209
 31
0.0
  0
LINE
  5
B7
330
1E
100
AcDbEntity
  8
0
100
AcDbLine
 10
135.6605
 20
32.6329000000001
 30
0.0
 11
152.7994999999999
 21
23.7669000000001
 31
0.0
  0
LINE
  5
B8
330
1E
100
AcDbEntity
  8
0
100
AcDbLine
 10
127.5695
 20
18.7859000000001
 30
0.0
 11
147.1605
 21
8.82400000000007
 31
0.0
  0
LINE
  5
B9
330
1E
100
AcDbEntity
  8
0
100
AcDbLine
 10
155.8770604
 20
532.8428999999999
 30
0.0
 11
159.8334999999999
 21
493.2388999999999
 31
0.0
  0
LINE
  5
BA
330
1E
100
AcDbEntity
  8
0
100
AcDbLine
 10
159.8334999999999
 20
493.2388999999999
 30
0.0
 11
160.5184999999999
 21
493.2388999999999
 31
0.0
  0
LINE
  5
BB
330
1E
100
AcDbEntity
  8
0
100
AcDbLine
 10
162.4695
 20
493.2388999999999
 30
0.0
 11
165.3885
 21
493.2379
 31
0.0
  0
LINE
  5
BC
330
1E
100
AcDbEntity
  8
0
100
AcDbLine
 10
160.5184999999999
 20
493.2388999999999
 30
0.0
 11
160.8257517471409
 21
493.2388999999999
 31
0.0
  0
LINE
  5
BD
330
1E
100
AcDbEntity
  8
0
100
AcDbLine
 10
160.5184999999999
 20
493.2388999999999
 30
0.0
 11
162.4695
 21
493.2388999999999
 31
0.0
  0
LINE
  5
BE
330
1E
100
AcDbEntity
  8
0
100
AcDbLine
 10
164.0864999999999
 20
583.8428999999999
 30
0.0
 11
166.1864999999999
 21
583.8428999999999
 31
0.0
  0
LINE
  5
BF
330
1E
100
AcDbEntity
  8
0
100
AcDbLine
 10
164.0864999999999
 20
583.8428999999999
 30
0.0
 11
164.1864999999999
 21
583.8428999999999
 31
0.0
  0
LINE
  5
C0
330
1E
100
AcDbEntity
  8
0
100
AcDbLine
 10
162.4864999999999
 20
583.8428999999999
 30
0.0
 11
164.0864999999999
 21
583.8428999999999
 31
0.0
  0
LINE
  5
C1
330
1E
100
AcDbEntity
  8
0
100
AcDbLine
 10
161.5865
 20
583.8428999999999
 30
0.0
 11
162.4864999999999
 21
583.8428999999999
 31
0.0
  0
LINE
  5
C2
330
1E
100
AcDbEntity
  8
0
100
AcDbLine
 10
162.6865
 20
595.5429
 30
0.0
 11
171.1864999999999
 21
595.8428999999999
 31
0.0
  0
LINE
  5
C4
330
1E
100
AcDbEntity
  8
0
100
AcDbLine
 10
161.6864999999999
 20
594.8428999999999
 30
0.0
 11
162.6865
 21
595.5429
 31
0.0
  0
LINE
  5
C5
330
1E
100
AcDbEntity
  8
0
100
AcDbLine
 10
161.1864999999999
 20
593.8429
 30
0.0
 11
161.6864999999999
 21
594.8428999999999
 31
0.0
  0
LINE
  5
C6
330
1E
100
AcDbEntity
  8
0
100
AcDbLine
 10
161.1864999999999
 20
593.8429
 30
0.0
 11
161.1864999999999
 21
583.8428999999999
 31
0.0
  0
LINE
  5
C7
330
1E
100
AcDbEntity
  8
0
100
AcDbLine
 10
161.1864999999999
 20
583.8428999999999
 30
0.0
 11
161.5865
 21
583.8428999999999
 31
0.0
  0
LINE
  5
C8
330
1E
100
AcDbEntity
  8
0
100
AcDbLine
 10
161.1864999999999
 20
583.8428999999999
 30
0.0
 11
161.1864999999999
 21
593.8429
 31
0.0
  0
LINE
  5
C9
330
1E
100
AcDbEntity
  8
0
100
AcDbLine
 10
164.4865
 20
583.8428999999999
 30
0.0
 11
165.0865
 21
583.8428999999999
 31
0.0
  0
LINE
  5
CA
330
1E
100
AcDbEntity
  8
0
100
AcDbLine
 10
164.1864999999999
 20
583.8428999999999
 30
0.0
 11
164.4865
 21
583.8428999999999
 31
0.0
  0
LINE
  5
CB
330
1E
100
AcDbEntity
  8
0
100
AcDbLine
 10
164.1864999999999
 20
583.8428999999999
 30
0.0
 11
164.1864999999999
 21
580.8429
 31
0.0
  0
LINE
  5
CC
330
1E
100
AcDbEntity
  8
0
100
AcDbLine
 10
164.1864999999999
 20
580.8429
 30
0.0
 11
164.1864999999999
 21
583.8428999999999
 31
0.0
  0
LINE
  5
CD
330
1E
100
AcDbEntity
  8
0
100
AcDbLine
 10
158.8605
 20
465.4339
 30
0.0
 11
160.8257517471409
 21
493.2388999999999
 31
0.0
  0
LINE
  5
CE
330
1E
100
AcDbEntity
  8
0
100
AcDbLine
 10
155.6785
 20
443.8869
 30
0.0
 11
158.8605
 21
465.4339
 31
0.0
  0
LINE
  5
CF
330
1E
100
AcDbEntity
  8
0
100
AcDbLine
 10
165.3885
 20
493.2379
 30
0.0
 11
168.8334999999999
 21
493.2379
 31
0.0
  0
LINE
  5
D0
330
1E
100
AcDbEntity
  8
0
100
AcDbLine
 10
166.1864999999999
 20
583.8428999999999
 30
0.0
 11
168.5864999999999
 21
583.8428999999999
 31
0.0
  0
LINE
  5
D1
330
1E
100
AcDbEntity
  8
0
100
AcDbLine
 10
172.2775
 20
493.2379
 30
0.0
 11
175.1974999999999
 21
493.2369
 31
0.0
  0
LINE
  5
D2
330
1E
100
AcDbEntity
  8
0
100
AcDbLine
 10
168.8334999999999
 20
493.2379
 30
0.0
 11
172.2775
 21
493.2379
 31
0.0
  0
LINE
  5
D3
330
1E
100
AcDbEntity
  8
0
100
AcDbLine
 10
171.1864999999999
 20
583.8428999999999
 30
0.0
 11
172.9865
 21
583.8428999999999
 31
0.0
  0
LINE
  5
D4
330
1E
100
AcDbEntity
  8
0
100
AcDbLine
 10
171.1864999999999
 20
583.8428999999999
 30
0.0
 11
173.7865
 21
583.8428999999999
 31
0.0
  0
LINE
  5
D5
330
1E
100
AcDbEntity
  8
0
100
AcDbLine
 10
168.5864999999999
 20
583.8428999999999
 30
0.0
 11
171.1864999999999
 21
583.8428999999999
 31
0.0
  0
LINE
  5
D6
330
1E
100
AcDbEntity
  8
0
100
AcDbLine
 10
169.3865
 20
583.8428999999999
 30
0.0
 11
171.1864999999999
 21
583.8428999999999
 31
0.0
  0
LINE
  5
D7
330
1E
100
AcDbEntity
  8
0
100
AcDbLine
 10
167.6865
 20
583.8428999999999
 30
0.0
 11
169.3865
 21
583.8428999999999
 31
0.0
  0
LINE
  5
D8
330
1E
100
AcDbEntity
  8
0
100
AcDbLine
 10
171.1864999999999
 20
595.8428999999999
 30
0.0
 11
179.6864999999999
 21
595.5429
 31
0.0
  0
LINE
  5
DA
330
1E
100
AcDbEntity
  8
0
100
AcDbLine
 10
166.2865
 20
583.8428999999999
 30
0.0
 11
167.6865
 21
583.8428999999999
 31
0.0
  0
LINE
  5
DB
330
1E
100
AcDbEntity
  8
0
100
AcDbLine
 10
165.0865
 20
583.8428999999999
 30
0.0
 11
166.2865
 21
583.8428999999999
 31
0.0
  0
LINE
  5
DC
330
1E
100
AcDbEntity
  8
0
100
AcDbLine
 10
170.4134999999999
 20
438.3369
 30
0.0
 11
174.4105
 21
462.6449
 31
0.0
  0
LINE
  5
DD
330
1E
100
AcDbEntity
  8
0
100
AcDbLine
 10
165.0204999999999
 20
413.0339
 30
0.0
 11
170.4134999999999
 21
438.3369
 31
0.0
  0
LINE
  5
DE
330
1E
100
AcDbEntity
  8
0
100
AcDbLine
 10
157.9464999999999
 20
387.4318999999999
 30
0.0
 11
165.0204999999999
 21
413.0339
 31
0.0
  0
LINE
  5
DF
330
1E
100
AcDbEntity
  8
0
100
AcDbLine
 10
152.7994999999999
 20
23.7669000000001
 30
0.0
 11
172.4464999999999
 21
17.6901000000001
 31
0.0
  0
LINE
  5
E0
330
1E
100
AcDbEntity
  8
0
100
AcDbLine
 10
147.1605
 20
8.82400000000007
 30
0.0
 11
169.4594999999999
 21
1.95020000000006
 31
0.0
  0
LINE
  5
E1
330
1E
100
AcDbEntity
  8
0
100
AcDbLine
 10
173.7865
 20
583.8428999999999
 30
0.0
 11
176.1865
 21
583.8428999999999
 31
0.0
  0
LINE
  5
E2
330
1E
100
AcDbEntity
  8
0
100
AcDbLine
 10
172.9865
 20
583.8428999999999
 30
0.0
 11
174.6864999999999
 21
583.8428999999999
 31
0.0
  0
LINE
  5
E3
330
1E
100
AcDbEntity
  8
0
100
AcDbLine
 10
176.6074392745629
 20
493.2369
 30
0.0
 11
177.1485
 21
493.2369
 31
0.0
  0
LINE
  5
E4
330
1E
100
AcDbEntity
  8
0
100
AcDbLine
 10
177.1485
 20
493.2369
 30
0.0
 11
177.8335
 21
493.2369
 31
0.0
  0
LINE
  5
E5
330
1E
100
AcDbEntity
  8
0
100
AcDbLine
 10
175.1974999999999
 20
493.2369
 30
0.0
 11
177.1485
 21
493.2369
 31
0.0
  0
LINE
  5
E6
330
1E
100
AcDbEntity
  8
0
100
AcDbLine
 10
176.1865
 20
583.8428999999999
 30
0.0
 11
178.2864999999999
 21
583.8428999999999
 31
0.0
  0
LINE
  5
E7
330
1E
100
AcDbEntity
  8
0
100
AcDbLine
 10
174.6864999999999
 20
583.8428999999999
 30
0.0
 11
176.0865
 21
583.8428999999999
 31
0.0
  0
LINE
  5
E8
330
1E
100
AcDbEntity
  8
0
100
AcDbLine
 10
176.0865
 20
583.8428999999999
 30
0.0
 11
177.2864999999999
 21
583.8428999999999
 31
0.0
  0
LINE
  5
E9
330
1E
100
AcDbEntity
  8
0
100
AcDbLine
 10
177.8335
 20
493.2369
 30
0.0
 11
181.7980605999999
 21
532.8428999999999
 31
0.0
  0
LINE
  5
EA
330
1E
100
AcDbEntity
  8
0
100
AcDbLine
 10
178.1864999999999
 20
580.8429
 30
0.0
 11
178.1864999999999
 21
583.8428999999999
 31
0.0
  0
LINE
  5
EB
330
1E
100
AcDbEntity
  8
0
100
AcDbLine
 10
177.2864999999999
 20
583.8428999999999
 30
0.0
 11
177.8865
 21
583.8428999999999
 31
0.0
  0
LINE
  5
EE
330
1E
100
AcDbEntity
  8
0
100
AcDbLine
 10
177.8865
 20
583.8428999999999
 30
0.0
 11
178.1864999999999
 21
583.8428999999999
 31
0.0
  0
LINE
  5
EF
330
1E
100
AcDbEntity
  8
0
100
AcDbLine
 10
178.2864999999999
 20
583.8428999999999
 30
0.0
 11
179.8865
 21
583.8428999999999
 31
0.0
  0
LINE
  5
F0
330
1E
100
AcDbEntity
  8
0
100
AcDbLine
 10
181.7980605999999
 20
532.8428999999999
 30
0.0
 11
227.3260131999999
 21
532.8428999999999
 31
0.0
  0
LINE
  5
F1
330
1E
100
AcDbEntity
  8
0
100
AcDbLine
 10
181.7980605999999
 20
532.8428999999999
 30
0.0
 11
227.3260131999999
 21
532.8428999999999
 31
0.0
  0
LINE
  5
F2
330
1E
100
AcDbEntity
  8
0
100
AcDbLine
 10
181.1865
 20
583.8428999999999
 30
0.0
 11
181.1865
 21
593.8429
 31
0.0
  0
LINE
  5
F3
330
1E
100
AcDbEntity
  8
0
100
AcDbLine
 10
179.8865
 20
583.8428999999999
 30
0.0
 11
180.7864999999999
 21
583.8428999999999
 31
0.0
  0
LINE
  5
F4
330
1E
100
AcDbEntity
  8
0
100
AcDbLine
 10
179.6864999999999
 20
595.5429
 30
0.0
 11
180.6864999999999
 21
594.8428999999999
 31
0.0
  0
LINE
  5
F5
330
1E
100
AcDbEntity
  8
0
100
AcDbLine
 10
180.6864999999999
 20
594.8428999999999
 30
0.0
 11
181.1865
 21
593.8429
 31
0.0
  0
LINE
  5
F6
330
1E
100
AcDbEntity
  8
0
100
AcDbLine
 10
181.1865
 20
593.8429
 30
0.0
 11
181.1865
 21
583.8428999999999
 31
0.0
  0
LINE
  5
F7
330
1E
100
AcDbEntity
  8
0
100
AcDbLine
 10
180.7864999999999
 20
583.8428999999999
 30
0.0
 11
181.1865
 21
583.8428999999999
 31
0.0
  0
LINE
  5
F8
330
1E
100
AcDbEntity
  8
0
100
AcDbLine
 10
178.1864999999999
 20
583.8428999999999
 30
0.0
 11
178.1864999999999
 21
580.8429
 31
0.0
  0
LINE
  5
F9
330
1E
100
AcDbEntity
  8
0
100
AcDbLine
 10
178.1864999999999
 20
583.8428999999999
 30
0.0
 11
178.2864999999999
 21
583.8428999999999
 31
0.0
  0
LINE
  5
FA
330
1E
100
AcDbEntity
  8
0
100
AcDbLine
 10
174.4105
 20
462.6449
 30
0.0
 11
176.6074392745629
 21
493.2369
 31
0.0
  0
LINE
  5
FB
330
1E
100
AcDbEntity
  8
0
100
AcDbLine
 10
172.4464999999999
 20
17.6901000000001
 30
0.0
 11
186.4335
 21
16.0962000000001
 31
0.0
  0
LINE
  5
FC
330
1E
100
AcDbEntity
  8
0
100
AcDbLine
 10
169.4594999999999
 20
1.95020000000006
 30
0.0
 11
186.2065
 21
0.15710000000007
 31
0.0
  0
LINE
  5
FD
330
1E
100
AcDbEntity
  8
0
100
AcDbLine
 10
225.5005
 20
8.82400000000007
 30
0.0
 11
245.3755
 21
18.7859000000001
 31
0.0
  0
LINE
  5
FE
330
1E
100
AcDbEntity
  8
0
100
AcDbLine
 10
203.0054999999999
 20
1.95020000000006
 30
0.0
 11
225.5005
 21
8.82400000000007
 31
0.0
  0
LINE
  5
FF
330
1E
100
AcDbEntity
  8
0
100
AcDbLine
 10
245.3755
 20
18.7859000000001
 30
0.0
 11
265.4554999999999
 21
36.2189
 31
0.0
  0
LINE
  5
100
330
1E
100
AcDbEntity
  8
0
100
AcDbLine
 10
225.5865
 20
532.8428999999999
 30
0.0
 11
228.6865
 21
532.8428999999999
 31
0.0
  0
LINE
  5
101
330
1E
100
AcDbEntity
  8
0
100
AcDbLine
 10
225.5865
 20
532.8428999999999
 30
0.0
 11
227.3260131999999
 21
532.8428999999999
 31
0.0
  0
LINE
  5
102
330
1E
100
AcDbEntity
  8
0
100
AcDbLine
 10
223.1864999999999
 20
532.8428999999999
 30
0.0
 11
225.5865
 21
532.8428999999999
 31
0.0
  0
LINE
  5
103
330
1E
100
AcDbEntity
  8
0
100
AcDbLine
 10
221.6864999999999
 20
532.8428999999999
 30
0.0
 11
223.1864999999999
 21
532.8428999999999
 31
0.0
  0
LINE
  5
104
330
1E
100
AcDbEntity
  8
0
100
AcDbLine
 10
224.1865
 20
747.3429
 30
0.0
 11
224.5865
 21
747.3429
 31
0.0
  0
LINE
  5
105
330
1E
100
AcDbEntity
  8
0
100
AcDbLine
 10
224.1865
 20
747.3429
 30
0.0
 11
224.6865
 21
747.8429
 31
0.0
  0
LINE
  5
106
330
1E
100
AcDbEntity
  8
0
100
AcDbLine
 10
224.1865
 20
747.3429
 30
0.0
 11
224.1865
 21
728.3428999999999
 31
0.0
  0
LINE
  5
107
330
1E
100
AcDbEntity
  8
0
100
AcDbLine
 10
224.1865
 20
728.3428999999999
 30
0.0
 11
224.5865
 21
728.3428999999999
 31
0.0
  0
LINE
  5
108
330
1E
100
AcDbEntity
  8
0
100
AcDbLine
 10
224.1865
 20
728.3428999999999
 30
0.0
 11
225.1865
 21
727.8429
 31
0.0
  0
LINE
  5
109
330
1E
100
AcDbEntity
  8
0
100
AcDbLine
 10
224.1865
 20
728.3428999999999
 30
0.0
 11
224.1865
 21
747.3429
 31
0.0
  0
LINE
  5
10A
330
1E
100
AcDbEntity
  8
0
100
AcDbLine
 10
224.1865
 20
727.3429
 30
0.0
 11
224.5865
 21
727.3429
 31
0.0
  0
LINE
  5
10B
330
1E
100
AcDbEntity
  8
0
100
AcDbLine
 10
224.1865
 20
727.3429
 30
0.0
 11
225.1865
 21
727.8429
 31
0.0
  0
LINE
  5
10C
330
1E
100
AcDbEntity
  8
0
100
AcDbLine
 10
224.1865
 20
727.3429
 30
0.0
 11
224.1865
 21
580.8429
 31
0.0
  0
LINE
  5
10D
330
1E
100
AcDbEntity
  8
0
100
AcDbLine
 10
226.9985
 20
663.1429
 30
0.0
 11
227.3095
 21
662.6429
 31
0.0
  0
LINE
  5
10E
330
1E
100
AcDbEntity
  8
0
100
AcDbLine
 10
226.9985
 20
663.1429
 30
0.0
 11
226.9985
 21
664.1429
 31
0.0
  0
LINE
  5
10F
330
1E
100
AcDbEntity
  8
0
100
AcDbLine
 10
226.9985
 20
711.7428999999999
 30
0.0
 11
226.9985
 21
710.7428999999999
 31
0.0
  0
LINE
  5
110
330
1E
100
AcDbEntity
  8
0
100
AcDbLine
 10
226.9985
 20
711.7428999999999
 30
0.0
 11
227.3095
 21
712.2428999999999
 31
0.0
  0
LINE
  5
111
330
1E
100
AcDbEntity
  8
0
100
AcDbLine
 10
226.9985
 20
725.3428999999999
 30
0.0
 11
226.9985
 21
724.3428999999999
 31
0.0
  0
LINE
  5
112
330
1E
100
AcDbEntity
  8
0
100
AcDbLine
 10
226.9985
 20
725.3428999999999
 30
0.0
 11
227.3095
 21
725.8428999999999
 31
0.0
  0
LINE
  5
113
330
1E
100
AcDbEntity
  8
0
100
AcDbLine
 10
226.9985
 20
724.3428999999999
 30
0.0
 11
226.9985
 21
725.3428999999999
 31
0.0
  0
LINE
  5
114
330
1E
100
AcDbEntity
  8
0
100
AcDbLine
 10
226.9985
 20
724.3428999999999
 30
0.0
 11
227.3095
 21
723.8429
 31
0.0
  0
LINE
  5
115
330
1E
100
AcDbEntity
  8
0
100
AcDbLine
 10
226.9985
 20
718.5429
 30
0.0
 11
226.9985
 21
717.5429
 31
0.0
  0
LINE
  5
116
330
1E
100
AcDbEntity
  8
0
100
AcDbLine
 10
226.9985
 20
718.5429
 30
0.0
 11
227.3095
 21
719.0429
 31
0.0
  0
LINE
  5
117
330
1E
100
AcDbEntity
  8
0
100
AcDbLine
 10
226.9985
 20
717.5429
 30
0.0
 11
226.9985
 21
718.5429
 31
0.0
  0
LINE
  5
118
330
1E
100
AcDbEntity
  8
0
100
AcDbLine
 10
226.9985
 20
717.5429
 30
0.0
 11
227.3095
 21
717.0429
 31
0.0
  0
LINE
  5
119
330
1E
100
AcDbEntity
  8
0
100
AcDbLine
 10
226.9985
 20
710.7428999999999
 30
0.0
 11
227.3095
 21
710.2428999999999
 31
0.0
  0
LINE
  5
11A
330
1E
100
AcDbEntity
  8
0
100
AcDbLine
 10
226.9985
 20
710.7428999999999
 30
0.0
 11
226.9985
 21
711.7428999999999
 31
0.0
  0
LINE
  5
11B
330
1E
100
AcDbEntity
  8
0
100
AcDbLine
 10
226.9985
 20
703.9429
 30
0.0
 11
227.3095
 21
703.4429
 31
0.0
  0
LINE
  5
11C
330
1E
100
AcDbEntity
  8
0
100
AcDbLine
 10
226.9985
 20
703.9429
 30
0.0
 11
226.9985
 21
704.9428999999999
 31
0.0
  0
LINE
  5
11D
330
1E
100
AcDbEntity
  8
0
100
AcDbLine
 10
226.9985
 20
704.9428999999999
 30
0.0
 11
227.3095
 21
705.4428999999999
 31
0.0
  0
LINE
  5
11E
330
1E
100
AcDbEntity
  8
0
100
AcDbLine
 10
226.9985
 20
704.9428999999999
 30
0.0
 11
226.9985
 21
703.9429
 31
0.0
  0
LINE
  5
11F
330
1E
100
AcDbEntity
  8
0
100
AcDbLine
 10
226.9985
 20
698.1429
 30
0.0
 11
227.3095
 21
698.6429000000001
 31
0.0
  0
LINE
  5
120
330
1E
100
AcDbEntity
  8
0
100
AcDbLine
 10
226.9985
 20
698.1429
 30
0.0
 11
226.9985
 21
697.1429
 31
0.0
  0
LINE
  5
121
330
1E
100
AcDbEntity
  8
0
100
AcDbLine
 10
226.9985
 20
697.1429
 30
0.0
 11
227.3095
 21
696.6429
 31
0.0
  0
LINE
  5
122
330
1E
100
AcDbEntity
  8
0
100
AcDbLine
 10
226.9985
 20
697.1429
 30
0.0
 11
226.9985
 21
698.1429
 31
0.0
  0
LINE
  5
123
330
1E
100
AcDbEntity
  8
0
100
AcDbLine
 10
226.9985
 20
691.3428999999999
 30
0.0
 11
227.3095
 21
691.8428999999999
 31
0.0
  0
LINE
  5
124
330
1E
100
AcDbEntity
  8
0
100
AcDbLine
 10
226.9985
 20
691.3428999999999
 30
0.0
 11
226.9985
 21
690.3429
 31
0.0
  0
LINE
  5
125
330
1E
100
AcDbEntity
  8
0
100
AcDbLine
 10
226.9985
 20
690.3429
 30
0.0
 11
227.3095
 21
689.8429
 31
0.0
  0
LINE
  5
126
330
1E
100
AcDbEntity
  8
0
100
AcDbLine
 10
226.9985
 20
690.3429
 30
0.0
 11
226.9985
 21
691.3428999999999
 31
0.0
  0
LINE
  5
127
330
1E
100
AcDbEntity
  8
0
100
AcDbLine
 10
226.9985
 20
683.5429
 30
0.0
 11
227.3095
 21
683.0429
 31
0.0
  0
LINE
  5
128
330
1E
100
AcDbEntity
  8
0
100
AcDbLine
 10
226.9985
 20
683.5429
 30
0.0
 11
226.9985
 21
684.5429
 31
0.0
  0
LINE
  5
129
330
1E
100
AcDbEntity
  8
0
100
AcDbLine
 10
226.9985
 20
684.5429
 30
0.0
 11
227.3095
 21
685.0429
 31
0.0
  0
LINE
  5
12A
330
1E
100
AcDbEntity
  8
0
100
AcDbLine
 10
226.9985
 20
684.5429
 30
0.0
 11
226.9985
 21
683.5429
 31
0.0
  0
LINE
  5
12B
330
1E
100
AcDbEntity
  8
0
100
AcDbLine
 10
226.9985
 20
677.7428999999999
 30
0.0
 11
227.3095
 21
678.2428999999999
 31
0.0
  0
LINE
  5
12C
330
1E
100
AcDbEntity
  8
0
100
AcDbLine
 10
226.9985
 20
677.7428999999999
 30
0.0
 11
226.9985
 21
676.7428999999999
 31
0.0
  0
LINE
  5
12D
330
1E
100
AcDbEntity
  8
0
100
AcDbLine
 10
226.9985
 20
676.7428999999999
 30
0.0
 11
227.3095
 21
676.2429
 31
0.0
  0
LINE
  5
12E
330
1E
100
AcDbEntity
  8
0
100
AcDbLine
 10
226.9985
 20
676.7428999999999
 30
0.0
 11
226.9985
 21
677.7428999999999
 31
0.0
  0
LINE
  5
12F
330
1E
100
AcDbEntity
  8
0
100
AcDbLine
 10
226.9985
 20
669.9429
 30
0.0
 11
227.3095
 21
669.4429
 31
0.0
  0
LINE
  5
130
330
1E
100
AcDbEntity
  8
0
100
AcDbLine
 10
226.9985
 20
669.9429
 30
0.0
 11
226.9985
 21
670.9429
 31
0.0
  0
LINE
  5
131
330
1E
100
AcDbEntity
  8
0
100
AcDbLine
 10
226.9985
 20
670.9429
 30
0.0
 11
227.3095
 21
671.4428999999999
 31
0.0
  0
LINE
  5
132
330
1E
100
AcDbEntity
  8
0
100
AcDbLine
 10
226.9985
 20
670.9429
 30
0.0
 11
226.9985
 21
669.9429
 31
0.0
  0
LINE
  5
133
330
1E
100
AcDbEntity
  8
0
100
AcDbLine
 10
226.9985
 20
664.1429
 30
0.0
 11
227.3095
 21
664.6429
 31
0.0
  0
LINE
  5
134
330
1E
100
AcDbEntity
  8
0
100
AcDbLine
 10
226.9985
 20
664.1429
 30
0.0
 11
226.9985
 21
663.1429
 31
0.0
  0
LINE
  5
135
330
1E
100
AcDbEntity
  8
0
100
AcDbLine
 10
226.9985
 20
657.3428999999999
 30
0.0
 11
227.3095
 21
657.8428999999999
 31
0.0
  0
LINE
  5
136
330
1E
100
AcDbEntity
  8
0
100
AcDbLine
 10
226.9985
 20
657.3428999999999
 30
0.0
 11
226.9985
 21
656.3429
 31
0.0
  0
LINE
  5
137
330
1E
100
AcDbEntity
  8
0
100
AcDbLine
 10
226.9985
 20
656.3429
 30
0.0
 11
227.3095
 21
655.8429
 31
0.0
  0
LINE
  5
138
330
1E
100
AcDbEntity
  8
0
100
AcDbLine
 10
226.9985
 20
656.3429
 30
0.0
 11
226.9985
 21
657.3428999999999
 31
0.0
  0
LINE
  5
139
330
1E
100
AcDbEntity
  8
0
100
AcDbLine
 10
225.7864999999999
 20
727.3429
 30
0.0
 11
227.6864999999999
 21
727.3429
 31
0.0
  0
LINE
  5
13A
330
1E
100
AcDbEntity
  8
0
100
AcDbLine
 10
225.0865
 20
747.8429
 30
0.0
 11
226.1864999999999
 21
747.8429
 31
0.0
  0
LINE
  5
13B
330
1E
100
AcDbEntity
  8
0
100
AcDbLine
 10
224.6865
 20
747.8429
 30
0.0
 11
225.0865
 21
747.8429
 31
0.0
  0
LINE
  5
13C
330
1E
100
AcDbEntity
  8
0
100
AcDbLine
 10
224.5865
 20
747.3429
 30
0.0
 11
225.7864999999999
 21
747.3429
 31
0.0
  0
LINE
  5
13D
330
1E
100
AcDbEntity
  8
0
100
AcDbLine
 10
224.5865
 20
728.3428999999999
 30
0.0
 11
225.7864999999999
 21
728.3428999999999
 31
0.0
  0
LINE
  5
13E
330
1E
100
AcDbEntity
  8
0
100
AcDbLine
 10
226.6865
 20
727.8429
 30
0.0
 11
228.3865
 21
727.8429
 31
0.0
  0
LINE
  5
13F
330
1E
100
AcDbEntity
  8
0
100
AcDbLine
 10
225.7864999999999
 20
747.3429
 30
0.0
 11
227.6864999999999
 21
747.3429
 31
0.0
  0
LINE
  5
140
330
1E
100
AcDbEntity
  8
0
100
AcDbLine
 10
226.1864999999999
 20
747.8429
 30
0.0
 11
228.0864999999999
 21
747.8429
 31
0.0
  0
LINE
  5
141
330
1E
100
AcDbEntity
  8
0
100
AcDbLine
 10
225.7864999999999
 20
728.3428999999999
 30
0.0
 11
227.6864999999999
 21
728.3428999999999
 31
0.0
  0
LINE
  5
142
330
1E
100
AcDbEntity
  8
0
100
AcDbLine
 10
225.5865
 20
727.8429
 30
0.0
 11
226.6865
 21
727.8429
 31
0.0
  0
LINE
  5
143
330
1E
100
AcDbEntity
  8
0
100
AcDbLine
 10
225.1865
 20
727.8429
 30
0.0
 11
225.5865
 21
727.8429
 31
0.0
  0
LINE
  5
144
330
1E
100
AcDbEntity
  8
0
100
AcDbLine
 10
224.5865
 20
727.3429
 30
0.0
 11
225.7864999999999
 21
727.3429
 31
0.0
  0
LINE
  5
145
330
1E
100
AcDbEntity
  8
0
100
AcDbLine
 10
224.1865
 20
580.8429
 30
0.0
 11
224.1865
 21
727.3429
 31
0.0
  0
LINE
  5
146
330
1E
100
AcDbEntity
  8
0
100
AcDbLine
 10
221.1864999999999
 20
532.8428999999999
 30
0.0
 11
221.6864999999999
 21
532.8428999999999
 31
0.0
  0
LINE
  5
147
330
1E
100
AcDbEntity
  8
0
100
AcDbLine
 10
227.3425
 20
532.7109
 30
0.0
 11
228.0275
 21
532.7109
 31
0.0
  0
LINE
  5
148
330
1E
100
AcDbEntity
  8
0
100
AcDbLine
 10
227.3260131999999
 20
532.8428999999999
 30
0.0
 11
227.3425
 21
532.7109
 31
0.0
  0
LINE
  5
149
330
1E
100
AcDbEntity
  8
0
100
AcDbLine
 10
229.9784999999999
 20
532.7109
 30
0.0
 11
232.8985
 21
532.7098999999999
 31
0.0
  0
LINE
  5
14A
330
1E
100
AcDbEntity
  8
0
100
AcDbLine
 10
228.0275
 20
532.7109
 30
0.0
 11
228.4693786361729
 21
532.7109
 31
0.0
  0
LINE
  5
14B
330
1E
100
AcDbEntity
  8
0
100
AcDbLine
 10
228.0275
 20
532.7109
 30
0.0
 11
229.9784999999999
 21
532.7109
 31
0.0
  0
LINE
  5
14C
330
1E
100
AcDbEntity
  8
0
100
AcDbLine
 10
227.3095
 20
662.6429
 30
0.0
 11
227.9314999999999
 21
662.6429
 31
0.0
  0
LINE
  5
14D
330
1E
100
AcDbEntity
  8
0
100
AcDbLine
 10
227.3095
 20
662.6429
 30
0.0
 11
227.6864999999999
 21
662.6429
 31
0.0
  0
LINE
  5
14E
330
1E
100
AcDbEntity
  8
0
100
AcDbLine
 10
227.3095
 20
712.2428999999999
 30
0.0
 11
227.9314999999999
 21
712.2428999999999
 31
0.0
  0
LINE
  5
14F
330
1E
100
AcDbEntity
  8
0
100
AcDbLine
 10
227.3095
 20
723.8429
 30
0.0
 11
227.9314999999999
 21
723.8429
 31
0.0
  0
LINE
  5
150
330
1E
100
AcDbEntity
  8
0
100
AcDbLine
 10
227.3095
 20
723.8429
 30
0.0
 11
227.6864999999999
 21
723.8429
 31
0.0
  0
LINE
  5
151
330
1E
100
AcDbEntity
  8
0
100
AcDbLine
 10
227.3095
 20
725.8428999999999
 30
0.0
 11
227.9314999999999
 21
725.8428999999999
 31
0.0
  0
LINE
  5
152
330
1E
100
AcDbEntity
  8
0
100
AcDbLine
 10
227.3095
 20
719.0429
 30
0.0
 11
227.9314999999999
 21
719.0429
 31
0.0
  0
LINE
  5
153
330
1E
100
AcDbEntity
  8
0
100
AcDbLine
 10
227.3095
 20
717.0429
 30
0.0
 11
227.9314999999999
 21
717.0429
 31
0.0
  0
LINE
  5
154
330
1E
100
AcDbEntity
  8
0
100
AcDbLine
 10
227.3095
 20
717.0429
 30
0.0
 11
227.6864999999999
 21
717.0429
 31
0.0
  0
LINE
  5
155
330
1E
100
AcDbEntity
  8
0
100
AcDbLine
 10
227.3095
 20
710.2428999999999
 30
0.0
 11
227.6864999999999
 21
710.2428999999999
 31
0.0
  0
LINE
  5
156
330
1E
100
AcDbEntity
  8
0
100
AcDbLine
 10
227.3095
 20
710.2428999999999
 30
0.0
 11
227.9314999999999
 21
710.2428999999999
 31
0.0
  0
LINE
  5
157
330
1E
100
AcDbEntity
  8
0
100
AcDbLine
 10
227.3095
 20
703.4429
 30
0.0
 11
227.9314999999999
 21
703.4429
 31
0.0
  0
LINE
  5
158
330
1E
100
AcDbEntity
  8
0
100
AcDbLine
 10
227.3095
 20
703.4429
 30
0.0
 11
227.6864999999999
 21
703.4429
 31
0.0
  0
LINE
  5
159
330
1E
100
AcDbEntity
  8
0
100
AcDbLine
 10
227.3095
 20
705.4428999999999
 30
0.0
 11
227.9314999999999
 21
705.4428999999999
 31
0.0
  0
LINE
  5
15A
330
1E
100
AcDbEntity
  8
0
100
AcDbLine
 10
227.3095
 20
698.6429000000001
 30
0.0
 11
227.9314999999999
 21
698.6429000000001
 31
0.0
  0
LINE
  5
15B
330
1E
100
AcDbEntity
  8
0
100
AcDbLine
 10
227.3095
 20
696.6429
 30
0.0
 11
227.9314999999999
 21
696.6429
 31
0.0
  0
LINE
  5
15C
330
1E
100
AcDbEntity
  8
0
100
AcDbLine
 10
227.3095
 20
696.6429
 30
0.0
 11
227.6864999999999
 21
696.6429
 31
0.0
  0
LINE
  5
15D
330
1E
100
AcDbEntity
  8
0
100
AcDbLine
 10
227.3095
 20
691.8428999999999
 30
0.0
 11
227.9314999999999
 21
691.8428999999999
 31
0.0
  0
LINE
  5
15E
330
1E
100
AcDbEntity
  8
0
100
AcDbLine
 10
227.3095
 20
689.8429
 30
0.0
 11
227.9314999999999
 21
689.8429
 31
0.0
  0
LINE
  5
15F
330
1E
100
AcDbEntity
  8
0
100
AcDbLine
 10
227.3095
 20
689.8429
 30
0.0
 11
227.6864999999999
 21
689.8429
 31
0.0
  0
LINE
  5
160
330
1E
100
AcDbEntity
  8
0
100
AcDbLine
 10
227.3095
 20
683.0429
 30
0.0
 11
227.9314999999999
 21
683.0429
 31
0.0
  0
LINE
  5
161
330
1E
100
AcDbEntity
  8
0
100
AcDbLine
 10
227.3095
 20
683.0429
 30
0.0
 11
227.6864999999999
 21
683.0429
 31
0.0
  0
LINE
  5
162
330
1E
100
AcDbEntity
  8
0
100
AcDbLine
 10
227.3095
 20
685.0429
 30
0.0
 11
227.9314999999999
 21
685.0429
 31
0.0
  0
LINE
  5
163
330
1E
100
AcDbEntity
  8
0
100
AcDbLine
 10
227.3095
 20
678.2428999999999
 30
0.0
 11
227.9314999999999
 21
678.2428999999999
 31
0.0
  0
LINE
  5
164
330
1E
100
AcDbEntity
  8
0
100
AcDbLine
 10
227.3095
 20
676.2429
 30
0.0
 11
227.9314999999999
 21
676.2429
 31
0.0
  0
LINE
  5
165
330
1E
100
AcDbEntity
  8
0
100
AcDbLine
 10
227.3095
 20
676.2429
 30
0.0
 11
227.6864999999999
 21
676.2429
 31
0.0
  0
LINE
  5
166
330
1E
100
AcDbEntity
  8
0
100
AcDbLine
 10
227.3095
 20
669.4429
 30
0.0
 11
227.9314999999999
 21
669.4429
 31
0.0
  0
LINE
  5
167
330
1E
100
AcDbEntity
  8
0
100
AcDbLine
 10
227.3095
 20
669.4429
 30
0.0
 11
227.6864999999999
 21
669.4429
 31
0.0
  0
LINE
  5
168
330
1E
100
AcDbEntity
  8
0
100
AcDbLine
 10
227.3095
 20
671.4428999999999
 30
0.0
 11
227.9314999999999
 21
671.4428999999999
 31
0.0
  0
LINE
  5
169
330
1E
100
AcDbEntity
  8
0
100
AcDbLine
 10
227.3095
 20
664.6429
 30
0.0
 11
227.9314999999999
 21
664.6429
 31
0.0
  0
LINE
  5
16B
330
1E
100
AcDbEntity
  8
0
100
AcDbLine
 10
227.9314999999999
 20
712.2428999999999
 30
0.0
 11
228.2424999999999
 21
711.7428999999999
 31
0.0
  0
LINE
  5
16C
330
1E
100
AcDbEntity
  8
0
100
AcDbLine
 10
227.9314999999999
 20
723.8429
 30
0.0
 11
228.2424999999999
 21
724.3428999999999
 31
0.0
  0
LINE
  5
16E
330
1E
100
AcDbEntity
  8
0
100
AcDbLine
 10
227.9314999999999
 20
725.8428999999999
 30
0.0
 11
228.2424999999999
 21
725.3428999999999
 31
0.0
  0
LINE
  5
170
330
1E
100
AcDbEntity
  8
0
100
AcDbLine
 10
227.9314999999999
 20
719.0429
 30
0.0
 11
228.2424999999999
 21
718.5429
 31
0.0
  0
LINE
  5
172
330
1E
100
AcDbEntity
  8
0
100
AcDbLine
 10
227.9314999999999
 20
717.0429
 30
0.0
 11
228.2424999999999
 21
717.5429
 31
0.0
  0
LINE
  5
174
330
1E
100
AcDbEntity
  8
0
100
AcDbLine
 10
227.9314999999999
 20
710.2428999999999
 30
0.0
 11
228.2424999999999
 21
710.7428999999999
 31
0.0
  0
LINE
  5
177
330
1E
100
AcDbEntity
  8
0
100
AcDbLine
 10
227.9314999999999
 20
703.4429
 30
0.0
 11
228.2424999999999
 21
703.9429
 31
0.0
  0
LINE
  5
178
330
1E
100
AcDbEntity
  8
0
100
AcDbLine
 10
227.9314999999999
 20
705.4428999999999
 30
0.0
 11
228.2424999999999
 21
704.9428999999999
 31
0.0
  0
LINE
  5
17A
330
1E
100
AcDbEntity
  8
0
100
AcDbLine
 10
227.9314999999999
 20
698.6429000000001
 30
0.0
 11
228.1539267100979
 21
698.6429000000001
 31
0.0
  0
LINE
  5
17B
330
1E
100
AcDbEntity
  8
0
100
AcDbLine
 10
227.9314999999999
 20
698.6429000000001
 30
0.0
 11
228.2424999999999
 21
698.1429
 31
0.0
  0
LINE
  5
17C
330
1E
100
AcDbEntity
  8
0
100
AcDbLine
 10
227.9314999999999
 20
696.6429
 30
0.0
 11
228.2424999999999
 21
697.1429
 31
0.0
  0
LINE
  5
17D
330
1E
100
AcDbEntity
  8
0
100
AcDbLine
 10
227.9314999999999
 20
696.6429
 30
0.0
 11
228.1864999999999
 21
696.6429
 31
0.0
  0
LINE
  5
17E
330
1E
100
AcDbEntity
  8
0
100
AcDbLine
 10
227.9314999999999
 20
691.8428999999999
 30
0.0
 11
228.264675895765
 21
691.8428999999999
 31
0.0
  0
LINE
  5
17F
330
1E
100
AcDbEntity
  8
0
100
AcDbLine
 10
227.9314999999999
 20
691.8428999999999
 30
0.0
 11
228.2424999999999
 21
691.3428999999999
 31
0.0
  0
LINE
  5
180
330
1E
100
AcDbEntity
  8
0
100
AcDbLine
 10
227.9314999999999
 20
689.8429
 30
0.0
 11
228.2424999999999
 21
690.3429
 31
0.0
  0
LINE
  5
181
330
1E
100
AcDbEntity
  8
0
100
AcDbLine
 10
227.9314999999999
 20
689.8429
 30
0.0
 11
228.2972491856679
 21
689.8429
 31
0.0
  0
LINE
  5
182
330
1E
100
AcDbEntity
  8
0
100
AcDbLine
 10
227.9314999999999
 20
683.0429
 30
0.0
 11
228.407998371335
 21
683.0429
 31
0.0
  0
LINE
  5
183
330
1E
100
AcDbEntity
  8
0
100
AcDbLine
 10
227.9314999999999
 20
683.0429
 30
0.0
 11
228.2424999999999
 21
683.5429
 31
0.0
  0
LINE
  5
184
330
1E
100
AcDbEntity
  8
0
100
AcDbLine
 10
227.9314999999999
 20
685.0429
 30
0.0
 11
228.2424999999999
 21
684.5429
 31
0.0
  0
LINE
  5
185
330
1E
100
AcDbEntity
  8
0
100
AcDbLine
 10
227.9314999999999
 20
685.0429
 30
0.0
 11
228.3754250814329
 21
685.0429
 31
0.0
  0
LINE
  5
186
330
1E
100
AcDbEntity
  8
0
100
AcDbLine
 10
227.9314999999999
 20
678.2428999999999
 30
0.0
 11
228.4861742671009
 21
678.2428999999999
 31
0.0
  0
LINE
  5
187
330
1E
100
AcDbEntity
  8
0
100
AcDbLine
 10
227.9314999999999
 20
678.2428999999999
 30
0.0
 11
228.2424999999999
 21
677.7428999999999
 31
0.0
  0
LINE
  5
188
330
1E
100
AcDbEntity
  8
0
100
AcDbLine
 10
227.9314999999999
 20
676.2429
 30
0.0
 11
228.2424999999999
 21
676.7428999999999
 31
0.0
  0
LINE
  5
18B
330
1E
100
AcDbEntity
  8
0
100
AcDbLine
 10
227.9314999999999
 20
669.4429
 30
0.0
 11
228.2424999999999
 21
669.9429
 31
0.0
  0
LINE
  5
18C
330
1E
100
AcDbEntity
  8
0
100
AcDbLine
 10
227.9314999999999
 20
671.4428999999999
 30
0.0
 11
228.2424999999999
 21
670.9429
 31
0.0
  0
LINE
  5
18F
330
1E
100
AcDbEntity
  8
0
100
AcDbLine
 10
227.9314999999999
 20
662.6429
 30
0.0
 11
228.2424999999999
 21
663.1429
 31
0.0
  0
LINE
  5
190
330
1E
100
AcDbEntity
  8
0
100
AcDbLine
 10
227.9314999999999
 20
664.6429
 30
0.0
 11
228.2424999999999
 21
664.1429
 31
0.0
  0
LINE
  5
192
330
1E
100
AcDbEntity
  8
0
100
AcDbLine
 10
227.9314999999999
 20
657.8428999999999
 30
0.0
 11
228.2424999999999
 21
657.3428999999999
 31
0.0
  0
LINE
  5
194
330
1E
100
AcDbEntity
  8
0
100
AcDbLine
 10
227.3095
 20
657.8428999999999
 30
0.0
 11
227.9314999999999
 21
657.8428999999999
 31
0.0
  0
LINE
  5
195
330
1E
100
AcDbEntity
  8
0
100
AcDbLine
 10
227.3095
 20
655.8429
 30
0.0
 11
227.9314999999999
 21
655.8429
 31
0.0
  0
LINE
  5
196
330
1E
100
AcDbEntity
  8
0
100
AcDbLine
 10
227.3095
 20
655.8429
 30
0.0
 11
227.6864999999999
 21
655.8429
 31
0.0
  0
LINE
  5
198
330
1E
100
AcDbEntity
  8
0
100
AcDbLine
 10
228.2424999999999
 20
656.3429
 30
0.0
 11
228.2424999999999
 21
657.3428999999999
 31
0.0
  0
LINE
  5
19A
330
1E
100
AcDbEntity
  8
0
100
AcDbLine
 10
228.2424999999999
 20
711.7428999999999
 30
0.0
 11
228.2424999999999
 21
710.7428999999999
 31
0.0
  0
LINE
  5
19B
330
1E
100
AcDbEntity
  8
0
100
AcDbLine
 10
228.2424999999999
 20
725.3428999999999
 30
0.0
 11
228.2424999999999
 21
724.3428999999999
 31
0.0
  0
LINE
  5
19D
330
1E
100
AcDbEntity
  8
0
100
AcDbLine
 10
228.2424999999999
 20
724.3428999999999
 30
0.0
 11
228.2424999999999
 21
725.3428999999999
 31
0.0
  0
LINE
  5
19F
330
1E
100
AcDbEntity
  8
0
100
AcDbLine
 10
228.2424999999999
 20
718.5429
 30
0.0
 11
228.2424999999999
 21
717.5429
 31
0.0
  0
LINE
  5
1A2
330
1E
100
AcDbEntity
  8
0
100
AcDbLine
 10
228.2424999999999
 20
717.5429
 30
0.0
 11
228.2424999999999
 21
718.5429
 31
0.0
  0
LINE
  5
1A4
330
1E
100
AcDbEntity
  8
0
100
AcDbLine
 10
228.2424999999999
 20
710.7428999999999
 30
0.0
 11
228.2424999999999
 21
711.7428999999999
 31
0.0
  0
LINE
  5
1A6
330
1E
100
AcDbEntity
  8
0
100
AcDbLine
 10
228.2424999999999
 20
703.9429
 30
0.0
 11
228.2424999999999
 21
704.9428999999999
 31
0.0
  0
LINE
  5
1A8
330
1E
100
AcDbEntity
  8
0
100
AcDbLine
 10
228.2424999999999
 20
704.9428999999999
 30
0.0
 11
228.2424999999999
 21
703.9429
 31
0.0
  0
LINE
  5
1AA
330
1E
100
AcDbEntity
  8
0
100
AcDbLine
 10
228.2424999999999
 20
698.1429
 30
0.0
 11
228.2424999999999
 21
697.1429
 31
0.0
  0
LINE
  5
1AC
330
1E
100
AcDbEntity
  8
0
100
AcDbLine
 10
228.2424999999999
 20
697.1429
 30
0.0
 11
228.2424999999999
 21
698.1429
 31
0.0
  0
LINE
  5
1AE
330
1E
100
AcDbEntity
  8
0
100
AcDbLine
 10
228.2424999999999
 20
691.3428999999999
 30
0.0
 11
228.2424999999999
 21
690.3429
 31
0.0
  0
LINE
  5
1B0
330
1E
100
AcDbEntity
  8
0
100
AcDbLine
 10
228.2424999999999
 20
690.3429
 30
0.0
 11
228.2424999999999
 21
691.3428999999999
 31
0.0
  0
LINE
  5
1B2
330
1E
100
AcDbEntity
  8
0
100
AcDbLine
 10
228.2424999999999
 20
683.5429
 30
0.0
 11
228.2424999999999
 21
684.5429
 31
0.0
  0
LINE
  5
1B4
330
1E
100
AcDbEntity
  8
0
100
AcDbLine
 10
228.2424999999999
 20
684.5429
 30
0.0
 11
228.2424999999999
 21
683.5429
 31
0.0
  0
LINE
  5
1B6
330
1E
100
AcDbEntity
  8
0
100
AcDbLine
 10
228.2424999999999
 20
677.7428999999999
 30
0.0
 11
228.2424999999999
 21
676.7428999999999
 31
0.0
  0
LINE
  5
1B8
330
1E
100
AcDbEntity
  8
0
100
AcDbLine
 10
228.2424999999999
 20
676.7428999999999
 30
0.0
 11
228.2424999999999
 21
677.7428999999999
 31
0.0
  0
LINE
  5
1BA
330
1E
100
AcDbEntity
  8
0
100
AcDbLine
 10
228.2424999999999
 20
669.9429
 30
0.0
 11
228.2424999999999
 21
670.9429
 31
0.0
  0
LINE
  5
1BC
330
1E
100
AcDbEntity
  8
0
100
AcDbLine
 10
228.2424999999999
 20
670.9429
 30
0.0
 11
228.2424999999999
 21
669.9429
 31
0.0
  0
LINE
  5
1BE
330
1E
100
AcDbEntity
  8
0
100
AcDbLine
 10
228.2424999999999
 20
663.1429
 30
0.0
 11
228.2424999999999
 21
664.1429
 31
0.0
  0
LINE
  5
1C0
330
1E
100
AcDbEntity
  8
0
100
AcDbLine
 10
228.2424999999999
 20
664.1429
 30
0.0
 11
228.2424999999999
 21
663.1429
 31
0.0
  0
LINE
  5
1C1
330
1E
100
AcDbEntity
  8
0
100
AcDbLine
 10
228.2424999999999
 20
657.3428999999999
 30
0.0
 11
228.2424999999999
 21
656.3429
 31
0.0
  0
LINE
  5
1C3
330
1E
100
AcDbEntity
  8
0
100
AcDbLine
 10
227.9314999999999
 20
655.8429
 30
0.0
 11
228.2424999999999
 21
656.3429
 31
0.0
  0
LINE
  5
1C5
330
1E
100
AcDbEntity
  8
0
100
AcDbLine
 10
228.0864999999999
 20
747.8429
 30
0.0
 11
230.4864999999999
 21
747.8429
 31
0.0
  0
LINE
  5
1C6
330
1E
100
AcDbEntity
  8
0
100
AcDbLine
 10
227.6864999999999
 20
747.3429
 30
0.0
 11
230.1864999999999
 21
747.3429
 31
0.0
  0
LINE
  5
1C7
330
1E
100
AcDbEntity
  8
0
100
AcDbLine
 10
227.6864999999999
 20
728.3428999999999
 30
0.0
 11
230.1864999999999
 21
728.3428999999999
 31
0.0
  0
LINE
  5
1C8
330
1E
100
AcDbEntity
  8
0
100
AcDbLine
 10
230.1864999999999
 20
747.3429
 30
0.0
 11
233.0865
 21
747.3429
 31
0.0
  0
LINE
  5
1C9
330
1E
100
AcDbEntity
  8
0
100
AcDbLine
 10
230.1864999999999
 20
728.3428999999999
 30
0.0
 11
233.0865
 21
728.3428999999999
 31
0.0
  0
LINE
  5
1CA
330
1E
100
AcDbEntity
  8
0
100
AcDbLine
 10
228.3865
 20
727.8429
 30
0.0
 11
230.6865
 21
727.8429
 31
0.0
  0
LINE
  5
1CB
330
1E
100
AcDbEntity
  8
0
100
AcDbLine
 10
227.6864999999999
 20
727.3429
 30
0.0
 11
230.1864999999999
 21
727.3429
 31
0.0
  0
LINE
  5
1CC
330
1E
100
AcDbEntity
  8
0
100
AcDbLine
 10
230.4995
 20
711.7428999999999
 30
0.0
 11
230.8985
 21
712.2428999999999
 31
0.0
  0
LINE
  5
1CD
330
1E
100
AcDbEntity
  8
0
100
AcDbLine
 10
230.4995
 20
711.7428999999999
 30
0.0
 11
230.4995
 21
710.7428999999999
 31
0.0
  0
LINE
  5
1CE
330
1E
100
AcDbEntity
  8
0
100
AcDbLine
 10
230.4995
 20
724.3428999999999
 30
0.0
 11
230.4995
 21
725.3428999999999
 31
0.0
  0
LINE
  5
1CF
330
1E
100
AcDbEntity
  8
0
100
AcDbLine
 10
230.4995
 20
724.3428999999999
 30
0.0
 11
230.8985
 21
723.8429
 31
0.0
  0
LINE
  5
1D0
330
1E
100
AcDbEntity
  8
0
100
AcDbLine
 10
230.4995
 20
725.3428999999999
 30
0.0
 11
230.4995
 21
724.3428999999999
 31
0.0
  0
LINE
  5
1D1
330
1E
100
AcDbEntity
  8
0
100
AcDbLine
 10
230.4995
 20
725.3428999999999
 30
0.0
 11
230.8985
 21
725.8428999999999
 31
0.0
  0
LINE
  5
1D2
330
1E
100
AcDbEntity
  8
0
100
AcDbLine
 10
230.4995
 20
718.5429
 30
0.0
 11
230.4995
 21
717.5429
 31
0.0
  0
LINE
  5
1D3
330
1E
100
AcDbEntity
  8
0
100
AcDbLine
 10
230.4995
 20
718.5429
 30
0.0
 11
230.8985
 21
719.0429
 31
0.0
  0
LINE
  5
1D4
330
1E
100
AcDbEntity
  8
0
100
AcDbLine
 10
230.4995
 20
717.5429
 30
0.0
 11
230.8985
 21
717.0429
 31
0.0
  0
LINE
  5
1D5
330
1E
100
AcDbEntity
  8
0
100
AcDbLine
 10
230.4995
 20
717.5429
 30
0.0
 11
230.4995
 21
718.5429
 31
0.0
  0
LINE
  5
1D6
330
1E
100
AcDbEntity
  8
0
100
AcDbLine
 10
230.4995
 20
710.7428999999999
 30
0.0
 11
230.8985
 21
710.2428999999999
 31
0.0
  0
LINE
  5
1D7
330
1E
100
AcDbEntity
  8
0
100
AcDbLine
 10
230.4995
 20
710.7428999999999
 30
0.0
 11
230.4995
 21
711.7428999999999
 31
0.0
  0
LINE
  5
1D8
330
1E
100
AcDbEntity
  8
0
100
AcDbLine
 10
230.4995
 20
703.9429
 30
0.0
 11
230.8985
 21
703.4429
 31
0.0
  0
LINE
  5
1D9
330
1E
100
AcDbEntity
  8
0
100
AcDbLine
 10
230.4995
 20
703.9429
 30
0.0
 11
230.4995
 21
704.9428999999999
 31
0.0
  0
LINE
  5
1DA
330
1E
100
AcDbEntity
  8
0
100
AcDbLine
 10
230.4995
 20
704.9428999999999
 30
0.0
 11
230.8985
 21
705.4428999999999
 31
0.0
  0
LINE
  5
1DB
330
1E
100
AcDbEntity
  8
0
100
AcDbLine
 10
230.4995
 20
704.9428999999999
 30
0.0
 11
230.4995
 21
703.9429
 31
0.0
  0
LINE
  5
1DC
330
1E
100
AcDbEntity
  8
0
100
AcDbLine
 10
230.4995
 20
697.1429
 30
0.0
 11
230.4995
 21
698.1429
 31
0.0
  0
LINE
  5
1DD
330
1E
100
AcDbEntity
  8
0
100
AcDbLine
 10
230.4995
 20
697.1429
 30
0.0
 11
230.8985
 21
696.6429
 31
0.0
  0
LINE
  5
1DE
330
1E
100
AcDbEntity
  8
0
100
AcDbLine
 10
230.4995
 20
698.1429
 30
0.0
 11
230.4995
 21
697.1429
 31
0.0
  0
LINE
  5
1DF
330
1E
100
AcDbEntity
  8
0
100
AcDbLine
 10
230.4995
 20
698.1429
 30
0.0
 11
230.8985
 21
698.6429000000001
 31
0.0
  0
LINE
  5
1E0
330
1E
100
AcDbEntity
  8
0
100
AcDbLine
 10
230.4995
 20
690.3429
 30
0.0
 11
230.4995
 21
691.3428999999999
 31
0.0
  0
LINE
  5
1E1
330
1E
100
AcDbEntity
  8
0
100
AcDbLine
 10
230.4995
 20
690.3429
 30
0.0
 11
230.8985
 21
689.8429
 31
0.0
  0
LINE
  5
1E2
330
1E
100
AcDbEntity
  8
0
100
AcDbLine
 10
230.4995
 20
691.3428999999999
 30
0.0
 11
230.4995
 21
690.3429
 31
0.0
  0
LINE
  5
1E3
330
1E
100
AcDbEntity
  8
0
100
AcDbLine
 10
230.4995
 20
691.3428999999999
 30
0.0
 11
230.8985
 21
691.8428999999999
 31
0.0
  0
LINE
  5
1E4
330
1E
100
AcDbEntity
  8
0
100
AcDbLine
 10
230.4995
 20
683.5429
 30
0.0
 11
230.8985
 21
683.0429
 31
0.0
  0
LINE
  5
1E5
330
1E
100
AcDbEntity
  8
0
100
AcDbLine
 10
230.4995
 20
683.5429
 30
0.0
 11
230.4995
 21
684.5429
 31
0.0
  0
LINE
  5
1E6
330
1E
100
AcDbEntity
  8
0
100
AcDbLine
 10
230.4995
 20
684.5429
 30
0.0
 11
230.8985
 21
685.0429
 31
0.0
  0
LINE
  5
1E7
330
1E
100
AcDbEntity
  8
0
100
AcDbLine
 10
230.4995
 20
684.5429
 30
0.0
 11
230.4995
 21
683.5429
 31
0.0
  0
LINE
  5
1E8
330
1E
100
AcDbEntity
  8
0
100
AcDbLine
 10
230.4995
 20
676.7428999999999
 30
0.0
 11
230.4995
 21
677.7428999999999
 31
0.0
  0
LINE
  5
1E9
330
1E
100
AcDbEntity
  8
0
100
AcDbLine
 10
230.4995
 20
676.7428999999999
 30
0.0
 11
230.8985
 21
676.2429
 31
0.0
  0
LINE
  5
1EA
330
1E
100
AcDbEntity
  8
0
100
AcDbLine
 10
230.4995
 20
677.7428999999999
 30
0.0
 11
230.4995
 21
676.7428999999999
 31
0.0
  0
LINE
  5
1EB
330
1E
100
AcDbEntity
  8
0
100
AcDbLine
 10
230.4995
 20
677.7428999999999
 30
0.0
 11
230.8985
 21
678.2428999999999
 31
0.0
  0
LINE
  5
1EC
330
1E
100
AcDbEntity
  8
0
100
AcDbLine
 10
230.4995
 20
669.9429
 30
0.0
 11
230.8985
 21
669.4429
 31
0.0
  0
LINE
  5
1ED
330
1E
100
AcDbEntity
  8
0
100
AcDbLine
 10
230.4995
 20
669.9429
 30
0.0
 11
230.4995
 21
670.9429
 31
0.0
  0
LINE
  5
1EE
330
1E
100
AcDbEntity
  8
0
100
AcDbLine
 10
230.4995
 20
670.9429
 30
0.0
 11
230.8985
 21
671.4428999999999
 31
0.0
  0
LINE
  5
1EF
330
1E
100
AcDbEntity
  8
0
100
AcDbLine
 10
230.4995
 20
670.9429
 30
0.0
 11
230.4995
 21
669.9429
 31
0.0
  0
LINE
  5
1F0
330
1E
100
AcDbEntity
  8
0
100
AcDbLine
 10
230.4995
 20
663.1429
 30
0.0
 11
230.8985
 21
662.6429
 31
0.0
  0
LINE
  5
1F1
330
1E
100
AcDbEntity
  8
0
100
AcDbLine
 10
230.4995
 20
663.1429
 30
0.0
 11
230.4995
 21
664.1429
 31
0.0
  0
LINE
  5
1F2
330
1E
100
AcDbEntity
  8
0
100
AcDbLine
 10
230.4995
 20
664.1429
 30
0.0
 11
230.8985
 21
664.6429
 31
0.0
  0
LINE
  5
1F3
330
1E
100
AcDbEntity
  8
0
100
AcDbLine
 10
230.4995
 20
664.1429
 30
0.0
 11
230.4995
 21
663.1429
 31
0.0
  0
LINE
  5
1F4
330
1E
100
AcDbEntity
  8
0
100
AcDbLine
 10
230.4995
 20
657.3428999999999
 30
0.0
 11
230.8985
 21
657.8428999999999
 31
0.0
  0
LINE
  5
1F5
330
1E
100
AcDbEntity
  8
0
100
AcDbLine
 10
230.4995
 20
657.3428999999999
 30
0.0
 11
230.4995
 21
656.3429
 31
0.0
  0
LINE
  5
1F6
330
1E
100
AcDbEntity
  8
0
100
AcDbLine
 10
231.6974999999999
 20
657.8428999999999
 30
0.0
 11
232.0975
 21
657.3428999999999
 31
0.0
  0
LINE
  5
1F7
330
1E
100
AcDbEntity
  8
0
100
AcDbLine
 10
231.6974999999999
 20
657.8428999999999
 30
0.0
 11
232.0085
 21
657.8428999999999
 31
0.0
  0
LINE
  5
1F8
330
1E
100
AcDbEntity
  8
0
100
AcDbLine
 10
231.6974999999999
 20
662.6429
 30
0.0
 11
232.0085
 21
662.6429
 31
0.0
  0
LINE
  5
1F9
330
1E
100
AcDbEntity
  8
0
100
AcDbLine
 10
231.6974999999999
 20
662.6429
 30
0.0
 11
232.0975
 21
663.1429
 31
0.0
  0
LINE
  5
1FA
330
1E
100
AcDbEntity
  8
0
100
AcDbLine
 10
230.8985
 20
662.6429
 30
0.0
 11
231.2094999999999
 21
662.6429
 31
0.0
  0
LINE
  5
1FB
330
1E
100
AcDbEntity
  8
0
100
AcDbLine
 10
230.8985
 20
662.6429
 30
0.0
 11
231.6974999999999
 21
662.6429
 31
0.0
  0
LINE
  5
1FC
330
1E
100
AcDbEntity
  8
0
100
AcDbLine
 10
231.6974999999999
 20
669.4429
 30
0.0
 11
232.0085
 21
669.4429
 31
0.0
  0
LINE
  5
1FD
330
1E
100
AcDbEntity
  8
0
100
AcDbLine
 10
231.6974999999999
 20
669.4429
 30
0.0
 11
232.0975
 21
669.9429
 31
0.0
  0
LINE
  5
1FE
330
1E
100
AcDbEntity
  8
0
100
AcDbLine
 10
230.8985
 20
669.4429
 30
0.0
 11
231.2094999999999
 21
669.4429
 31
0.0
  0
LINE
  5
1FF
330
1E
100
AcDbEntity
  8
0
100
AcDbLine
 10
230.8985
 20
669.4429
 30
0.0
 11
231.6974999999999
 21
669.4429
 31
0.0
  0
LINE
  5
200
330
1E
100
AcDbEntity
  8
0
100
AcDbLine
 10
230.8985
 20
712.2428999999999
 30
0.0
 11
231.6974999999999
 21
712.2428999999999
 31
0.0
  0
LINE
  5
201
330
1E
100
AcDbEntity
  8
0
100
AcDbLine
 10
230.8985
 20
723.8429
 30
0.0
 11
231.6974999999999
 21
723.8429
 31
0.0
  0
LINE
  5
202
330
1E
100
AcDbEntity
  8
0
100
AcDbLine
 10
230.8985
 20
723.8429
 30
0.0
 11
231.2094999999999
 21
723.8429
 31
0.0
  0
LINE
  5
203
330
1E
100
AcDbEntity
  8
0
100
AcDbLine
 10
230.8985
 20
725.8428999999999
 30
0.0
 11
231.6974999999999
 21
725.8428999999999
 31
0.0
  0
LINE
  5
204
330
1E
100
AcDbEntity
  8
0
100
AcDbLine
 10
230.8985
 20
719.0429
 30
0.0
 11
231.6974999999999
 21
719.0429
 31
0.0
  0
LINE
  5
205
330
1E
100
AcDbEntity
  8
0
100
AcDbLine
 10
230.8985
 20
717.0429
 30
0.0
 11
231.6974999999999
 21
717.0429
 31
0.0
  0
LINE
  5
206
330
1E
100
AcDbEntity
  8
0
100
AcDbLine
 10
230.8985
 20
717.0429
 30
0.0
 11
231.2094999999999
 21
717.0429
 31
0.0
  0
LINE
  5
207
330
1E
100
AcDbEntity
  8
0
100
AcDbLine
 10
230.8985
 20
710.2428999999999
 30
0.0
 11
231.6974999999999
 21
710.2428999999999
 31
0.0
  0
LINE
  5
208
330
1E
100
AcDbEntity
  8
0
100
AcDbLine
 10
230.8985
 20
710.2428999999999
 30
0.0
 11
231.2094999999999
 21
710.2428999999999
 31
0.0
  0
LINE
  5
209
330
1E
100
AcDbEntity
  8
0
100
AcDbLine
 10
230.8985
 20
703.4429
 30
0.0
 11
231.2094999999999
 21
703.4429
 31
0.0
  0
LINE
  5
20A
330
1E
100
AcDbEntity
  8
0
100
AcDbLine
 10
230.8985
 20
703.4429
 30
0.0
 11
231.6974999999999
 21
703.4429
 31
0.0
  0
LINE
  5
20B
330
1E
100
AcDbEntity
  8
0
100
AcDbLine
 10
230.8985
 20
705.4428999999999
 30
0.0
 11
231.6974999999999
 21
705.4428999999999
 31
0.0
  0
LINE
  5
20C
330
1E
100
AcDbEntity
  8
0
100
AcDbLine
 10
230.8985
 20
696.6429
 30
0.0
 11
231.6974999999999
 21
696.6429
 31
0.0
  0
LINE
  5
20D
330
1E
100
AcDbEntity
  8
0
100
AcDbLine
 10
230.8985
 20
696.6429
 30
0.0
 11
231.2094999999999
 21
696.6429
 31
0.0
  0
LINE
  5
20E
330
1E
100
AcDbEntity
  8
0
100
AcDbLine
 10
230.8985
 20
698.6429000000001
 30
0.0
 11
231.6974999999999
 21
698.6429000000001
 31
0.0
  0
LINE
  5
20F
330
1E
100
AcDbEntity
  8
0
100
AcDbLine
 10
230.8985
 20
689.8429
 30
0.0
 11
231.6974999999999
 21
689.8429
 31
0.0
  0
LINE
  5
210
330
1E
100
AcDbEntity
  8
0
100
AcDbLine
 10
230.8985
 20
689.8429
 30
0.0
 11
231.2094999999999
 21
689.8429
 31
0.0
  0
LINE
  5
211
330
1E
100
AcDbEntity
  8
0
100
AcDbLine
 10
230.8985
 20
691.8428999999999
 30
0.0
 11
231.6974999999999
 21
691.8428999999999
 31
0.0
  0
LINE
  5
212
330
1E
100
AcDbEntity
  8
0
100
AcDbLine
 10
230.8985
 20
683.0429
 30
0.0
 11
231.2094999999999
 21
683.0429
 31
0.0
  0
LINE
  5
213
330
1E
100
AcDbEntity
  8
0
100
AcDbLine
 10
230.8985
 20
683.0429
 30
0.0
 11
231.6974999999999
 21
683.0429
 31
0.0
  0
LINE
  5
214
330
1E
100
AcDbEntity
  8
0
100
AcDbLine
 10
230.8985
 20
685.0429
 30
0.0
 11
231.6974999999999
 21
685.0429
 31
0.0
  0
LINE
  5
215
330
1E
100
AcDbEntity
  8
0
100
AcDbLine
 10
230.8985
 20
676.2429
 30
0.0
 11
231.6974999999999
 21
676.2429
 31
0.0
  0
LINE
  5
216
330
1E
100
AcDbEntity
  8
0
100
AcDbLine
 10
230.8985
 20
676.2429
 30
0.0
 11
231.151907166124
 21
676.2429
 31
0.0
  0
LINE
  5
217
330
1E
100
AcDbEntity
  8
0
100
AcDbLine
 10
231.6974999999999
 20
676.2429
 30
0.0
 11
232.0975
 21
676.7428999999999
 31
0.0
  0
LINE
  5
218
330
1E
100
AcDbEntity
  8
0
100
AcDbLine
 10
231.6974999999999
 20
676.2429
 30
0.0
 11
232.0085
 21
676.2429
 31
0.0
  0
LINE
  5
219
330
1E
100
AcDbEntity
  8
0
100
AcDbLine
 10
231.6974999999999
 20
712.2428999999999
 30
0.0
 11
232.0975
 21
711.7428999999999
 31
0.0
  0
LINE
  5
21A
330
1E
100
AcDbEntity
  8
0
100
AcDbLine
 10
231.6974999999999
 20
712.2428999999999
 30
0.0
 11
232.0085
 21
712.2428999999999
 31
0.0
  0
LINE
  5
21B
330
1E
100
AcDbEntity
  8
0
100
AcDbLine
 10
231.6974999999999
 20
723.8429
 30
0.0
 11
232.0975
 21
724.3428999999999
 31
0.0
  0
LINE
  5
21C
330
1E
100
AcDbEntity
  8
0
100
AcDbLine
 10
231.6974999999999
 20
723.8429
 30
0.0
 11
232.0085
 21
723.8429
 31
0.0
  0
LINE
  5
21D
330
1E
100
AcDbEntity
  8
0
100
AcDbLine
 10
231.6974999999999
 20
725.8428999999999
 30
0.0
 11
232.0975
 21
725.3428999999999
 31
0.0
  0
LINE
  5
21E
330
1E
100
AcDbEntity
  8
0
100
AcDbLine
 10
231.6974999999999
 20
725.8428999999999
 30
0.0
 11
232.0085
 21
725.8428999999999
 31
0.0
  0
LINE
  5
21F
330
1E
100
AcDbEntity
  8
0
100
AcDbLine
 10
231.6974999999999
 20
719.0429
 30
0.0
 11
232.0975
 21
718.5429
 31
0.0
  0
LINE
  5
220
330
1E
100
AcDbEntity
  8
0
100
AcDbLine
 10
231.6974999999999
 20
719.0429
 30
0.0
 11
232.0085
 21
719.0429
 31
0.0
  0
LINE
  5
221
330
1E
100
AcDbEntity
  8
0
100
AcDbLine
 10
231.6974999999999
 20
717.0429
 30
0.0
 11
232.0975
 21
717.5429
 31
0.0
  0
LINE
  5
222
330
1E
100
AcDbEntity
  8
0
100
AcDbLine
 10
231.6974999999999
 20
717.0429
 30
0.0
 11
232.0085
 21
717.0429
 31
0.0
  0
LINE
  5
223
330
1E
100
AcDbEntity
  8
0
100
AcDbLine
 10
231.6974999999999
 20
710.2428999999999
 30
0.0
 11
232.0975
 21
710.7428999999999
 31
0.0
  0
LINE
  5
224
330
1E
100
AcDbEntity
  8
0
100
AcDbLine
 10
231.6974999999999
 20
710.2428999999999
 30
0.0
 11
232.0085
 21
710.2428999999999
 31
0.0
  0
LINE
  5
225
330
1E
100
AcDbEntity
  8
0
100
AcDbLine
 10
231.6974999999999
 20
703.4429
 30
0.0
 11
232.0085
 21
703.4429
 31
0.0
  0
LINE
  5
226
330
1E
100
AcDbEntity
  8
0
100
AcDbLine
 10
231.6974999999999
 20
703.4429
 30
0.0
 11
232.0975
 21
703.9429
 31
0.0
  0
LINE
  5
227
330
1E
100
AcDbEntity
  8
0
100
AcDbLine
 10
231.6974999999999
 20
705.4428999999999
 30
0.0
 11
232.0975
 21
704.9428999999999
 31
0.0
  0
LINE
  5
228
330
1E
100
AcDbEntity
  8
0
100
AcDbLine
 10
231.6974999999999
 20
705.4428999999999
 30
0.0
 11
232.0085
 21
705.4428999999999
 31
0.0
  0
LINE
  5
229
330
1E
100
AcDbEntity
  8
0
100
AcDbLine
 10
231.6974999999999
 20
696.6429
 30
0.0
 11
232.0975
 21
697.1429
 31
0.0
  0
LINE
  5
22A
330
1E
100
AcDbEntity
  8
0
100
AcDbLine
 10
231.6974999999999
 20
696.6429
 30
0.0
 11
232.0085
 21
696.6429
 31
0.0
  0
LINE
  5
22B
330
1E
100
AcDbEntity
  8
0
100
AcDbLine
 10
231.6974999999999
 20
698.6429000000001
 30
0.0
 11
232.0975
 21
698.1429
 31
0.0
  0
LINE
  5
22C
330
1E
100
AcDbEntity
  8
0
100
AcDbLine
 10
231.6974999999999
 20
698.6429000000001
 30
0.0
 11
232.0085
 21
698.6429000000001
 31
0.0
  0
LINE
  5
22D
330
1E
100
AcDbEntity
  8
0
100
AcDbLine
 10
231.6974999999999
 20
689.8429
 30
0.0
 11
232.0975
 21
690.3429
 31
0.0
  0
LINE
  5
22E
330
1E
100
AcDbEntity
  8
0
100
AcDbLine
 10
231.6974999999999
 20
689.8429
 30
0.0
 11
232.0085
 21
689.8429
 31
0.0
  0
LINE
  5
22F
330
1E
100
AcDbEntity
  8
0
100
AcDbLine
 10
231.6974999999999
 20
691.8428999999999
 30
0.0
 11
232.0975
 21
691.3428999999999
 31
0.0
  0
LINE
  5
230
330
1E
100
AcDbEntity
  8
0
100
AcDbLine
 10
231.6974999999999
 20
691.8428999999999
 30
0.0
 11
232.0085
 21
691.8428999999999
 31
0.0
  0
LINE
  5
231
330
1E
100
AcDbEntity
  8
0
100
AcDbLine
 10
231.6974999999999
 20
683.0429
 30
0.0
 11
232.0085
 21
683.0429
 31
0.0
  0
LINE
  5
232
330
1E
100
AcDbEntity
  8
0
100
AcDbLine
 10
231.6974999999999
 20
683.0429
 30
0.0
 11
232.0975
 21
683.5429
 31
0.0
  0
LINE
  5
233
330
1E
100
AcDbEntity
  8
0
100
AcDbLine
 10
231.6974999999999
 20
685.0429
 30
0.0
 11
232.0975
 21
684.5429
 31
0.0
  0
LINE
  5
234
330
1E
100
AcDbEntity
  8
0
100
AcDbLine
 10
231.6974999999999
 20
685.0429
 30
0.0
 11
232.0085
 21
685.0429
 31
0.0
  0
LINE
  5
235
330
1E
100
AcDbEntity
  8
0
100
AcDbLine
 10
231.6974999999999
 20
678.2428999999999
 30
0.0
 11
232.0975
 21
677.7428999999999
 31
0.0
  0
LINE
  5
236
330
1E
100
AcDbEntity
  8
0
100
AcDbLine
 10
231.6974999999999
 20
678.2428999999999
 30
0.0
 11
232.0085
 21
678.2428999999999
 31
0.0
  0
LINE
  5
237
330
1E
100
AcDbEntity
  8
0
100
AcDbLine
 10
230.8985
 20
678.2428999999999
 30
0.0
 11
231.6974999999999
 21
678.2428999999999
 31
0.0
  0
LINE
  5
238
330
1E
100
AcDbEntity
  8
0
100
AcDbLine
 10
230.8985
 20
671.4428999999999
 30
0.0
 11
231.6974999999999
 21
671.4428999999999
 31
0.0
  0
LINE
  5
239
330
1E
100
AcDbEntity
  8
0
100
AcDbLine
 10
231.6974999999999
 20
671.4428999999999
 30
0.0
 11
232.0975
 21
670.9429
 31
0.0
  0
LINE
  5
23A
330
1E
100
AcDbEntity
  8
0
100
AcDbLine
 10
231.6974999999999
 20
671.4428999999999
 30
0.0
 11
232.0085
 21
671.4428999999999
 31
0.0
  0
LINE
  5
23B
330
1E
100
AcDbEntity
  8
0
100
AcDbLine
 10
230.8985
 20
664.6429
 30
0.0
 11
231.6974999999999
 21
664.6429
 31
0.0
  0
LINE
  5
23C
330
1E
100
AcDbEntity
  8
0
100
AcDbLine
 10
231.6974999999999
 20
664.6429
 30
0.0
 11
232.0975
 21
664.1429
 31
0.0
  0
LINE
  5
23D
330
1E
100
AcDbEntity
  8
0
100
AcDbLine
 10
231.6974999999999
 20
664.6429
 30
0.0
 11
232.0085
 21
664.6429
 31
0.0
  0
LINE
  5
23E
330
1E
100
AcDbEntity
  8
0
100
AcDbLine
 10
230.8985
 20
657.8428999999999
 30
0.0
 11
231.6974999999999
 21
657.8428999999999
 31
0.0
  0
LINE
  5
23F
330
1E
100
AcDbEntity
  8
0
100
AcDbLine
 10
230.4995
 20
656.3429
 30
0.0
 11
230.8985
 21
655.8429
 31
0.0
  0
LINE
  5
240
330
1E
100
AcDbEntity
  8
0
100
AcDbLine
 10
230.4995
 20
656.3429
 30
0.0
 11
230.4995
 21
657.3428999999999
 31
0.0
  0
LINE
  5
241
330
1E
100
AcDbEntity
  8
0
100
AcDbLine
 10
230.8985
 20
655.8429
 30
0.0
 11
231.6974999999999
 21
655.8429
 31
0.0
  0
LINE
  5
242
330
1E
100
AcDbEntity
  8
0
100
AcDbLine
 10
230.8985
 20
655.8429
 30
0.0
 11
231.2094999999999
 21
655.8429
 31
0.0
  0
LINE
  5
243
330
1E
100
AcDbEntity
  8
0
100
AcDbLine
 10
231.6974999999999
 20
655.8429
 30
0.0
 11
232.0975
 21
656.3429
 31
0.0
  0
LINE
  5
244
330
1E
100
AcDbEntity
  8
0
100
AcDbLine
 10
231.6974999999999
 20
655.8429
 30
0.0
 11
232.0085
 21
655.8429
 31
0.0
  0
LINE
  5
245
330
1E
100
AcDbEntity
  8
0
100
AcDbLine
 10
230.4864999999999
 20
747.8429
 30
0.0
 11
233.1865
 21
747.8429
 31
0.0
  0
LINE
  5
246
330
1E
100
AcDbEntity
  8
0
100
AcDbLine
 10
230.6865
 20
727.8429
 30
0.0
 11
233.3865
 21
727.8429
 31
0.0
  0
LINE
  5
247
330
1E
100
AcDbEntity
  8
0
100
AcDbLine
 10
230.1864999999999
 20
727.3429
 30
0.0
 11
233.0865
 21
727.3429
 31
0.0
  0
LINE
  5
248
330
1E
100
AcDbEntity
  8
0
100
AcDbLine
 10
228.6865
 20
532.8428999999999
 30
0.0
 11
232.2864999999999
 21
532.8428999999999
 31
0.0
  0
LINE
  5
249
330
1E
100
AcDbEntity
  8
0
100
AcDbLine
 10
227.0285
 20
442.4709
 30
0.0
 11
228.5134999999999
 21
408.2019
 31
0.0
  0
LINE
  5
24A
330
1E
100
AcDbEntity
  8
0
100
AcDbLine
 10
227.0285
 20
442.4709
 30
0.0
 11
228.4693786361729
 21
532.7109
 31
0.0
  0
LINE
  5
24B
330
1E
100
AcDbEntity
  8
0
100
AcDbLine
 10
228.5134999999999
 20
408.2019
 30
0.0
 11
231.8175
 21
383.8948999999999
 31
0.0
  0
LINE
  5
24C
330
1E
100
AcDbEntity
  8
0
100
AcDbLine
 10
232.8985
 20
532.7098999999999
 30
0.0
 11
236.3424999999999
 21
532.7098999999999
 31
0.0
  0
LINE
  5
24D
330
1E
100
AcDbEntity
  8
0
100
AcDbLine
 10
236.3424999999999
 20
532.7098999999999
 30
0.0
 11
239.7874999999999
 21
532.7098999999999
 31
0.0
  0
LINE
  5
24E
330
1E
100
AcDbEntity
  8
0
100
AcDbLine
 10
236.1864999999999
 20
532.8428999999999
 30
0.0
 11
241.1865
 21
532.8428999999999
 31
0.0
  0
LINE
  5
24F
330
1E
100
AcDbEntity
  8
0
100
AcDbLine
 10
232.0975
 20
711.7428999999999
 30
0.0
 11
232.0975
 21
710.7428999999999
 31
0.0
  0
LINE
  5
251
330
1E
100
AcDbEntity
  8
0
100
AcDbLine
 10
232.0975
 20
725.3428999999999
 30
0.0
 11
232.0975
 21
724.3428999999999
 31
0.0
  0
LINE
  5
253
330
1E
100
AcDbEntity
  8
0
100
AcDbLine
 10
232.0975
 20
724.3428999999999
 30
0.0
 11
232.0975
 21
725.3428999999999
 31
0.0
  0
LINE
  5
255
330
1E
100
AcDbEntity
  8
0
100
AcDbLine
 10
232.0975
 20
718.5429
 30
0.0
 11
232.0975
 21
717.5429
 31
0.0
  0
LINE
  5
258
330
1E
100
AcDbEntity
  8
0
100
AcDbLine
 10
232.0975
 20
717.5429
 30
0.0
 11
232.0975
 21
718.5429
 31
0.0
  0
LINE
  5
25A
330
1E
100
AcDbEntity
  8
0
100
AcDbLine
 10
232.0975
 20
710.7428999999999
 30
0.0
 11
232.0975
 21
711.7428999999999
 31
0.0
  0
LINE
  5
25C
330
1E
100
AcDbEntity
  8
0
100
AcDbLine
 10
232.0975
 20
703.9429
 30
0.0
 11
232.0975
 21
704.9428999999999
 31
0.0
  0
LINE
  5
25E
330
1E
100
AcDbEntity
  8
0
100
AcDbLine
 10
232.0975
 20
704.9428999999999
 30
0.0
 11
232.0975
 21
703.9429
 31
0.0
  0
LINE
  5
25F
330
1E
100
AcDbEntity
  8
0
100
AcDbLine
 10
232.0975
 20
698.1429
 30
0.0
 11
232.0975
 21
697.1429
 31
0.0
  0
LINE
  5
261
330
1E
100
AcDbEntity
  8
0
100
AcDbLine
 10
232.0975
 20
697.1429
 30
0.0
 11
232.0975
 21
698.1429
 31
0.0
  0
LINE
  5
263
330
1E
100
AcDbEntity
  8
0
100
AcDbLine
 10
232.0975
 20
691.3428999999999
 30
0.0
 11
232.0975
 21
690.3429
 31
0.0
  0
LINE
  5
265
330
1E
100
AcDbEntity
  8
0
100
AcDbLine
 10
232.0975
 20
690.3429
 30
0.0
 11
232.0975
 21
691.3428999999999
 31
0.0
  0
LINE
  5
268
330
1E
100
AcDbEntity
  8
0
100
AcDbLine
 10
232.0975
 20
683.5429
 30
0.0
 11
232.0975
 21
684.5429
 31
0.0
  0
LINE
  5
26A
330
1E
100
AcDbEntity
  8
0
100
AcDbLine
 10
232.0975
 20
684.5429
 30
0.0
 11
232.0975
 21
683.5429
 31
0.0
  0
LINE
  5
26B
330
1E
100
AcDbEntity
  8
0
100
AcDbLine
 10
232.0975
 20
677.7428999999999
 30
0.0
 11
232.0975
 21
676.7428999999999
 31
0.0
  0
LINE
  5
26D
330
1E
100
AcDbEntity
  8
0
100
AcDbLine
 10
232.0975
 20
676.7428999999999
 30
0.0
 11
232.0975
 21
677.7428999999999
 31
0.0
  0
LINE
  5
270
330
1E
100
AcDbEntity
  8
0
100
AcDbLine
 10
232.0975
 20
669.9429
 30
0.0
 11
232.0975
 21
670.9429
 31
0.0
  0
LINE
  5
272
330
1E
100
AcDbEntity
  8
0
100
AcDbLine
 10
232.0975
 20
670.9429
 30
0.0
 11
232.0975
 21
669.9429
 31
0.0
  0
LINE
  5
274
330
1E
100
AcDbEntity
  8
0
100
AcDbLine
 10
232.0975
 20
663.1429
 30
0.0
 11
232.0975
 21
664.1429
 31
0.0
  0
LINE
  5
276
330
1E
100
AcDbEntity
  8
0
100
AcDbLine
 10
232.0975
 20
664.1429
 30
0.0
 11
232.0975
 21
663.1429
 31
0.0
  0
LINE
  5
278
330
1E
100
AcDbEntity
  8
0
100
AcDbLine
 10
232.0975
 20
656.3429
 30
0.0
 11
232.0975
 21
657.3428999999999
 31
0.0
  0
LINE
  5
279
330
1E
100
AcDbEntity
  8
0
100
AcDbLine
 10
232.0975
 20
657.3428999999999
 30
0.0
 11
232.0975
 21
656.3429
 31
0.0
  0
LINE
  5
27B
330
1E
100
AcDbEntity
  8
0
100
AcDbLine
 10
233.0865
 20
747.3429
 30
0.0
 11
236.1864999999999
 21
747.3429
 31
0.0
  0
LINE
  5
27C
330
1E
100
AcDbEntity
  8
0
100
AcDbLine
 10
233.0865
 20
728.3428999999999
 30
0.0
 11
236.1864999999999
 21
728.3428999999999
 31
0.0
  0
LINE
  5
27D
330
1E
100
AcDbEntity
  8
0
100
AcDbLine
 10
235.3295
 20
711.7428999999999
 30
0.0
 11
235.7575
 21
712.2428999999999
 31
0.0
  0
LINE
  5
27E
330
1E
100
AcDbEntity
  8
0
100
AcDbLine
 10
235.3295
 20
711.7428999999999
 30
0.0
 11
235.3295
 21
710.7428999999999
 31
0.0
  0
LINE
  5
27F
330
1E
100
AcDbEntity
  8
0
100
AcDbLine
 10
235.3295
 20
724.3428999999999
 30
0.0
 11
235.3295
 21
725.3428999999999
 31
0.0
  0
LINE
  5
280
330
1E
100
AcDbEntity
  8
0
100
AcDbLine
 10
235.3295
 20
724.3428999999999
 30
0.0
 11
235.7575
 21
723.8429
 31
0.0
  0
LINE
  5
281
330
1E
100
AcDbEntity
  8
0
100
AcDbLine
 10
235.3295
 20
725.3428999999999
 30
0.0
 11
235.7575
 21
725.8428999999999
 31
0.0
  0
LINE
  5
282
330
1E
100
AcDbEntity
  8
0
100
AcDbLine
 10
235.3295
 20
725.3428999999999
 30
0.0
 11
235.3295
 21
724.3428999999999
 31
0.0
  0
LINE
  5
283
330
1E
100
AcDbEntity
  8
0
100
AcDbLine
 10
235.3295
 20
718.5429
 30
0.0
 11
235.3295
 21
717.5429
 31
0.0
  0
LINE
  5
284
330
1E
100
AcDbEntity
  8
0
100
AcDbLine
 10
235.3295
 20
718.5429
 30
0.0
 11
235.7575
 21
719.0429
 31
0.0
  0
LINE
  5
285
330
1E
100
AcDbEntity
  8
0
100
AcDbLine
 10
235.3295
 20
717.5429
 30
0.0
 11
235.7575
 21
717.0429
 31
0.0
  0
LINE
  5
286
330
1E
100
AcDbEntity
  8
0
100
AcDbLine
 10
235.3295
 20
717.5429
 30
0.0
 11
235.3295
 21
718.5429
 31
0.0
  0
LINE
  5
287
330
1E
100
AcDbEntity
  8
0
100
AcDbLine
 10
235.3295
 20
710.7428999999999
 30
0.0
 11
235.7575
 21
710.2428999999999
 31
0.0
  0
LINE
  5
288
330
1E
100
AcDbEntity
  8
0
100
AcDbLine
 10
235.3295
 20
710.7428999999999
 30
0.0
 11
235.3295
 21
711.7428999999999
 31
0.0
  0
LINE
  5
289
330
1E
100
AcDbEntity
  8
0
100
AcDbLine
 10
235.3295
 20
703.9429
 30
0.0
 11
235.7575
 21
703.4429
 31
0.0
  0
LINE
  5
28A
330
1E
100
AcDbEntity
  8
0
100
AcDbLine
 10
235.3295
 20
703.9429
 30
0.0
 11
235.3295
 21
704.9428999999999
 31
0.0
  0
LINE
  5
28B
330
1E
100
AcDbEntity
  8
0
100
AcDbLine
 10
235.3295
 20
704.9428999999999
 30
0.0
 11
235.7575
 21
705.4428999999999
 31
0.0
  0
LINE
  5
28C
330
1E
100
AcDbEntity
  8
0
100
AcDbLine
 10
235.3295
 20
704.9428999999999
 30
0.0
 11
235.3295
 21
703.9429
 31
0.0
  0
LINE
  5
28D
330
1E
100
AcDbEntity
  8
0
100
AcDbLine
 10
235.3295
 20
697.1429
 30
0.0
 11
235.3295
 21
698.1429
 31
0.0
  0
LINE
  5
28E
330
1E
100
AcDbEntity
  8
0
100
AcDbLine
 10
235.3295
 20
697.1429
 30
0.0
 11
235.7575
 21
696.6429
 31
0.0
  0
LINE
  5
28F
330
1E
100
AcDbEntity
  8
0
100
AcDbLine
 10
235.3295
 20
698.1429
 30
0.0
 11
235.7575
 21
698.6429000000001
 31
0.0
  0
LINE
  5
290
330
1E
100
AcDbEntity
  8
0
100
AcDbLine
 10
235.3295
 20
698.1429
 30
0.0
 11
235.3295
 21
697.1429
 31
0.0
  0
LINE
  5
291
330
1E
100
AcDbEntity
  8
0
100
AcDbLine
 10
235.3295
 20
690.3429
 30
0.0
 11
235.3295
 21
691.3428999999999
 31
0.0
  0
LINE
  5
292
330
1E
100
AcDbEntity
  8
0
100
AcDbLine
 10
235.3295
 20
690.3429
 30
0.0
 11
235.7575
 21
689.8429
 31
0.0
  0
LINE
  5
293
330
1E
100
AcDbEntity
  8
0
100
AcDbLine
 10
235.3295
 20
691.3428999999999
 30
0.0
 11
235.7575
 21
691.8428999999999
 31
0.0
  0
LINE
  5
294
330
1E
100
AcDbEntity
  8
0
100
AcDbLine
 10
235.3295
 20
691.3428999999999
 30
0.0
 11
235.3295
 21
690.3429
 31
0.0
  0
LINE
  5
295
330
1E
100
AcDbEntity
  8
0
100
AcDbLine
 10
235.3295
 20
683.5429
 30
0.0
 11
235.7575
 21
683.0429
 31
0.0
  0
LINE
  5
296
330
1E
100
AcDbEntity
  8
0
100
AcDbLine
 10
235.3295
 20
683.5429
 30
0.0
 11
235.3295
 21
684.5429
 31
0.0
  0
LINE
  5
297
330
1E
100
AcDbEntity
  8
0
100
AcDbLine
 10
235.3295
 20
684.5429
 30
0.0
 11
235.7575
 21
685.0429
 31
0.0
  0
LINE
  5
298
330
1E
100
AcDbEntity
  8
0
100
AcDbLine
 10
235.3295
 20
684.5429
 30
0.0
 11
235.3295
 21
683.5429
 31
0.0
  0
LINE
  5
299
330
1E
100
AcDbEntity
  8
0
100
AcDbLine
 10
235.3295
 20
676.7428999999999
 30
0.0
 11
235.3295
 21
677.7428999999999
 31
0.0
  0
LINE
  5
29A
330
1E
100
AcDbEntity
  8
0
100
AcDbLine
 10
235.3295
 20
676.7428999999999
 30
0.0
 11
235.7575
 21
676.2429
 31
0.0
  0
LINE
  5
29B
330
1E
100
AcDbEntity
  8
0
100
AcDbLine
 10
235.3295
 20
677.7428999999999
 30
0.0
 11
235.7575
 21
678.2428999999999
 31
0.0
  0
LINE
  5
29C
330
1E
100
AcDbEntity
  8
0
100
AcDbLine
 10
235.3295
 20
677.7428999999999
 30
0.0
 11
235.3295
 21
676.7428999999999
 31
0.0
  0
LINE
  5
29D
330
1E
100
AcDbEntity
  8
0
100
AcDbLine
 10
235.3295
 20
669.9429
 30
0.0
 11
235.7575
 21
669.4429
 31
0.0
  0
LINE
  5
29E
330
1E
100
AcDbEntity
  8
0
100
AcDbLine
 10
235.3295
 20
669.9429
 30
0.0
 11
235.3295
 21
670.9429
 31
0.0
  0
LINE
  5
29F
330
1E
100
AcDbEntity
  8
0
100
AcDbLine
 10
235.3295
 20
670.9429
 30
0.0
 11
235.7575
 21
671.4428999999999
 31
0.0
  0
LINE
  5
2A0
330
1E
100
AcDbEntity
  8
0
100
AcDbLine
 10
235.3295
 20
670.9429
 30
0.0
 11
235.3295
 21
669.9429
 31
0.0
  0
LINE
  5
2A1
330
1E
100
AcDbEntity
  8
0
100
AcDbLine
 10
235.3295
 20
663.1429
 30
0.0
 11
235.7575
 21
662.6429
 31
0.0
  0
LINE
  5
2A2
330
1E
100
AcDbEntity
  8
0
100
AcDbLine
 10
235.3295
 20
663.1429
 30
0.0
 11
235.3295
 21
664.1429
 31
0.0
  0
LINE
  5
2A3
330
1E
100
AcDbEntity
  8
0
100
AcDbLine
 10
235.3295
 20
664.1429
 30
0.0
 11
235.7575
 21
664.6429
 31
0.0
  0
LINE
  5
2A4
330
1E
100
AcDbEntity
  8
0
100
AcDbLine
 10
235.3295
 20
664.1429
 30
0.0
 11
235.3295
 21
663.1429
 31
0.0
  0
LINE
  5
2A5
330
1E
100
AcDbEntity
  8
0
100
AcDbLine
 10
235.3295
 20
657.3428999999999
 30
0.0
 11
235.7575
 21
657.8428999999999
 31
0.0
  0
LINE
  5
2A6
330
1E
100
AcDbEntity
  8
0
100
AcDbLine
 10
235.3295
 20
657.3428999999999
 30
0.0
 11
235.3295
 21
656.3429
 31
0.0
  0
LINE
  5
2A7
330
1E
100
AcDbEntity
  8
0
100
AcDbLine
 10
235.7575
 20
662.6429
 30
0.0
 11
236.6155
 21
662.6429
 31
0.0
  0
LINE
  5
2A8
330
1E
100
AcDbEntity
  8
0
100
AcDbLine
 10
235.7575
 20
712.2428999999999
 30
0.0
 11
236.6155
 21
712.2428999999999
 31
0.0
  0
LINE
  5
2A9
330
1E
100
AcDbEntity
  8
0
100
AcDbLine
 10
235.7575
 20
723.8429
 30
0.0
 11
236.6155
 21
723.8429
 31
0.0
  0
LINE
  5
2AA
330
1E
100
AcDbEntity
  8
0
100
AcDbLine
 10
235.7575
 20
725.8428999999999
 30
0.0
 11
236.6155
 21
725.8428999999999
 31
0.0
  0
LINE
  5
2AB
330
1E
100
AcDbEntity
  8
0
100
AcDbLine
 10
235.7575
 20
719.0429
 30
0.0
 11
236.6155
 21
719.0429
 31
0.0
  0
LINE
  5
2AC
330
1E
100
AcDbEntity
  8
0
100
AcDbLine
 10
235.7575
 20
717.0429
 30
0.0
 11
236.6155
 21
717.0429
 31
0.0
  0
LINE
  5
2AD
330
1E
100
AcDbEntity
  8
0
100
AcDbLine
 10
235.7575
 20
710.2428999999999
 30
0.0
 11
236.6155
 21
710.2428999999999
 31
0.0
  0
LINE
  5
2AE
330
1E
100
AcDbEntity
  8
0
100
AcDbLine
 10
235.7575
 20
703.4429
 30
0.0
 11
236.6155
 21
703.4429
 31
0.0
  0
LINE
  5
2AF
330
1E
100
AcDbEntity
  8
0
100
AcDbLine
 10
235.7575
 20
705.4428999999999
 30
0.0
 11
236.6155
 21
705.4428999999999
 31
0.0
  0
LINE
  5
2B0
330
1E
100
AcDbEntity
  8
0
100
AcDbLine
 10
235.7575
 20
696.6429
 30
0.0
 11
236.6155
 21
696.6429
 31
0.0
  0
LINE
  5
2B1
330
1E
100
AcDbEntity
  8
0
100
AcDbLine
 10
235.7575
 20
698.6429000000001
 30
0.0
 11
236.6155
 21
698.6429000000001
 31
0.0
  0
LINE
  5
2B2
330
1E
100
AcDbEntity
  8
0
100
AcDbLine
 10
235.7575
 20
689.8429
 30
0.0
 11
236.6155
 21
689.8429
 31
0.0
  0
LINE
  5
2B3
330
1E
100
AcDbEntity
  8
0
100
AcDbLine
 10
235.7575
 20
691.8428999999999
 30
0.0
 11
236.6155
 21
691.8428999999999
 31
0.0
  0
LINE
  5
2B4
330
1E
100
AcDbEntity
  8
0
100
AcDbLine
 10
235.7575
 20
683.0429
 30
0.0
 11
236.6155
 21
683.0429
 31
0.0
  0
LINE
  5
2B5
330
1E
100
AcDbEntity
  8
0
100
AcDbLine
 10
235.7575
 20
685.0429
 30
0.0
 11
236.6155
 21
685.0429
 31
0.0
  0
LINE
  5
2B6
330
1E
100
AcDbEntity
  8
0
100
AcDbLine
 10
235.7575
 20
676.2429
 30
0.0
 11
236.6155
 21
676.2429
 31
0.0
  0
LINE
  5
2B7
330
1E
100
AcDbEntity
  8
0
100
AcDbLine
 10
235.7575
 20
678.2428999999999
 30
0.0
 11
236.6155
 21
678.2428999999999
 31
0.0
  0
LINE
  5
2B8
330
1E
100
AcDbEntity
  8
0
100
AcDbLine
 10
235.7575
 20
669.4429
 30
0.0
 11
236.6155
 21
669.4429
 31
0.0
  0
LINE
  5
2B9
330
1E
100
AcDbEntity
  8
0
100
AcDbLine
 10
235.7575
 20
671.4428999999999
 30
0.0
 11
236.6155
 21
671.4428999999999
 31
0.0
  0
LINE
  5
2BA
330
1E
100
AcDbEntity
  8
0
100
AcDbLine
 10
235.7575
 20
664.6429
 30
0.0
 11
236.6155
 21
664.6429
 31
0.0
  0
LINE
  5
2BB
330
1E
100
AcDbEntity
  8
0
100
AcDbLine
 10
235.7575
 20
657.8428999999999
 30
0.0
 11
236.6155
 21
657.8428999999999
 31
0.0
  0
LINE
  5
2BC
330
1E
100
AcDbEntity
  8
0
100
AcDbLine
 10
235.7575
 20
655.8429
 30
0.0
 11
236.6155
 21
655.8429
 31
0.0
  0
LINE
  5
2BD
330
1E
100
AcDbEntity
  8
0
100
AcDbLine
 10
235.3295
 20
656.3429
 30
0.0
 11
235.7575
 21
655.8429
 31
0.0
  0
LINE
  5
2BE
330
1E
100
AcDbEntity
  8
0
100
AcDbLine
 10
235.3295
 20
656.3429
 30
0.0
 11
235.3295
 21
657.3428999999999
 31
0.0
  0
LINE
  5
2BF
330
1E
100
AcDbEntity
  8
0
100
AcDbLine
 10
236.1864999999999
 20
727.8429
 30
0.0
 11
238.9864999999999
 21
727.8429
 31
0.0
  0
LINE
  5
2C0
330
1E
100
AcDbEntity
  8
0
100
AcDbLine
 10
237.0435
 20
657.3428999999999
 30
0.0
 11
237.0435
 21
656.3429
 31
0.0
  0
LINE
  5
2C1
330
1E
100
AcDbEntity
  8
0
100
AcDbLine
 10
236.6155
 20
712.2428999999999
 30
0.0
 11
237.0435
 21
711.7428999999999
 31
0.0
  0
LINE
  5
2C2
330
1E
100
AcDbEntity
  8
0
100
AcDbLine
 10
236.6155
 20
723.8429
 30
0.0
 11
237.0435
 21
724.3428999999999
 31
0.0
  0
LINE
  5
2C3
330
1E
100
AcDbEntity
  8
0
100
AcDbLine
 10
236.6155
 20
725.8428999999999
 30
0.0
 11
237.0435
 21
725.3428999999999
 31
0.0
  0
LINE
  5
2C4
330
1E
100
AcDbEntity
  8
0
100
AcDbLine
 10
236.6155
 20
719.0429
 30
0.0
 11
237.0435
 21
718.5429
 31
0.0
  0
LINE
  5
2C5
330
1E
100
AcDbEntity
  8
0
100
AcDbLine
 10
236.6155
 20
717.0429
 30
0.0
 11
237.0435
 21
717.5429
 31
0.0
  0
LINE
  5
2C6
330
1E
100
AcDbEntity
  8
0
100
AcDbLine
 10
236.6155
 20
710.2428999999999
 30
0.0
 11
237.0435
 21
710.7428999999999
 31
0.0
  0
LINE
  5
2C7
330
1E
100
AcDbEntity
  8
0
100
AcDbLine
 10
236.6155
 20
703.4429
 30
0.0
 11
237.0435
 21
703.9429
 31
0.0
  0
LINE
  5
2C8
330
1E
100
AcDbEntity
  8
0
100
AcDbLine
 10
236.6155
 20
705.4428999999999
 30
0.0
 11
237.0435
 21
704.9428999999999
 31
0.0
  0
LINE
  5
2C9
330
1E
100
AcDbEntity
  8
0
100
AcDbLine
 10
236.6155
 20
696.6429
 30
0.0
 11
237.0435
 21
697.1429
 31
0.0
  0
LINE
  5
2CA
330
1E
100
AcDbEntity
  8
0
100
AcDbLine
 10
236.6155
 20
698.6429000000001
 30
0.0
 11
237.0435
 21
698.1429
 31
0.0
  0
LINE
  5
2CB
330
1E
100
AcDbEntity
  8
0
100
AcDbLine
 10
236.6155
 20
689.8429
 30
0.0
 11
237.0435
 21
690.3429
 31
0.0
  0
LINE
  5
2CC
330
1E
100
AcDbEntity
  8
0
100
AcDbLine
 10
236.6155
 20
691.8428999999999
 30
0.0
 11
237.0435
 21
691.3428999999999
 31
0.0
  0
LINE
  5
2CD
330
1E
100
AcDbEntity
  8
0
100
AcDbLine
 10
236.6155
 20
683.0429
 30
0.0
 11
237.0435
 21
683.5429
 31
0.0
  0
LINE
  5
2CE
330
1E
100
AcDbEntity
  8
0
100
AcDbLine
 10
236.6155
 20
685.0429
 30
0.0
 11
237.0435
 21
684.5429
 31
0.0
  0
LINE
  5
2CF
330
1E
100
AcDbEntity
  8
0
100
AcDbLine
 10
236.6155
 20
676.2429
 30
0.0
 11
237.0435
 21
676.7428999999999
 31
0.0
  0
LINE
  5
2D0
330
1E
100
AcDbEntity
  8
0
100
AcDbLine
 10
236.6155
 20
678.2428999999999
 30
0.0
 11
237.0435
 21
677.7428999999999
 31
0.0
  0
LINE
  5
2D1
330
1E
100
AcDbEntity
  8
0
100
AcDbLine
 10
236.6155
 20
669.4429
 30
0.0
 11
237.0435
 21
669.9429
 31
0.0
  0
LINE
  5
2D2
330
1E
100
AcDbEntity
  8
0
100
AcDbLine
 10
236.6155
 20
671.4428999999999
 30
0.0
 11
237.0435
 21
670.9429
 31
0.0
  0
LINE
  5
2D3
330
1E
100
AcDbEntity
  8
0
100
AcDbLine
 10
236.6155
 20
662.6429
 30
0.0
 11
237.0435
 21
663.1429
 31
0.0
  0
LINE
  5
2D4
330
1E
100
AcDbEntity
  8
0
100
AcDbLine
 10
237.0435
 20
676.7428999999999
 30
0.0
 11
237.0435
 21
677.7428999999999
 31
0.0
  0
LINE
  5
2D5
330
1E
100
AcDbEntity
  8
0
100
AcDbLine
 10
237.0435
 20
711.7428999999999
 30
0.0
 11
237.0435
 21
710.7428999999999
 31
0.0
  0
LINE
  5
2D6
330
1E
100
AcDbEntity
  8
0
100
AcDbLine
 10
237.0435
 20
710.7428999999999
 30
0.0
 11
237.0435
 21
711.7428999999999
 31
0.0
  0
LINE
  5
2D7
330
1E
100
AcDbEntity
  8
0
100
AcDbLine
 10
237.0435
 20
724.3428999999999
 30
0.0
 11
237.0435
 21
725.3428999999999
 31
0.0
  0
LINE
  5
2D8
330
1E
100
AcDbEntity
  8
0
100
AcDbLine
 10
237.0435
 20
725.3428999999999
 30
0.0
 11
237.0435
 21
724.3428999999999
 31
0.0
  0
LINE
  5
2D9
330
1E
100
AcDbEntity
  8
0
100
AcDbLine
 10
237.0435
 20
718.5429
 30
0.0
 11
237.0435
 21
717.5429
 31
0.0
  0
LINE
  5
2DA
330
1E
100
AcDbEntity
  8
0
100
AcDbLine
 10
237.0435
 20
717.5429
 30
0.0
 11
237.0435
 21
718.5429
 31
0.0
  0
LINE
  5
2DB
330
1E
100
AcDbEntity
  8
0
100
AcDbLine
 10
237.0435
 20
704.9428999999999
 30
0.0
 11
237.0435
 21
703.9429
 31
0.0
  0
LINE
  5
2DC
330
1E
100
AcDbEntity
  8
0
100
AcDbLine
 10
237.0435
 20
703.9429
 30
0.0
 11
237.0435
 21
704.9428999999999
 31
0.0
  0
LINE
  5
2DD
330
1E
100
AcDbEntity
  8
0
100
AcDbLine
 10
237.0435
 20
697.1429
 30
0.0
 11
237.0435
 21
698.1429
 31
0.0
  0
LINE
  5
2DE
330
1E
100
AcDbEntity
  8
0
100
AcDbLine
 10
237.0435
 20
698.1429
 30
0.0
 11
237.0435
 21
697.1429
 31
0.0
  0
LINE
  5
2DF
330
1E
100
AcDbEntity
  8
0
100
AcDbLine
 10
237.0435
 20
690.3429
 30
0.0
 11
237.0435
 21
691.3428999999999
 31
0.0
  0
LINE
  5
2E0
330
1E
100
AcDbEntity
  8
0
100
AcDbLine
 10
237.0435
 20
691.3428999999999
 30
0.0
 11
237.0435
 21
690.3429
 31
0.0
  0
LINE
  5
2E1
330
1E
100
AcDbEntity
  8
0
100
AcDbLine
 10
237.0435
 20
684.5429
 30
0.0
 11
237.0435
 21
683.5429
 31
0.0
  0
LINE
  5
2E2
330
1E
100
AcDbEntity
  8
0
100
AcDbLine
 10
237.0435
 20
683.5429
 30
0.0
 11
237.0435
 21
684.5429
 31
0.0
  0
LINE
  5
2E3
330
1E
100
AcDbEntity
  8
0
100
AcDbLine
 10
237.0435
 20
677.7428999999999
 30
0.0
 11
237.0435
 21
676.7428999999999
 31
0.0
  0
LINE
  5
2E4
330
1E
100
AcDbEntity
  8
0
100
AcDbLine
 10
237.0435
 20
670.9429
 30
0.0
 11
237.0435
 21
669.9429
 31
0.0
  0
LINE
  5
2E5
330
1E
100
AcDbEntity
  8
0
100
AcDbLine
 10
237.0435
 20
669.9429
 30
0.0
 11
237.0435
 21
670.9429
 31
0.0
  0
LINE
  5
2E6
330
1E
100
AcDbEntity
  8
0
100
AcDbLine
 10
237.0435
 20
664.1429
 30
0.0
 11
237.0435
 21
663.1429
 31
0.0
  0
LINE
  5
2E7
330
1E
100
AcDbEntity
  8
0
100
AcDbLine
 10
237.0435
 20
663.1429
 30
0.0
 11
237.0435
 21
664.1429
 31
0.0
  0
LINE
  5
2E8
330
1E
100
AcDbEntity
  8
0
100
AcDbLine
 10
236.6155
 20
664.6429
 30
0.0
 11
237.0435
 21
664.1429
 31
0.0
  0
LINE
  5
2E9
330
1E
100
AcDbEntity
  8
0
100
AcDbLine
 10
236.6155
 20
657.8428999999999
 30
0.0
 11
237.0435
 21
657.3428999999999
 31
0.0
  0
LINE
  5
2EA
330
1E
100
AcDbEntity
  8
0
100
AcDbLine
 10
237.0435
 20
656.3429
 30
0.0
 11
237.0435
 21
657.3428999999999
 31
0.0
  0
LINE
  5
2EB
330
1E
100
AcDbEntity
  8
0
100
AcDbLine
 10
236.6155
 20
655.8429
 30
0.0
 11
237.0435
 21
656.3429
 31
0.0
  0
LINE
  5
2EC
330
1E
100
AcDbEntity
  8
0
100
AcDbLine
 10
236.1864999999999
 20
727.3429
 30
0.0
 11
239.2865
 21
727.3429
 31
0.0
  0
LINE
  5
2ED
330
1E
100
AcDbEntity
  8
0
100
AcDbLine
 10
236.1864999999999
 20
747.8429
 30
0.0
 11
239.1865
 21
747.8429
 31
0.0
  0
LINE
  5
2EE
330
1E
100
AcDbEntity
  8
0
100
AcDbLine
 10
236.1864999999999
 20
747.3429
 30
0.0
 11
239.2865
 21
747.3429
 31
0.0
  0
LINE
  5
2EF
330
1E
100
AcDbEntity
  8
0
100
AcDbLine
 10
236.1864999999999
 20
728.3428999999999
 30
0.0
 11
239.2865
 21
728.3428999999999
 31
0.0
  0
LINE
  5
2F0
330
1E
100
AcDbEntity
  8
0
100
AcDbLine
 10
233.1865
 20
747.8429
 30
0.0
 11
236.1864999999999
 21
747.8429
 31
0.0
  0
LINE
  5
2F1
330
1E
100
AcDbEntity
  8
0
100
AcDbLine
 10
233.3865
 20
727.8429
 30
0.0
 11
236.1864999999999
 21
727.8429
 31
0.0
  0
LINE
  5
2F2
330
1E
100
AcDbEntity
  8
0
100
AcDbLine
 10
233.0865
 20
727.3429
 30
0.0
 11
236.1864999999999
 21
727.3429
 31
0.0
  0
LINE
  5
2F3
330
1E
100
AcDbEntity
  8
0
100
AcDbLine
 10
232.2864999999999
 20
532.8428999999999
 30
0.0
 11
236.1864999999999
 21
532.8428999999999
 31
0.0
  0
LINE
  5
2F4
330
1E
100
AcDbEntity
  8
0
100
AcDbLine
 10
231.8175
 20
383.8948999999999
 30
0.0
 11
236.4885
 21
358.5919
 31
0.0
  0
LINE
  5
2F5
330
1E
100
AcDbEntity
  8
0
100
AcDbLine
 10
236.4885
 20
358.5919
 30
0.0
 11
242.8335
 21
332.9898999999999
 31
0.0
  0
LINE
  5
2F6
330
1E
100
AcDbEntity
  8
0
100
AcDbLine
 10
265.5675
 20
36.2479000000001
 30
0.0
 11
281.3795
 21
52.8559
 31
0.0
  0
LINE
  5
2F7
330
1E
100
AcDbEntity
  8
0
100
AcDbLine
 10
265.5675
 20
36.2479000000001
 30
0.0
 11
281.3795
 21
52.8559
 31
0.0
  0
LINE
  5
2F8
330
1E
100
AcDbEntity
  8
0
100
AcDbLine
 10
265.4554999999999
 20
36.2189
 30
0.0
 11
265.5675
 21
36.2479000000001
 31
0.0
  0
LINE
  5
2FA
330
1E
100
AcDbEntity
  8
0
100
AcDbLine
 10
272.3794999999999
 20
265.9418999999999
 30
0.0
 11
282.2735
 21
247.1138999999999
 31
0.0
  0
LINE
  5
2FD
330
1E
100
AcDbEntity
  8
0
100
AcDbLine
 10
241.1865
 20
533.8428999999999
 30
0.0
 11
242.1864999999999
 21
533.8428999999999
 31
0.0
  0
LINE
  5
2FE
330
1E
100
AcDbEntity
  8
0
100
AcDbLine
 10
241.1865
 20
533.8428999999999
 30
0.0
 11
241.1865
 21
532.8428999999999
 31
0.0
  0
LINE
  5
2FF
330
1E
100
AcDbEntity
  8
0
100
AcDbLine
 10
241.1865
 20
533.8428999999999
 30
0.0
 11
241.1865
 21
579.8428999999999
 31
0.0
  0
LINE
  5
300
330
1E
100
AcDbEntity
  8
0
100
AcDbLine
 10
241.1865
 20
532.8428999999999
 30
0.0
 11
242.1864999999999
 21
533.8428999999999
 31
0.0
  0
LINE
  5
301
330
1E
100
AcDbEntity
  8
0
100
AcDbLine
 10
241.1865
 20
532.8428999999999
 30
0.0
 11
241.1865
 21
533.8428999999999
 31
0.0
  0
LINE
  5
302
330
1E
100
AcDbEntity
  8
0
100
AcDbLine
 10
239.1865
 20
747.8429
 30
0.0
 11
241.8865
 21
747.8429
 31
0.0
  0
LINE
  5
303
330
1E
100
AcDbEntity
  8
0
100
AcDbLine
 10
239.2865
 20
747.3429
 30
0.0
 11
242.1864999999999
 21
747.3429
 31
0.0
  0
LINE
  5
304
330
1E
100
AcDbEntity
  8
0
100
AcDbLine
 10
239.2865
 20
728.3428999999999
 30
0.0
 11
242.1864999999999
 21
728.3428999999999
 31
0.0
  0
LINE
  5
305
330
1E
100
AcDbEntity
  8
0
100
AcDbLine
 10
238.9864999999999
 20
727.8429
 30
0.0
 11
241.6865
 21
727.8429
 31
0.0
  0
LINE
  5
306
330
1E
100
AcDbEntity
  8
0
100
AcDbLine
 10
240.3645
 20
655.8429
 30
0.0
 11
240.6754999999999
 21
655.8429
 31
0.0
  0
LINE
  5
308
330
1E
100
AcDbEntity
  8
0
100
AcDbLine
 10
241.1634999999999
 20
655.8429
 30
0.0
 11
241.4744999999999
 21
655.8429
 31
0.0
  0
LINE
  5
309
330
1E
100
AcDbEntity
  8
0
100
AcDbLine
 10
240.6754999999999
 20
655.8429
 30
0.0
 11
241.4744999999999
 21
655.8429
 31
0.0
  0
LINE
  5
30C
330
1E
100
AcDbEntity
  8
0
100
AcDbLine
 10
240.2754999999999
 20
663.1429
 30
0.0
 11
240.6754999999999
 21
662.6429
 31
0.0
  0
LINE
  5
30D
330
1E
100
AcDbEntity
  8
0
100
AcDbLine
 10
240.2754999999999
 20
663.1429
 30
0.0
 11
240.2754999999999
 21
664.1429
 31
0.0
  0
LINE
  5
30E
330
1E
100
AcDbEntity
  8
0
100
AcDbLine
 10
240.2754999999999
 20
664.1429
 30
0.0
 11
240.6754999999999
 21
664.6429
 31
0.0
  0
LINE
  5
30F
330
1E
100
AcDbEntity
  8
0
100
AcDbLine
 10
240.2754999999999
 20
664.1429
 30
0.0
 11
240.2754999999999
 21
663.1429
 31
0.0
  0
LINE
  5
311
330
1E
100
AcDbEntity
  8
0
100
AcDbLine
 10
240.2754999999999
 20
669.9429
 30
0.0
 11
240.6754999999999
 21
669.4429
 31
0.0
  0
LINE
  5
312
330
1E
100
AcDbEntity
  8
0
100
AcDbLine
 10
240.2754999999999
 20
669.9429
 30
0.0
 11
240.2754999999999
 21
670.9429
 31
0.0
  0
LINE
  5
313
330
1E
100
AcDbEntity
  8
0
100
AcDbLine
 10
240.2754999999999
 20
670.9429
 30
0.0
 11
240.6754999999999
 21
671.4428999999999
 31
0.0
  0
LINE
  5
314
330
1E
100
AcDbEntity
  8
0
100
AcDbLine
 10
240.2754999999999
 20
670.9429
 30
0.0
 11
240.2754999999999
 21
669.9429
 31
0.0
  0
LINE
  5
317
330
1E
100
AcDbEntity
  8
0
100
AcDbLine
 10
240.2754999999999
 20
676.7428999999999
 30
0.0
 11
240.2754999999999
 21
677.7428999999999
 31
0.0
  0
LINE
  5
318
330
1E
100
AcDbEntity
  8
0
100
AcDbLine
 10
240.2754999999999
 20
676.7428999999999
 30
0.0
 11
240.6754999999999
 21
676.2429
 31
0.0
  0
LINE
  5
319
330
1E
100
AcDbEntity
  8
0
100
AcDbLine
 10
240.113991856678
 20
683.5429
 30
0.0
 11
240.2754999999999
 21
683.5429
 31
0.0
  0
LINE
  5
327
330
1E
100
AcDbEntity
  8
0
100
AcDbLine
 10
240.2754999999999
 20
683.5429
 30
0.0
 11
240.6754999999999
 21
683.0429
 31
0.0
  0
LINE
  5
328
330
1E
100
AcDbEntity
  8
0
100
AcDbLine
 10
240.2754999999999
 20
683.5429
 30
0.0
 11
240.2754999999999
 21
684.5429
 31
0.0
  0
LINE
  5
329
330
1E
100
AcDbEntity
  8
0
100
AcDbLine
 10
240.2754999999999
 20
711.7428999999999
 30
0.0
 11
240.6754999999999
 21
712.2428999999999
 31
0.0
  0
LINE
  5
32A
330
1E
100
AcDbEntity
  8
0
100
AcDbLine
 10
240.2754999999999
 20
711.7428999999999
 30
0.0
 11
240.2754999999999
 21
710.7428999999999
 31
0.0
  0
LINE
  5
32B
330
1E
100
AcDbEntity
  8
0
100
AcDbLine
 10
240.2754999999999
 20
724.3428999999999
 30
0.0
 11
240.2754999999999
 21
725.3428999999999
 31
0.0
  0
LINE
  5
32C
330
1E
100
AcDbEntity
  8
0
100
AcDbLine
 10
240.2754999999999
 20
724.3428999999999
 30
0.0
 11
240.6754999999999
 21
723.8429
 31
0.0
  0
LINE
  5
32D
330
1E
100
AcDbEntity
  8
0
100
AcDbLine
 10
240.2754999999999
 20
725.3428999999999
 30
0.0
 11
240.6754999999999
 21
725.8428999999999
 31
0.0
  0
LINE
  5
32E
330
1E
100
AcDbEntity
  8
0
100
AcDbLine
 10
240.2754999999999
 20
725.3428999999999
 30
0.0
 11
240.2754999999999
 21
724.3428999999999
 31
0.0
  0
LINE
  5
32F
330
1E
100
AcDbEntity
  8
0
100
AcDbLine
 10
240.2754999999999
 20
718.5429
 30
0.0
 11
240.2754999999999
 21
717.5429
 31
0.0
  0
LINE
  5
330
330
1E
100
AcDbEntity
  8
0
100
AcDbLine
 10
240.2754999999999
 20
718.5429
 30
0.0
 11
240.6754999999999
 21
719.0429
 31
0.0
  0
LINE
  5
331
330
1E
100
AcDbEntity
  8
0
100
AcDbLine
 10
240.2754999999999
 20
717.5429
 30
0.0
 11
240.6754999999999
 21
717.0429
 31
0.0
  0
LINE
  5
332
330
1E
100
AcDbEntity
  8
0
100
AcDbLine
 10
240.2754999999999
 20
717.5429
 30
0.0
 11
240.2754999999999
 21
718.5429
 31
0.0
  0
LINE
  5
333
330
1E
100
AcDbEntity
  8
0
100
AcDbLine
 10
240.2754999999999
 20
710.7428999999999
 30
0.0
 11
240.6754999999999
 21
710.2428999999999
 31
0.0
  0
LINE
  5
334
330
1E
100
AcDbEntity
  8
0
100
AcDbLine
 10
240.2754999999999
 20
710.7428999999999
 30
0.0
 11
240.2754999999999
 21
711.7428999999999
 31
0.0
  0
LINE
  5
335
330
1E
100
AcDbEntity
  8
0
100
AcDbLine
 10
240.2754999999999
 20
703.9429
 30
0.0
 11
240.6754999999999
 21
703.4429
 31
0.0
  0
LINE
  5
336
330
1E
100
AcDbEntity
  8
0
100
AcDbLine
 10
240.2754999999999
 20
703.9429
 30
0.0
 11
240.2754999999999
 21
704.9428999999999
 31
0.0
  0
LINE
  5
337
330
1E
100
AcDbEntity
  8
0
100
AcDbLine
 10
240.2754999999999
 20
704.9428999999999
 30
0.0
 11
240.6754999999999
 21
705.4428999999999
 31
0.0
  0
LINE
  5
338
330
1E
100
AcDbEntity
  8
0
100
AcDbLine
 10
240.2754999999999
 20
704.9428999999999
 30
0.0
 11
240.2754999999999
 21
703.9429
 31
0.0
  0
LINE
  5
339
330
1E
100
AcDbEntity
  8
0
100
AcDbLine
 10
240.2754999999999
 20
697.1429
 30
0.0
 11
240.2754999999999
 21
698.1429
 31
0.0
  0
LINE
  5
33A
330
1E
100
AcDbEntity
  8
0
100
AcDbLine
 10
240.2754999999999
 20
697.1429
 30
0.0
 11
240.6754999999999
 21
696.6429
 31
0.0
  0
LINE
  5
33B
330
1E
100
AcDbEntity
  8
0
100
AcDbLine
 10
240.2754999999999
 20
698.1429
 30
0.0
 11
240.6754999999999
 21
698.6429000000001
 31
0.0
  0
LINE
  5
33C
330
1E
100
AcDbEntity
  8
0
100
AcDbLine
 10
240.2754999999999
 20
698.1429
 30
0.0
 11
240.2754999999999
 21
697.1429
 31
0.0
  0
LINE
  5
33D
330
1E
100
AcDbEntity
  8
0
100
AcDbLine
 10
240.2754999999999
 20
690.3429
 30
0.0
 11
240.2754999999999
 21
691.3428999999999
 31
0.0
  0
LINE
  5
33E
330
1E
100
AcDbEntity
  8
0
100
AcDbLine
 10
240.2754999999999
 20
690.3429
 30
0.0
 11
240.6754999999999
 21
689.8429
 31
0.0
  0
LINE
  5
33F
330
1E
100
AcDbEntity
  8
0
100
AcDbLine
 10
240.2754999999999
 20
691.3428999999999
 30
0.0
 11
240.6754999999999
 21
691.8428999999999
 31
0.0
  0
LINE
  5
340
330
1E
100
AcDbEntity
  8
0
100
AcDbLine
 10
240.2754999999999
 20
691.3428999999999
 30
0.0
 11
240.2754999999999
 21
690.3429
 31
0.0
  0
LINE
  5
341
330
1E
100
AcDbEntity
  8
0
100
AcDbLine
 10
240.2754999999999
 20
684.5429
 30
0.0
 11
240.6754999999999
 21
685.0429
 31
0.0
  0
LINE
  5
342
330
1E
100
AcDbEntity
  8
0
100
AcDbLine
 10
240.2754999999999
 20
684.5429
 30
0.0
 11
240.2754999999999
 21
683.5429
 31
0.0
  0
LINE
  5
343
330
1E
100
AcDbEntity
  8
0
100
AcDbLine
 10
240.2754999999999
 20
677.7428999999999
 30
0.0
 11
240.6754999999999
 21
678.2428999999999
 31
0.0
  0
LINE
  5
344
330
1E
100
AcDbEntity
  8
0
100
AcDbLine
 10
240.2754999999999
 20
677.7428999999999
 30
0.0
 11
240.2754999999999
 21
676.7428999999999
 31
0.0
  0
LINE
  5
345
330
1E
100
AcDbEntity
  8
0
100
AcDbLine
 10
240.3645
 20
683.0429
 30
0.0
 11
240.6754999999999
 21
683.0429
 31
0.0
  0
LINE
  5
346
330
1E
100
AcDbEntity
  8
0
100
AcDbLine
 10
240.3645
 20
725.8428999999999
 30
0.0
 11
240.6754999999999
 21
725.8428999999999
 31
0.0
  0
LINE
  5
347
330
1E
100
AcDbEntity
  8
0
100
AcDbLine
 10
240.3645
 20
723.8429
 30
0.0
 11
240.6754999999999
 21
723.8429
 31
0.0
  0
LINE
  5
348
330
1E
100
AcDbEntity
  8
0
100
AcDbLine
 10
240.3645
 20
719.0429
 30
0.0
 11
240.6754999999999
 21
719.0429
 31
0.0
  0
LINE
  5
349
330
1E
100
AcDbEntity
  8
0
100
AcDbLine
 10
240.3645
 20
717.0429
 30
0.0
 11
240.6754999999999
 21
717.0429
 31
0.0
  0
LINE
  5
34A
330
1E
100
AcDbEntity
  8
0
100
AcDbLine
 10
240.3645
 20
712.2428999999999
 30
0.0
 11
240.6754999999999
 21
712.2428999999999
 31
0.0
  0
LINE
  5
34B
330
1E
100
AcDbEntity
  8
0
100
AcDbLine
 10
240.3645
 20
710.2428999999999
 30
0.0
 11
240.6754999999999
 21
710.2428999999999
 31
0.0
  0
LINE
  5
34C
330
1E
100
AcDbEntity
  8
0
100
AcDbLine
 10
240.3645
 20
703.4429
 30
0.0
 11
240.6754999999999
 21
703.4429
 31
0.0
  0
LINE
  5
34D
330
1E
100
AcDbEntity
  8
0
100
AcDbLine
 10
240.3645
 20
705.4428999999999
 30
0.0
 11
240.6754999999999
 21
705.4428999999999
 31
0.0
  0
LINE
  5
34E
330
1E
100
AcDbEntity
  8
0
100
AcDbLine
 10
240.3645
 20
698.6429000000001
 30
0.0
 11
240.6754999999999
 21
698.6429000000001
 31
0.0
  0
LINE
  5
34F
330
1E
100
AcDbEntity
  8
0
100
AcDbLine
 10
240.3645
 20
696.6429
 30
0.0
 11
240.6754999999999
 21
696.6429
 31
0.0
  0
LINE
  5
350
330
1E
100
AcDbEntity
  8
0
100
AcDbLine
 10
240.3645
 20
691.8428999999999
 30
0.0
 11
240.6754999999999
 21
691.8428999999999
 31
0.0
  0
LINE
  5
351
330
1E
100
AcDbEntity
  8
0
100
AcDbLine
 10
240.3645
 20
689.8429
 30
0.0
 11
240.6754999999999
 21
689.8429
 31
0.0
  0
LINE
  5
352
330
1E
100
AcDbEntity
  8
0
100
AcDbLine
 10
240.3645
 20
685.0429
 30
0.0
 11
240.6754999999999
 21
685.0429
 31
0.0
  0
LINE
  5
353
330
1E
100
AcDbEntity
  8
0
100
AcDbLine
 10
240.3645
 20
678.2428999999999
 30
0.0
 11
240.6754999999999
 21
678.2428999999999
 31
0.0
  0
LINE
  5
354
330
1E
100
AcDbEntity
  8
0
100
AcDbLine
 10
240.3645
 20
676.2429
 30
0.0
 11
240.6754999999999
 21
676.2429
 31
0.0
  0
LINE
  5
356
330
1E
100
AcDbEntity
  8
0
100
AcDbLine
 10
240.3645
 20
671.4428999999999
 30
0.0
 11
240.6754999999999
 21
671.4428999999999
 31
0.0
  0
LINE
  5
358
330
1E
100
AcDbEntity
  8
0
100
AcDbLine
 10
240.508845276873
 20
662.6429
 30
0.0
 11
240.6754999999999
 21
662.6429
 31
0.0
  0
LINE
  5
359
330
1E
100
AcDbEntity
  8
0
100
AcDbLine
 10
240.6754999999999
 20
662.6429
 30
0.0
 11
241.4744999999999
 21
662.6429
 31
0.0
  0
LINE
  5
35A
330
1E
100
AcDbEntity
  8
0
100
AcDbLine
 10
240.6754999999999
 20
664.6429
 30
0.0
 11
241.4744999999999
 21
664.6429
 31
0.0
  0
LINE
  5
35B
330
1E
100
AcDbEntity
  8
0
100
AcDbLine
 10
240.3803762214979
 20
669.4429
 30
0.0
 11
240.6754999999999
 21
669.4429
 31
0.0
  0
LINE
  5
35C
330
1E
100
AcDbEntity
  8
0
100
AcDbLine
 10
240.6754999999999
 20
712.2428999999999
 30
0.0
 11
241.4744999999999
 21
712.2428999999999
 31
0.0
  0
LINE
  5
35D
330
1E
100
AcDbEntity
  8
0
100
AcDbLine
 10
240.6754999999999
 20
723.8429
 30
0.0
 11
241.4744999999999
 21
723.8429
 31
0.0
  0
LINE
  5
35E
330
1E
100
AcDbEntity
  8
0
100
AcDbLine
 10
240.6754999999999
 20
725.8428999999999
 30
0.0
 11
241.4744999999999
 21
725.8428999999999
 31
0.0
  0
LINE
  5
35F
330
1E
100
AcDbEntity
  8
0
100
AcDbLine
 10
240.6754999999999
 20
719.0429
 30
0.0
 11
241.4744999999999
 21
719.0429
 31
0.0
  0
LINE
  5
360
330
1E
100
AcDbEntity
  8
0
100
AcDbLine
 10
240.6754999999999
 20
717.0429
 30
0.0
 11
241.4744999999999
 21
717.0429
 31
0.0
  0
LINE
  5
361
330
1E
100
AcDbEntity
  8
0
100
AcDbLine
 10
240.6754999999999
 20
710.2428999999999
 30
0.0
 11
241.4744999999999
 21
710.2428999999999
 31
0.0
  0
LINE
  5
362
330
1E
100
AcDbEntity
  8
0
100
AcDbLine
 10
240.6754999999999
 20
703.4429
 30
0.0
 11
241.4744999999999
 21
703.4429
 31
0.0
  0
LINE
  5
363
330
1E
100
AcDbEntity
  8
0
100
AcDbLine
 10
240.6754999999999
 20
705.4428999999999
 30
0.0
 11
241.4744999999999
 21
705.4428999999999
 31
0.0
  0
LINE
  5
364
330
1E
100
AcDbEntity
  8
0
100
AcDbLine
 10
240.6754999999999
 20
696.6429
 30
0.0
 11
241.4744999999999
 21
696.6429
 31
0.0
  0
LINE
  5
365
330
1E
100
AcDbEntity
  8
0
100
AcDbLine
 10
240.6754999999999
 20
698.6429000000001
 30
0.0
 11
241.4744999999999
 21
698.6429000000001
 31
0.0
  0
LINE
  5
366
330
1E
100
AcDbEntity
  8
0
100
AcDbLine
 10
240.6754999999999
 20
689.8429
 30
0.0
 11
241.4744999999999
 21
689.8429
 31
0.0
  0
LINE
  5
367
330
1E
100
AcDbEntity
  8
0
100
AcDbLine
 10
240.6754999999999
 20
691.8428999999999
 30
0.0
 11
241.4744999999999
 21
691.8428999999999
 31
0.0
  0
LINE
  5
368
330
1E
100
AcDbEntity
  8
0
100
AcDbLine
 10
240.6754999999999
 20
683.0429
 30
0.0
 11
241.4744999999999
 21
683.0429
 31
0.0
  0
LINE
  5
369
330
1E
100
AcDbEntity
  8
0
100
AcDbLine
 10
240.6754999999999
 20
685.0429
 30
0.0
 11
241.4744999999999
 21
685.0429
 31
0.0
  0
LINE
  5
36A
330
1E
100
AcDbEntity
  8
0
100
AcDbLine
 10
240.6754999999999
 20
676.2429
 30
0.0
 11
241.4744999999999
 21
676.2429
 31
0.0
  0
LINE
  5
36B
330
1E
100
AcDbEntity
  8
0
100
AcDbLine
 10
240.6754999999999
 20
678.2428999999999
 30
0.0
 11
241.4744999999999
 21
678.2428999999999
 31
0.0
  0
LINE
  5
36C
330
1E
100
AcDbEntity
  8
0
100
AcDbLine
 10
240.6754999999999
 20
669.4429
 30
0.0
 11
241.4744999999999
 21
669.4429
 31
0.0
  0
LINE
  5
36D
330
1E
100
AcDbEntity
  8
0
100
AcDbLine
 10
240.6754999999999
 20
671.4428999999999
 30
0.0
 11
241.4744999999999
 21
671.4428999999999
 31
0.0
  0
LINE
  5
36E
330
1E
100
AcDbEntity
  8
0
100
AcDbLine
 10
240.471060260586
 20
664.6429
 30
0.0
 11
240.6754999999999
 21
664.6429
 31
0.0
  0
LINE
  5
36F
330
1E
100
AcDbEntity
  8
0
100
AcDbLine
 10
240.3645
 20
657.8428999999999
 30
0.0
 11
240.6754999999999
 21
657.8428999999999
 31
0.0
  0
LINE
  5
370
330
1E
100
AcDbEntity
  8
0
100
AcDbLine
 10
240.2754999999999
 20
657.3428999999999
 30
0.0
 11
240.6754999999999
 21
657.8428999999999
 31
0.0
  0
LINE
  5
371
330
1E
100
AcDbEntity
  8
0
100
AcDbLine
 10
240.2754999999999
 20
657.3428999999999
 30
0.0
 11
240.2754999999999
 21
656.3429
 31
0.0
  0
LINE
  5
372
330
1E
100
AcDbEntity
  8
0
100
AcDbLine
 10
241.1634999999999
 20
723.8429
 30
0.0
 11
241.4744999999999
 21
723.8429
 31
0.0
  0
LINE
  5
373
330
1E
100
AcDbEntity
  8
0
100
AcDbLine
 10
241.1634999999999
 20
717.0429
 30
0.0
 11
241.4744999999999
 21
717.0429
 31
0.0
  0
LINE
  5
374
330
1E
100
AcDbEntity
  8
0
100
AcDbLine
 10
241.1634999999999
 20
710.2428999999999
 30
0.0
 11
241.4744999999999
 21
710.2428999999999
 31
0.0
  0
LINE
  5
375
330
1E
100
AcDbEntity
  8
0
100
AcDbLine
 10
241.1634999999999
 20
703.4429
 30
0.0
 11
241.4744999999999
 21
703.4429
 31
0.0
  0
LINE
  5
376
330
1E
100
AcDbEntity
  8
0
100
AcDbLine
 10
241.1634999999999
 20
696.6429
 30
0.0
 11
241.4744999999999
 21
696.6429
 31
0.0
  0
LINE
  5
377
330
1E
100
AcDbEntity
  8
0
100
AcDbLine
 10
241.1634999999999
 20
689.8429
 30
0.0
 11
241.4744999999999
 21
689.8429
 31
0.0
  0
LINE
  5
378
330
1E
100
AcDbEntity
  8
0
100
AcDbLine
 10
241.1634999999999
 20
683.0429
 30
0.0
 11
241.4744999999999
 21
683.0429
 31
0.0
  0
LINE
  5
379
330
1E
100
AcDbEntity
  8
0
100
AcDbLine
 10
241.1634999999999
 20
676.2429
 30
0.0
 11
241.4744999999999
 21
676.2429
 31
0.0
  0
LINE
  5
37A
330
1E
100
AcDbEntity
  8
0
100
AcDbLine
 10
241.1634999999999
 20
669.4429
 30
0.0
 11
241.4744999999999
 21
669.4429
 31
0.0
  0
LINE
  5
37B
330
1E
100
AcDbEntity
  8
0
100
AcDbLine
 10
241.1634999999999
 20
662.6429
 30
0.0
 11
241.4744999999999
 21
662.6429
 31
0.0
  0
LINE
  5
37C
330
1E
100
AcDbEntity
  8
0
100
AcDbLine
 10
240.6754999999999
 20
657.8428999999999
 30
0.0
 11
241.4744999999999
 21
657.8428999999999
 31
0.0
  0
LINE
  5
37D
330
1E
100
AcDbEntity
  8
0
100
AcDbLine
 10
240.2754999999999
 20
656.3429
 30
0.0
 11
240.6754999999999
 21
655.8429
 31
0.0
  0
LINE
  5
37E
330
1E
100
AcDbEntity
  8
0
100
AcDbLine
 10
240.2754999999999
 20
656.3429
 30
0.0
 11
240.2754999999999
 21
657.3428999999999
 31
0.0
  0
LINE
  5
37F
330
1E
100
AcDbEntity
  8
0
100
AcDbLine
 10
239.2865
 20
727.3429
 30
0.0
 11
242.1864999999999
 21
727.3429
 31
0.0
  0
LINE
  5
380
330
1E
100
AcDbEntity
  8
0
100
AcDbLine
 10
241.1865
 20
579.8428999999999
 30
0.0
 11
242.1864999999999
 21
579.8428999999999
 31
0.0
  0
LINE
  5
381
330
1E
100
AcDbEntity
  8
0
100
AcDbLine
 10
241.1865
 20
579.8428999999999
 30
0.0
 11
241.1865
 21
580.8429
 31
0.0
  0
LINE
  5
382
330
1E
100
AcDbEntity
  8
0
100
AcDbLine
 10
241.1865
 20
579.8428999999999
 30
0.0
 11
241.1865
 21
533.8428999999999
 31
0.0
  0
LINE
  5
383
330
1E
100
AcDbEntity
  8
0
100
AcDbLine
 10
241.4744999999999
 20
712.2428999999999
 30
0.0
 11
241.8735
 21
711.7428999999999
 31
0.0
  0
LINE
  5
384
330
1E
100
AcDbEntity
  8
0
100
AcDbLine
 10
241.4744999999999
 20
723.8429
 30
0.0
 11
241.8735
 21
724.3428999999999
 31
0.0
  0
LINE
  5
385
330
1E
100
AcDbEntity
  8
0
100
AcDbLine
 10
241.4744999999999
 20
725.8428999999999
 30
0.0
 11
241.8735
 21
725.3428999999999
 31
0.0
  0
LINE
  5
386
330
1E
100
AcDbEntity
  8
0
100
AcDbLine
 10
241.4744999999999
 20
719.0429
 30
0.0
 11
241.8735
 21
718.5429
 31
0.0
  0
LINE
  5
387
330
1E
100
AcDbEntity
  8
0
100
AcDbLine
 10
241.4744999999999
 20
717.0429
 30
0.0
 11
241.8735
 21
717.5429
 31
0.0
  0
LINE
  5
388
330
1E
100
AcDbEntity
  8
0
100
AcDbLine
 10
241.4744999999999
 20
710.2428999999999
 30
0.0
 11
241.8735
 21
710.7428999999999
 31
0.0
  0
LINE
  5
389
330
1E
100
AcDbEntity
  8
0
100
AcDbLine
 10
241.4744999999999
 20
703.4429
 30
0.0
 11
241.8735
 21
703.9429
 31
0.0
  0
LINE
  5
38A
330
1E
100
AcDbEntity
  8
0
100
AcDbLine
 10
241.4744999999999
 20
705.4428999999999
 30
0.0
 11
241.8735
 21
704.9428999999999
 31
0.0
  0
LINE
  5
38B
330
1E
100
AcDbEntity
  8
0
100
AcDbLine
 10
241.4744999999999
 20
696.6429
 30
0.0
 11
241.8735
 21
697.1429
 31
0.0
  0
LINE
  5
38C
330
1E
100
AcDbEntity
  8
0
100
AcDbLine
 10
241.4744999999999
 20
698.6429000000001
 30
0.0
 11
241.8735
 21
698.1429
 31
0.0
  0
LINE
  5
38D
330
1E
100
AcDbEntity
  8
0
100
AcDbLine
 10
241.4744999999999
 20
689.8429
 30
0.0
 11
241.8735
 21
690.3429
 31
0.0
  0
LINE
  5
38E
330
1E
100
AcDbEntity
  8
0
100
AcDbLine
 10
241.4744999999999
 20
691.8428999999999
 30
0.0
 11
241.8735
 21
691.3428999999999
 31
0.0
  0
LINE
  5
38F
330
1E
100
AcDbEntity
  8
0
100
AcDbLine
 10
241.4744999999999
 20
683.0429
 30
0.0
 11
241.8735
 21
683.5429
 31
0.0
  0
LINE
  5
390
330
1E
100
AcDbEntity
  8
0
100
AcDbLine
 10
241.4744999999999
 20
685.0429
 30
0.0
 11
241.8735
 21
684.5429
 31
0.0
  0
LINE
  5
391
330
1E
100
AcDbEntity
  8
0
100
AcDbLine
 10
241.4744999999999
 20
676.2429
 30
0.0
 11
241.8735
 21
676.7428999999999
 31
0.0
  0
LINE
  5
392
330
1E
100
AcDbEntity
  8
0
100
AcDbLine
 10
241.4744999999999
 20
678.2428999999999
 30
0.0
 11
241.8735
 21
677.7428999999999
 31
0.0
  0
LINE
  5
393
330
1E
100
AcDbEntity
  8
0
100
AcDbLine
 10
241.4744999999999
 20
669.4429
 30
0.0
 11
241.8735
 21
669.9429
 31
0.0
  0
LINE
  5
394
330
1E
100
AcDbEntity
  8
0
100
AcDbLine
 10
241.4744999999999
 20
671.4428999999999
 30
0.0
 11
241.8735
 21
670.9429
 31
0.0
  0
LINE
  5
395
330
1E
100
AcDbEntity
  8
0
100
AcDbLine
 10
241.4744999999999
 20
662.6429
 30
0.0
 11
241.8735
 21
663.1429
 31
0.0
  0
LINE
  5
396
330
1E
100
AcDbEntity
  8
0
100
AcDbLine
 10
241.4744999999999
 20
664.6429
 30
0.0
 11
241.8735
 21
664.1429
 31
0.0
  0
LINE
  5
397
330
1E
100
AcDbEntity
  8
0
100
AcDbLine
 10
241.4744999999999
 20
657.8428999999999
 30
0.0
 11
241.8735
 21
657.3428999999999
 31
0.0
  0
LINE
  5
398
330
1E
100
AcDbEntity
  8
0
100
AcDbLine
 10
242.1864999999999
 20
579.8428999999999
 30
0.0
 11
242.1864999999999
 21
533.8428999999999
 31
0.0
  0
LINE
  5
399
330
1E
100
AcDbEntity
  8
0
100
AcDbLine
 10
241.8735
 20
663.1429
 30
0.0
 11
241.8735
 21
664.1429
 31
0.0
  0
LINE
  5
39A
330
1E
100
AcDbEntity
  8
0
100
AcDbLine
 10
241.8735
 20
711.7428999999999
 30
0.0
 11
241.8735
 21
710.7428999999999
 31
0.0
  0
LINE
  5
39B
330
1E
100
AcDbEntity
  8
0
100
AcDbLine
 10
241.8735
 20
710.7428999999999
 30
0.0
 11
241.8735
 21
711.7428999999999
 31
0.0
  0
LINE
  5
39C
330
1E
100
AcDbEntity
  8
0
100
AcDbLine
 10
241.8735
 20
725.3428999999999
 30
0.0
 11
241.8735
 21
724.3428999999999
 31
0.0
  0
LINE
  5
39D
330
1E
100
AcDbEntity
  8
0
100
AcDbLine
 10
241.8735
 20
724.3428999999999
 30
0.0
 11
241.8735
 21
725.3428999999999
 31
0.0
  0
LINE
  5
39E
330
1E
100
AcDbEntity
  8
0
100
AcDbLine
 10
241.8735
 20
718.5429
 30
0.0
 11
241.8735
 21
717.5429
 31
0.0
  0
LINE
  5
39F
330
1E
100
AcDbEntity
  8
0
100
AcDbLine
 10
241.8735
 20
717.5429
 30
0.0
 11
241.8735
 21
718.5429
 31
0.0
  0
LINE
  5
3A0
330
1E
100
AcDbEntity
  8
0
100
AcDbLine
 10
241.8735
 20
703.9429
 30
0.0
 11
241.8735
 21
704.9428999999999
 31
0.0
  0
LINE
  5
3A1
330
1E
100
AcDbEntity
  8
0
100
AcDbLine
 10
241.8735
 20
704.9428999999999
 30
0.0
 11
241.8735
 21
703.9429
 31
0.0
  0
LINE
  5
3A2
330
1E
100
AcDbEntity
  8
0
100
AcDbLine
 10
241.8735
 20
697.1429
 30
0.0
 11
241.8735
 21
698.1429
 31
0.0
  0
LINE
  5
3A3
330
1E
100
AcDbEntity
  8
0
100
AcDbLine
 10
241.8735
 20
698.1429
 30
0.0
 11
241.8735
 21
697.1429
 31
0.0
  0
LINE
  5
3A4
330
1E
100
AcDbEntity
  8
0
100
AcDbLine
 10
241.8735
 20
690.3429
 30
0.0
 11
241.8735
 21
691.3428999999999
 31
0.0
  0
LINE
  5
3A5
330
1E
100
AcDbEntity
  8
0
100
AcDbLine
 10
241.8735
 20
691.3428999999999
 30
0.0
 11
241.8735
 21
690.3429
 31
0.0
  0
LINE
  5
3A6
330
1E
100
AcDbEntity
  8
0
100
AcDbLine
 10
241.8735
 20
683.5429
 30
0.0
 11
241.8735
 21
684.5429
 31
0.0
  0
LINE
  5
3A7
330
1E
100
AcDbEntity
  8
0
100
AcDbLine
 10
241.8735
 20
684.5429
 30
0.0
 11
241.8735
 21
683.5429
 31
0.0
  0
LINE
  5
3A8
330
1E
100
AcDbEntity
  8
0
100
AcDbLine
 10
241.8735
 20
676.7428999999999
 30
0.0
 11
241.8735
 21
677.7428999999999
 31
0.0
  0
LINE
  5
3A9
330
1E
100
AcDbEntity
  8
0
100
AcDbLine
 10
241.8735
 20
677.7428999999999
 30
0.0
 11
241.8735
 21
676.7428999999999
 31
0.0
  0
LINE
  5
3AA
330
1E
100
AcDbEntity
  8
0
100
AcDbLine
 10
241.8735
 20
669.9429
 30
0.0
 11
241.8735
 21
670.9429
 31
0.0
  0
LINE
  5
3AB
330
1E
100
AcDbEntity
  8
0
100
AcDbLine
 10
241.8735
 20
670.9429
 30
0.0
 11
241.8735
 21
669.9429
 31
0.0
  0
LINE
  5
3AC
330
1E
100
AcDbEntity
  8
0
100
AcDbLine
 10
241.8735
 20
664.1429
 30
0.0
 11
241.8735
 21
663.1429
 31
0.0
  0
LINE
  5
3AD
330
1E
100
AcDbEntity
  8
0
100
AcDbLine
 10
241.8735
 20
657.3428999999999
 30
0.0
 11
241.8735
 21
656.3429
 31
0.0
  0
LINE
  5
3AE
330
1E
100
AcDbEntity
  8
0
100
AcDbLine
 10
241.8735
 20
656.3429
 30
0.0
 11
241.8735
 21
657.3428999999999
 31
0.0
  0
LINE
  5
3AF
330
1E
100
AcDbEntity
  8
0
100
AcDbLine
 10
241.4744999999999
 20
655.8429
 30
0.0
 11
241.8735
 21
656.3429
 31
0.0
  0
LINE
  5
3B0
330
1E
100
AcDbEntity
  8
0
100
AcDbLine
 10
241.8865
 20
747.8429
 30
0.0
 11
244.2864999999999
 21
747.8429
 31
0.0
  0
LINE
  5
3B1
330
1E
100
AcDbEntity
  8
0
100
AcDbLine
 10
242.1864999999999
 20
747.3429
 30
0.0
 11
244.6864999999999
 21
747.3429
 31
0.0
  0
LINE
  5
3B2
330
1E
100
AcDbEntity
  8
0
100
AcDbLine
 10
242.1864999999999
 20
728.3428999999999
 30
0.0
 11
244.6864999999999
 21
728.3428999999999
 31
0.0
  0
LINE
  5
3B3
330
1E
100
AcDbEntity
  8
0
100
AcDbLine
 10
241.6865
 20
727.8429
 30
0.0
 11
243.9865
 21
727.8429
 31
0.0
  0
LINE
  5
3B4
330
1E
100
AcDbEntity
  8
0
100
AcDbLine
 10
242.1864999999999
 20
727.3429
 30
0.0
 11
244.6864999999999
 21
727.3429
 31
0.0
  0
LINE
  5
3B5
330
1E
100
AcDbEntity
  8
0
100
AcDbLine
 10
242.1864999999999
 20
573.8429
 30
0.0
 11
244.6864999999999
 21
573.8429
 31
0.0
  0
LINE
  5
3B6
330
1E
100
AcDbEntity
  8
0
100
AcDbLine
 10
242.1864999999999
 20
572.8429
 30
0.0
 11
243.2865
 21
572.8429
 31
0.0
  0
LINE
  5
3B7
330
1E
100
AcDbEntity
  8
0
100
AcDbLine
 10
242.1864999999999
 20
572.8429
 30
0.0
 11
243.9865
 21
572.8429
 31
0.0
  0
LINE
  5
3B8
330
1E
100
AcDbEntity
  8
0
100
AcDbLine
 10
242.1864999999999
 20
533.8428999999999
 30
0.0
 11
242.1864999999999
 21
579.8428999999999
 31
0.0
  0
LINE
  5
3B9
330
1E
100
AcDbEntity
  8
0
100
AcDbLine
 10
241.1865
 20
580.8429
 30
0.0
 11
242.1864999999999
 21
579.8428999999999
 31
0.0
  0
LINE
  5
3BA
330
1E
100
AcDbEntity
  8
0
100
AcDbLine
 10
241.1865
 20
580.8429
 30
0.0
 11
241.1865
 21
579.8428999999999
 31
0.0
  0
LINE
  5
3BB
330
1E
100
AcDbEntity
  8
0
100
AcDbLine
 10
239.7874999999999
 20
532.7098999999999
 30
0.0
 11
242.7065
 21
532.7088999999999
 31
0.0
  0
LINE
  5
3BC
330
1E
100
AcDbEntity
  8
0
100
AcDbLine
 10
243.8514999999999
 20
655.8429
 30
0.0
 11
244.4414999999999
 21
655.8429
 31
0.0
  0
LINE
  5
3E8
330
1E
100
AcDbEntity
  8
0
100
AcDbLine
 10
244.1305
 20
663.1429
 30
0.0
 11
244.4414999999999
 21
662.6429
 31
0.0
  0
LINE
  5
3E9
330
1E
100
AcDbEntity
  8
0
100
AcDbLine
 10
244.1305
 20
663.1429
 30
0.0
 11
244.1305
 21
664.1429
 31
0.0
  0
LINE
  5
3EA
330
1E
100
AcDbEntity
  8
0
100
AcDbLine
 10
244.1305
 20
711.7428999999999
 30
0.0
 11
244.4414999999999
 21
712.2428999999999
 31
0.0
  0
LINE
  5
3EB
330
1E
100
AcDbEntity
  8
0
100
AcDbLine
 10
244.1305
 20
711.7428999999999
 30
0.0
 11
244.1305
 21
710.7428999999999
 31
0.0
  0
LINE
  5
3EC
330
1E
100
AcDbEntity
  8
0
100
AcDbLine
 10
244.1305
 20
724.3428999999999
 30
0.0
 11
244.1305
 21
725.3428999999999
 31
0.0
  0
LINE
  5
3ED
330
1E
100
AcDbEntity
  8
0
100
AcDbLine
 10
244.1305
 20
724.3428999999999
 30
0.0
 11
244.4414999999999
 21
723.8429
 31
0.0
  0
LINE
  5
3EE
330
1E
100
AcDbEntity
  8
0
100
AcDbLine
 10
244.1305
 20
725.3428999999999
 30
0.0
 11
244.4414999999999
 21
725.8428999999999
 31
0.0
  0
LINE
  5
3EF
330
1E
100
AcDbEntity
  8
0
100
AcDbLine
 10
244.1305
 20
725.3428999999999
 30
0.0
 11
244.1305
 21
724.3428999999999
 31
0.0
  0
LINE
  5
3F0
330
1E
100
AcDbEntity
  8
0
100
AcDbLine
 10
244.1305
 20
718.5429
 30
0.0
 11
244.1305
 21
717.5429
 31
0.0
  0
LINE
  5
3F1
330
1E
100
AcDbEntity
  8
0
100
AcDbLine
 10
244.1305
 20
718.5429
 30
0.0
 11
244.4414999999999
 21
719.0429
 31
0.0
  0
LINE
  5
3F2
330
1E
100
AcDbEntity
  8
0
100
AcDbLine
 10
244.1305
 20
717.5429
 30
0.0
 11
244.4414999999999
 21
717.0429
 31
0.0
  0
LINE
  5
3F3
330
1E
100
AcDbEntity
  8
0
100
AcDbLine
 10
244.1305
 20
717.5429
 30
0.0
 11
244.1305
 21
718.5429
 31
0.0
  0
LINE
  5
3F4
330
1E
100
AcDbEntity
  8
0
100
AcDbLine
 10
244.1305
 20
710.7428999999999
 30
0.0
 11
244.4414999999999
 21
710.2428999999999
 31
0.0
  0
LINE
  5
3F5
330
1E
100
AcDbEntity
  8
0
100
AcDbLine
 10
244.1305
 20
710.7428999999999
 30
0.0
 11
244.1305
 21
711.7428999999999
 31
0.0
  0
LINE
  5
3F6
330
1E
100
AcDbEntity
  8
0
100
AcDbLine
 10
244.1305
 20
703.9429
 30
0.0
 11
244.4414999999999
 21
703.4429
 31
0.0
  0
LINE
  5
3F7
330
1E
100
AcDbEntity
  8
0
100
AcDbLine
 10
244.1305
 20
703.9429
 30
0.0
 11
244.1305
 21
704.9428999999999
 31
0.0
  0
LINE
  5
3F8
330
1E
100
AcDbEntity
  8
0
100
AcDbLine
 10
244.1305
 20
704.9428999999999
 30
0.0
 11
244.4414999999999
 21
705.4428999999999
 31
0.0
  0
LINE
  5
3F9
330
1E
100
AcDbEntity
  8
0
100
AcDbLine
 10
244.1305
 20
704.9428999999999
 30
0.0
 11
244.1305
 21
703.9429
 31
0.0
  0
LINE
  5
3FA
330
1E
100
AcDbEntity
  8
0
100
AcDbLine
 10
244.1305
 20
698.1429
 30
0.0
 11
244.4414999999999
 21
698.6429000000001
 31
0.0
  0
LINE
  5
3FB
330
1E
100
AcDbEntity
  8
0
100
AcDbLine
 10
244.1305
 20
698.1429
 30
0.0
 11
244.1305
 21
697.1429
 31
0.0
  0
LINE
  5
3FC
330
1E
100
AcDbEntity
  8
0
100
AcDbLine
 10
244.1305
 20
697.1429
 30
0.0
 11
244.4414999999999
 21
696.6429
 31
0.0
  0
LINE
  5
3FD
330
1E
100
AcDbEntity
  8
0
100
AcDbLine
 10
244.1305
 20
697.1429
 30
0.0
 11
244.1305
 21
698.1429
 31
0.0
  0
LINE
  5
3FE
330
1E
100
AcDbEntity
  8
0
100
AcDbLine
 10
244.1305
 20
691.3428999999999
 30
0.0
 11
244.4414999999999
 21
691.8428999999999
 31
0.0
  0
LINE
  5
3FF
330
1E
100
AcDbEntity
  8
0
100
AcDbLine
 10
244.1305
 20
691.3428999999999
 30
0.0
 11
244.1305
 21
690.3429
 31
0.0
  0
LINE
  5
400
330
1E
100
AcDbEntity
  8
0
100
AcDbLine
 10
244.1305
 20
690.3429
 30
0.0
 11
244.4414999999999
 21
689.8429
 31
0.0
  0
LINE
  5
401
330
1E
100
AcDbEntity
  8
0
100
AcDbLine
 10
244.1305
 20
690.3429
 30
0.0
 11
244.1305
 21
691.3428999999999
 31
0.0
  0
LINE
  5
402
330
1E
100
AcDbEntity
  8
0
100
AcDbLine
 10
244.1305
 20
683.5429
 30
0.0
 11
244.4414999999999
 21
683.0429
 31
0.0
  0
LINE
  5
403
330
1E
100
AcDbEntity
  8
0
100
AcDbLine
 10
244.1305
 20
683.5429
 30
0.0
 11
244.1305
 21
684.5429
 31
0.0
  0
LINE
  5
404
330
1E
100
AcDbEntity
  8
0
100
AcDbLine
 10
244.1305
 20
684.5429
 30
0.0
 11
244.4414999999999
 21
685.0429
 31
0.0
  0
LINE
  5
405
330
1E
100
AcDbEntity
  8
0
100
AcDbLine
 10
244.1305
 20
684.5429
 30
0.0
 11
244.1305
 21
683.5429
 31
0.0
  0
LINE
  5
406
330
1E
100
AcDbEntity
  8
0
100
AcDbLine
 10
244.1305
 20
677.7428999999999
 30
0.0
 11
244.4414999999999
 21
678.2428999999999
 31
0.0
  0
LINE
  5
407
330
1E
100
AcDbEntity
  8
0
100
AcDbLine
 10
244.1305
 20
677.7428999999999
 30
0.0
 11
244.1305
 21
676.7428999999999
 31
0.0
  0
LINE
  5
408
330
1E
100
AcDbEntity
  8
0
100
AcDbLine
 10
244.1305
 20
676.7428999999999
 30
0.0
 11
244.4414999999999
 21
676.2429
 31
0.0
  0
LINE
  5
409
330
1E
100
AcDbEntity
  8
0
100
AcDbLine
 10
244.1305
 20
676.7428999999999
 30
0.0
 11
244.1305
 21
677.7428999999999
 31
0.0
  0
LINE
  5
40A
330
1E
100
AcDbEntity
  8
0
100
AcDbLine
 10
244.1305
 20
669.9429
 30
0.0
 11
244.4414999999999
 21
669.4429
 31
0.0
  0
LINE
  5
40B
330
1E
100
AcDbEntity
  8
0
100
AcDbLine
 10
244.1305
 20
669.9429
 30
0.0
 11
244.1305
 21
670.9429
 31
0.0
  0
LINE
  5
40C
330
1E
100
AcDbEntity
  8
0
100
AcDbLine
 10
244.1305
 20
670.9429
 30
0.0
 11
244.4414999999999
 21
671.4428999999999
 31
0.0
  0
LINE
  5
40D
330
1E
100
AcDbEntity
  8
0
100
AcDbLine
 10
244.1305
 20
670.9429
 30
0.0
 11
244.1305
 21
669.9429
 31
0.0
  0
LINE
  5
40E
330
1E
100
AcDbEntity
  8
0
100
AcDbLine
 10
244.1305
 20
664.1429
 30
0.0
 11
244.4414999999999
 21
664.6429
 31
0.0
  0
LINE
  5
40F
330
1E
100
AcDbEntity
  8
0
100
AcDbLine
 10
244.1305
 20
664.1429
 30
0.0
 11
244.1305
 21
663.1429
 31
0.0
  0
LINE
  5
410
330
1E
100
AcDbEntity
  8
0
100
AcDbLine
 10
244.1305
 20
657.3428999999999
 30
0.0
 11
244.4414999999999
 21
657.8428999999999
 31
0.0
  0
LINE
  5
411
330
1E
100
AcDbEntity
  8
0
100
AcDbLine
 10
244.1305
 20
657.3428999999999
 30
0.0
 11
244.1305
 21
656.3429
 31
0.0
  0
LINE
  5
412
330
1E
100
AcDbEntity
  8
0
100
AcDbLine
 10
244.1305
 20
656.3429
 30
0.0
 11
244.4414999999999
 21
655.8429
 31
0.0
  0
LINE
  5
413
330
1E
100
AcDbEntity
  8
0
100
AcDbLine
 10
244.1305
 20
656.3429
 30
0.0
 11
244.1305
 21
657.3428999999999
 31
0.0
  0
LINE
  5
414
330
1E
100
AcDbEntity
  8
0
100
AcDbLine
 10
243.9865
 20
727.8429
 30
0.0
 11
245.6865
 21
727.8429
 31
0.0
  0
LINE
  5
415
330
1E
100
AcDbEntity
  8
0
100
AcDbLine
 10
243.9865
 20
572.8429
 30
0.0
 11
245.6865
 21
572.8429
 31
0.0
  0
LINE
  5
416
330
1E
100
AcDbEntity
  8
0
100
AcDbLine
 10
243.2865
 20
572.8429
 30
0.0
 11
244.8865
 21
572.8429
 31
0.0
  0
LINE
  5
417
330
1E
100
AcDbEntity
  8
0
100
AcDbLine
 10
242.7065
 20
532.7088999999999
 30
0.0
 11
244.6575
 21
532.7088999999999
 31
0.0
  0
LINE
  5
418
330
1E
100
AcDbEntity
  8
0
100
AcDbLine
 10
242.1864999999999
 20
572.7097938793479
 30
0.0
 11
246.2464999999999
 21
572.7088999999999
 31
0.0
  0
LINE
  5
419
330
1E
100
AcDbEntity
  8
0
100
AcDbLine
 10
242.8145
 20
442.4709
 30
0.0
 11
244.1415
 21
410.9918999999999
 31
0.0
  0
LINE
  5
41A
330
1E
100
AcDbEntity
  8
0
100
AcDbLine
 10
242.8145
 20
442.4709
 30
0.0
 11
244.254351641929
 21
532.7088999999999
 31
0.0
  0
LINE
  5
41B
330
1E
100
AcDbEntity
  8
0
100
AcDbLine
 10
244.254351641929
 20
532.7088999999999
 30
0.0
 11
244.6575
 21
532.7088999999999
 31
0.0
  0
LINE
  5
41C
330
1E
100
AcDbEntity
  8
0
100
AcDbLine
 10
244.6575
 20
532.7088999999999
 30
0.0
 11
245.3425
 21
532.7088999999999
 31
0.0
  0
LINE
  5
41D
330
1E
100
AcDbEntity
  8
0
100
AcDbLine
 10
245.3425
 20
532.7088999999999
 30
0.0
 11
250.3464999999999
 21
572.7088999999999
 31
0.0
  0
LINE
  5
41E
330
1E
100
AcDbEntity
  8
0
100
AcDbLine
 10
249.2814999999999
 20
572.7088999999999
 30
0.0
 11
250.3464999999999
 21
572.7088999999999
 31
0.0
  0
LINE
  5
41F
330
1E
100
AcDbEntity
  8
0
100
AcDbLine
 10
245.6865
 20
572.8429
 30
0.0
 11
246.7864999999999
 21
572.8429
 31
0.0
  0
LINE
  5
420
330
1E
100
AcDbEntity
  8
0
100
AcDbLine
 10
244.8865
 20
572.8429
 30
0.0
 11
245.7864999999999
 21
572.8429
 31
0.0
  0
LINE
  5
421
330
1E
100
AcDbEntity
  8
0
100
AcDbLine
 10
245.7864999999999
 20
572.8429
 30
0.0
 11
246.1864999999999
 21
572.8429
 31
0.0
  0
LINE
  5
422
330
1E
100
AcDbEntity
  8
0
100
AcDbLine
 10
244.4414999999999
 20
712.2428999999999
 30
0.0
 11
245.0635
 21
712.2428999999999
 31
0.0
  0
LINE
  5
423
330
1E
100
AcDbEntity
  8
0
100
AcDbLine
 10
244.4414999999999
 20
723.8429
 30
0.0
 11
245.0635
 21
723.8429
 31
0.0
  0
LINE
  5
424
330
1E
100
AcDbEntity
  8
0
100
AcDbLine
 10
244.4414999999999
 20
725.8428999999999
 30
0.0
 11
245.0635
 21
725.8428999999999
 31
0.0
  0
LINE
  5
425
330
1E
100
AcDbEntity
  8
0
100
AcDbLine
 10
244.4414999999999
 20
719.0429
 30
0.0
 11
245.0635
 21
719.0429
 31
0.0
  0
LINE
  5
426
330
1E
100
AcDbEntity
  8
0
100
AcDbLine
 10
244.4414999999999
 20
717.0429
 30
0.0
 11
245.0635
 21
717.0429
 31
0.0
  0
LINE
  5
427
330
1E
100
AcDbEntity
  8
0
100
AcDbLine
 10
244.4414999999999
 20
710.2428999999999
 30
0.0
 11
245.0635
 21
710.2428999999999
 31
0.0
  0
LINE
  5
428
330
1E
100
AcDbEntity
  8
0
100
AcDbLine
 10
244.4414999999999
 20
703.4429
 30
0.0
 11
245.0635
 21
703.4429
 31
0.0
  0
LINE
  5
429
330
1E
100
AcDbEntity
  8
0
100
AcDbLine
 10
244.4414999999999
 20
705.4428999999999
 30
0.0
 11
245.0635
 21
705.4428999999999
 31
0.0
  0
LINE
  5
42A
330
1E
100
AcDbEntity
  8
0
100
AcDbLine
 10
244.4414999999999
 20
698.6429000000001
 30
0.0
 11
245.0635
 21
698.6429000000001
 31
0.0
  0
LINE
  5
42B
330
1E
100
AcDbEntity
  8
0
100
AcDbLine
 10
244.4414999999999
 20
696.6429
 30
0.0
 11
245.0635
 21
696.6429
 31
0.0
  0
LINE
  5
42C
330
1E
100
AcDbEntity
  8
0
100
AcDbLine
 10
244.4414999999999
 20
691.8428999999999
 30
0.0
 11
245.0635
 21
691.8428999999999
 31
0.0
  0
LINE
  5
42D
330
1E
100
AcDbEntity
  8
0
100
AcDbLine
 10
244.4414999999999
 20
689.8429
 30
0.0
 11
245.0635
 21
689.8429
 31
0.0
  0
LINE
  5
42E
330
1E
100
AcDbEntity
  8
0
100
AcDbLine
 10
244.4414999999999
 20
683.0429
 30
0.0
 11
245.0635
 21
683.0429
 31
0.0
  0
LINE
  5
42F
330
1E
100
AcDbEntity
  8
0
100
AcDbLine
 10
244.4414999999999
 20
685.0429
 30
0.0
 11
245.0635
 21
685.0429
 31
0.0
  0
LINE
  5
430
330
1E
100
AcDbEntity
  8
0
100
AcDbLine
 10
244.4414999999999
 20
678.2428999999999
 30
0.0
 11
245.0635
 21
678.2428999999999
 31
0.0
  0
LINE
  5
431
330
1E
100
AcDbEntity
  8
0
100
AcDbLine
 10
244.4414999999999
 20
676.2429
 30
0.0
 11
245.0635
 21
676.2429
 31
0.0
  0
LINE
  5
432
330
1E
100
AcDbEntity
  8
0
100
AcDbLine
 10
244.4414999999999
 20
669.4429
 30
0.0
 11
245.0635
 21
669.4429
 31
0.0
  0
LINE
  5
433
330
1E
100
AcDbEntity
  8
0
100
AcDbLine
 10
244.4414999999999
 20
671.4428999999999
 30
0.0
 11
245.0635
 21
671.4428999999999
 31
0.0
  0
LINE
  5
434
330
1E
100
AcDbEntity
  8
0
100
AcDbLine
 10
244.4414999999999
 20
662.6429
 30
0.0
 11
245.0635
 21
662.6429
 31
0.0
  0
LINE
  5
435
330
1E
100
AcDbEntity
  8
0
100
AcDbLine
 10
244.4414999999999
 20
664.6429
 30
0.0
 11
245.0635
 21
664.6429
 31
0.0
  0
LINE
  5
436
330
1E
100
AcDbEntity
  8
0
100
AcDbLine
 10
244.4414999999999
 20
657.8428999999999
 30
0.0
 11
245.0635
 21
657.8428999999999
 31
0.0
  0
LINE
  5
437
330
1E
100
AcDbEntity
  8
0
100
AcDbLine
 10
244.6864999999999
 20
723.8429
 30
0.0
 11
245.0635
 21
723.8429
 31
0.0
  0
LINE
  5
438
330
1E
100
AcDbEntity
  8
0
100
AcDbLine
 10
244.6864999999999
 20
717.0429
 30
0.0
 11
245.0635
 21
717.0429
 31
0.0
  0
LINE
  5
439
330
1E
100
AcDbEntity
  8
0
100
AcDbLine
 10
244.6864999999999
 20
710.2428999999999
 30
0.0
 11
245.0635
 21
710.2428999999999
 31
0.0
  0
LINE
  5
43A
330
1E
100
AcDbEntity
  8
0
100
AcDbLine
 10
244.6864999999999
 20
703.4429
 30
0.0
 11
245.0635
 21
703.4429
 31
0.0
  0
LINE
  5
43B
330
1E
100
AcDbEntity
  8
0
100
AcDbLine
 10
244.6864999999999
 20
696.6429
 30
0.0
 11
245.0635
 21
696.6429
 31
0.0
  0
LINE
  5
43C
330
1E
100
AcDbEntity
  8
0
100
AcDbLine
 10
244.6864999999999
 20
689.8429
 30
0.0
 11
245.0635
 21
689.8429
 31
0.0
  0
LINE
  5
43D
330
1E
100
AcDbEntity
  8
0
100
AcDbLine
 10
244.6864999999999
 20
683.0429
 30
0.0
 11
245.0635
 21
683.0429
 31
0.0
  0
LINE
  5
43E
330
1E
100
AcDbEntity
  8
0
100
AcDbLine
 10
244.6864999999999
 20
676.2429
 30
0.0
 11
245.0635
 21
676.2429
 31
0.0
  0
LINE
  5
43F
330
1E
100
AcDbEntity
  8
0
100
AcDbLine
 10
244.6864999999999
 20
669.4429
 30
0.0
 11
245.0635
 21
669.4429
 31
0.0
  0
LINE
  5
440
330
1E
100
AcDbEntity
  8
0
100
AcDbLine
 10
244.6864999999999
 20
662.6429
 30
0.0
 11
245.0635
 21
662.6429
 31
0.0
  0
LINE
  5
441
330
1E
100
AcDbEntity
  8
0
100
AcDbLine
 10
244.6864999999999
 20
655.8429
 30
0.0
 11
245.0635
 21
655.8429
 31
0.0
  0
LINE
  5
442
330
1E
100
AcDbEntity
  8
0
100
AcDbLine
 10
244.4414999999999
 20
655.8429
 30
0.0
 11
245.0635
 21
655.8429
 31
0.0
  0
LINE
  5
443
330
1E
100
AcDbEntity
  8
0
100
AcDbLine
 10
244.2864999999999
 20
747.8429
 30
0.0
 11
246.1864999999999
 21
747.8429
 31
0.0
  0
LINE
  5
444
330
1E
100
AcDbEntity
  8
0
100
AcDbLine
 10
244.6864999999999
 20
747.3429
 30
0.0
 11
246.5864999999999
 21
747.3429
 31
0.0
  0
LINE
  5
445
330
1E
100
AcDbEntity
  8
0
100
AcDbLine
 10
244.6864999999999
 20
728.3428999999999
 30
0.0
 11
246.5864999999999
 21
728.3428999999999
 31
0.0
  0
LINE
  5
446
330
1E
100
AcDbEntity
  8
0
100
AcDbLine
 10
244.6864999999999
 20
727.3429
 30
0.0
 11
246.5864999999999
 21
727.3429
 31
0.0
  0
LINE
  5
447
330
1E
100
AcDbEntity
  8
0
100
AcDbLine
 10
245.0635
 20
712.2428999999999
 30
0.0
 11
245.3745
 21
711.7428999999999
 31
0.0
  0
LINE
  5
448
330
1E
100
AcDbEntity
  8
0
100
AcDbLine
 10
245.0635
 20
723.8429
 30
0.0
 11
245.3745
 21
724.3428999999999
 31
0.0
  0
LINE
  5
449
330
1E
100
AcDbEntity
  8
0
100
AcDbLine
 10
245.0635
 20
725.8428999999999
 30
0.0
 11
245.3745
 21
725.3428999999999
 31
0.0
  0
LINE
  5
44A
330
1E
100
AcDbEntity
  8
0
100
AcDbLine
 10
245.0635
 20
719.0429
 30
0.0
 11
245.3745
 21
718.5429
 31
0.0
  0
LINE
  5
44B
330
1E
100
AcDbEntity
  8
0
100
AcDbLine
 10
245.0635
 20
717.0429
 30
0.0
 11
245.3745
 21
717.5429
 31
0.0
  0
LINE
  5
44C
330
1E
100
AcDbEntity
  8
0
100
AcDbLine
 10
245.0635
 20
710.2428999999999
 30
0.0
 11
245.3745
 21
710.7428999999999
 31
0.0
  0
LINE
  5
44D
330
1E
100
AcDbEntity
  8
0
100
AcDbLine
 10
245.0635
 20
703.4429
 30
0.0
 11
245.3745
 21
703.9429
 31
0.0
  0
LINE
  5
44E
330
1E
100
AcDbEntity
  8
0
100
AcDbLine
 10
245.0635
 20
705.4428999999999
 30
0.0
 11
245.3745
 21
704.9428999999999
 31
0.0
  0
LINE
  5
44F
330
1E
100
AcDbEntity
  8
0
100
AcDbLine
 10
245.0635
 20
698.6429000000001
 30
0.0
 11
245.3745
 21
698.1429
 31
0.0
  0
LINE
  5
450
330
1E
100
AcDbEntity
  8
0
100
AcDbLine
 10
245.0635
 20
696.6429
 30
0.0
 11
245.3745
 21
697.1429
 31
0.0
  0
LINE
  5
451
330
1E
100
AcDbEntity
  8
0
100
AcDbLine
 10
245.0635
 20
691.8428999999999
 30
0.0
 11
245.3745
 21
691.3428999999999
 31
0.0
  0
LINE
  5
452
330
1E
100
AcDbEntity
  8
0
100
AcDbLine
 10
245.0635
 20
689.8429
 30
0.0
 11
245.3745
 21
690.3429
 31
0.0
  0
LINE
  5
453
330
1E
100
AcDbEntity
  8
0
100
AcDbLine
 10
245.0635
 20
683.0429
 30
0.0
 11
245.3745
 21
683.5429
 31
0.0
  0
LINE
  5
454
330
1E
100
AcDbEntity
  8
0
100
AcDbLine
 10
245.0635
 20
685.0429
 30
0.0
 11
245.3745
 21
684.5429
 31
0.0
  0
LINE
  5
455
330
1E
100
AcDbEntity
  8
0
100
AcDbLine
 10
245.0635
 20
678.2428999999999
 30
0.0
 11
245.3745
 21
677.7428999999999
 31
0.0
  0
LINE
  5
456
330
1E
100
AcDbEntity
  8
0
100
AcDbLine
 10
245.0635
 20
676.2429
 30
0.0
 11
245.3745
 21
676.7428999999999
 31
0.0
  0
LINE
  5
457
330
1E
100
AcDbEntity
  8
0
100
AcDbLine
 10
245.0635
 20
669.4429
 30
0.0
 11
245.3745
 21
669.9429
 31
0.0
  0
LINE
  5
458
330
1E
100
AcDbEntity
  8
0
100
AcDbLine
 10
245.0635
 20
671.4428999999999
 30
0.0
 11
245.3745
 21
670.9429
 31
0.0
  0
LINE
  5
459
330
1E
100
AcDbEntity
  8
0
100
AcDbLine
 10
245.0635
 20
662.6429
 30
0.0
 11
245.3745
 21
663.1429
 31
0.0
  0
LINE
  5
45A
330
1E
100
AcDbEntity
  8
0
100
AcDbLine
 10
245.0635
 20
664.6429
 30
0.0
 11
245.3745
 21
664.1429
 31
0.0
  0
LINE
  5
45B
330
1E
100
AcDbEntity
  8
0
100
AcDbLine
 10
245.0635
 20
657.8428999999999
 30
0.0
 11
245.3745
 21
657.3428999999999
 31
0.0
  0
LINE
  5
45C
330
1E
100
AcDbEntity
  8
0
100
AcDbLine
 10
245.3745
 20
663.1429
 30
0.0
 11
245.3745
 21
664.1429
 31
0.0
  0
LINE
  5
45D
330
1E
100
AcDbEntity
  8
0
100
AcDbLine
 10
245.3745
 20
710.7428999999999
 30
0.0
 11
245.3745
 21
711.7428999999999
 31
0.0
  0
LINE
  5
45E
330
1E
100
AcDbEntity
  8
0
100
AcDbLine
 10
245.3745
 20
711.7428999999999
 30
0.0
 11
245.3745
 21
710.7428999999999
 31
0.0
  0
LINE
  5
45F
330
1E
100
AcDbEntity
  8
0
100
AcDbLine
 10
245.3745
 20
725.3428999999999
 30
0.0
 11
245.3745
 21
724.3428999999999
 31
0.0
  0
LINE
  5
460
330
1E
100
AcDbEntity
  8
0
100
AcDbLine
 10
245.3745
 20
724.3428999999999
 30
0.0
 11
245.3745
 21
725.3428999999999
 31
0.0
  0
LINE
  5
461
330
1E
100
AcDbEntity
  8
0
100
AcDbLine
 10
245.3745
 20
718.5429
 30
0.0
 11
245.3745
 21
717.5429
 31
0.0
  0
LINE
  5
462
330
1E
100
AcDbEntity
  8
0
100
AcDbLine
 10
245.3745
 20
717.5429
 30
0.0
 11
245.3745
 21
718.5429
 31
0.0
  0
LINE
  5
463
330
1E
100
AcDbEntity
  8
0
100
AcDbLine
 10
245.3745
 20
703.9429
 30
0.0
 11
245.3745
 21
704.9428999999999
 31
0.0
  0
LINE
  5
464
330
1E
100
AcDbEntity
  8
0
100
AcDbLine
 10
245.3745
 20
704.9428999999999
 30
0.0
 11
245.3745
 21
703.9429
 31
0.0
  0
LINE
  5
465
330
1E
100
AcDbEntity
  8
0
100
AcDbLine
 10
245.3745
 20
698.1429
 30
0.0
 11
245.3745
 21
697.1429
 31
0.0
  0
LINE
  5
466
330
1E
100
AcDbEntity
  8
0
100
AcDbLine
 10
245.3745
 20
697.1429
 30
0.0
 11
245.3745
 21
698.1429
 31
0.0
  0
LINE
  5
467
330
1E
100
AcDbEntity
  8
0
100
AcDbLine
 10
245.3745
 20
691.3428999999999
 30
0.0
 11
245.3745
 21
690.3429
 31
0.0
  0
LINE
  5
468
330
1E
100
AcDbEntity
  8
0
100
AcDbLine
 10
245.3745
 20
690.3429
 30
0.0
 11
245.3745
 21
691.3428999999999
 31
0.0
  0
LINE
  5
469
330
1E
100
AcDbEntity
  8
0
100
AcDbLine
 10
245.3745
 20
683.5429
 30
0.0
 11
245.3745
 21
684.5429
 31
0.0
  0
LINE
  5
46A
330
1E
100
AcDbEntity
  8
0
100
AcDbLine
 10
245.3745
 20
684.5429
 30
0.0
 11
245.3745
 21
683.5429
 31
0.0
  0
LINE
  5
46B
330
1E
100
AcDbEntity
  8
0
100
AcDbLine
 10
245.3745
 20
677.7428999999999
 30
0.0
 11
245.3745
 21
676.7428999999999
 31
0.0
  0
LINE
  5
46C
330
1E
100
AcDbEntity
  8
0
100
AcDbLine
 10
245.3745
 20
676.7428999999999
 30
0.0
 11
245.3745
 21
677.7428999999999
 31
0.0
  0
LINE
  5
46D
330
1E
100
AcDbEntity
  8
0
100
AcDbLine
 10
245.3745
 20
669.9429
 30
0.0
 11
245.3745
 21
670.9429
 31
0.0
  0
LINE
  5
46E
330
1E
100
AcDbEntity
  8
0
100
AcDbLine
 10
245.3745
 20
670.9429
 30
0.0
 11
245.3745
 21
669.9429
 31
0.0
  0
LINE
  5
46F
330
1E
100
AcDbEntity
  8
0
100
AcDbLine
 10
245.3745
 20
664.1429
 30
0.0
 11
245.3745
 21
663.1429
 31
0.0
  0
LINE
  5
470
330
1E
100
AcDbEntity
  8
0
100
AcDbLine
 10
245.3745
 20
657.3428999999999
 30
0.0
 11
245.3745
 21
656.3429
 31
0.0
  0
LINE
  5
471
330
1E
100
AcDbEntity
  8
0
100
AcDbLine
 10
245.3745
 20
656.3429
 30
0.0
 11
245.3745
 21
657.3428999999999
 31
0.0
  0
LINE
  5
472
330
1E
100
AcDbEntity
  8
0
100
AcDbLine
 10
245.0635
 20
655.8429
 30
0.0
 11
245.3745
 21
656.3429
 31
0.0
  0
LINE
  5
473
330
1E
100
AcDbEntity
  8
0
100
AcDbLine
 10
246.1864999999999
 20
747.8429
 30
0.0
 11
247.2865
 21
747.8429
 31
0.0
  0
LINE
  5
474
330
1E
100
AcDbEntity
  8
0
100
AcDbLine
 10
245.6865
 20
727.8429
 30
0.0
 11
246.7864999999999
 21
727.8429
 31
0.0
  0
LINE
  5
475
330
1E
100
AcDbEntity
  8
0
100
AcDbLine
 10
244.6864999999999
 20
573.8429
 30
0.0
 11
246.5864999999999
 21
573.8429
 31
0.0
  0
LINE
  5
476
330
1E
100
AcDbEntity
  8
0
100
AcDbLine
 10
246.1864999999999
 20
572.8429
 30
0.0
 11
246.1864999999999
 21
572.70891321004
 31
0.0
  0
LINE
  5
477
330
1E
100
AcDbEntity
  8
0
100
AcDbLine
 10
246.1864999999999
 20
572.8429
 30
0.0
 11
246.7864999999999
 21
572.8429
 31
0.0
  0
LINE
  5
478
330
1E
100
AcDbEntity
  8
0
100
AcDbLine
 10
247.1865
 20
572.8429
 30
0.0
 11
248.1864999999999
 21
573.8429
 31
0.0
  0
LINE
  5
479
330
1E
100
AcDbEntity
  8
0
100
AcDbLine
 10
246.5864999999999
 20
747.3429
 30
0.0
 11
247.7864999999999
 21
747.3429
 31
0.0
  0
LINE
  5
47A
330
1E
100
AcDbEntity
  8
0
100
AcDbLine
 10
246.5864999999999
 20
728.3428999999999
 30
0.0
 11
247.7864999999999
 21
728.3428999999999
 31
0.0
  0
LINE
  5
47B
330
1E
100
AcDbEntity
  8
0
100
AcDbLine
 10
246.7864999999999
 20
727.8429
 30
0.0
 11
247.1865
 21
727.8429
 31
0.0
  0
LINE
  5
47C
330
1E
100
AcDbEntity
  8
0
100
AcDbLine
 10
247.2865
 20
747.8429
 30
0.0
 11
247.6865
 21
747.8429
 31
0.0
  0
LINE
  5
47D
330
1E
100
AcDbEntity
  8
0
100
AcDbLine
 10
247.6865
 20
747.8429
 30
0.0
 11
248.1864999999999
 21
747.3429
 31
0.0
  0
LINE
  5
47E
330
1E
100
AcDbEntity
  8
0
100
AcDbLine
 10
247.7864999999999
 20
747.3429
 30
0.0
 11
248.1864999999999
 21
747.3429
 31
0.0
  0
LINE
  5
47F
330
1E
100
AcDbEntity
  8
0
100
AcDbLine
 10
247.7864999999999
 20
728.3428999999999
 30
0.0
 11
248.1864999999999
 21
728.3428999999999
 31
0.0
  0
LINE
  5
480
330
1E
100
AcDbEntity
  8
0
100
AcDbLine
 10
247.1865
 20
727.8429
 30
0.0
 11
248.1864999999999
 21
727.3429
 31
0.0
  0
LINE
  5
481
330
1E
100
AcDbEntity
  8
0
100
AcDbLine
 10
247.1865
 20
727.8429
 30
0.0
 11
248.1864999999999
 21
728.3428999999999
 31
0.0
  0
LINE
  5
482
330
1E
100
AcDbEntity
  8
0
100
AcDbLine
 10
246.5864999999999
 20
727.3429
 30
0.0
 11
247.7864999999999
 21
727.3429
 31
0.0
  0
LINE
  5
483
330
1E
100
AcDbEntity
  8
0
100
AcDbLine
 10
247.7864999999999
 20
727.3429
 30
0.0
 11
248.1864999999999
 21
727.3429
 31
0.0
  0
LINE
  5
484
330
1E
100
AcDbEntity
  8
0
100
AcDbLine
 10
246.5864999999999
 20
573.8429
 30
0.0
 11
247.7864999999999
 21
573.8429
 31
0.0
  0
LINE
  5
485
330
1E
100
AcDbEntity
  8
0
100
AcDbLine
 10
248.1864999999999
 20
573.8429
 30
0.0
 11
248.1864999999999
 21
727.3429
 31
0.0
  0
LINE
  5
486
330
1E
100
AcDbEntity
  8
0
100
AcDbLine
 10
248.1864999999999
 20
728.3428999999999
 30
0.0
 11
248.1864999999999
 21
747.3429
 31
0.0
  0
LINE
  5
487
330
1E
100
AcDbEntity
  8
0
100
AcDbLine
 10
248.1864999999999
 20
747.3429
 30
0.0
 11
248.1864999999999
 21
728.3428999999999
 31
0.0
  0
LINE
  5
488
330
1E
100
AcDbEntity
  8
0
100
AcDbLine
 10
248.1864999999999
 20
727.3429
 30
0.0
 11
248.1864999999999
 21
573.8429
 31
0.0
  0
LINE
  5
489
330
1E
100
AcDbEntity
  8
0
100
AcDbLine
 10
247.7864999999999
 20
573.8429
 30
0.0
 11
248.1864999999999
 21
573.8429
 31
0.0
  0
LINE
  5
48A
330
1E
100
AcDbEntity
  8
0
100
AcDbLine
 10
246.7864999999999
 20
572.8429
 30
0.0
 11
247.1865
 21
572.8429
 31
0.0
  0
LINE
  5
48B
330
1E
100
AcDbEntity
  8
0
100
AcDbLine
 10
246.1864999999999
 20
572.70891321004
 30
0.0
 11
246.2464999999999
 21
572.7088999999999
 31
0.0
  0
LINE
  5
48C
330
1E
100
AcDbEntity
  8
0
100
AcDbLine
 10
246.1864999999999
 20
572.70891321004
 30
0.0
 11
246.1864999999999
 21
572.8429
 31
0.0
  0
LINE
  5
48D
330
1E
100
AcDbEntity
  8
0
100
AcDbLine
 10
246.2464999999999
 20
572.7088999999999
 30
0.0
 11
249.2814999999999
 21
572.7088999999999
 31
0.0
  0
LINE
  5
48E
330
1E
100
AcDbEntity
  8
0
100
AcDbLine
 10
244.1415
 20
410.9918999999999
 30
0.0
 11
246.6955
 21
389.3739
 31
0.0
  0
LINE
  5
48F
330
1E
100
AcDbEntity
  8
0
100
AcDbLine
 10
246.6955
 20
389.3739
 30
0.0
 11
250.8904999999999
 21
365.2658999999999
 31
0.0
  0
LINE
  5
490
330
1E
100
AcDbEntity
  8
0
100
AcDbLine
 10
250.8904999999999
 20
365.2658999999999
 30
0.0
 11
256.6615
 21
340.9589
 31
0.0
  0
LINE
  5
491
330
1E
100
AcDbEntity
  8
0
100
AcDbLine
 10
242.8335
 20
332.9898999999999
 30
0.0
 11
250.7874999999999
 21
309.5788999999999
 31
0.0
  0
LINE
  5
492
330
1E
100
AcDbEntity
  8
0
100
AcDbLine
 10
256.6615
 20
340.9589
 30
0.0
 11
264.1315
 21
318.2459
 31
0.0
  0
LINE
  5
493
330
1E
100
AcDbEntity
  8
0
100
AcDbLine
 10
250.7874999999999
 20
309.5788999999999
 30
0.0
 11
259.7735
 21
289.3559
 31
0.0
  0
LINE
  5
494
330
1E
100
AcDbEntity
  8
0
100
AcDbLine
 10
264.1315
 20
318.2459
 30
0.0
 11
272.7335
 21
298.7209
 31
0.0
  0
LINE
  5
4A0
330
1E
100
AcDbEntity
  8
0
100
AcDbLine
 10
272.7335
 20
298.7209
 30
0.0
 11
284.5625
 21
277.2028999999999
 31
0.0
  0
LINE
  5
4A1
330
1E
100
AcDbEntity
  8
0
100
AcDbLine
 10
269.4884999999999
 20
63.1169
 30
0.0
 11
279.9195
 21
81.94490000000008
 31
0.0
  0
LINE
  5
4A4
330
1E
100
AcDbEntity
  8
0
100
AcDbLine
 10
282.2735
 20
247.1138999999999
 30
0.0
 11
291.4445
 21
225.9949
 31
0.0
  0
LINE
  5
4A6
330
1E
100
AcDbEntity
  8
0
100
AcDbLine
 10
284.5625
 20
277.2028999999999
 30
0.0
 11
296.1014999999999
 21
255.0828999999999
 31
0.0
  0
LINE
  5
4AB
330
1E
100
AcDbEntity
  8
0
100
AcDbLine
 10
291.4445
 20
225.9949
 30
0.0
 11
296.7685
 21
204.9748999999999
 31
0.0
  0
LINE
  5
4AC
330
1E
100
AcDbEntity
  8
0
100
AcDbLine
 10
292.399330846853
 20
112.6701104340469
 30
0.0
 11
295.6154999999999
 21
124.0839
 31
0.0
  0
LINE
  5
4AD
330
1E
100
AcDbEntity
  8
0
100
AcDbLine
 10
296.7685
 20
204.9748999999999
 30
0.0
 11
300.1155
 21
183.6559
 31
0.0
  0
LINE
  5
4AE
330
1E
100
AcDbEntity
  8
0
100
AcDbLine
 10
296.1014999999999
 20
255.0828999999999
 30
0.0
 11
306.3215
 21
231.4738999999999
 31
0.0
  0
LINE
  5
4AF
330
1E
100
AcDbEntity
  8
0
100
AcDbLine
 10
300.1155
 20
183.6559
 30
0.0
 11
301.0264999999999
 21
164.5289
 31
0.0
  0
LINE
  5
4B0
330
1E
100
AcDbEntity
  8
0
100
AcDbLine
 10
315.9135
 20
184.4528999999999
 30
0.0
 11
316.8134999999999
 21
164.5289
 31
0.0
  0
LINE
  5
4B1
330
1E
100
AcDbEntity
  8
0
100
AcDbLine
 10
312.3974999999999
 20
207.7639
 30
0.0
 11
315.9135
 21
184.4528999999999
 31
0.0
  0
LINE
  5
4B2
330
1E
100
AcDbEntity
  8
0
100
AcDbLine
 10
306.3215
 20
231.4738999999999
 30
0.0
 11
312.3974999999999
 21
207.7639
 31
0.0
  0
LINE
  5
4B3
330
1E
100
AcDbEntity
  8
0
100
AcDbLine
 10
299.5705
 20
145.4019
 30
0.0
 11
301.0264999999999
 21
164.5289
 31
0.0
  0
LINE
  5
4B4
330
1E
100
AcDbEntity
  8
0
100
AcDbLine
 10
315.3455
 20
144.6048999999999
 30
0.0
 11
316.8134999999999
 21
164.5289
 31
0.0
  0
LINE
  5
4B5
330
1E
100
AcDbEntity
  8
0
100
AcDbLine
 10
295.6154999999999
 20
124.0839
 30
0.0
 11
299.5705
 21
145.4019
 31
0.0
  0
LINE
  5
4B6
330
1E
100
AcDbEntity
  8
0
100
AcDbLine
 10
311.1655
 20
121.2938999999999
 30
0.0
 11
315.3455
 21
144.6048999999999
 31
0.0
  0
LINE
  5
4B7
330
1E
100
AcDbEntity
  8
0
100
AcDbLine
 10
292.399330846853
 20
112.6701104340469
 30
0.0
 11
295.6154999999999
 21
124.0839
 31
0.0
  0
LINE
  5
4B8
330
1E
100
AcDbEntity
  8
0
100
AcDbLine
 10
304.4144999999999
 20
97.58490000000001
 30
0.0
 11
311.1655
 21
121.2938999999999
 31
0.0
  0
LINE
  5
4B9
330
1E
100
AcDbEntity
  8
0
100
AcDbLine
 10
293.5205
 20
73.97490000000009
 30
0.0
 11
304.4144999999999
 21
97.58490000000001
 31
0.0
  0
LINE
  5
4BA
330
1E
100
AcDbEntity
  8
0
100
AcDbLine
 10
281.3795
 20
52.8559
 30
0.0
 11
293.5205
 21
73.97490000000009
 31
0.0
  0
LINE
  5
4BC
330
1E
100
AcDbEntity
  8
0
100
AcDbLine
 10
255.4625
 20
48.1739000000001
 30
0.0
 11
269.4884999999999
 21
63.1169
 31
0.0
  0
LINE
  5
4BD
330
1E
100
AcDbEntity
  8
0
100
AcDbLine
 10
237.6794999999999
 20
32.6329000000001
 30
0.0
 11
255.4625
 21
48.1739000000001
 31
0.0
  0
LINE
  5
4BE
330
1E
100
AcDbEntity
  8
0
100
AcDbLine
 10
220.2865
 20
23.7669000000001
 30
0.0
 11
237.6794999999999
 21
32.6329000000001
 31
0.0
  0
LINE
  5
4BF
330
1E
100
AcDbEntity
  8
0
100
AcDbLine
 10
200.4675
 20
17.6901000000001
 30
0.0
 11
220.2865
 21
23.7669000000001
 31
0.0
  0
LINE
  5
4C0
330
1E
100
AcDbEntity
  8
0
100
AcDbLine
 10
186.4335
 20
16.0962000000001
 30
0.0
 11
200.4675
 21
17.6901000000001
 31
0.0
  0
LINE
  5
4C1
330
1E
100
AcDbEntity
  8
0
100
AcDbLine
 10
186.2065
 20
0.15710000000007
 30
0.0
 11
203.0054999999999
 21
1.95020000000006
 31
0.0
  0
LINE
  5
4C6
330
1E
100
AcDbEntity
  8
0
100
AcDbLine
 10
272.3794999999999
 20
265.9418999999999
 30
0.0
 11
259.7735
 21
289.3559
 31
0.0
  0
LINE
  5
4C7
330
1E
100
AcDbEntity
  8
0
100
AcDbLine
 10
292.399330846853
 20
112.6701104340469
 30
0.0
 11
279.9195
 21
81.94490000000008
 31
0.0
  0
LINE
  5
4C8
330
1E
100
AcDbEntity
  8
0
100
AcDbLine
 10
144.3454999999999
 20
395.4019
 30
0.0
 11
150.7965
 21
419.7798999999999
 31
0.0
  0
ENDSEC
  0
SECTION
  2
OBJECTS
  0
DICTIONARY
  5
C
330
0
100
AcDbDictionary
281
     1
  3
ACAD_GROUP
350
D
  3
ACAD_LAYOUT
350
19
  3
ACAD_MLINESTYLE
350
16
  3
ACAD_PLOTSETTINGS
350
18
  3
ACAD_PLOTSTYLENAME
350
E
  3
AcDbVariableDictionary
350
4C9
  0
DICTIONARY
  5
D
102
{ACAD_REACTORS
330
C
102
}
330
C
100
AcDbDictionary
281
     1
  0
DICTIONARY
  5
19
102
{ACAD_REACTORS
330
C
102
}
330
C
100
AcDbDictionary
281
     1
  3
Layout1
350
1D
  3
Model
350
21
  0
DICTIONARY
  5
16
102
{ACAD_REACTORS
330
C
102
}
330
C
100
AcDbDictionary
281
     1
  3
Standard
350
17
  0
DICTIONARY
  5
18
102
{ACAD_REACTORS
330
C
102
}
330
C
100
AcDbDictionary
281
     1
  0
ACDBDICTIONARYWDFLT
  5
E
102
{ACAD_REACTORS
330
C
102
}
330
C
100
AcDbDictionary
281
     1
  3
Normal
350
F
100
AcDbDictionaryWithDefault
340
F
  0
DICTIONARY
  5
4C9
102
{ACAD_REACTORS
330
C
102
}
330
C
100
AcDbDictionary
281
     1
  3
DIMASSOC
350
4CA
  0
LAYOUT
  5
1D
102
{ACAD_REACTORS
330
19
102
}
330
19
100
AcDbPlotSettings
  1

  2
hp deskjet 980c series
  4

  6

 40
0.0
 41
0.0
 42
0.0
 43
0.0
 44
0.0
 45
0.0
 46
0.0
 47
0.0
 48
0.0
 49
0.0
140
0.0
141
0.0
142
1.0
143
1.0
 70
   688
 72
     0
 73
     0
 74
     5
  7

 75
    16
147
1.0
148
0.0
149
0.0
100
AcDbLayout
  1
Layout1
 70
     1
 71
     1
 10
0.0
 20
0.0
 11
12.0
 21
9.0
 12
0.0
 22
0.0
 32
0.0
 14
1.000000000000000E+20
 24
1.000000000000000E+20
 34
1.000000000000000E+20
 15
-1.000000000000000E+20
 25
-1.000000000000000E+20
 35
-1.000000000000000E+20
146
0.0
 13
0.0
 23
0.0
 33
0.0
 16
1.0
 26
0.0
 36
0.0
 17
0.0
 27
1.0
 37
0.0
 76
     0
330
1A
  0
LAYOUT
  5
21
102
{ACAD_REACTORS
330
19
102
}
330
19
100
AcDbPlotSettings
  1

  2
hp deskjet 980c series
  4

  6

 40
0.0
 41
0.0
 42
0.0
 43
0.0
 44
0.0
 45
0.0
 46
0.0
 47
0.0
 48
0.0
 49
0.0
140
0.0
141
0.0
142
1.0
143
1.0
 70
  1712
 72
     0
 73
     0
 74
     0
  7

 75
     0
147
1.0
148
0.0
149
0.0
100
AcDbLayout
  1
Model
 70
     1
 71
     0
 10
0.0
 20
0.0
 11
12.0
 21
9.0
 12
0.0
 22
0.0
 32
0.0
 14
0.0
 24
0.0
 34
0.0
 15
0.0
 25
0.0
 35
0.0
146
0.0
 13
0.0
 23
0.0
 33
0.0
 16
1.0
 26
0.0
 36
0.0
 17
0.0
 27
1.0
 37
0.0
 76
     0
330
1E
  0
MLINESTYLE
  5
17
102
{ACAD_REACTORS
330
16
102
}
330
16
100
AcDbMlineStyle
  2
STANDARD
 70
     0
  3

 62
   256
 51
90.0
 52
90.0
 71
     2
 49
0.5
 62
   256
  6
BYLAYER
 49
-0.5
 62
   256
  6
BYLAYER
  0
ACDBPLACEHOLDER
  5
F
102
{ACAD_REACTORS
330
E
102
}
330
E
  0
DICTIONARYVAR
  5
4CA
102
{ACAD_REACTORS
330
4C9
102
}
330
4C9
100
DictionaryVariables
280
     0
  1
1
  0
ENDSEC
  0
EOF
