  0
SECTION
  2
HEADER
  9
$ACADVER
  1
AC1015
  9
$ACADMAINTVER
 70
    13
  9
$DWGCODEPAGE
  3
ANSI_1252
  9
$INSBASE
 10
0.0
 20
0.0
 30
0.0
  9
$EXTMIN
 10
0.0
 20
0.0000000000000104
 30
0.0
  9
$EXTMAX
 10
120.0
 20
147.0
 30
0.0
  9
$LIMMIN
 10
0.0
 20
0.0
  9
$LIMMAX
 10
12.0
 20
9.0
  9
$ORTHOMODE
 70
     0
  9
$REGENMODE
 70
     1
  9
$FILLMODE
 70
     1
  9
$QTEXTMODE
 70
     0
  9
$MIRRTEXT
 70
     1
  9
$LTSCALE
 40
1.0
  9
$ATTMODE
 70
     1
  9
$TEXTSIZE
 40
0.2
  9
$TRACEWID
 40
0.05
  9
$TEXTSTYLE
  7
Standard
  9
$CLAYER
  8
0
  9
$CELTYPE
  6
Continuous
  9
$CECOLOR
 62
   256
  9
$CELTSCALE
 40
1.0
  9
$DISPSILH
 70
     0
  9
$DIMSCALE
 40
1.0
  9
$DIMASZ
 40
0.18
  9
$DIMEXO
 40
0.0625
  9
$DIMDLI
 40
0.38
  9
$DIMRND
 40
0.0
  9
$DIMDLE
 40
0.0
  9
$DIMEXE
 40
0.18
  9
$DIMTP
 40
0.0
  9
$DIMTM
 40
0.0
  9
$DIMTXT
 40
0.18
  9
$DIMCEN
 40
0.09
  9
$DIMTSZ
 40
0.0
  9
$DIMTOL
 70
     0
  9
$DIMLIM
 70
     0
  9
$DIMTIH
 70
     1
  9
$DIMTOH
 70
     1
  9
$DIMSE1
 70
     0
  9
$DIMSE2
 70
     0
  9
$DIMTAD
 70
     0
  9
$DIMZIN
 70
     0
  9
$DIMBLK
  1

  9
$DIMASO
 70
     1
  9
$DIMSHO
 70
     1
  9
$DIMPOST
  1

  9
$DIMAPOST
  1

  9
$DIMALT
 70
     0
  9
$DIMALTD
 70
     2
  9
$DIMALTF
 40
25.4
  9
$DIMLFAC
 40
1.0
  9
$DIMTOFL
 70
     0
  9
$DIMTVP
 40
0.0
  9
$DIMTIX
 70
     0
  9
$DIMSOXD
 70
     0
  9
$DIMSAH
 70
     0
  9
$DIMBLK1
  1

  9
$DIMBLK2
  1

  9
$DIMSTYLE
  2
Standard
  9
$DIMCLRD
 70
     0
  9
$DIMCLRE
 70
     0
  9
$DIMCLRT
 70
     0
  9
$DIMTFAC
 40
1.0
  9
$DIMGAP
 40
0.09
  9
$DIMJUST
 70
     0
  9
$DIMSD1
 70
     0
  9
$DIMSD2
 70
     0
  9
$DIMTOLJ
 70
     1
  9
$DIMTZIN
 70
     0
  9
$DIMALTZ
 70
     0
  9
$DIMALTTZ
 70
     0
  9
$DIMUPT
 70
     0
  9
$DIMDEC
 70
     4
  9
$DIMTDEC
 70
     4
  9
$DIMALTU
 70
     2
  9
$DIMALTTD
 70
     2
  9
$DIMTXSTY
  7
Standard
  9
$DIMAUNIT
 70
     0
  9
$DIMADEC
 70
     0
  9
$DIMALTRND
 40
0.0
  9
$DIMAZIN
 70
     0
  9
$DIMDSEP
 70
    46
  9
$DIMATFIT
 70
     3
  9
$DIMFRAC
 70
     0
  9
$DIMLDRBLK
  1

  9
$DIMLUNIT
 70
     2
  9
$DIMLWD
 70
    -2
  9
$DIMLWE
 70
    -2
  9
$DIMTMOVE
 70
     0
  9
$LUNITS
 70
     2
  9
$LUPREC
 70
     4
  9
$SKETCHINC
 40
0.1
  9
$FILLETRAD
 40
0.0
  9
$AUNITS
 70
     0
  9
$AUPREC
 70
     0
  9
$MENU
  1
.
  9
$ELEVATION
 40
0.0
  9
$PELEVATION
 40
0.0
  9
$THICKNESS
 40
0.0
  9
$LIMCHECK
 70
     0
  9
$CHAMFERA
 40
0.0
  9
$CHAMFERB
 40
0.0
  9
$CHAMFERC
 40
0.0
  9
$CHAMFERD
 40
0.0
  9
$SKPOLY
 70
     0
  9
$TDCREATE
 40
2454874.753491933
  9
$TDUCREATE
 40
2454874.711825266
  9
$TDUPDATE
 40
2454874.754532326
  9
$TDUUPDATE
 40
2454874.712865659
  9
$TDINDWG
 40
0.0010405787
  9
$TDUSRTIMER
 40
0.0010405787
  9
$USRTIMER
 70
     1
  9
$ANGBASE
 50
0.0
  9
$ANGDIR
 70
     0
  9
$PDMODE
 70
     0
  9
$PDSIZE
 40
0.0
  9
$PLINEWID
 40
0.0
  9
$SPLFRAME
 70
     0
  9
$SPLINETYPE
 70
     6
  9
$SPLINESEGS
 70
     8
  9
$HANDSEED
  5
295
  9
$SURFTAB1
 70
     6
  9
$SURFTAB2
 70
     6
  9
$SURFTYPE
 70
     6
  9
$SURFU
 70
     6
  9
$SURFV
 70
     6
  9
$UCSBASE
  2

  9
$UCSNAME
  2

  9
$UCSORG
 10
0.0
 20
0.0
 30
0.0
  9
$UCSXDIR
 10
1.0
 20
0.0
 30
0.0
  9
$UCSYDIR
 10
0.0
 20
1.0
 30
0.0
  9
$UCSORTHOREF
  2

  9
$UCSORTHOVIEW
 70
     1
  9
$UCSORGTOP
 10
0.0
 20
0.0
 30
0.0
  9
$UCSORGBOTTOM
 10
0.0
 20
0.0
 30
0.0
  9
$UCSORGLEFT
 10
0.0
 20
0.0
 30
0.0
  9
$UCSORGRIGHT
 10
0.0
 20
0.0
 30
0.0
  9
$UCSORGFRONT
 10
0.0
 20
0.0
 30
0.0
  9
$UCSORGBACK
 10
0.0
 20
0.0
 30
0.0
  9
$PUCSBASE
  2

  9
$PUCSNAME
  2

  9
$PUCSORG
 10
0.0
 20
0.0
 30
0.0
  9
$PUCSXDIR
 10
1.0
 20
0.0
 30
0.0
  9
$PUCSYDIR
 10
0.0
 20
1.0
 30
0.0
  9
$PUCSORTHOREF
  2

  9
$PUCSORTHOVIEW
 70
     0
  9
$PUCSORGTOP
 10
0.0
 20
0.0
 30
0.0
  9
$PUCSORGBOTTOM
 10
0.0
 20
0.0
 30
0.0
  9
$PUCSORGLEFT
 10
0.0
 20
0.0
 30
0.0
  9
$PUCSORGRIGHT
 10
0.0
 20
0.0
 30
0.0
  9
$PUCSORGFRONT
 10
0.0
 20
0.0
 30
0.0
  9
$PUCSORGBACK
 10
0.0
 20
0.0
 30
0.0
  9
$USERI1
 70
     0
  9
$USERI2
 70
     0
  9
$USERI3
 70
     0
  9
$USERI4
 70
     0
  9
$USERI5
 70
     0
  9
$USERR1
 40
0.0
  9
$USERR2
 40
0.0
  9
$USERR3
 40
0.0
  9
$USERR4
 40
0.0
  9
$USERR5
 40
0.0
  9
$WORLDVIEW
 70
     1
  9
$SHADEDGE
 70
     3
  9
$SHADEDIF
 70
    70
  9
$TILEMODE
 70
     1
  9
$MAXACTVP
 70
    64
  9
$PINSBASE
 10
0.0
 20
0.0
 30
0.0
  9
$PLIMCHECK
 70
     0
  9
$PEXTMIN
 10
1.000000000000000E+20
 20
1.000000000000000E+20
 30
1.000000000000000E+20
  9
$PEXTMAX
 10
-1.000000000000000E+20
 20
-1.000000000000000E+20
 30
-1.000000000000000E+20
  9
$PLIMMIN
 10
0.0
 20
0.0
  9
$PLIMMAX
 10
12.0
 20
9.0
  9
$UNITMODE
 70
     0
  9
$VISRETAIN
 70
     1
  9
$PLINEGEN
 70
     0
  9
$PSLTSCALE
 70
     1
  9
$TREEDEPTH
 70
  3020
  9
$CMLSTYLE
  2
Standard
  9
$CMLJUST
 70
     0
  9
$CMLSCALE
 40
1.0
  9
$PROXYGRAPHICS
 70
     1
  9
$MEASUREMENT
 70
     0
  9
$CELWEIGHT
370
    -1
  9
$ENDCAPS
280
     0
  9
$JOINSTYLE
280
     0
  9
$LWDISPLAY
290
     0
  9
$INSUNITS
 70
     0
  9
$HYPERLINKBASE
  1

  9
$STYLESHEET
  1

  9
$XEDIT
290
     1
  9
$CEPSNTYPE
380
     0
  9
$PSTYLEMODE
290
     1
  9
$FINGERPRINTGUID
  2
{AECBF75E-A610-41FE-9B42-554CA38BF95C}
  9
$VERSIONGUID
  2
{AB3AFCB2-FD5E-4D9C-863B-1270E544FA97}
  9
$EXTNAMES
290
     1
  9
$PSVPSCALE
 40
0.0
  9
$OLESTARTUP
290
     0
  0
ENDSEC
  0
SECTION
  2
CLASSES
  0
CLASS
  1
ACDBDICTIONARYWDFLT
  2
AcDbDictionaryWithDefault
  3
AutoCAD 2000
 90
        0
280
     0
281
     0
  0
CLASS
  1
ACDBPLACEHOLDER
  2
AcDbPlaceHolder
  3
AutoCAD 2000
 90
        0
280
     0
281
     0
  0
CLASS
  1
LAYOUT
  2
AcDbLayout
  3
AutoCAD 2000
 90
        0
280
     0
281
     0
  0
CLASS
  1
DICTIONARYVAR
  2
AcDbDictionaryVar
  3
AutoCAD 2000
 90
        0
280
     0
281
     0
  0
ENDSEC
  0
SECTION
  2
TABLES
  0
TABLE
  2
VPORT
  5
8
330
0
100
AcDbSymbolTable
 70
     2
  0
VPORT
  5
294
330
8
100
AcDbSymbolTableRecord
100
AcDbViewportTableRecord
  2
*Active
 70
     0
 10
0.0
 20
0.0
 11
1.0
 21
1.0
 12
60.0
 22
73.50000000000001
 13
0.0
 23
0.0
 14
1.0
 24
1.0
 15
0.0
 25
0.0
 16
0.0
 26
0.0
 36
1.0
 17
0.0
 27
0.0
 37
0.0
 40
147.9284210526316
 41
1.968387776606954
 42
50.0
 43
0.0
 44
0.0
 50
0.0
 51
0.0
 71
     0
 72
   100
 73
     1
 74
     3
 75
     0
 76
     0
 77
     0
 78
     0
281
     0
 65
     1
110
0.0
120
0.0
130
0.0
111
1.0
121
0.0
131
0.0
112
0.0
122
1.0
132
0.0
 79
     1
146
0.0
  0
ENDTAB
  0
TABLE
  2
LTYPE
  5
5
330
0
100
AcDbSymbolTable
 70
     1
  0
LTYPE
  5
13
330
5
100
AcDbSymbolTableRecord
100
AcDbLinetypeTableRecord
  2
ByBlock
 70
     0
  3

 72
    65
 73
     0
 40
0.0
  0
LTYPE
  5
14
330
5
100
AcDbSymbolTableRecord
100
AcDbLinetypeTableRecord
  2
ByLayer
 70
     0
  3

 72
    65
 73
     0
 40
0.0
  0
LTYPE
  5
15
330
5
100
AcDbSymbolTableRecord
100
AcDbLinetypeTableRecord
  2
Continuous
 70
     0
  3
Solid line
 72
    65
 73
     0
 40
0.0
  0
ENDTAB
  0
TABLE
  2
LAYER
  5
2
330
0
100
AcDbSymbolTable
 70
     1
  0
LAYER
  5
10
330
2
100
AcDbSymbolTableRecord
100
AcDbLayerTableRecord
  2
0
 70
     0
 62
     7
  6
Continuous
370
    -3
390
F
  0
ENDTAB
  0
TABLE
  2
STYLE
  5
3
330
0
100
AcDbSymbolTable
 70
     1
  0
STYLE
  5
11
330
3
100
AcDbSymbolTableRecord
100
AcDbTextStyleTableRecord
  2
Standard
 70
     0
 40
0.0
 41
1.0
 50
0.0
 71
     0
 42
0.2
  3
txt
  4

  0
ENDTAB
  0
TABLE
  2
VIEW
  5
6
330
0
100
AcDbSymbolTable
 70
     0
  0
ENDTAB
  0
TABLE
  2
UCS
  5
7
330
0
100
AcDbSymbolTable
 70
     0
  0
ENDTAB
  0
TABLE
  2
APPID
  5
9
330
0
100
AcDbSymbolTable
 70
     1
  0
APPID
  5
12
330
9
100
AcDbSymbolTableRecord
100
AcDbRegAppTableRecord
  2
ACAD
 70
     0
  0
ENDTAB
  0
TABLE
  2
DIMSTYLE
  5
A
330
0
100
AcDbSymbolTable
 70
     1
100
AcDbDimStyleTable
 71
     0
  0
DIMSTYLE
105
28E
330
A
100
AcDbSymbolTableRecord
100
AcDbDimStyleTableRecord
  2
Standard
 70
     0
340
11
  0
ENDTAB
  0
TABLE
  2
BLOCK_RECORD
  5
1
330
0
100
AcDbSymbolTable
 70
     0
  0
BLOCK_RECORD
  5
1E
330
1
100
AcDbSymbolTableRecord
100
AcDbBlockTableRecord
  2
*Model_Space
340
21
  0
BLOCK_RECORD
  5
1A
330
1
100
AcDbSymbolTableRecord
100
AcDbBlockTableRecord
  2
*Paper_Space
340
1D
  0
ENDTAB
  0
ENDSEC
  0
SECTION
  2
BLOCKS
  0
BLOCK
  5
1F
330
1E
100
AcDbEntity
  8
0
100
AcDbBlockBegin
  2
*Model_Space
 70
     0
 10
0.0
 20
0.0
 30
0.0
  3
*Model_Space
  1

  0
ENDBLK
  5
20
330
1E
100
AcDbEntity
  8
0
100
AcDbBlockEnd
  0
BLOCK
  5
1B
330
1A
100
AcDbEntity
 67
     1
  8
0
100
AcDbBlockBegin
  2
*Paper_Space
 70
     0
 10
0.0
 20
0.0
 30
0.0
  3
*Paper_Space
  1

  0
ENDBLK
  5
1C
330
1A
100
AcDbEntity
 67
     1
  8
0
100
AcDbBlockEnd
  0
ENDSEC
  0
SECTION
  2
ENTITIES
  0
LINE
  5
22
330
1E
100
AcDbEntity
  8
0
100
AcDbLine
 10
0.0
 20
44.59999999999999
 30
0.0
 11
0.0
 21
64.40000000000001
 31
0.0
  0
LINE
  5
23
330
1E
100
AcDbEntity
  8
0
100
AcDbLine
 10
0.0
 20
44.59999999999999
 30
0.0
 11
0.18
 21
44.18
 31
0.0
  0
LINE
  5
24
330
1E
100
AcDbEntity
  8
0
100
AcDbLine
 10
0.18
 20
44.18
 30
0.0
 11
0.6
 21
44.0
 31
0.0
  0
LINE
  5
25
330
1E
100
AcDbEntity
  8
0
100
AcDbLine
 10
0.0
 20
64.40000000000001
 30
0.0
 11
0.18
 21
64.81999999999999
 31
0.0
  0
LINE
  5
26
330
1E
100
AcDbEntity
  8
0
100
AcDbLine
 10
0.0
 20
64.40000000000001
 30
0.0
 11
0.0
 21
44.59999999999999
 31
0.0
  0
LINE
  5
27
330
1E
100
AcDbEntity
  8
0
100
AcDbLine
 10
0.18
 20
44.18
 30
0.0
 11
0.3
 21
44.29999999999999
 31
0.0
  0
LINE
  5
28
330
1E
100
AcDbEntity
  8
0
100
AcDbLine
 10
0.18
 20
64.81999999999999
 30
0.0
 11
0.3
 21
64.7
 31
0.0
  0
LINE
  5
29
330
1E
100
AcDbEntity
  8
0
100
AcDbLine
 10
0.18
 20
64.81999999999999
 30
0.0
 11
0.6
 21
65.0
 31
0.0
  0
LINE
  5
2A
330
1E
100
AcDbEntity
  8
0
100
AcDbLine
 10
0.18
 20
64.40000000000001
 30
0.0
 11
0.3
 21
64.7
 31
0.0
  0
LINE
  5
2B
330
1E
100
AcDbEntity
  8
0
100
AcDbLine
 10
0.18
 20
64.40000000000001
 30
0.0
 11
0.18
 21
44.59999999999999
 31
0.0
  0
LINE
  5
2C
330
1E
100
AcDbEntity
  8
0
100
AcDbLine
 10
0.6
 20
44.0
 30
0.0
 11
35.5
 21
44.0
 31
0.0
  0
LINE
  5
2D
330
1E
100
AcDbEntity
  8
0
100
AcDbLine
 10
0.600000000000001
 20
44.0
 30
0.0
 11
35.5
 21
44.0
 31
0.0
  0
LINE
  5
2E
330
1E
100
AcDbEntity
  8
0
100
AcDbLine
 10
43.42649999999999
 20
0.0000000000000109
 30
0.0
 11
48.32650000000001
 21
0.0000000000000106
 31
0.0
  0
LINE
  5
2F
330
1E
100
AcDbEntity
  8
0
100
AcDbLine
 10
48.32650000000001
 20
0.0000000000000106
 30
0.0
 11
53.94709999999999
 21
0.0000000000000105
 31
0.0
  0
LINE
  5
30
330
1E
100
AcDbEntity
  8
0
100
AcDbLine
 10
76.5735
 20
0.0000000000000109
 30
0.0
 11
80.2485
 21
0.0000000000000112
 31
0.0
  0
LINE
  5
31
330
1E
100
AcDbEntity
  8
0
100
AcDbLine
 10
80.2485
 20
0.0000000000000112
 30
0.0
 11
82.5544
 21
0.0000000000000115
 31
0.0
  0
LINE
  5
32
330
1E
100
AcDbEntity
  8
0
100
AcDbLine
 10
71.6735
 20
0.0000000000000106
 30
0.0
 11
76.5735
 21
0.0000000000000109
 31
0.0
  0
LINE
  5
33
330
1E
100
AcDbEntity
  8
0
100
AcDbLine
 10
66.0529
 20
0.0000000000000105
 30
0.0
 11
71.6735
 21
0.0000000000000106
 31
0.0
  0
LINE
  5
34
330
1E
100
AcDbEntity
  8
0
100
AcDbLine
 10
60.0
 20
0.0000000000000104
 30
0.0
 11
66.0529
 21
0.0000000000000105
 31
0.0
  0
LINE
  5
35
330
1E
100
AcDbEntity
  8
0
100
AcDbLine
 10
53.94709999999999
 20
0.0000000000000105
 30
0.0
 11
60.0
 21
0.0000000000000104
 31
0.0
  0
LINE
  5
36
330
1E
100
AcDbEntity
  8
0
100
AcDbLine
 10
83.4191
 20
0.0000000000000119
 30
0.0
 11
84.1397
 21
0.2884620000000119
 31
0.0
  0
LINE
  5
37
330
1E
100
AcDbEntity
  8
0
100
AcDbLine
 10
83.4191
 20
0.0000000000000119
 30
0.0
 11
84.1397
 21
0.2884620000000119
 31
0.0
  0
LINE
  5
38
330
1E
100
AcDbEntity
  8
0
100
AcDbLine
 10
82.5544
 20
0.0000000000000115
 30
0.0
 11
83.4191
 21
0.0000000000000119
 31
0.0
  0
LINE
  5
39
330
1E
100
AcDbEntity
  8
0
100
AcDbLine
 10
39.7515
 20
0.0000000000000112
 30
0.0
 11
43.42649999999999
 21
0.0000000000000109
 31
0.0
  0
LINE
  5
3A
330
1E
100
AcDbEntity
  8
0
100
AcDbLine
 10
37.44559999999999
 20
0.0000000000000115
 30
0.0
 11
39.7515
 21
0.0000000000000112
 31
0.0
  0
LINE
  5
3B
330
1E
100
AcDbEntity
  8
0
100
AcDbLine
 10
39.10289999999999
 20
0.2884620000000129
 30
0.0
 11
42.92209999999999
 21
0.2884620000000129
 31
0.0
  0
LINE
  5
3C
330
1E
100
AcDbEntity
  8
0
100
AcDbLine
 10
36.725
 20
0.2884620000000119
 30
0.0
 11
39.10289999999999
 21
0.2884620000000129
 31
0.0
  0
LINE
  5
3D
330
1E
100
AcDbEntity
  8
0
100
AcDbLine
 10
42.92209999999999
 20
0.2884620000000129
 30
0.0
 11
47.96619999999999
 21
0.2884620000000129
 31
0.0
  0
LINE
  5
3E
330
1E
100
AcDbEntity
  8
0
100
AcDbLine
 10
47.96619999999999
 20
0.2884620000000129
 30
0.0
 11
53.8029
 21
0.2884620000000129
 31
0.0
  0
LINE
  5
3F
330
1E
100
AcDbEntity
  8
0
100
AcDbLine
 10
53.8029
 20
0.2884620000000129
 30
0.0
 11
60.0
 21
0.2884620000000129
 31
0.0
  0
LINE
  5
40
330
1E
100
AcDbEntity
  8
0
100
AcDbLine
 10
77.0779
 20
0.2884620000000129
 30
0.0
 11
80.8971
 21
0.2884620000000129
 31
0.0
  0
LINE
  5
41
330
1E
100
AcDbEntity
  8
0
100
AcDbLine
 10
80.8971
 20
0.2884620000000129
 30
0.0
 11
83.275
 21
0.2884620000000119
 31
0.0
  0
LINE
  5
42
330
1E
100
AcDbEntity
  8
0
100
AcDbLine
 10
83.275
 20
0.2884620000000119
 30
0.0
 11
84.1397
 21
0.2884620000000119
 31
0.0
  0
LINE
  5
43
330
1E
100
AcDbEntity
  8
0
100
AcDbLine
 10
72.0338
 20
0.2884620000000129
 30
0.0
 11
77.0779
 21
0.2884620000000129
 31
0.0
  0
LINE
  5
44
330
1E
100
AcDbEntity
  8
0
100
AcDbLine
 10
66.19710000000001
 20
0.2884620000000129
 30
0.0
 11
72.0338
 21
0.2884620000000129
 31
0.0
  0
LINE
  5
45
330
1E
100
AcDbEntity
  8
0
100
AcDbLine
 10
60.0
 20
0.2884620000000129
 30
0.0
 11
66.19710000000001
 21
0.2884620000000129
 31
0.0
  0
LINE
  5
46
330
1E
100
AcDbEntity
  8
0
100
AcDbLine
 10
84.50000000000001
 20
0.8653850000000121
 30
0.0
 11
84.50000000000001
 21
35.0
 31
0.0
  0
LINE
  5
47
330
1E
100
AcDbEntity
  8
0
100
AcDbLine
 10
84.1397
 20
0.2884620000000119
 30
0.0
 11
84.50000000000001
 21
0.8653850000000121
 31
0.0
  0
LINE
  5
48
330
1E
100
AcDbEntity
  8
0
100
AcDbLine
 10
36.5809
 20
0.0000000000000119
 30
0.0
 11
37.44559999999999
 21
0.0000000000000115
 31
0.0
  0
LINE
  5
49
330
1E
100
AcDbEntity
  8
0
100
AcDbLine
 10
35.8603
 20
0.2884620000000119
 30
0.0
 11
36.5809
 21
0.0000000000000119
 31
0.0
  0
LINE
  5
4A
330
1E
100
AcDbEntity
  8
0
100
AcDbLine
 10
35.8603
 20
0.2884620000000119
 30
0.0
 11
36.725
 21
0.2884620000000119
 31
0.0
  0
LINE
  5
4B
330
1E
100
AcDbEntity
  8
0
100
AcDbLine
 10
35.8603
 20
0.2884620000000119
 30
0.0
 11
36.5809
 21
0.0000000000000119
 31
0.0
  0
LINE
  5
4C
330
1E
100
AcDbEntity
  8
0
100
AcDbLine
 10
38.8147
 20
35.0
 30
0.0
 11
42.7059
 21
35.0
 31
0.0
  0
LINE
  5
4D
330
1E
100
AcDbEntity
  8
0
100
AcDbLine
 10
36.3647
 20
35.0
 30
0.0
 11
38.8147
 21
35.0
 31
0.0
  0
LINE
  5
4E
330
1E
100
AcDbEntity
  8
0
100
AcDbLine
 10
35.5
 20
35.0
 30
0.0
 11
36.3647
 21
35.0
 31
0.0
  0
LINE
  5
4F
330
1E
100
AcDbEntity
  8
0
100
AcDbLine
 10
35.5
 20
35.0
 30
0.0
 11
35.5
 21
0.8653850000000129
 31
0.0
  0
LINE
  5
50
330
1E
100
AcDbEntity
  8
0
100
AcDbLine
 10
42.7059
 20
35.0
 30
0.0
 11
47.8221
 21
35.0
 31
0.0
  0
LINE
  5
51
330
1E
100
AcDbEntity
  8
0
100
AcDbLine
 10
56.31759999999999
 20
20.069
 30
0.0
 11
56.6941
 21
19.15129999999999
 31
0.0
  0
LINE
  5
52
330
1E
100
AcDbEntity
  8
0
100
AcDbLine
 10
56.1765
 20
21.0572
 30
0.0
 11
56.31759999999999
 21
20.069
 31
0.0
  0
LINE
  5
53
330
1E
100
AcDbEntity
  8
0
100
AcDbLine
 10
56.1765
 20
21.0572
 30
0.0
 11
56.31759999999999
 21
22.0454
 31
0.0
  0
LINE
  5
54
330
1E
100
AcDbEntity
  8
0
100
AcDbLine
 10
57.2941
 20
18.35129999999999
 30
0.0
 11
58.09409999999999
 21
17.7513
 31
0.0
  0
LINE
  5
55
330
1E
100
AcDbEntity
  8
0
100
AcDbLine
 10
58.09409999999999
 20
17.7513
 30
0.0
 11
59.0118
 21
17.3749
 31
0.0
  0
LINE
  5
56
330
1E
100
AcDbEntity
  8
0
100
AcDbLine
 10
62.7059
 20
18.35129999999999
 30
0.0
 11
63.3059
 21
19.15129999999999
 31
0.0
  0
LINE
  5
57
330
1E
100
AcDbEntity
  8
0
100
AcDbLine
 10
63.3059
 20
19.15129999999999
 30
0.0
 11
63.6824
 21
20.069
 31
0.0
  0
LINE
  5
58
330
1E
100
AcDbEntity
  8
0
100
AcDbLine
 10
61.9059
 20
17.7513
 30
0.0
 11
62.7059
 21
18.35129999999999
 31
0.0
  0
LINE
  5
59
330
1E
100
AcDbEntity
  8
0
100
AcDbLine
 10
60.98819999999999
 20
17.3749
 30
0.0
 11
61.9059
 21
17.7513
 31
0.0
  0
LINE
  5
5A
330
1E
100
AcDbEntity
  8
0
100
AcDbLine
 10
60.0
 20
17.2337
 30
0.0
 11
60.98819999999999
 21
17.3749
 31
0.0
  0
LINE
  5
5B
330
1E
100
AcDbEntity
  8
0
100
AcDbLine
 10
59.0118
 20
17.3749
 30
0.0
 11
60.0
 21
17.2337
 31
0.0
  0
LINE
  5
5C
330
1E
100
AcDbEntity
  8
0
100
AcDbLine
 10
63.6824
 20
20.069
 30
0.0
 11
63.8235
 21
21.0572
 31
0.0
  0
LINE
  5
5D
330
1E
100
AcDbEntity
  8
0
100
AcDbLine
 10
56.6941
 20
19.15129999999999
 30
0.0
 11
57.2941
 21
18.35129999999999
 31
0.0
  0
LINE
  5
5E
330
1E
100
AcDbEntity
  8
0
100
AcDbLine
 10
56.31759999999999
 20
22.0454
 30
0.0
 11
56.6941
 21
22.9631
 31
0.0
  0
LINE
  5
5F
330
1E
100
AcDbEntity
  8
0
100
AcDbLine
 10
56.6941
 20
22.9631
 30
0.0
 11
57.2941
 21
23.7631
 31
0.0
  0
LINE
  5
62
330
1E
100
AcDbEntity
  8
0
100
AcDbLine
 10
57.2941
 20
23.7631
 30
0.0
 11
58.09409999999999
 21
24.3631
 31
0.0
  0
LINE
  5
64
330
1E
100
AcDbEntity
  8
0
100
AcDbLine
 10
58.09409999999999
 20
24.3631
 30
0.0
 11
59.0118
 21
24.73959999999999
 31
0.0
  0
LINE
  5
65
330
1E
100
AcDbEntity
  8
0
100
AcDbLine
 10
59.0118
 20
24.73959999999999
 30
0.0
 11
60.0
 21
24.8807
 31
0.0
  0
LINE
  5
68
330
1E
100
AcDbEntity
  8
0
100
AcDbLine
 10
60.0
 20
24.8807
 30
0.0
 11
60.98819999999999
 21
24.73959999999999
 31
0.0
  0
LINE
  5
69
330
1E
100
AcDbEntity
  8
0
100
AcDbLine
 10
61.9059
 20
24.3631
 30
0.0
 11
62.7059
 21
23.7631
 31
0.0
  0
LINE
  5
6A
330
1E
100
AcDbEntity
  8
0
100
AcDbLine
 10
60.98819999999999
 20
24.73959999999999
 30
0.0
 11
61.9059
 21
24.3631
 31
0.0
  0
LINE
  5
6B
330
1E
100
AcDbEntity
  8
0
100
AcDbLine
 10
63.6824
 20
22.0454
 30
0.0
 11
63.8235
 21
21.0572
 31
0.0
  0
LINE
  5
6C
330
1E
100
AcDbEntity
  8
0
100
AcDbLine
 10
62.7059
 20
23.7631
 30
0.0
 11
63.3059
 21
22.9631
 31
0.0
  0
LINE
  5
6D
330
1E
100
AcDbEntity
  8
0
100
AcDbLine
 10
63.3059
 20
22.9631
 30
0.0
 11
63.6824
 21
22.0454
 31
0.0
  0
LINE
  5
75
330
1E
100
AcDbEntity
  8
0
100
AcDbLine
 10
47.8221
 20
35.0
 30
0.0
 11
53.7309
 21
35.0
 31
0.0
  0
LINE
  5
76
330
1E
100
AcDbEntity
  8
0
100
AcDbLine
 10
53.7309
 20
35.0
 30
0.0
 11
60.0
 21
35.0
 31
0.0
  0
LINE
  5
77
330
1E
100
AcDbEntity
  8
0
100
AcDbLine
 10
83.4191
 20
35.0
 30
0.0
 11
84.1397
 21
35.2885
 31
0.0
  0
LINE
  5
78
330
1E
100
AcDbEntity
  8
0
100
AcDbLine
 10
77.2941
 20
35.0
 30
0.0
 11
81.18529999999999
 21
35.0
 31
0.0
  0
LINE
  5
79
330
1E
100
AcDbEntity
  8
0
100
AcDbLine
 10
81.18529999999999
 20
35.0
 30
0.0
 11
83.6353
 21
35.0
 31
0.0
  0
LINE
  5
7A
330
1E
100
AcDbEntity
  8
0
100
AcDbLine
 10
83.6353
 20
35.0
 30
0.0
 11
84.50000000000001
 21
35.0
 31
0.0
  0
LINE
  5
7B
330
1E
100
AcDbEntity
  8
0
100
AcDbLine
 10
72.17789999999999
 20
35.0
 30
0.0
 11
77.2941
 21
35.0
 31
0.0
  0
LINE
  5
7C
330
1E
100
AcDbEntity
  8
0
100
AcDbLine
 10
66.26909999999999
 20
35.0
 30
0.0
 11
72.17789999999999
 21
35.0
 31
0.0
  0
LINE
  5
7D
330
1E
100
AcDbEntity
  8
0
100
AcDbLine
 10
39.10289999999999
 20
35.2885
 30
0.0
 11
42.92209999999999
 21
35.2885
 31
0.0
  0
LINE
  5
7E
330
1E
100
AcDbEntity
  8
0
100
AcDbLine
 10
36.725
 20
35.2885
 30
0.0
 11
39.10289999999999
 21
35.2885
 31
0.0
  0
LINE
  5
7F
330
1E
100
AcDbEntity
  8
0
100
AcDbLine
 10
42.92209999999999
 20
35.2885
 30
0.0
 11
47.96619999999999
 21
35.2885
 31
0.0
  0
LINE
  5
80
330
1E
100
AcDbEntity
  8
0
100
AcDbLine
 10
47.96619999999999
 20
35.2885
 30
0.0
 11
53.8029
 21
35.2885
 31
0.0
  0
LINE
  5
81
330
1E
100
AcDbEntity
  8
0
100
AcDbLine
 10
53.8029
 20
35.2885
 30
0.0
 11
60.0
 21
35.2885
 31
0.0
  0
LINE
  5
82
330
1E
100
AcDbEntity
  8
0
100
AcDbLine
 10
77.0779
 20
35.2885
 30
0.0
 11
80.8971
 21
35.2885
 31
0.0
  0
LINE
  5
83
330
1E
100
AcDbEntity
  8
0
100
AcDbLine
 10
80.8971
 20
35.2885
 30
0.0
 11
83.275
 21
35.2885
 31
0.0
  0
LINE
  5
84
330
1E
100
AcDbEntity
  8
0
100
AcDbLine
 10
83.275
 20
35.2885
 30
0.0
 11
84.1397
 21
35.2885
 31
0.0
  0
LINE
  5
85
330
1E
100
AcDbEntity
  8
0
100
AcDbLine
 10
72.0338
 20
35.2885
 30
0.0
 11
77.0779
 21
35.2885
 31
0.0
  0
LINE
  5
86
330
1E
100
AcDbEntity
  8
0
100
AcDbLine
 10
66.19710000000001
 20
35.2885
 30
0.0
 11
72.0338
 21
35.2885
 31
0.0
  0
LINE
  5
87
330
1E
100
AcDbEntity
  8
0
100
AcDbLine
 10
60.0
 20
35.2885
 30
0.0
 11
66.19710000000001
 21
35.2885
 31
0.0
  0
LINE
  5
88
330
1E
100
AcDbEntity
  8
0
100
AcDbLine
 10
84.1397
 20
35.2885
 30
0.0
 11
84.50000000000001
 21
35.8654
 31
0.0
  0
LINE
  5
89
330
1E
100
AcDbEntity
  8
0
100
AcDbLine
 10
84.50000000000001
 20
35.8654
 30
0.0
 11
84.50000000000001
 21
44.0
 31
0.0
  0
LINE
  5
8A
330
1E
100
AcDbEntity
  8
0
100
AcDbLine
 10
35.8603
 20
35.2885
 30
0.0
 11
36.5809
 21
35.0
 31
0.0
  0
LINE
  5
8B
330
1E
100
AcDbEntity
  8
0
100
AcDbLine
 10
35.8603
 20
35.2885
 30
0.0
 11
36.725
 21
35.2885
 31
0.0
  0
LINE
  5
8C
330
1E
100
AcDbEntity
  8
0
100
AcDbLine
 10
35.5
 20
35.8654
 30
0.0
 11
35.5
 21
44.0
 31
0.0
  0
LINE
  5
8D
330
1E
100
AcDbEntity
  8
0
100
AcDbLine
 10
35.5
 20
35.8654
 30
0.0
 11
35.8603
 21
35.2885
 31
0.0
  0
LINE
  5
8E
330
1E
100
AcDbEntity
  8
0
100
AcDbLine
 10
60.0
 20
35.0
 30
0.0
 11
66.26909999999999
 21
35.0
 31
0.0
  0
LINE
  5
8F
330
1E
100
AcDbEntity
  8
0
100
AcDbLine
 10
84.50000000000001
 20
35.0
 30
0.0
 11
84.50000000000001
 21
0.8653850000000129
 31
0.0
  0
LINE
  5
90
330
1E
100
AcDbEntity
  8
0
100
AcDbLine
 10
35.5
 20
0.8653850000000121
 30
0.0
 11
35.5
 21
35.0
 31
0.0
  0
LINE
  5
91
330
1E
100
AcDbEntity
  8
0
100
AcDbLine
 10
35.5
 20
0.8653850000000121
 30
0.0
 11
35.8603
 21
0.2884620000000119
 31
0.0
  0
LINE
  5
92
330
1E
100
AcDbEntity
  8
0
100
AcDbLine
 10
119.4
 20
44.0
 30
0.0
 11
119.8199999999999
 21
44.18
 31
0.0
  0
LINE
  5
93
330
1E
100
AcDbEntity
  8
0
100
AcDbLine
 10
35.5
 20
44.0
 30
0.0
 11
35.5
 21
35.8654
 31
0.0
  0
LINE
  5
94
330
1E
100
AcDbEntity
  8
0
100
AcDbLine
 10
84.50000000000001
 20
44.0
 30
0.0
 11
84.50000000000001
 21
35.8654
 31
0.0
  0
LINE
  5
95
330
1E
100
AcDbEntity
  8
0
100
AcDbLine
 10
84.50000000000001
 20
44.0
 30
0.0
 11
119.4
 21
44.0
 31
0.0
  0
LINE
  5
96
330
1E
100
AcDbEntity
  8
0
100
AcDbLine
 10
0.600000000000001
 20
44.18
 30
0.0
 11
119.4
 21
44.18
 31
0.0
  0
LINE
  5
97
330
1E
100
AcDbEntity
  8
0
100
AcDbLine
 10
119.7
 20
44.29999999999999
 30
0.0
 11
119.8199999999999
 21
44.59999999999999
 31
0.0
  0
LINE
  5
98
330
1E
100
AcDbEntity
  8
0
100
AcDbLine
 10
119.7
 20
44.29999999999999
 30
0.0
 11
119.8199999999999
 21
44.18
 31
0.0
  0
LINE
  5
99
330
1E
100
AcDbEntity
  8
0
100
AcDbLine
 10
119.7
 20
44.29999999999999
 30
0.0
 11
119.8199999999999
 21
44.59999999999999
 31
0.0
  0
LINE
  5
9A
330
1E
100
AcDbEntity
  8
0
100
AcDbLine
 10
119.4
 20
44.18
 30
0.0
 11
119.7
 21
44.29999999999999
 31
0.0
  0
LINE
  5
9B
330
1E
100
AcDbEntity
  8
0
100
AcDbLine
 10
0.6
 20
44.18
 30
0.0
 11
119.4
 21
44.18
 31
0.0
  0
LINE
  5
9C
330
1E
100
AcDbEntity
  8
0
100
AcDbLine
 10
119.8199999999999
 20
64.40000000000001
 30
0.0
 11
119.8199999999999
 21
44.59999999999999
 31
0.0
  0
LINE
  5
9D
330
1E
100
AcDbEntity
  8
0
100
AcDbLine
 10
0.3
 20
64.7
 30
0.0
 11
0.6
 21
64.81999999999999
 31
0.0
  0
LINE
  5
9E
330
1E
100
AcDbEntity
  8
0
100
AcDbLine
 10
0.6
 20
64.81999999999999
 30
0.0
 11
119.4
 21
64.81999999999999
 31
0.0
  0
LINE
  5
9F
330
1E
100
AcDbEntity
  8
0
100
AcDbLine
 10
102.554
 20
65.0
 30
0.0
 11
102.554
 21
92.0
 31
0.0
  0
LINE
  5
A0
330
1E
100
AcDbEntity
  8
0
100
AcDbLine
 10
17.44599999999999
 20
65.0
 30
0.0
 11
17.44599999999999
 21
92.0
 31
0.0
  0
LINE
  5
A1
330
1E
100
AcDbEntity
  8
0
100
AcDbLine
 10
0.6
 20
65.0
 30
0.0
 11
119.4
 21
65.0
 31
0.0
  0
LINE
  5
A2
330
1E
100
AcDbEntity
  8
0
100
AcDbLine
 10
12.5
 20
111.0
 30
0.0
 11
34.99066666666669
 21
111.0
 31
0.0
  0
LINE
  5
A3
330
1E
100
AcDbEntity
  8
0
100
AcDbLine
 10
12.5
 20
111.0
 30
0.0
 11
12.5
 21
111.612
 31
0.0
  0
LINE
  5
A4
330
1E
100
AcDbEntity
  8
0
100
AcDbLine
 10
12.5
 20
111.0
 30
0.0
 11
34.99066666666669
 21
111.0
 31
0.0
  0
LINE
  5
A5
330
1E
100
AcDbEntity
  8
0
100
AcDbLine
 10
12.5
 20
114.0909
 30
0.0
 11
12.5
 21
114.5915999999999
 31
0.0
  0
LINE
  5
A6
330
1E
100
AcDbEntity
  8
0
100
AcDbLine
 10
12.5
 20
111.612
 30
0.0
 11
12.5
 21
113.244
 31
0.0
  0
LINE
  5
A7
330
1E
100
AcDbEntity
  8
0
100
AcDbLine
 10
12.5
 20
111.612
 30
0.0
 11
12.5
 21
111.0
 31
0.0
  0
LINE
  5
A8
330
1E
100
AcDbEntity
  8
0
100
AcDbLine
 10
12.5
 20
113.244
 30
0.0
 11
12.5
 21
115.964
 31
0.0
  0
LINE
  5
A9
330
1E
100
AcDbEntity
  8
0
100
AcDbLine
 10
12.5
 20
113.244
 30
0.0
 11
12.5
 21
111.612
 31
0.0
  0
LINE
  5
AA
330
1E
100
AcDbEntity
  8
0
100
AcDbLine
 10
12.5
 20
115.964
 30
0.0
 11
12.5
 21
119.568
 31
0.0
  0
LINE
  5
AB
330
1E
100
AcDbEntity
  8
0
100
AcDbLine
 10
12.5
 20
115.964
 30
0.0
 11
12.5
 21
113.244
 31
0.0
  0
LINE
  5
AC
330
1E
100
AcDbEntity
  8
0
100
AcDbLine
 10
12.5
 20
114.5915999999999
 30
0.0
 11
12.5
 21
114.0909
 31
0.0
  0
LINE
  5
AD
330
1E
100
AcDbEntity
  8
0
100
AcDbLine
 10
12.5
 20
114.5915999999999
 30
0.0
 11
12.5
 21
115.9269
 31
0.0
  0
LINE
  5
AE
330
1E
100
AcDbEntity
  8
0
100
AcDbLine
 10
12.5
 20
115.9269
 30
0.0
 11
12.5
 21
114.5915999999999
 31
0.0
  0
LINE
  5
AF
330
1E
100
AcDbEntity
  8
0
100
AcDbLine
 10
12.5
 20
115.9269
 30
0.0
 11
12.5
 21
118.1524
 31
0.0
  0
LINE
  5
B0
330
1E
100
AcDbEntity
  8
0
100
AcDbLine
 10
12.5
 20
119.568
 30
0.0
 11
12.5
 21
123.648
 31
0.0
  0
LINE
  5
B1
330
1E
100
AcDbEntity
  8
0
100
AcDbLine
 10
12.5
 20
119.568
 30
0.0
 11
12.5
 21
115.964
 31
0.0
  0
LINE
  5
B2
330
1E
100
AcDbEntity
  8
0
100
AcDbLine
 10
12.5
 20
123.648
 30
0.0
 11
12.5
 21
128.0
 31
0.0
  0
LINE
  5
B3
330
1E
100
AcDbEntity
  8
0
100
AcDbLine
 10
12.5
 20
123.648
 30
0.0
 11
12.5
 21
119.568
 31
0.0
  0
LINE
  5
B4
330
1E
100
AcDbEntity
  8
0
100
AcDbLine
 10
12.5
 20
118.1524
 30
0.0
 11
12.5
 21
115.9269
 31
0.0
  0
LINE
  5
B5
330
1E
100
AcDbEntity
  8
0
100
AcDbLine
 10
12.5
 20
118.1524
 30
0.0
 11
12.5
 21
121.1011
 31
0.0
  0
LINE
  5
B6
330
1E
100
AcDbEntity
  8
0
100
AcDbLine
 10
12.5
 20
121.1011
 30
0.0
 11
12.5
 21
118.1524
 31
0.0
  0
LINE
  5
B7
330
1E
100
AcDbEntity
  8
0
100
AcDbLine
 10
12.5
 20
121.1011
 30
0.0
 11
12.5
 21
124.4393
 31
0.0
  0
LINE
  5
B8
330
1E
100
AcDbEntity
  8
0
100
AcDbLine
 10
12.5
 20
132.352
 30
0.0
 11
12.5
 21
136.432
 31
0.0
  0
LINE
  5
B9
330
1E
100
AcDbEntity
  8
0
100
AcDbLine
 10
12.5
 20
132.352
 30
0.0
 11
12.5
 21
128.0
 31
0.0
  0
LINE
  5
BA
330
1E
100
AcDbEntity
  8
0
100
AcDbLine
 10
12.5
 20
141.9090999999999
 30
0.0
 11
12.5
 21
141.4084
 31
0.0
  0
LINE
  5
BB
330
1E
100
AcDbEntity
  8
0
100
AcDbLine
 10
12.5
 20
145.0
 30
0.0
 11
17.5
 21
145.0
 31
0.0
  0
LINE
  5
BC
330
1E
100
AcDbEntity
  8
0
100
AcDbLine
 10
12.5
 20
145.0
 30
0.0
 11
12.5
 21
144.388
 31
0.0
  0
LINE
  5
BD
330
1E
100
AcDbEntity
  8
0
100
AcDbLine
 10
12.5
 20
145.0
 30
0.0
 11
17.5
 21
145.0
 31
0.0
  0
LINE
  5
BE
330
1E
100
AcDbEntity
  8
0
100
AcDbLine
 10
12.5
 20
144.388
 30
0.0
 11
12.5
 21
145.0
 31
0.0
  0
LINE
  5
BF
330
1E
100
AcDbEntity
  8
0
100
AcDbLine
 10
12.5
 20
144.388
 30
0.0
 11
12.5
 21
142.7559999999999
 31
0.0
  0
LINE
  5
C0
330
1E
100
AcDbEntity
  8
0
100
AcDbLine
 10
12.5
 20
142.7559999999999
 30
0.0
 11
12.5
 21
144.388
 31
0.0
  0
LINE
  5
C1
330
1E
100
AcDbEntity
  8
0
100
AcDbLine
 10
12.5
 20
142.7559999999999
 30
0.0
 11
12.5
 21
140.036
 31
0.0
  0
LINE
  5
C2
330
1E
100
AcDbEntity
  8
0
100
AcDbLine
 10
12.5
 20
141.4084
 30
0.0
 11
12.5
 21
140.0731
 31
0.0
  0
LINE
  5
C3
330
1E
100
AcDbEntity
  8
0
100
AcDbLine
 10
12.5
 20
141.4084
 30
0.0
 11
12.5
 21
141.9090999999999
 31
0.0
  0
LINE
  5
C4
330
1E
100
AcDbEntity
  8
0
100
AcDbLine
 10
12.5
 20
140.036
 30
0.0
 11
12.5
 21
142.7559999999999
 31
0.0
  0
LINE
  5
C5
330
1E
100
AcDbEntity
  8
0
100
AcDbLine
 10
12.5
 20
140.036
 30
0.0
 11
12.5
 21
136.432
 31
0.0
  0
LINE
  5
C6
330
1E
100
AcDbEntity
  8
0
100
AcDbLine
 10
12.5
 20
140.0731
 30
0.0
 11
12.5
 21
137.8476
 31
0.0
  0
LINE
  5
C7
330
1E
100
AcDbEntity
  8
0
100
AcDbLine
 10
12.5
 20
140.0731
 30
0.0
 11
12.5
 21
141.4084
 31
0.0
  0
LINE
  5
C8
330
1E
100
AcDbEntity
  8
0
100
AcDbLine
 10
12.5
 20
136.432
 30
0.0
 11
12.5
 21
140.036
 31
0.0
  0
LINE
  5
C9
330
1E
100
AcDbEntity
  8
0
100
AcDbLine
 10
12.5
 20
136.432
 30
0.0
 11
12.5
 21
132.352
 31
0.0
  0
LINE
  5
CA
330
1E
100
AcDbEntity
  8
0
100
AcDbLine
 10
12.5
 20
137.8476
 30
0.0
 11
12.5
 21
134.8988999999999
 31
0.0
  0
LINE
  5
CB
330
1E
100
AcDbEntity
  8
0
100
AcDbLine
 10
12.5
 20
137.8476
 30
0.0
 11
12.5
 21
140.0731
 31
0.0
  0
LINE
  5
CC
330
1E
100
AcDbEntity
  8
0
100
AcDbLine
 10
12.5
 20
134.8988999999999
 30
0.0
 11
12.5
 21
131.5606999999999
 31
0.0
  0
LINE
  5
CD
330
1E
100
AcDbEntity
  8
0
100
AcDbLine
 10
12.5
 20
134.8988999999999
 30
0.0
 11
12.5
 21
137.8476
 31
0.0
  0
LINE
  5
CE
330
1E
100
AcDbEntity
  8
0
100
AcDbLine
 10
12.5
 20
131.5606999999999
 30
0.0
 11
12.5
 21
128.0
 31
0.0
  0
LINE
  5
CF
330
1E
100
AcDbEntity
  8
0
100
AcDbLine
 10
12.5
 20
131.5606999999999
 30
0.0
 11
12.5
 21
134.8988999999999
 31
0.0
  0
LINE
  5
D0
330
1E
100
AcDbEntity
  8
0
100
AcDbLine
 10
12.5
 20
124.4393
 30
0.0
 11
12.5
 21
121.1011
 31
0.0
  0
LINE
  5
D1
330
1E
100
AcDbEntity
  8
0
100
AcDbLine
 10
12.5
 20
124.4393
 30
0.0
 11
12.5
 21
128.0
 31
0.0
  0
LINE
  5
D2
330
1E
100
AcDbEntity
  8
0
100
AcDbLine
 10
17.44599999999999
 20
75.0
 30
0.0
 11
17.539
 21
75.0
 31
0.0
  0
LINE
  5
D3
330
1E
100
AcDbEntity
  8
0
100
AcDbLine
 10
17.539
 20
75.0
 30
0.0
 11
18.0798518518519
 21
75.0
 31
0.0
  0
LINE
  5
D4
330
1E
100
AcDbEntity
  8
0
100
AcDbLine
 10
17.44599999999999
 20
92.0
 30
0.0
 11
17.539
 21
92.0
 31
0.0
  0
LINE
  5
D5
330
1E
100
AcDbEntity
  8
0
100
AcDbLine
 10
17.44599999999999
 20
92.0
 30
0.0
 11
17.44599999999999
 21
65.0
 31
0.0
  0
LINE
  5
D6
330
1E
100
AcDbEntity
  8
0
100
AcDbLine
 10
18.0798518518519
 20
75.0
 30
0.0
 11
19.771
 21
75.0
 31
0.0
  0
LINE
  5
D7
330
1E
100
AcDbEntity
  8
0
100
AcDbLine
 10
19.771
 20
75.0
 30
0.0
 11
22.002
 21
75.0
 31
0.0
  0
LINE
  5
D8
330
1E
100
AcDbEntity
  8
0
100
AcDbLine
 10
17.539
 20
92.0
 30
0.0
 11
18.422
 21
92.0
 31
0.0
  0
LINE
  5
D9
330
1E
100
AcDbEntity
  8
0
100
AcDbLine
 10
18.422
 20
92.0
 30
0.0
 11
19.771
 21
92.0
 31
0.0
  0
LINE
  5
DA
330
1E
100
AcDbEntity
  8
0
100
AcDbLine
 10
22.002
 20
75.0
 30
0.0
 11
25.581
 21
75.0
 31
0.0
  0
LINE
  5
DB
330
1E
100
AcDbEntity
  8
0
100
AcDbLine
 10
25.581
 20
75.0
 30
0.0
 11
28.742
 21
75.0
 31
0.0
  0
LINE
  5
DC
330
1E
100
AcDbEntity
  8
0
100
AcDbLine
 10
19.771
 20
92.0
 30
0.0
 11
22.002
 21
92.0
 31
0.0
  0
LINE
  5
DD
330
1E
100
AcDbEntity
  8
0
100
AcDbLine
 10
22.002
 20
92.0
 30
0.0
 11
25.581
 21
92.0
 31
0.0
  0
LINE
  5
DE
330
1E
100
AcDbEntity
  8
0
100
AcDbLine
 10
28.742
 20
75.0
 30
0.0
 11
32.74
 21
75.0
 31
0.0
  0
LINE
  5
DF
330
1E
100
AcDbEntity
  8
0
100
AcDbLine
 10
25.581
 20
92.0
 30
0.0
 11
28.742
 21
92.0
 31
0.0
  0
LINE
  5
E0
330
1E
100
AcDbEntity
  8
0
100
AcDbLine
 10
28.742
 20
92.0
 30
0.0
 11
32.74
 21
92.0
 31
0.0
  0
LINE
  5
E1
330
1E
100
AcDbEntity
  8
0
100
AcDbLine
 10
32.74
 20
75.0
 30
0.0
 11
36.878
 21
75.0
 31
0.0
  0
LINE
  5
E2
330
1E
100
AcDbEntity
  8
0
100
AcDbLine
 10
32.74
 20
92.0
 30
0.0
 11
36.878
 21
92.0
 31
0.0
  0
LINE
  5
E3
330
1E
100
AcDbEntity
  8
0
100
AcDbLine
 10
32.5
 20
92.0
 30
0.0
 11
32.5
 21
111.0
 31
0.0
  0
LINE
  5
E4
330
1E
100
AcDbEntity
  8
0
100
AcDbLine
 10
32.5
 20
111.0
 30
0.0
 11
32.5
 21
92.0
 31
0.0
  0
LINE
  5
E5
330
1E
100
AcDbEntity
  8
0
100
AcDbLine
 10
36.878
 20
75.0
 30
0.0
 11
40.68999999999999
 21
75.0
 31
0.0
  0
LINE
  5
E6
330
1E
100
AcDbEntity
  8
0
100
AcDbLine
 10
40.68999999999999
 20
75.0
 30
0.0
 11
45.05899999999999
 21
75.0
 31
0.0
  0
LINE
  5
E7
330
1E
100
AcDbEntity
  8
0
100
AcDbLine
 10
36.878
 20
92.0
 30
0.0
 11
40.68999999999999
 21
92.0
 31
0.0
  0
LINE
  5
E8
330
1E
100
AcDbEntity
  8
0
100
AcDbLine
 10
45.05899999999999
 20
75.0
 30
0.0
 11
50.763
 21
75.0
 31
0.0
  0
LINE
  5
E9
330
1E
100
AcDbEntity
  8
0
100
AcDbLine
 10
50.763
 20
75.0
 30
0.0
 11
60.0
 21
75.0
 31
0.0
  0
LINE
  5
EA
330
1E
100
AcDbEntity
  8
0
100
AcDbLine
 10
40.68999999999999
 20
92.0
 30
0.0
 11
45.05899999999999
 21
92.0
 31
0.0
  0
LINE
  5
EB
330
1E
100
AcDbEntity
  8
0
100
AcDbLine
 10
45.05899999999999
 20
92.0
 30
0.0
 11
50.763
 21
92.0
 31
0.0
  0
LINE
  5
EC
330
1E
100
AcDbEntity
  8
0
100
AcDbLine
 10
69.237
 20
75.0
 30
0.0
 11
74.941
 21
75.0
 31
0.0
  0
LINE
  5
ED
330
1E
100
AcDbEntity
  8
0
100
AcDbLine
 10
60.0
 20
75.0
 30
0.0
 11
69.237
 21
75.0
 31
0.0
  0
LINE
  5
EE
330
1E
100
AcDbEntity
  8
0
100
AcDbLine
 10
79.31
 20
75.0
 30
0.0
 11
83.12200000000002
 21
75.0
 31
0.0
  0
LINE
  5
EF
330
1E
100
AcDbEntity
  8
0
100
AcDbLine
 10
74.941
 20
75.0
 30
0.0
 11
79.31
 21
75.0
 31
0.0
  0
LINE
  5
F0
330
1E
100
AcDbEntity
  8
0
100
AcDbLine
 10
87.26
 20
75.0
 30
0.0
 11
91.25799999999999
 21
75.0
 31
0.0
  0
LINE
  5
F1
330
1E
100
AcDbEntity
  8
0
100
AcDbLine
 10
83.12200000000002
 20
75.0
 30
0.0
 11
87.26
 21
75.0
 31
0.0
  0
LINE
  5
F2
330
1E
100
AcDbEntity
  8
0
100
AcDbLine
 10
87.26
 20
92.0
 30
0.0
 11
91.25799999999999
 21
92.0
 31
0.0
  0
LINE
  5
F3
330
1E
100
AcDbEntity
  8
0
100
AcDbLine
 10
83.12200000000002
 20
92.0
 30
0.0
 11
87.26
 21
92.0
 31
0.0
  0
LINE
  5
F4
330
1E
100
AcDbEntity
  8
0
100
AcDbLine
 10
79.31
 20
92.0
 30
0.0
 11
83.12200000000002
 21
92.0
 31
0.0
  0
LINE
  5
F5
330
1E
100
AcDbEntity
  8
0
100
AcDbLine
 10
74.941
 20
92.0
 30
0.0
 11
79.31
 21
92.0
 31
0.0
  0
LINE
  5
F6
330
1E
100
AcDbEntity
  8
0
100
AcDbLine
 10
69.237
 20
92.0
 30
0.0
 11
74.941
 21
92.0
 31
0.0
  0
LINE
  5
F7
330
1E
100
AcDbEntity
  8
0
100
AcDbLine
 10
60.0
 20
92.0
 30
0.0
 11
69.237
 21
92.0
 31
0.0
  0
LINE
  5
F8
330
1E
100
AcDbEntity
  8
0
100
AcDbLine
 10
50.763
 20
92.0
 30
0.0
 11
60.0
 21
92.0
 31
0.0
  0
LINE
  5
FA
330
1E
100
AcDbEntity
  8
0
100
AcDbLine
 10
94.419
 20
75.0
 30
0.0
 11
97.99799999999999
 21
75.0
 31
0.0
  0
LINE
  5
FB
330
1E
100
AcDbEntity
  8
0
100
AcDbLine
 10
91.25799999999999
 20
75.0
 30
0.0
 11
94.419
 21
75.0
 31
0.0
  0
LINE
  5
FC
330
1E
100
AcDbEntity
  8
0
100
AcDbLine
 10
100.2289999999999
 20
75.0
 30
0.0
 11
101.5779999999999
 21
75.0
 31
0.0
  0
LINE
  5
FD
330
1E
100
AcDbEntity
  8
0
100
AcDbLine
 10
97.99799999999999
 20
75.0
 30
0.0
 11
100.2289999999999
 21
75.0
 31
0.0
  0
LINE
  5
FE
330
1E
100
AcDbEntity
  8
0
100
AcDbLine
 10
102.461
 20
75.0
 30
0.0
 11
102.554
 21
75.0
 31
0.0
  0
LINE
  5
FF
330
1E
100
AcDbEntity
  8
0
100
AcDbLine
 10
101.920148148148
 20
75.0
 30
0.0
 11
102.461
 21
75.0
 31
0.0
  0
LINE
  5
100
330
1E
100
AcDbEntity
  8
0
100
AcDbLine
 10
102.554
 20
92.0
 30
0.0
 11
102.554
 21
65.0
 31
0.0
  0
LINE
  5
101
330
1E
100
AcDbEntity
  8
0
100
AcDbLine
 10
102.461
 20
92.0
 30
0.0
 11
102.554
 21
92.0
 31
0.0
  0
LINE
  5
102
330
1E
100
AcDbEntity
  8
0
100
AcDbLine
 10
101.5779999999999
 20
92.0
 30
0.0
 11
102.461
 21
92.0
 31
0.0
  0
LINE
  5
103
330
1E
100
AcDbEntity
  8
0
100
AcDbLine
 10
100.2289999999999
 20
92.0
 30
0.0
 11
101.5779999999999
 21
92.0
 31
0.0
  0
LINE
  5
104
330
1E
100
AcDbEntity
  8
0
100
AcDbLine
 10
97.99799999999999
 20
92.0
 30
0.0
 11
100.2289999999999
 21
92.0
 31
0.0
  0
LINE
  5
105
330
1E
100
AcDbEntity
  8
0
100
AcDbLine
 10
94.419
 20
92.0
 30
0.0
 11
97.99799999999999
 21
92.0
 31
0.0
  0
LINE
  5
106
330
1E
100
AcDbEntity
  8
0
100
AcDbLine
 10
91.25799999999999
 20
92.0
 30
0.0
 11
94.419
 21
92.0
 31
0.0
  0
LINE
  5
107
330
1E
100
AcDbEntity
  8
0
100
AcDbLine
 10
87.5
 20
92.0
 30
0.0
 11
87.5
 21
111.0
 31
0.0
  0
LINE
  5
108
330
1E
100
AcDbEntity
  8
0
100
AcDbLine
 10
54.5
 20
99.0
 30
0.0
 11
54.5
 21
113.0
 31
0.0
  0
LINE
  5
109
330
1E
100
AcDbEntity
  8
0
100
AcDbLine
 10
54.5
 20
99.0
 30
0.0
 11
54.5
 21
112.0712
 31
0.0
  0
LINE
  5
10A
330
1E
100
AcDbEntity
  8
0
100
AcDbLine
 10
54.5
 20
99.0
 30
0.0
 11
65.5
 21
99.0
 31
0.0
  0
LINE
  5
10B
330
1E
100
AcDbEntity
  8
0
100
AcDbLine
 10
65.5
 20
99.0
 30
0.0
 11
65.5
 21
113.0
 31
0.0
  0
LINE
  5
10C
330
1E
100
AcDbEntity
  8
0
100
AcDbLine
 10
55.0
 20
99.0
 30
0.0
 11
65.0
 21
99.0
 31
0.0
  0
LINE
  5
10F
330
1E
100
AcDbEntity
  8
0
100
AcDbLine
 10
87.5
 20
111.0
 30
0.0
 11
87.5
 21
92.0
 31
0.0
  0
LINE
  5
110
330
1E
100
AcDbEntity
  8
0
100
AcDbLine
 10
85.0
 20
92.0
 30
0.0
 11
85.0
 21
135.0
 31
0.0
  0
LINE
  5
111
330
1E
100
AcDbEntity
  8
0
100
AcDbLine
 10
35.0
 20
92.0
 30
0.0
 11
35.0
 21
135.0
 31
0.0
  0
LINE
  5
112
330
1E
100
AcDbEntity
  8
0
100
AcDbLine
 10
85.00933333333341
 20
111.0
 30
0.0
 11
107.4999999999999
 21
111.0
 31
0.0
  0
LINE
  5
113
330
1E
100
AcDbEntity
  8
0
100
AcDbLine
 10
107.4999999999999
 20
111.0
 30
0.0
 11
107.4999999999999
 21
111.612
 31
0.0
  0
LINE
  5
116
330
1E
100
AcDbEntity
  8
0
100
AcDbLine
 10
54.5
 20
113.0
 30
0.0
 11
54.5
 21
99.0
 31
0.0
  0
LINE
  5
117
330
1E
100
AcDbEntity
  8
0
100
AcDbLine
 10
54.5
 20
113.0
 30
0.0
 11
65.5
 21
113.0
 31
0.0
  0
LINE
  5
118
330
1E
100
AcDbEntity
  8
0
100
AcDbLine
 10
54.5
 20
112.0712
 30
0.0
 11
54.5
 21
99.0
 31
0.0
  0
LINE
  5
11B
330
1E
100
AcDbEntity
  8
0
100
AcDbLine
 10
65.5
 20
113.0
 30
0.0
 11
65.5
 21
99.0
 31
0.0
  0
LINE
  5
11D
330
1E
100
AcDbEntity
  8
0
100
AcDbLine
 10
65.5
 20
112.0712
 30
0.0
 11
68.432
 21
113.244
 31
0.0
  0
LINE
  5
11E
330
1E
100
AcDbEntity
  8
0
100
AcDbLine
 10
85.00933333333341
 20
111.0
 30
0.0
 11
107.4999999999999
 21
111.0
 31
0.0
  0
LINE
  5
11F
330
1E
100
AcDbEntity
  8
0
100
AcDbLine
 10
107.4999999999999
 20
111.612
 30
0.0
 11
107.4999999999999
 21
111.0
 31
0.0
  0
LINE
  5
120
330
1E
100
AcDbEntity
  8
0
100
AcDbLine
 10
107.4999999999999
 20
111.612
 30
0.0
 11
107.4999999999999
 21
113.244
 31
0.0
  0
LINE
  5
121
330
1E
100
AcDbEntity
  8
0
100
AcDbLine
 10
51.568
 20
113.244
 30
0.0
 11
54.5
 21
112.0712
 31
0.0
  0
LINE
  5
122
330
1E
100
AcDbEntity
  8
0
100
AcDbLine
 10
56.43930000000001
 20
114.5915999999999
 30
0.0
 11
60.0
 21
114.0909
 31
0.0
  0
LINE
  5
123
330
1E
100
AcDbEntity
  8
0
100
AcDbLine
 10
53.1011
 20
115.9269
 30
0.0
 11
56.43930000000001
 21
114.5915999999999
 31
0.0
  0
LINE
  5
124
330
1E
100
AcDbEntity
  8
0
100
AcDbLine
 10
60.0
 20
114.0909
 30
0.0
 11
63.56069999999999
 21
114.5915999999999
 31
0.0
  0
LINE
  5
125
330
1E
100
AcDbEntity
  8
0
100
AcDbLine
 10
68.432
 20
113.244
 30
0.0
 11
72.036
 21
115.964
 31
0.0
  0
LINE
  5
126
330
1E
100
AcDbEntity
  8
0
100
AcDbLine
 10
63.56069999999999
 20
114.5915999999999
 30
0.0
 11
66.8989
 21
115.9269
 31
0.0
  0
LINE
  5
127
330
1E
100
AcDbEntity
  8
0
100
AcDbLine
 10
47.964
 20
115.964
 30
0.0
 11
51.568
 21
113.244
 31
0.0
  0
LINE
  5
128
330
1E
100
AcDbEntity
  8
0
100
AcDbLine
 10
50.1524
 20
118.1524
 30
0.0
 11
53.1011
 21
115.9269
 31
0.0
  0
LINE
  5
129
330
1E
100
AcDbEntity
  8
0
100
AcDbLine
 10
66.8989
 20
115.9269
 30
0.0
 11
69.8476
 21
118.1524
 31
0.0
  0
LINE
  5
12A
330
1E
100
AcDbEntity
  8
0
100
AcDbLine
 10
72.036
 20
115.964
 30
0.0
 11
74.756
 21
119.568
 31
0.0
  0
LINE
  5
12B
330
1E
100
AcDbEntity
  8
0
100
AcDbLine
 10
69.8476
 20
118.1524
 30
0.0
 11
72.07309999999999
 21
121.1011
 31
0.0
  0
LINE
  5
12C
330
1E
100
AcDbEntity
  8
0
100
AcDbLine
 10
107.4999999999999
 20
113.244
 30
0.0
 11
107.4999999999999
 21
111.612
 31
0.0
  0
LINE
  5
12D
330
1E
100
AcDbEntity
  8
0
100
AcDbLine
 10
107.4999999999999
 20
113.244
 30
0.0
 11
107.4999999999999
 21
115.964
 31
0.0
  0
LINE
  5
12E
330
1E
100
AcDbEntity
  8
0
100
AcDbLine
 10
107.4999999999999
 20
115.964
 30
0.0
 11
107.4999999999999
 21
113.244
 31
0.0
  0
LINE
  5
12F
330
1E
100
AcDbEntity
  8
0
100
AcDbLine
 10
107.4999999999999
 20
115.964
 30
0.0
 11
107.4999999999999
 21
119.568
 31
0.0
  0
LINE
  5
130
330
1E
100
AcDbEntity
  8
0
100
AcDbLine
 10
45.24399999999999
 20
119.568
 30
0.0
 11
47.964
 21
115.964
 31
0.0
  0
LINE
  5
131
330
1E
100
AcDbEntity
  8
0
100
AcDbLine
 10
47.9269
 20
121.1011
 30
0.0
 11
50.1524
 21
118.1524
 31
0.0
  0
LINE
  5
132
330
1E
100
AcDbEntity
  8
0
100
AcDbLine
 10
43.61199999999999
 20
123.648
 30
0.0
 11
45.24399999999999
 21
119.568
 31
0.0
  0
LINE
  5
133
330
1E
100
AcDbEntity
  8
0
100
AcDbLine
 10
43.0
 20
128.0
 30
0.0
 11
43.61199999999999
 21
123.648
 31
0.0
  0
LINE
  5
134
330
1E
100
AcDbEntity
  8
0
100
AcDbLine
 10
43.0
 20
128.0
 30
0.0
 11
43.61199999999999
 21
132.352
 31
0.0
  0
LINE
  5
135
330
1E
100
AcDbEntity
  8
0
100
AcDbLine
 10
46.59159999999999
 20
124.4393
 30
0.0
 11
47.9269
 21
121.1011
 31
0.0
  0
LINE
  5
136
330
1E
100
AcDbEntity
  8
0
100
AcDbLine
 10
46.0909
 20
128.0
 30
0.0
 11
46.59159999999999
 21
124.4393
 31
0.0
  0
LINE
  5
137
330
1E
100
AcDbEntity
  8
0
100
AcDbLine
 10
46.0909
 20
128.0
 30
0.0
 11
46.59159999999999
 21
131.5606999999999
 31
0.0
  0
LINE
  5
138
330
1E
100
AcDbEntity
  8
0
100
AcDbLine
 10
72.07309999999999
 20
121.1011
 30
0.0
 11
73.4084
 21
124.4393
 31
0.0
  0
LINE
  5
139
330
1E
100
AcDbEntity
  8
0
100
AcDbLine
 10
74.756
 20
119.568
 30
0.0
 11
76.388
 21
123.648
 31
0.0
  0
LINE
  5
13A
330
1E
100
AcDbEntity
  8
0
100
AcDbLine
 10
76.388
 20
123.648
 30
0.0
 11
77.0
 21
128.0
 31
0.0
  0
LINE
  5
13B
330
1E
100
AcDbEntity
  8
0
100
AcDbLine
 10
73.4084
 20
124.4393
 30
0.0
 11
73.90909999999999
 21
128.0
 31
0.0
  0
LINE
  5
13C
330
1E
100
AcDbEntity
  8
0
100
AcDbLine
 10
107.4999999999999
 20
119.568
 30
0.0
 11
107.4999999999999
 21
115.964
 31
0.0
  0
LINE
  5
13D
330
1E
100
AcDbEntity
  8
0
100
AcDbLine
 10
107.4999999999999
 20
119.568
 30
0.0
 11
107.4999999999999
 21
123.648
 31
0.0
  0
LINE
  5
13E
330
1E
100
AcDbEntity
  8
0
100
AcDbLine
 10
107.4999999999999
 20
123.648
 30
0.0
 11
107.4999999999999
 21
119.568
 31
0.0
  0
LINE
  5
13F
330
1E
100
AcDbEntity
  8
0
100
AcDbLine
 10
107.4999999999999
 20
123.648
 30
0.0
 11
107.4999999999999
 21
128.0
 31
0.0
  0
LINE
  5
140
330
1E
100
AcDbEntity
  8
0
100
AcDbLine
 10
21.76471
 20
139.0
 30
0.0
 11
21.97647
 21
139.0
 31
0.0
  0
LINE
  5
141
330
1E
100
AcDbEntity
  8
0
100
AcDbLine
 10
21.58822999999999
 20
139.0962
 30
0.0
 11
21.8
 21
139.0962
 31
0.0
  0
LINE
  5
142
330
1E
100
AcDbEntity
  8
0
100
AcDbLine
 10
21.58822999999999
 20
139.0962
 30
0.0
 11
21.76471
 21
139.0
 31
0.0
  0
LINE
  5
143
330
1E
100
AcDbEntity
  8
0
100
AcDbLine
 10
21.97647
 20
139.0
 30
0.0
 11
22.54119999999999
 21
139.0
 31
0.0
  0
LINE
  5
144
330
1E
100
AcDbEntity
  8
0
100
AcDbLine
 10
21.8
 20
139.0962
 30
0.0
 11
22.38234999999999
 21
139.0962
 31
0.0
  0
LINE
  5
145
330
1E
100
AcDbEntity
  8
0
100
AcDbLine
 10
21.49999999999999
 20
140.0
 30
0.0
 11
21.49999999999999
 21
139.2884999999999
 31
0.0
  0
LINE
  5
146
330
1E
100
AcDbEntity
  8
0
100
AcDbLine
 10
21.49999999999999
 20
140.0
 30
0.0
 11
21.71177
 21
140.0
 31
0.0
  0
LINE
  5
147
330
1E
100
AcDbEntity
  8
0
100
AcDbLine
 10
21.71177
 20
140.0
 30
0.0
 11
22.31176
 21
140.0
 31
0.0
  0
LINE
  5
148
330
1E
100
AcDbEntity
  8
0
100
AcDbLine
 10
22.31176
 20
140.0
 30
0.0
 11
23.2647
 21
140.0
 31
0.0
  0
LINE
  5
149
330
1E
100
AcDbEntity
  8
0
100
AcDbLine
 10
21.49999999999999
 20
139.2884999999999
 30
0.0
 11
21.58822999999999
 21
139.0962
 31
0.0
  0
LINE
  5
14A
330
1E
100
AcDbEntity
  8
0
100
AcDbLine
 10
21.49999999999999
 20
139.2884999999999
 30
0.0
 11
21.49999999999999
 21
140.0
 31
0.0
  0
LINE
  5
14B
330
1E
100
AcDbEntity
  8
0
100
AcDbLine
 10
22.38234999999999
 20
139.0962
 30
0.0
 11
23.3176
 21
139.0962
 31
0.0
  0
LINE
  5
14C
330
1E
100
AcDbEntity
  8
0
100
AcDbLine
 10
22.54119999999999
 20
139.0
 30
0.0
 11
23.44119999999999
 21
139.0
 31
0.0
  0
LINE
  5
14D
330
1E
100
AcDbEntity
  8
0
100
AcDbLine
 10
23.44119999999999
 20
139.0
 30
0.0
 11
24.6412
 21
139.0
 31
0.0
  0
LINE
  5
14E
330
1E
100
AcDbEntity
  8
0
100
AcDbLine
 10
26.0176
 20
139.0
 30
0.0
 11
27.5
 21
139.0
 31
0.0
  0
LINE
  5
14F
330
1E
100
AcDbEntity
  8
0
100
AcDbLine
 10
24.6412
 20
139.0
 30
0.0
 11
26.0176
 21
139.0
 31
0.0
  0
LINE
  5
150
330
1E
100
AcDbEntity
  8
0
100
AcDbLine
 10
27.5
 20
139.0
 30
0.0
 11
28.0
 21
139.0
 31
0.0
  0
LINE
  5
151
330
1E
100
AcDbEntity
  8
0
100
AcDbLine
 10
27.5
 20
139.0962
 30
0.0
 11
28.0
 21
139.0962
 31
0.0
  0
LINE
  5
152
330
1E
100
AcDbEntity
  8
0
100
AcDbLine
 10
25.9824
 20
139.0962
 30
0.0
 11
27.5
 21
139.0962
 31
0.0
  0
LINE
  5
153
330
1E
100
AcDbEntity
  8
0
100
AcDbLine
 10
24.5529
 20
139.0962
 30
0.0
 11
25.9824
 21
139.0962
 31
0.0
  0
LINE
  5
154
330
1E
100
AcDbEntity
  8
0
100
AcDbLine
 10
25.9647
 20
140.0
 30
0.0
 11
27.5
 21
140.0
 31
0.0
  0
LINE
  5
155
330
1E
100
AcDbEntity
  8
0
100
AcDbLine
 10
24.5176
 20
140.0
 30
0.0
 11
25.9647
 21
140.0
 31
0.0
  0
LINE
  5
156
330
1E
100
AcDbEntity
  8
0
100
AcDbLine
 10
23.2647
 20
140.0
 30
0.0
 11
24.5176
 21
140.0
 31
0.0
  0
LINE
  5
157
330
1E
100
AcDbEntity
  8
0
100
AcDbLine
 10
23.3176
 20
139.0962
 30
0.0
 11
24.5529
 21
139.0962
 31
0.0
  0
LINE
  5
158
330
1E
100
AcDbEntity
  8
0
100
AcDbLine
 10
33.016
 20
135.0
 30
0.0
 11
33.976
 21
135.0
 31
0.0
  0
LINE
  5
159
330
1E
100
AcDbEntity
  8
0
100
AcDbLine
 10
32.168
 20
135.0
 30
0.0
 11
33.016
 21
135.0
 31
0.0
  0
LINE
  5
15A
330
1E
100
AcDbEntity
  8
0
100
AcDbLine
 10
31.144
 20
135.0
 30
0.0
 11
31.528
 21
135.0
 31
0.0
  0
LINE
  5
15B
330
1E
100
AcDbEntity
  8
0
100
AcDbLine
 10
31.0
 20
135.0
 30
0.0
 11
31.144
 21
135.0
 31
0.0
  0
LINE
  5
15C
330
1E
100
AcDbEntity
  8
0
100
AcDbLine
 10
33.976
 20
135.0
 30
0.0
 11
35.0
 21
135.0
 31
0.0
  0
LINE
  5
15D
330
1E
100
AcDbEntity
  8
0
100
AcDbLine
 10
33.208
 20
135.0
 30
0.0
 11
35.0
 21
135.0
 31
0.0
  0
LINE
  5
15E
330
1E
100
AcDbEntity
  8
0
100
AcDbLine
 10
31.528
 20
135.0
 30
0.0
 11
33.208
 21
135.0
 31
0.0
  0
LINE
  5
15F
330
1E
100
AcDbEntity
  8
0
100
AcDbLine
 10
31.528
 20
135.0
 30
0.0
 11
32.168
 21
135.0
 31
0.0
  0
LINE
  5
160
330
1E
100
AcDbEntity
  8
0
100
AcDbLine
 10
30.044
 20
135.0
 30
0.0
 11
31.528
 21
135.0
 31
0.0
  0
LINE
  5
161
330
1E
100
AcDbEntity
  8
0
100
AcDbLine
 10
28.924
 20
135.0
 30
0.0
 11
30.044
 21
135.0
 31
0.0
  0
LINE
  5
162
330
1E
100
AcDbEntity
  8
0
100
AcDbLine
 10
28.252
 20
135.0
 30
0.0
 11
28.924
 21
135.0
 31
0.0
  0
LINE
  5
163
330
1E
100
AcDbEntity
  8
0
100
AcDbLine
 10
28.0
 20
135.0
 30
0.0
 11
28.252
 21
135.0
 31
0.0
  0
LINE
  5
164
330
1E
100
AcDbEntity
  8
0
100
AcDbLine
 10
28.0
 20
135.0
 30
0.0
 11
28.0
 21
140.0
 31
0.0
  0
LINE
  5
165
330
1E
100
AcDbEntity
  8
0
100
AcDbLine
 10
27.5
 20
140.0
 30
0.0
 11
28.0
 21
140.0
 31
0.0
  0
LINE
  5
166
330
1E
100
AcDbEntity
  8
0
100
AcDbLine
 10
24.94
 20
140.0
 30
0.0
 11
27.5
 21
140.0
 31
0.0
  0
LINE
  5
167
330
1E
100
AcDbEntity
  8
0
100
AcDbLine
 10
22.54
 20
140.0
 30
0.0
 11
24.94
 21
140.0
 31
0.0
  0
LINE
  5
168
330
1E
100
AcDbEntity
  8
0
100
AcDbLine
 10
20.42
 20
140.0
 30
0.0
 11
21.49999999999999
 21
140.0
 31
0.0
  0
LINE
  5
169
330
1E
100
AcDbEntity
  8
0
100
AcDbLine
 10
20.42
 20
140.0
 30
0.0
 11
22.54
 21
140.0
 31
0.0
  0
LINE
  5
16A
330
1E
100
AcDbEntity
  8
0
100
AcDbLine
 10
18.82
 20
140.0
 30
0.0
 11
20.42
 21
140.0
 31
0.0
  0
LINE
  5
16B
330
1E
100
AcDbEntity
  8
0
100
AcDbLine
 10
17.86
 20
140.0
 30
0.0
 11
18.82
 21
140.0
 31
0.0
  0
LINE
  5
16C
330
1E
100
AcDbEntity
  8
0
100
AcDbLine
 10
17.5
 20
140.0
 30
0.0
 11
17.5
 21
145.0
 31
0.0
  0
LINE
  5
16D
330
1E
100
AcDbEntity
  8
0
100
AcDbLine
 10
17.5
 20
140.0
 30
0.0
 11
17.86
 21
140.0
 31
0.0
  0
LINE
  5
16E
330
1E
100
AcDbEntity
  8
0
100
AcDbLine
 10
21.49999999999999
 20
145.0
 30
0.0
 11
21.49999999999999
 21
145.7114999999999
 31
0.0
  0
LINE
  5
16F
330
1E
100
AcDbEntity
  8
0
100
AcDbLine
 10
27.5
 20
145.0
 30
0.0
 11
28.0
 21
145.0
 31
0.0
  0
LINE
  5
170
330
1E
100
AcDbEntity
  8
0
100
AcDbLine
 10
24.94
 20
145.0
 30
0.0
 11
27.5
 21
145.0
 31
0.0
  0
LINE
  5
171
330
1E
100
AcDbEntity
  8
0
100
AcDbLine
 10
22.54
 20
145.0
 30
0.0
 11
24.94
 21
145.0
 31
0.0
  0
LINE
  5
172
330
1E
100
AcDbEntity
  8
0
100
AcDbLine
 10
20.42
 20
145.0
 30
0.0
 11
22.54
 21
145.0
 31
0.0
  0
LINE
  5
173
330
1E
100
AcDbEntity
  8
0
100
AcDbLine
 10
18.82
 20
145.0
 30
0.0
 11
20.42
 21
145.0
 31
0.0
  0
LINE
  5
174
330
1E
100
AcDbEntity
  8
0
100
AcDbLine
 10
17.86
 20
145.0
 30
0.0
 11
18.82
 21
145.0
 31
0.0
  0
LINE
  5
175
330
1E
100
AcDbEntity
  8
0
100
AcDbLine
 10
17.5
 20
145.0
 30
0.0
 11
17.86
 21
145.0
 31
0.0
  0
LINE
  5
176
330
1E
100
AcDbEntity
  8
0
100
AcDbLine
 10
17.5
 20
145.0
 30
0.0
 11
17.5
 21
140.0
 31
0.0
  0
LINE
  5
177
330
1E
100
AcDbEntity
  8
0
100
AcDbLine
 10
33.5
 20
145.0
 30
0.0
 11
33.5
 21
145.7114999999999
 31
0.0
  0
LINE
  5
178
330
1E
100
AcDbEntity
  8
0
100
AcDbLine
 10
33.208
 20
145.0
 30
0.0
 11
35.0
 21
145.0
 31
0.0
  0
LINE
  5
179
330
1E
100
AcDbEntity
  8
0
100
AcDbLine
 10
31.528
 20
145.0
 30
0.0
 11
33.208
 21
145.0
 31
0.0
  0
LINE
  5
17A
330
1E
100
AcDbEntity
  8
0
100
AcDbLine
 10
30.044
 20
145.0
 30
0.0
 11
31.528
 21
145.0
 31
0.0
  0
LINE
  5
17B
330
1E
100
AcDbEntity
  8
0
100
AcDbLine
 10
28.924
 20
145.0
 30
0.0
 11
30.044
 21
145.0
 31
0.0
  0
LINE
  5
17C
330
1E
100
AcDbEntity
  8
0
100
AcDbLine
 10
28.252
 20
145.0
 30
0.0
 11
28.924
 21
145.0
 31
0.0
  0
LINE
  5
17D
330
1E
100
AcDbEntity
  8
0
100
AcDbLine
 10
28.0
 20
145.0
 30
0.0
 11
28.0
 21
140.0
 31
0.0
  0
LINE
  5
17E
330
1E
100
AcDbEntity
  8
0
100
AcDbLine
 10
28.0
 20
145.0
 30
0.0
 11
28.252
 21
145.0
 31
0.0
  0
LINE
  5
17F
330
1E
100
AcDbEntity
  8
0
100
AcDbLine
 10
28.0
 20
140.0
 30
0.0
 11
28.0
 21
145.0
 31
0.0
  0
LINE
  5
180
330
1E
100
AcDbEntity
  8
0
100
AcDbLine
 10
28.0
 20
140.0
 30
0.0
 11
28.0
 21
135.0
 31
0.0
  0
LINE
  5
181
330
1E
100
AcDbEntity
  8
0
100
AcDbLine
 10
36.024
 20
135.0
 30
0.0
 11
36.984
 21
135.0
 31
0.0
  0
LINE
  5
182
330
1E
100
AcDbEntity
  8
0
100
AcDbLine
 10
36.984
 20
135.0
 30
0.0
 11
37.832
 21
135.0
 31
0.0
  0
LINE
  5
183
330
1E
100
AcDbEntity
  8
0
100
AcDbLine
 10
37.832
 20
135.0
 30
0.0
 11
38.472
 21
135.0
 31
0.0
  0
LINE
  5
184
330
1E
100
AcDbEntity
  8
0
100
AcDbLine
 10
36.792
 20
135.0
 30
0.0
 11
38.472
 21
135.0
 31
0.0
  0
LINE
  5
185
330
1E
100
AcDbEntity
  8
0
100
AcDbLine
 10
38.856
 20
135.0
 30
0.0
 11
39.0
 21
135.0
 31
0.0
  0
LINE
  5
186
330
1E
100
AcDbEntity
  8
0
100
AcDbLine
 10
38.472
 20
135.0
 30
0.0
 11
39.95599999999999
 21
135.0
 31
0.0
  0
LINE
  5
187
330
1E
100
AcDbEntity
  8
0
100
AcDbLine
 10
38.472
 20
135.0
 30
0.0
 11
38.856
 21
135.0
 31
0.0
  0
LINE
  5
188
330
1E
100
AcDbEntity
  8
0
100
AcDbLine
 10
39.95599999999999
 20
135.0
 30
0.0
 11
41.076
 21
135.0
 31
0.0
  0
LINE
  5
189
330
1E
100
AcDbEntity
  8
0
100
AcDbLine
 10
42.0
 20
135.0
 30
0.0
 11
44.18832941176471
 21
135.0
 31
0.0
  0
LINE
  5
18A
330
1E
100
AcDbEntity
  8
0
100
AcDbLine
 10
42.0
 20
135.0
 30
0.0
 11
44.5
 21
135.0
 31
0.0
  0
LINE
  5
18B
330
1E
100
AcDbEntity
  8
0
100
AcDbLine
 10
41.076
 20
135.0
 30
0.0
 11
41.748
 21
135.0
 31
0.0
  0
LINE
  5
18C
330
1E
100
AcDbEntity
  8
0
100
AcDbLine
 10
36.792
 20
145.0
 30
0.0
 11
38.472
 21
145.0
 31
0.0
  0
LINE
  5
18D
330
1E
100
AcDbEntity
  8
0
100
AcDbLine
 10
38.472
 20
145.0
 30
0.0
 11
39.95599999999999
 21
145.0
 31
0.0
  0
LINE
  5
18E
330
1E
100
AcDbEntity
  8
0
100
AcDbLine
 10
39.95599999999999
 20
145.0
 30
0.0
 11
41.076
 21
145.0
 31
0.0
  0
LINE
  5
18F
330
1E
100
AcDbEntity
  8
0
100
AcDbLine
 10
41.076
 20
145.0
 30
0.0
 11
41.748
 21
145.0
 31
0.0
  0
LINE
  5
190
330
1E
100
AcDbEntity
  8
0
100
AcDbLine
 10
42.0
 20
145.0
 30
0.0
 11
44.5
 21
145.0
 31
0.0
  0
LINE
  5
191
330
1E
100
AcDbEntity
  8
0
100
AcDbLine
 10
41.748
 20
145.0
 30
0.0
 11
42.0
 21
145.0
 31
0.0
  0
LINE
  5
192
330
1E
100
AcDbEntity
  8
0
100
AcDbLine
 10
41.748
 20
135.0
 30
0.0
 11
42.0
 21
135.0
 31
0.0
  0
LINE
  5
193
330
1E
100
AcDbEntity
  8
0
100
AcDbLine
 10
35.0
 20
135.0
 30
0.0
 11
35.0
 21
92.0
 31
0.0
  0
LINE
  5
194
330
1E
100
AcDbEntity
  8
0
100
AcDbLine
 10
35.0
 20
135.0
 30
0.0
 11
36.792
 21
135.0
 31
0.0
  0
LINE
  5
195
330
1E
100
AcDbEntity
  8
0
100
AcDbLine
 10
35.0
 20
135.0
 30
0.0
 11
36.024
 21
135.0
 31
0.0
  0
LINE
  5
196
330
1E
100
AcDbEntity
  8
0
100
AcDbLine
 10
35.0
 20
135.0
 30
0.0
 11
42.0
 21
135.0
 31
0.0
  0
LINE
  5
197
330
1E
100
AcDbEntity
  8
0
100
AcDbLine
 10
35.0
 20
145.0
 30
0.0
 11
35.0
 21
145.2692
 31
0.0
  0
LINE
  5
198
330
1E
100
AcDbEntity
  8
0
100
AcDbLine
 10
35.0
 20
145.0
 30
0.0
 11
36.792
 21
145.0
 31
0.0
  0
LINE
  5
199
330
1E
100
AcDbEntity
  8
0
100
AcDbLine
 10
73.4084
 20
131.5606999999999
 30
0.0
 11
73.90909999999999
 21
128.0
 31
0.0
  0
LINE
  5
19A
330
1E
100
AcDbEntity
  8
0
100
AcDbLine
 10
44.5
 20
135.0
 30
0.0
 11
44.5
 21
145.0
 31
0.0
  0
LINE
  5
19B
330
1E
100
AcDbEntity
  8
0
100
AcDbLine
 10
44.5
 20
145.0
 30
0.0
 11
60.0
 21
145.0
 31
0.0
  0
LINE
  5
19C
330
1E
100
AcDbEntity
  8
0
100
AcDbLine
 10
44.5
 20
145.0
 30
0.0
 11
44.5
 21
142.7559999999999
 31
0.0
  0
LINE
  5
19D
330
1E
100
AcDbEntity
  8
0
100
AcDbLine
 10
44.5
 20
145.0
 30
0.0
 11
44.5
 21
135.0
 31
0.0
  0
LINE
  5
19E
330
1E
100
AcDbEntity
  8
0
100
AcDbLine
 10
44.5
 20
142.7559999999999
 30
0.0
 11
44.5
 21
145.0
 31
0.0
  0
LINE
  5
19F
330
1E
100
AcDbEntity
  8
0
100
AcDbLine
 10
44.5
 20
142.7559999999999
 30
0.0
 11
44.5
 21
140.036
 31
0.0
  0
LINE
  5
1A0
330
1E
100
AcDbEntity
  8
0
100
AcDbLine
 10
44.5
 20
140.036
 30
0.0
 11
44.5
 21
142.7559999999999
 31
0.0
  0
LINE
  5
1A1
330
1E
100
AcDbEntity
  8
0
100
AcDbLine
 10
44.5
 20
140.036
 30
0.0
 11
44.5
 21
136.432
 31
0.0
  0
LINE
  5
1A2
330
1E
100
AcDbEntity
  8
0
100
AcDbLine
 10
76.388
 20
132.352
 30
0.0
 11
77.0
 21
128.0
 31
0.0
  0
LINE
  5
1A3
330
1E
100
AcDbEntity
  8
0
100
AcDbLine
 10
72.07309999999999
 20
134.8988999999999
 30
0.0
 11
73.4084
 21
131.5606999999999
 31
0.0
  0
LINE
  5
1A4
330
1E
100
AcDbEntity
  8
0
100
AcDbLine
 10
66.8989
 20
140.0731
 30
0.0
 11
69.8476
 21
137.8476
 31
0.0
  0
LINE
  5
1A5
330
1E
100
AcDbEntity
  8
0
100
AcDbLine
 10
75.5
 20
135.0
 30
0.0
 11
78.0
 21
135.0
 31
0.0
  0
LINE
  5
1A6
330
1E
100
AcDbEntity
  8
0
100
AcDbLine
 10
75.5
 20
135.0
 30
0.0
 11
75.5
 21
145.0
 31
0.0
  0
LINE
  5
1A7
330
1E
100
AcDbEntity
  8
0
100
AcDbLine
 10
80.044
 20
135.0
 30
0.0
 11
81.528
 21
135.0
 31
0.0
  0
LINE
  5
1A8
330
1E
100
AcDbEntity
  8
0
100
AcDbLine
 10
78.92399999999999
 20
135.0
 30
0.0
 11
80.044
 21
135.0
 31
0.0
  0
LINE
  5
1A9
330
1E
100
AcDbEntity
  8
0
100
AcDbLine
 10
78.25199999999999
 20
135.0
 30
0.0
 11
78.92399999999999
 21
135.0
 31
0.0
  0
LINE
  5
1AA
330
1E
100
AcDbEntity
  8
0
100
AcDbLine
 10
83.208
 20
135.0
 30
0.0
 11
85.0
 21
135.0
 31
0.0
  0
LINE
  5
1AB
330
1E
100
AcDbEntity
  8
0
100
AcDbLine
 10
83.976
 20
135.0
 30
0.0
 11
85.0
 21
135.0
 31
0.0
  0
LINE
  5
1AC
330
1E
100
AcDbEntity
  8
0
100
AcDbLine
 10
83.016
 20
135.0
 30
0.0
 11
83.976
 21
135.0
 31
0.0
  0
LINE
  5
1AD
330
1E
100
AcDbEntity
  8
0
100
AcDbLine
 10
82.16799999999999
 20
135.0
 30
0.0
 11
83.016
 21
135.0
 31
0.0
  0
LINE
  5
1AE
330
1E
100
AcDbEntity
  8
0
100
AcDbLine
 10
81.528
 20
135.0
 30
0.0
 11
82.16799999999999
 21
135.0
 31
0.0
  0
LINE
  5
1AF
330
1E
100
AcDbEntity
  8
0
100
AcDbLine
 10
81.528
 20
135.0
 30
0.0
 11
83.208
 21
135.0
 31
0.0
  0
LINE
  5
1B0
330
1E
100
AcDbEntity
  8
0
100
AcDbLine
 10
81.14399999999999
 20
135.0
 30
0.0
 11
81.528
 21
135.0
 31
0.0
  0
LINE
  5
1B1
330
1E
100
AcDbEntity
  8
0
100
AcDbLine
 10
81.0
 20
135.0
 30
0.0
 11
81.14399999999999
 21
135.0
 31
0.0
  0
LINE
  5
1B4
330
1E
100
AcDbEntity
  8
0
100
AcDbLine
 10
78.0
 20
135.0
 30
0.0
 11
85.0
 21
135.0
 31
0.0
  0
LINE
  5
1B5
330
1E
100
AcDbEntity
  8
0
100
AcDbLine
 10
78.0
 20
135.0
 30
0.0
 11
78.25199999999999
 21
135.0
 31
0.0
  0
LINE
  5
1B6
330
1E
100
AcDbEntity
  8
0
100
AcDbLine
 10
75.81167058823528
 20
135.0
 30
0.0
 11
78.0
 21
135.0
 31
0.0
  0
LINE
  5
1B7
330
1E
100
AcDbEntity
  8
0
100
AcDbLine
 10
86.79199999999999
 20
135.0
 30
0.0
 11
88.472
 21
135.0
 31
0.0
  0
LINE
  5
1B8
330
1E
100
AcDbEntity
  8
0
100
AcDbLine
 10
86.02400000000001
 20
135.0
 30
0.0
 11
86.98399999999999
 21
135.0
 31
0.0
  0
LINE
  5
1B9
330
1E
100
AcDbEntity
  8
0
100
AcDbLine
 10
86.98399999999999
 20
135.0
 30
0.0
 11
87.832
 21
135.0
 31
0.0
  0
LINE
  5
1BA
330
1E
100
AcDbEntity
  8
0
100
AcDbLine
 10
89.95600000000001
 20
135.0
 30
0.0
 11
91.07600000000001
 21
135.0
 31
0.0
  0
LINE
  5
1BB
330
1E
100
AcDbEntity
  8
0
100
AcDbLine
 10
87.832
 20
135.0
 30
0.0
 11
88.472
 21
135.0
 31
0.0
  0
LINE
  5
1BC
330
1E
100
AcDbEntity
  8
0
100
AcDbLine
 10
91.07600000000001
 20
135.0
 30
0.0
 11
91.74799999999999
 21
135.0
 31
0.0
  0
LINE
  5
1BD
330
1E
100
AcDbEntity
  8
0
100
AcDbLine
 10
88.472
 20
135.0
 30
0.0
 11
88.85600000000001
 21
135.0
 31
0.0
  0
LINE
  5
1BE
330
1E
100
AcDbEntity
  8
0
100
AcDbLine
 10
88.472
 20
135.0
 30
0.0
 11
89.95600000000001
 21
135.0
 31
0.0
  0
LINE
  5
1BF
330
1E
100
AcDbEntity
  8
0
100
AcDbLine
 10
92.0
 20
135.0
 30
0.0
 11
92.0
 21
140.0
 31
0.0
  0
LINE
  5
1C0
330
1E
100
AcDbEntity
  8
0
100
AcDbLine
 10
91.74799999999999
 20
135.0
 30
0.0
 11
92.0
 21
135.0
 31
0.0
  0
LINE
  5
1C1
330
1E
100
AcDbEntity
  8
0
100
AcDbLine
 10
88.85600000000001
 20
135.0
 30
0.0
 11
89.0
 21
135.0
 31
0.0
  0
LINE
  5
1C2
330
1E
100
AcDbEntity
  8
0
100
AcDbLine
 10
85.0
 20
135.0
 30
0.0
 11
85.0
 21
92.0
 31
0.0
  0
LINE
  5
1C3
330
1E
100
AcDbEntity
  8
0
100
AcDbLine
 10
85.0
 20
135.0
 30
0.0
 11
86.02400000000001
 21
135.0
 31
0.0
  0
LINE
  5
1C4
330
1E
100
AcDbEntity
  8
0
100
AcDbLine
 10
85.0
 20
135.0
 30
0.0
 11
86.79199999999999
 21
135.0
 31
0.0
  0
LINE
  5
1C5
330
1E
100
AcDbEntity
  8
0
100
AcDbLine
 10
92.0
 20
139.0
 30
0.0
 11
92.5
 21
139.0
 31
0.0
  0
LINE
  5
1C6
330
1E
100
AcDbEntity
  8
0
100
AcDbLine
 10
92.5
 20
139.0
 30
0.0
 11
93.98239999999999
 21
139.0
 31
0.0
  0
LINE
  5
1C7
330
1E
100
AcDbEntity
  8
0
100
AcDbLine
 10
93.98239999999999
 20
139.0
 30
0.0
 11
95.3588
 21
139.0
 31
0.0
  0
LINE
  5
1C8
330
1E
100
AcDbEntity
  8
0
100
AcDbLine
 10
92.0
 20
139.0962
 30
0.0
 11
92.5
 21
139.0962
 31
0.0
  0
LINE
  5
1C9
330
1E
100
AcDbEntity
  8
0
100
AcDbLine
 10
92.5
 20
139.0962
 30
0.0
 11
94.01760000000001
 21
139.0962
 31
0.0
  0
LINE
  5
1CA
330
1E
100
AcDbEntity
  8
0
100
AcDbLine
 10
94.03530000000001
 20
140.0
 30
0.0
 11
95.48239999999999
 21
140.0
 31
0.0
  0
LINE
  5
1CB
330
1E
100
AcDbEntity
  8
0
100
AcDbLine
 10
94.01760000000001
 20
139.0962
 30
0.0
 11
95.4471
 21
139.0962
 31
0.0
  0
LINE
  5
1CC
330
1E
100
AcDbEntity
  8
0
100
AcDbLine
 10
92.5
 20
140.0
 30
0.0
 11
95.06
 21
140.0
 31
0.0
  0
LINE
  5
1CD
330
1E
100
AcDbEntity
  8
0
100
AcDbLine
 10
92.5
 20
140.0
 30
0.0
 11
94.03530000000001
 21
140.0
 31
0.0
  0
LINE
  5
1CE
330
1E
100
AcDbEntity
  8
0
100
AcDbLine
 10
96.55880000000001
 20
139.0
 30
0.0
 11
97.45879999999999
 21
139.0
 31
0.0
  0
LINE
  5
1CF
330
1E
100
AcDbEntity
  8
0
100
AcDbLine
 10
95.3588
 20
139.0
 30
0.0
 11
96.55880000000001
 21
139.0
 31
0.0
  0
LINE
  5
1D0
330
1E
100
AcDbEntity
  8
0
100
AcDbLine
 10
95.48239999999999
 20
140.0
 30
0.0
 11
96.73529999999999
 21
140.0
 31
0.0
  0
LINE
  5
1D1
330
1E
100
AcDbEntity
  8
0
100
AcDbLine
 10
95.4471
 20
139.0962
 30
0.0
 11
96.6824
 21
139.0962
 31
0.0
  0
LINE
  5
1D2
330
1E
100
AcDbEntity
  8
0
100
AcDbLine
 10
98.0235
 20
139.0
 30
0.0
 11
98.23529999999999
 21
139.0
 31
0.0
  0
LINE
  5
1D3
330
1E
100
AcDbEntity
  8
0
100
AcDbLine
 10
97.45879999999999
 20
139.0
 30
0.0
 11
98.0235
 21
139.0
 31
0.0
  0
LINE
  5
1D4
330
1E
100
AcDbEntity
  8
0
100
AcDbLine
 10
98.41180000000001
 20
139.0962
 30
0.0
 11
98.50000000000001
 21
139.2884999999999
 31
0.0
  0
LINE
  5
1D5
330
1E
100
AcDbEntity
  8
0
100
AcDbLine
 10
98.23529999999999
 20
139.0
 30
0.0
 11
98.41180000000001
 21
139.0962
 31
0.0
  0
LINE
  5
1D6
330
1E
100
AcDbEntity
  8
0
100
AcDbLine
 10
98.2
 20
139.0962
 30
0.0
 11
98.41180000000001
 21
139.0962
 31
0.0
  0
LINE
  5
1D7
330
1E
100
AcDbEntity
  8
0
100
AcDbLine
 10
98.50000000000001
 20
139.2884999999999
 30
0.0
 11
98.50000000000001
 21
140.0
 31
0.0
  0
LINE
  5
1D8
330
1E
100
AcDbEntity
  8
0
100
AcDbLine
 10
98.2882
 20
140.0
 30
0.0
 11
98.50000000000001
 21
140.0
 31
0.0
  0
LINE
  5
1D9
330
1E
100
AcDbEntity
  8
0
100
AcDbLine
 10
97.68819999999999
 20
140.0
 30
0.0
 11
98.2882
 21
140.0
 31
0.0
  0
LINE
  5
1DA
330
1E
100
AcDbEntity
  8
0
100
AcDbLine
 10
96.73529999999999
 20
140.0
 30
0.0
 11
97.68819999999999
 21
140.0
 31
0.0
  0
LINE
  5
1DB
330
1E
100
AcDbEntity
  8
0
100
AcDbLine
 10
97.6176
 20
139.0962
 30
0.0
 11
98.2
 21
139.0962
 31
0.0
  0
LINE
  5
1DC
330
1E
100
AcDbEntity
  8
0
100
AcDbLine
 10
96.6824
 20
139.0962
 30
0.0
 11
97.6176
 21
139.0962
 31
0.0
  0
LINE
  5
1DD
330
1E
100
AcDbEntity
  8
0
100
AcDbLine
 10
98.50000000000001
 20
140.0
 30
0.0
 11
99.58
 21
140.0
 31
0.0
  0
LINE
  5
1DE
330
1E
100
AcDbEntity
  8
0
100
AcDbLine
 10
98.50000000000001
 20
140.0
 30
0.0
 11
98.50000000000001
 21
139.2884999999999
 31
0.0
  0
LINE
  5
1DF
330
1E
100
AcDbEntity
  8
0
100
AcDbLine
 10
95.06
 20
140.0
 30
0.0
 11
97.46
 21
140.0
 31
0.0
  0
LINE
  5
1E0
330
1E
100
AcDbEntity
  8
0
100
AcDbLine
 10
97.46
 20
140.0
 30
0.0
 11
99.58
 21
140.0
 31
0.0
  0
LINE
  5
1E1
330
1E
100
AcDbEntity
  8
0
100
AcDbLine
 10
99.58
 20
140.0
 30
0.0
 11
101.18
 21
140.0
 31
0.0
  0
LINE
  5
1E2
330
1E
100
AcDbEntity
  8
0
100
AcDbLine
 10
101.18
 20
140.0
 30
0.0
 11
102.14
 21
140.0
 31
0.0
  0
LINE
  5
1E3
330
1E
100
AcDbEntity
  8
0
100
AcDbLine
 10
102.14
 20
140.0
 30
0.0
 11
102.4999999999999
 21
140.0
 31
0.0
  0
LINE
  5
1E4
330
1E
100
AcDbEntity
  8
0
100
AcDbLine
 10
102.4999999999999
 20
140.0
 30
0.0
 11
102.4999999999999
 21
145.0
 31
0.0
  0
LINE
  5
1E7
330
1E
100
AcDbEntity
  8
0
100
AcDbLine
 10
92.0
 20
140.0
 30
0.0
 11
92.5
 21
140.0
 31
0.0
  0
LINE
  5
1E8
330
1E
100
AcDbEntity
  8
0
100
AcDbLine
 10
92.0
 20
140.0
 30
0.0
 11
92.0
 21
145.0
 31
0.0
  0
LINE
  5
1E9
330
1E
100
AcDbEntity
  8
0
100
AcDbLine
 10
92.0
 20
140.0
 30
0.0
 11
92.0
 21
135.0
 31
0.0
  0
LINE
  5
1EA
330
1E
100
AcDbEntity
  8
0
100
AcDbLine
 10
75.5
 20
140.036
 30
0.0
 11
75.5
 21
142.7559999999999
 31
0.0
  0
LINE
  5
1EB
330
1E
100
AcDbEntity
  8
0
100
AcDbLine
 10
75.5
 20
140.036
 30
0.0
 11
75.5
 21
136.432
 31
0.0
  0
LINE
  5
1EC
330
1E
100
AcDbEntity
  8
0
100
AcDbLine
 10
75.5
 20
135.0
 30
0.0
 11
76.388
 21
132.352
 31
0.0
  0
LINE
  5
1ED
330
1E
100
AcDbEntity
  8
0
100
AcDbLine
 10
75.5
 20
136.432
 30
0.0
 11
75.5
 21
140.036
 31
0.0
  0
LINE
  5
1EE
330
1E
100
AcDbEntity
  8
0
100
AcDbLine
 10
69.8476
 20
137.8476
 30
0.0
 11
72.07309999999999
 21
134.8988999999999
 31
0.0
  0
LINE
  5
1EF
330
1E
100
AcDbEntity
  8
0
100
AcDbLine
 10
60.0
 20
145.0
 30
0.0
 11
75.5
 21
145.0
 31
0.0
  0
LINE
  5
1F0
330
1E
100
AcDbEntity
  8
0
100
AcDbLine
 10
86.5
 20
145.0
 30
0.0
 11
86.5
 21
145.7114999999999
 31
0.0
  0
LINE
  5
1F1
330
1E
100
AcDbEntity
  8
0
100
AcDbLine
 10
86.79199999999999
 20
145.0
 30
0.0
 11
88.472
 21
145.0
 31
0.0
  0
LINE
  5
1F2
330
1E
100
AcDbEntity
  8
0
100
AcDbLine
 10
88.472
 20
145.0
 30
0.0
 11
89.95600000000001
 21
145.0
 31
0.0
  0
LINE
  5
1F3
330
1E
100
AcDbEntity
  8
0
100
AcDbLine
 10
89.95600000000001
 20
145.0
 30
0.0
 11
91.07600000000001
 21
145.0
 31
0.0
  0
LINE
  5
1F4
330
1E
100
AcDbEntity
  8
0
100
AcDbLine
 10
91.07600000000001
 20
145.0
 30
0.0
 11
91.74799999999999
 21
145.0
 31
0.0
  0
LINE
  5
1F5
330
1E
100
AcDbEntity
  8
0
100
AcDbLine
 10
91.74799999999999
 20
145.0
 30
0.0
 11
92.0
 21
145.0
 31
0.0
  0
LINE
  5
1F6
330
1E
100
AcDbEntity
  8
0
100
AcDbLine
 10
83.208
 20
145.0
 30
0.0
 11
85.0
 21
145.0
 31
0.0
  0
LINE
  5
1F7
330
1E
100
AcDbEntity
  8
0
100
AcDbLine
 10
81.528
 20
145.0
 30
0.0
 11
83.208
 21
145.0
 31
0.0
  0
LINE
  5
1F8
330
1E
100
AcDbEntity
  8
0
100
AcDbLine
 10
80.044
 20
145.0
 30
0.0
 11
81.528
 21
145.0
 31
0.0
  0
LINE
  5
1F9
330
1E
100
AcDbEntity
  8
0
100
AcDbLine
 10
78.92399999999999
 20
145.0
 30
0.0
 11
80.044
 21
145.0
 31
0.0
  0
LINE
  5
1FA
330
1E
100
AcDbEntity
  8
0
100
AcDbLine
 10
78.25199999999999
 20
145.0
 30
0.0
 11
78.92399999999999
 21
145.0
 31
0.0
  0
LINE
  5
1FD
330
1E
100
AcDbEntity
  8
0
100
AcDbLine
 10
78.0
 20
145.0
 30
0.0
 11
78.25199999999999
 21
145.0
 31
0.0
  0
LINE
  5
1FE
330
1E
100
AcDbEntity
  8
0
100
AcDbLine
 10
92.5
 20
145.0
 30
0.0
 11
95.06
 21
145.0
 31
0.0
  0
LINE
  5
1FF
330
1E
100
AcDbEntity
  8
0
100
AcDbLine
 10
95.06
 20
145.0
 30
0.0
 11
97.46
 21
145.0
 31
0.0
  0
LINE
  5
200
330
1E
100
AcDbEntity
  8
0
100
AcDbLine
 10
98.50000000000001
 20
145.0
 30
0.0
 11
98.50000000000001
 21
145.7114999999999
 31
0.0
  0
LINE
  5
201
330
1E
100
AcDbEntity
  8
0
100
AcDbLine
 10
97.46
 20
145.0
 30
0.0
 11
99.58
 21
145.0
 31
0.0
  0
LINE
  5
202
330
1E
100
AcDbEntity
  8
0
100
AcDbLine
 10
99.58
 20
145.0
 30
0.0
 11
101.18
 21
145.0
 31
0.0
  0
LINE
  5
203
330
1E
100
AcDbEntity
  8
0
100
AcDbLine
 10
101.18
 20
145.0
 30
0.0
 11
102.14
 21
145.0
 31
0.0
  0
LINE
  5
204
330
1E
100
AcDbEntity
  8
0
100
AcDbLine
 10
102.14
 20
145.0
 30
0.0
 11
102.4999999999999
 21
145.0
 31
0.0
  0
LINE
  5
205
330
1E
100
AcDbEntity
  8
0
100
AcDbLine
 10
92.0
 20
145.0
 30
0.0
 11
92.5
 21
145.0
 31
0.0
  0
LINE
  5
206
330
1E
100
AcDbEntity
  8
0
100
AcDbLine
 10
92.0
 20
145.0
 30
0.0
 11
92.0
 21
140.0
 31
0.0
  0
LINE
  5
207
330
1E
100
AcDbEntity
  8
0
100
AcDbLine
 10
85.0
 20
145.0
 30
0.0
 11
85.0
 21
145.2692
 31
0.0
  0
LINE
  5
208
330
1E
100
AcDbEntity
  8
0
100
AcDbLine
 10
85.0
 20
145.0
 30
0.0
 11
86.79199999999999
 21
145.0
 31
0.0
  0
LINE
  5
209
330
1E
100
AcDbEntity
  8
0
100
AcDbLine
 10
75.5
 20
145.0
 30
0.0
 11
75.5
 21
142.7559999999999
 31
0.0
  0
LINE
  5
20A
330
1E
100
AcDbEntity
  8
0
100
AcDbLine
 10
75.5
 20
145.0
 30
0.0
 11
75.5
 21
135.0
 31
0.0
  0
LINE
  5
20B
330
1E
100
AcDbEntity
  8
0
100
AcDbLine
 10
75.5
 20
145.0
 30
0.0
 11
78.0
 21
145.0
 31
0.0
  0
LINE
  5
20C
330
1E
100
AcDbEntity
  8
0
100
AcDbLine
 10
75.5
 20
142.7559999999999
 30
0.0
 11
75.5
 21
145.0
 31
0.0
  0
LINE
  5
20D
330
1E
100
AcDbEntity
  8
0
100
AcDbLine
 10
75.5
 20
142.7559999999999
 30
0.0
 11
75.5
 21
140.036
 31
0.0
  0
LINE
  5
20E
330
1E
100
AcDbEntity
  8
0
100
AcDbLine
 10
60.0
 20
141.9090999999999
 30
0.0
 11
63.56069999999999
 21
141.4084
 31
0.0
  0
LINE
  5
20F
330
1E
100
AcDbEntity
  8
0
100
AcDbLine
 10
63.56069999999999
 20
141.4084
 30
0.0
 11
66.8989
 21
140.0731
 31
0.0
  0
LINE
  5
210
330
1E
100
AcDbEntity
  8
0
100
AcDbLine
 10
56.43930000000001
 20
141.4084
 30
0.0
 11
60.0
 21
141.9090999999999
 31
0.0
  0
LINE
  5
211
330
1E
100
AcDbEntity
  8
0
100
AcDbLine
 10
53.1011
 20
140.0731
 30
0.0
 11
56.43930000000001
 21
141.4084
 31
0.0
  0
LINE
  5
212
330
1E
100
AcDbEntity
  8
0
100
AcDbLine
 10
50.1524
 20
137.8476
 30
0.0
 11
53.1011
 21
140.0731
 31
0.0
  0
LINE
  5
213
330
1E
100
AcDbEntity
  8
0
100
AcDbLine
 10
47.9269
 20
134.8988999999999
 30
0.0
 11
50.1524
 21
137.8476
 31
0.0
  0
LINE
  5
214
330
1E
100
AcDbEntity
  8
0
100
AcDbLine
 10
44.5
 20
136.432
 30
0.0
 11
44.5
 21
140.036
 31
0.0
  0
LINE
  5
215
330
1E
100
AcDbEntity
  8
0
100
AcDbLine
 10
46.59159999999999
 20
131.5606999999999
 30
0.0
 11
47.9269
 21
134.8988999999999
 31
0.0
  0
LINE
  5
216
330
1E
100
AcDbEntity
  8
0
100
AcDbLine
 10
43.61199999999999
 20
132.352
 30
0.0
 11
44.1883294117647
 21
135.0
 31
0.0
  0
LINE
  5
217
330
1E
100
AcDbEntity
  8
0
100
AcDbLine
 10
21.49999999999999
 20
145.7114999999999
 30
0.0
 11
21.58822999999999
 21
145.9037999999999
 31
0.0
  0
LINE
  5
218
330
1E
100
AcDbEntity
  8
0
100
AcDbLine
 10
21.49999999999999
 20
145.7114999999999
 30
0.0
 11
21.49999999999999
 21
145.0
 31
0.0
  0
LINE
  5
219
330
1E
100
AcDbEntity
  8
0
100
AcDbLine
 10
21.58822999999999
 20
145.9037999999999
 30
0.0
 11
21.8
 21
145.9037999999999
 31
0.0
  0
LINE
  5
21A
330
1E
100
AcDbEntity
  8
0
100
AcDbLine
 10
21.58822999999999
 20
145.9037999999999
 30
0.0
 11
21.76471
 21
146.0
 31
0.0
  0
LINE
  5
21B
330
1E
100
AcDbEntity
  8
0
100
AcDbLine
 10
21.8
 20
145.9037999999999
 30
0.0
 11
22.38234999999999
 21
145.9037999999999
 31
0.0
  0
LINE
  5
21C
330
1E
100
AcDbEntity
  8
0
100
AcDbLine
 10
27.5
 20
145.9037999999999
 30
0.0
 11
29.0177
 21
145.9037999999999
 31
0.0
  0
LINE
  5
21D
330
1E
100
AcDbEntity
  8
0
100
AcDbLine
 10
29.0177
 20
145.9037999999999
 30
0.0
 11
30.4471
 21
145.9037999999999
 31
0.0
  0
LINE
  5
21E
330
1E
100
AcDbEntity
  8
0
100
AcDbLine
 10
30.4471
 20
145.9037999999999
 30
0.0
 11
31.6824
 21
145.9037999999999
 31
0.0
  0
LINE
  5
21F
330
1E
100
AcDbEntity
  8
0
100
AcDbLine
 10
25.9824
 20
145.9037999999999
 30
0.0
 11
27.5
 21
145.9037999999999
 31
0.0
  0
LINE
  5
220
330
1E
100
AcDbEntity
  8
0
100
AcDbLine
 10
24.5529
 20
145.9037999999999
 30
0.0
 11
25.9824
 21
145.9037999999999
 31
0.0
  0
LINE
  5
221
330
1E
100
AcDbEntity
  8
0
100
AcDbLine
 10
23.3176
 20
145.9037999999999
 30
0.0
 11
24.5529
 21
145.9037999999999
 31
0.0
  0
LINE
  5
222
330
1E
100
AcDbEntity
  8
0
100
AcDbLine
 10
22.38234999999999
 20
145.9037999999999
 30
0.0
 11
23.3176
 21
145.9037999999999
 31
0.0
  0
LINE
  5
223
330
1E
100
AcDbEntity
  8
0
100
AcDbLine
 10
21.76471
 20
146.0
 30
0.0
 11
21.97647
 21
146.0
 31
0.0
  0
LINE
  5
224
330
1E
100
AcDbEntity
  8
0
100
AcDbLine
 10
21.97647
 20
146.0
 30
0.0
 11
22.54119999999999
 21
146.0
 31
0.0
  0
LINE
  5
225
330
1E
100
AcDbEntity
  8
0
100
AcDbLine
 10
27.5
 20
146.0
 30
0.0
 11
28.98229999999999
 21
146.0
 31
0.0
  0
LINE
  5
226
330
1E
100
AcDbEntity
  8
0
100
AcDbLine
 10
28.98229999999999
 20
146.0
 30
0.0
 11
30.3588
 21
146.0
 31
0.0
  0
LINE
  5
227
330
1E
100
AcDbEntity
  8
0
100
AcDbLine
 10
30.3588
 20
146.0
 30
0.0
 11
31.5588
 21
146.0
 31
0.0
  0
LINE
  5
228
330
1E
100
AcDbEntity
  8
0
100
AcDbLine
 10
26.0176
 20
146.0
 30
0.0
 11
27.5
 21
146.0
 31
0.0
  0
LINE
  5
229
330
1E
100
AcDbEntity
  8
0
100
AcDbLine
 10
24.6412
 20
146.0
 30
0.0
 11
26.0176
 21
146.0
 31
0.0
  0
LINE
  5
22A
330
1E
100
AcDbEntity
  8
0
100
AcDbLine
 10
23.44119999999999
 20
146.0
 30
0.0
 11
24.6412
 21
146.0
 31
0.0
  0
LINE
  5
22B
330
1E
100
AcDbEntity
  8
0
100
AcDbLine
 10
22.54119999999999
 20
146.0
 30
0.0
 11
23.44119999999999
 21
146.0
 31
0.0
  0
LINE
  5
22C
330
1E
100
AcDbEntity
  8
0
100
AcDbLine
 10
31.6824
 20
145.9037999999999
 30
0.0
 11
32.6176
 21
145.9037999999999
 31
0.0
  0
LINE
  5
22D
330
1E
100
AcDbEntity
  8
0
100
AcDbLine
 10
33.5
 20
145.7114999999999
 30
0.0
 11
33.5
 21
145.0
 31
0.0
  0
LINE
  5
22E
330
1E
100
AcDbEntity
  8
0
100
AcDbLine
 10
33.4118
 20
145.9037999999999
 30
0.0
 11
33.5
 21
145.7114999999999
 31
0.0
  0
LINE
  5
22F
330
1E
100
AcDbEntity
  8
0
100
AcDbLine
 10
33.2353
 20
146.0
 30
0.0
 11
33.4118
 21
145.9037999999999
 31
0.0
  0
LINE
  5
230
330
1E
100
AcDbEntity
  8
0
100
AcDbLine
 10
33.2
 20
145.9037999999999
 30
0.0
 11
33.4118
 21
145.9037999999999
 31
0.0
  0
LINE
  5
231
330
1E
100
AcDbEntity
  8
0
100
AcDbLine
 10
32.6176
 20
145.9037999999999
 30
0.0
 11
33.2
 21
145.9037999999999
 31
0.0
  0
LINE
  5
232
330
1E
100
AcDbEntity
  8
0
100
AcDbLine
 10
33.0235
 20
146.0
 30
0.0
 11
33.2353
 21
146.0
 31
0.0
  0
LINE
  5
233
330
1E
100
AcDbEntity
  8
0
100
AcDbLine
 10
32.45879999999999
 20
146.0
 30
0.0
 11
33.0235
 21
146.0
 31
0.0
  0
LINE
  5
234
330
1E
100
AcDbEntity
  8
0
100
AcDbLine
 10
31.5588
 20
146.0
 30
0.0
 11
32.45879999999999
 21
146.0
 31
0.0
  0
LINE
  5
23D
330
1E
100
AcDbEntity
  8
0
100
AcDbLine
 10
84.6324
 20
146.4231
 30
0.0
 11
85.0
 21
145.2692
 31
0.0
  0
LINE
  5
23E
330
1E
100
AcDbEntity
  8
0
100
AcDbLine
 10
86.5
 20
145.7114999999999
 30
0.0
 11
86.5882
 21
145.9037999999999
 31
0.0
  0
LINE
  5
23F
330
1E
100
AcDbEntity
  8
0
100
AcDbLine
 10
86.5
 20
145.7114999999999
 30
0.0
 11
86.5
 21
145.0
 31
0.0
  0
LINE
  5
240
330
1E
100
AcDbEntity
  8
0
100
AcDbLine
 10
86.5882
 20
145.9037999999999
 30
0.0
 11
86.79999999999999
 21
145.9037999999999
 31
0.0
  0
LINE
  5
241
330
1E
100
AcDbEntity
  8
0
100
AcDbLine
 10
86.5882
 20
145.9037999999999
 30
0.0
 11
86.7647
 21
146.0
 31
0.0
  0
LINE
  5
242
330
1E
100
AcDbEntity
  8
0
100
AcDbLine
 10
86.79999999999999
 20
145.9037999999999
 30
0.0
 11
87.38240000000001
 21
145.9037999999999
 31
0.0
  0
LINE
  5
243
330
1E
100
AcDbEntity
  8
0
100
AcDbLine
 10
86.7647
 20
146.0
 30
0.0
 11
86.97650000000001
 21
146.0
 31
0.0
  0
LINE
  5
244
330
1E
100
AcDbEntity
  8
0
100
AcDbLine
 10
90.9824
 20
145.9037999999999
 30
0.0
 11
92.5
 21
145.9037999999999
 31
0.0
  0
LINE
  5
245
330
1E
100
AcDbEntity
  8
0
100
AcDbLine
 10
89.55289999999999
 20
145.9037999999999
 30
0.0
 11
90.9824
 21
145.9037999999999
 31
0.0
  0
LINE
  5
246
330
1E
100
AcDbEntity
  8
0
100
AcDbLine
 10
88.3176
 20
145.9037999999999
 30
0.0
 11
89.55289999999999
 21
145.9037999999999
 31
0.0
  0
LINE
  5
247
330
1E
100
AcDbEntity
  8
0
100
AcDbLine
 10
92.5
 20
145.9037999999999
 30
0.0
 11
94.01760000000001
 21
145.9037999999999
 31
0.0
  0
LINE
  5
248
330
1E
100
AcDbEntity
  8
0
100
AcDbLine
 10
94.01760000000001
 20
145.9037999999999
 30
0.0
 11
95.4471
 21
145.9037999999999
 31
0.0
  0
LINE
  5
249
330
1E
100
AcDbEntity
  8
0
100
AcDbLine
 10
95.4471
 20
145.9037999999999
 30
0.0
 11
96.6824
 21
145.9037999999999
 31
0.0
  0
LINE
  5
24A
330
1E
100
AcDbEntity
  8
0
100
AcDbLine
 10
98.50000000000001
 20
145.7114999999999
 30
0.0
 11
98.50000000000001
 21
145.0
 31
0.0
  0
LINE
  5
24B
330
1E
100
AcDbEntity
  8
0
100
AcDbLine
 10
98.41180000000001
 20
145.9037999999999
 30
0.0
 11
98.50000000000001
 21
145.7114999999999
 31
0.0
  0
LINE
  5
24C
330
1E
100
AcDbEntity
  8
0
100
AcDbLine
 10
98.2
 20
145.9037999999999
 30
0.0
 11
98.41180000000001
 21
145.9037999999999
 31
0.0
  0
LINE
  5
24D
330
1E
100
AcDbEntity
  8
0
100
AcDbLine
 10
97.6176
 20
145.9037999999999
 30
0.0
 11
98.2
 21
145.9037999999999
 31
0.0
  0
LINE
  5
24E
330
1E
100
AcDbEntity
  8
0
100
AcDbLine
 10
96.6824
 20
145.9037999999999
 30
0.0
 11
97.6176
 21
145.9037999999999
 31
0.0
  0
LINE
  5
24F
330
1E
100
AcDbEntity
  8
0
100
AcDbLine
 10
91.0176
 20
146.0
 30
0.0
 11
92.5
 21
146.0
 31
0.0
  0
LINE
  5
250
330
1E
100
AcDbEntity
  8
0
100
AcDbLine
 10
89.64119999999999
 20
146.0
 30
0.0
 11
91.0176
 21
146.0
 31
0.0
  0
LINE
  5
251
330
1E
100
AcDbEntity
  8
0
100
AcDbLine
 10
88.4412
 20
146.0
 30
0.0
 11
89.64119999999999
 21
146.0
 31
0.0
  0
LINE
  5
252
330
1E
100
AcDbEntity
  8
0
100
AcDbLine
 10
92.5
 20
146.0
 30
0.0
 11
93.98239999999999
 21
146.0
 31
0.0
  0
LINE
  5
253
330
1E
100
AcDbEntity
  8
0
100
AcDbLine
 10
93.98239999999999
 20
146.0
 30
0.0
 11
95.3588
 21
146.0
 31
0.0
  0
LINE
  5
254
330
1E
100
AcDbEntity
  8
0
100
AcDbLine
 10
95.3588
 20
146.0
 30
0.0
 11
96.55880000000001
 21
146.0
 31
0.0
  0
LINE
  5
255
330
1E
100
AcDbEntity
  8
0
100
AcDbLine
 10
98.23529999999999
 20
146.0
 30
0.0
 11
98.41180000000001
 21
145.9037999999999
 31
0.0
  0
LINE
  5
256
330
1E
100
AcDbEntity
  8
0
100
AcDbLine
 10
98.0235
 20
146.0
 30
0.0
 11
98.23529999999999
 21
146.0
 31
0.0
  0
LINE
  5
257
330
1E
100
AcDbEntity
  8
0
100
AcDbLine
 10
97.45879999999999
 20
146.0
 30
0.0
 11
98.0235
 21
146.0
 31
0.0
  0
LINE
  5
258
330
1E
100
AcDbEntity
  8
0
100
AcDbLine
 10
96.55880000000001
 20
146.0
 30
0.0
 11
97.45879999999999
 21
146.0
 31
0.0
  0
LINE
  5
259
330
1E
100
AcDbEntity
  8
0
100
AcDbLine
 10
87.38240000000001
 20
145.9037999999999
 30
0.0
 11
88.3176
 21
145.9037999999999
 31
0.0
  0
LINE
  5
25A
330
1E
100
AcDbEntity
  8
0
100
AcDbLine
 10
86.97650000000001
 20
146.0
 30
0.0
 11
87.5412
 21
146.0
 31
0.0
  0
LINE
  5
25B
330
1E
100
AcDbEntity
  8
0
100
AcDbLine
 10
87.5412
 20
146.0
 30
0.0
 11
88.4412
 21
146.0
 31
0.0
  0
LINE
  5
25C
330
1E
100
AcDbEntity
  8
0
100
AcDbLine
 10
85.0
 20
145.2692
 30
0.0
 11
85.0
 21
145.0
 31
0.0
  0
LINE
  5
25D
330
1E
100
AcDbEntity
  8
0
100
AcDbLine
 10
39.3382
 20
147.0
 30
0.0
 11
43.08819999999999
 21
147.0
 31
0.0
  0
LINE
  5
25E
330
1E
100
AcDbEntity
  8
0
100
AcDbLine
 10
36.9853
 20
147.0
 30
0.0
 11
39.3382
 21
147.0
 31
0.0
  0
LINE
  5
25F
330
1E
100
AcDbEntity
  8
0
100
AcDbLine
 10
36.10289999999999
 20
147.0
 30
0.0
 11
36.9853
 21
147.0
 31
0.0
  0
LINE
  5
260
330
1E
100
AcDbEntity
  8
0
100
AcDbLine
 10
43.08819999999999
 20
147.0
 30
0.0
 11
48.0882
 21
147.0
 31
0.0
  0
LINE
  5
261
330
1E
100
AcDbEntity
  8
0
100
AcDbLine
 10
48.0882
 20
147.0
 30
0.0
 11
53.8235
 21
147.0
 31
0.0
  0
LINE
  5
262
330
1E
100
AcDbEntity
  8
0
100
AcDbLine
 10
53.8235
 20
147.0
 30
0.0
 11
60.0
 21
147.0
 31
0.0
  0
LINE
  5
263
330
1E
100
AcDbEntity
  8
0
100
AcDbLine
 10
76.9118
 20
147.0
 30
0.0
 11
80.66180000000001
 21
147.0
 31
0.0
  0
LINE
  5
264
330
1E
100
AcDbEntity
  8
0
100
AcDbLine
 10
80.66180000000001
 20
147.0
 30
0.0
 11
83.0147
 21
147.0
 31
0.0
  0
LINE
  5
265
330
1E
100
AcDbEntity
  8
0
100
AcDbLine
 10
83.0147
 20
147.0
 30
0.0
 11
83.89709999999999
 21
147.0
 31
0.0
  0
LINE
  5
266
330
1E
100
AcDbEntity
  8
0
100
AcDbLine
 10
71.9118
 20
147.0
 30
0.0
 11
76.9118
 21
147.0
 31
0.0
  0
LINE
  5
267
330
1E
100
AcDbEntity
  8
0
100
AcDbLine
 10
66.17650000000001
 20
147.0
 30
0.0
 11
71.9118
 21
147.0
 31
0.0
  0
LINE
  5
268
330
1E
100
AcDbEntity
  8
0
100
AcDbLine
 10
60.0
 20
147.0
 30
0.0
 11
66.17650000000001
 21
147.0
 31
0.0
  0
LINE
  5
269
330
1E
100
AcDbEntity
  8
0
100
AcDbLine
 10
83.89709999999999
 20
147.0
 30
0.0
 11
84.6324
 21
146.4231
 31
0.0
  0
LINE
  5
26A
330
1E
100
AcDbEntity
  8
0
100
AcDbLine
 10
35.3676
 20
146.4231
 30
0.0
 11
36.10289999999999
 21
147.0
 31
0.0
  0
LINE
  5
26B
330
1E
100
AcDbEntity
  8
0
100
AcDbLine
 10
35.0
 20
145.2692
 30
0.0
 11
35.3676
 21
146.4231
 31
0.0
  0
LINE
  5
26C
330
1E
100
AcDbEntity
  8
0
100
AcDbLine
 10
35.0
 20
145.2692
 30
0.0
 11
35.0
 21
145.0
 31
0.0
  0
LINE
  5
26D
330
1E
100
AcDbEntity
  8
0
100
AcDbLine
 10
102.4999999999999
 20
145.0
 30
0.0
 11
107.4999999999999
 21
145.0
 31
0.0
  0
LINE
  5
26E
330
1E
100
AcDbEntity
  8
0
100
AcDbLine
 10
107.4999999999999
 20
145.0
 30
0.0
 11
107.4999999999999
 21
144.388
 31
0.0
  0
LINE
  5
26F
330
1E
100
AcDbEntity
  8
0
100
AcDbLine
 10
107.4999999999999
 20
144.388
 30
0.0
 11
107.4999999999999
 21
142.7559999999999
 31
0.0
  0
LINE
  5
270
330
1E
100
AcDbEntity
  8
0
100
AcDbLine
 10
107.4999999999999
 20
144.388
 30
0.0
 11
107.4999999999999
 21
145.0
 31
0.0
  0
LINE
  5
271
330
1E
100
AcDbEntity
  8
0
100
AcDbLine
 10
107.4999999999999
 20
142.7559999999999
 30
0.0
 11
107.4999999999999
 21
140.036
 31
0.0
  0
LINE
  5
272
330
1E
100
AcDbEntity
  8
0
100
AcDbLine
 10
107.4999999999999
 20
142.7559999999999
 30
0.0
 11
107.4999999999999
 21
144.388
 31
0.0
  0
LINE
  5
273
330
1E
100
AcDbEntity
  8
0
100
AcDbLine
 10
107.4999999999999
 20
140.036
 30
0.0
 11
107.4999999999999
 21
136.432
 31
0.0
  0
LINE
  5
274
330
1E
100
AcDbEntity
  8
0
100
AcDbLine
 10
107.4999999999999
 20
140.036
 30
0.0
 11
107.4999999999999
 21
142.7559999999999
 31
0.0
  0
LINE
  5
275
330
1E
100
AcDbEntity
  8
0
100
AcDbLine
 10
107.4999999999999
 20
136.432
 30
0.0
 11
107.4999999999999
 21
132.352
 31
0.0
  0
LINE
  5
276
330
1E
100
AcDbEntity
  8
0
100
AcDbLine
 10
107.4999999999999
 20
136.432
 30
0.0
 11
107.4999999999999
 21
140.036
 31
0.0
  0
LINE
  5
277
330
1E
100
AcDbEntity
  8
0
100
AcDbLine
 10
107.4999999999999
 20
132.352
 30
0.0
 11
107.4999999999999
 21
128.0
 31
0.0
  0
LINE
  5
278
330
1E
100
AcDbEntity
  8
0
100
AcDbLine
 10
107.4999999999999
 20
132.352
 30
0.0
 11
107.4999999999999
 21
136.432
 31
0.0
  0
LINE
  5
279
330
1E
100
AcDbEntity
  8
0
100
AcDbLine
 10
102.4999999999999
 20
145.0
 30
0.0
 11
107.4999999999999
 21
145.0
 31
0.0
  0
LINE
  5
27A
330
1E
100
AcDbEntity
  8
0
100
AcDbLine
 10
102.4999999999999
 20
145.0
 30
0.0
 11
102.4999999999999
 21
140.0
 31
0.0
  0
LINE
  5
27B
330
1E
100
AcDbEntity
  8
0
100
AcDbLine
 10
107.4999999999999
 20
128.0
 30
0.0
 11
107.4999999999999
 21
123.648
 31
0.0
  0
LINE
  5
27C
330
1E
100
AcDbEntity
  8
0
100
AcDbLine
 10
107.4999999999999
 20
128.0
 30
0.0
 11
107.4999999999999
 21
132.352
 31
0.0
  0
LINE
  5
27D
330
1E
100
AcDbEntity
  8
0
100
AcDbLine
 10
12.5
 20
128.0
 30
0.0
 11
12.5
 21
124.4393
 31
0.0
  0
LINE
  5
27E
330
1E
100
AcDbEntity
  8
0
100
AcDbLine
 10
12.5
 20
128.0
 30
0.0
 11
12.5
 21
123.648
 31
0.0
  0
LINE
  5
27F
330
1E
100
AcDbEntity
  8
0
100
AcDbLine
 10
12.5
 20
128.0
 30
0.0
 11
12.5
 21
132.352
 31
0.0
  0
LINE
  5
280
330
1E
100
AcDbEntity
  8
0
100
AcDbLine
 10
12.5
 20
128.0
 30
0.0
 11
12.5
 21
131.5606999999999
 31
0.0
  0
LINE
  5
281
330
1E
100
AcDbEntity
  8
0
100
AcDbLine
 10
0.600000000000001
 20
65.0
 30
0.0
 11
119.4
 21
65.0
 31
0.0
  0
LINE
  5
282
330
1E
100
AcDbEntity
  8
0
100
AcDbLine
 10
119.4
 20
65.0
 30
0.0
 11
119.8199999999999
 21
64.81999999999999
 31
0.0
  0
LINE
  5
283
330
1E
100
AcDbEntity
  8
0
100
AcDbLine
 10
0.600000000000001
 20
64.81999999999999
 30
0.0
 11
119.4
 21
64.81999999999999
 31
0.0
  0
LINE
  5
284
330
1E
100
AcDbEntity
  8
0
100
AcDbLine
 10
119.8199999999999
 20
64.81999999999999
 30
0.0
 11
120.0
 21
64.40000000000001
 31
0.0
  0
LINE
  5
285
330
1E
100
AcDbEntity
  8
0
100
AcDbLine
 10
119.4
 20
64.81999999999999
 30
0.0
 11
119.7
 21
64.7
 31
0.0
  0
LINE
  5
286
330
1E
100
AcDbEntity
  8
0
100
AcDbLine
 10
119.7
 20
64.7
 30
0.0
 11
119.8199999999999
 21
64.40000000000001
 31
0.0
  0
LINE
  5
287
330
1E
100
AcDbEntity
  8
0
100
AcDbLine
 10
119.7
 20
64.7
 30
0.0
 11
119.8199999999999
 21
64.81999999999999
 31
0.0
  0
LINE
  5
288
330
1E
100
AcDbEntity
  8
0
100
AcDbLine
 10
120.0
 20
64.40000000000001
 30
0.0
 11
120.0
 21
44.59999999999999
 31
0.0
  0
LINE
  5
289
330
1E
100
AcDbEntity
  8
0
100
AcDbLine
 10
120.0
 20
44.59999999999999
 30
0.0
 11
120.0
 21
64.40000000000001
 31
0.0
  0
LINE
  5
28A
330
1E
100
AcDbEntity
  8
0
100
AcDbLine
 10
119.8199999999999
 20
44.59999999999999
 30
0.0
 11
119.8199999999999
 21
64.40000000000001
 31
0.0
  0
LINE
  5
28B
330
1E
100
AcDbEntity
  8
0
100
AcDbLine
 10
0.3
 20
44.29999999999999
 30
0.0
 11
0.6
 21
44.18
 31
0.0
  0
LINE
  5
28C
330
1E
100
AcDbEntity
  8
0
100
AcDbLine
 10
0.18
 20
44.59999999999999
 30
0.0
 11
0.3
 21
44.29999999999999
 31
0.0
  0
LINE
  5
28D
330
1E
100
AcDbEntity
  8
0
100
AcDbLine
 10
0.18
 20
44.59999999999999
 30
0.0
 11
0.18
 21
64.40000000000001
 31
0.0
  0
ENDSEC
  0
SECTION
  2
OBJECTS
  0
DICTIONARY
  5
C
330
0
100
AcDbDictionary
281
     1
  3
ACAD_GROUP
350
D
  3
ACAD_LAYOUT
350
19
  3
ACAD_MLINESTYLE
350
16
  3
ACAD_PLOTSETTINGS
350
18
  3
ACAD_PLOTSTYLENAME
350
E
  3
AcDbVariableDictionary
350
292
  0
DICTIONARY
  5
D
102
{ACAD_REACTORS
330
C
102
}
330
C
100
AcDbDictionary
281
     1
  0
DICTIONARY
  5
19
102
{ACAD_REACTORS
330
C
102
}
330
C
100
AcDbDictionary
281
     1
  3
Layout1
350
1D
  3
Model
350
21
  0
DICTIONARY
  5
16
102
{ACAD_REACTORS
330
C
102
}
330
C
100
AcDbDictionary
281
     1
  3
Standard
350
17
  0
DICTIONARY
  5
18
102
{ACAD_REACTORS
330
C
102
}
330
C
100
AcDbDictionary
281
     1
  0
ACDBDICTIONARYWDFLT
  5
E
102
{ACAD_REACTORS
330
C
102
}
330
C
100
AcDbDictionary
281
     1
  3
Normal
350
F
100
AcDbDictionaryWithDefault
340
F
  0
DICTIONARY
  5
292
102
{ACAD_REACTORS
330
C
102
}
330
C
100
AcDbDictionary
281
     1
  3
DIMASSOC
350
293
  0
LAYOUT
  5
1D
102
{ACAD_REACTORS
330
19
102
}
330
19
100
AcDbPlotSettings
  1

  2
hp deskjet 980c series
  4

  6

 40
0.0
 41
0.0
 42
0.0
 43
0.0
 44
0.0
 45
0.0
 46
0.0
 47
0.0
 48
0.0
 49
0.0
140
0.0
141
0.0
142
1.0
143
1.0
 70
   688
 72
     0
 73
     0
 74
     5
  7

 75
    16
147
1.0
148
0.0
149
0.0
100
AcDbLayout
  1
Layout1
 70
     1
 71
     1
 10
0.0
 20
0.0
 11
12.0
 21
9.0
 12
0.0
 22
0.0
 32
0.0
 14
1.000000000000000E+20
 24
1.000000000000000E+20
 34
1.000000000000000E+20
 15
-1.000000000000000E+20
 25
-1.000000000000000E+20
 35
-1.000000000000000E+20
146
0.0
 13
0.0
 23
0.0
 33
0.0
 16
1.0
 26
0.0
 36
0.0
 17
0.0
 27
1.0
 37
0.0
 76
     0
330
1A
  0
LAYOUT
  5
21
102
{ACAD_REACTORS
330
19
102
}
330
19
100
AcDbPlotSettings
  1

  2
hp deskjet 980c series
  4

  6

 40
0.0
 41
0.0
 42
0.0
 43
0.0
 44
0.0
 45
0.0
 46
0.0
 47
0.0
 48
0.0
 49
0.0
140
0.0
141
0.0
142
1.0
143
1.0
 70
  1712
 72
     0
 73
     0
 74
     0
  7

 75
     0
147
1.0
148
0.0
149
0.0
100
AcDbLayout
  1
Model
 70
     1
 71
     0
 10
0.0
 20
0.0
 11
12.0
 21
9.0
 12
0.0
 22
0.0
 32
0.0
 14
0.0
 24
0.0
 34
0.0
 15
0.0
 25
0.0
 35
0.0
146
0.0
 13
0.0
 23
0.0
 33
0.0
 16
1.0
 26
0.0
 36
0.0
 17
0.0
 27
1.0
 37
0.0
 76
     0
330
1E
  0
MLINESTYLE
  5
17
102
{ACAD_REACTORS
330
16
102
}
330
16
100
AcDbMlineStyle
  2
STANDARD
 70
     0
  3

 62
   256
 51
90.0
 52
90.0
 71
     2
 49
0.5
 62
   256
  6
BYLAYER
 49
-0.5
 62
   256
  6
BYLAYER
  0
ACDBPLACEHOLDER
  5
F
102
{ACAD_REACTORS
330
E
102
}
330
E
  0
DICTIONARYVAR
  5
293
102
{ACAD_REACTORS
330
292
102
}
330
292
100
DictionaryVariables
280
     0
  1
1
  0
ENDSEC
  0
EOF
