  0
SECTION
  2
HEADER
  9
$ACADVER
  1
AC1015
  9
$ACADMAINTVER
 70
    13
  9
$DWGCODEPAGE
  3
ANSI_1252
  9
$INSBASE
 10
0.0
 20
0.0
 30
0.0
  9
$EXTMIN
 10
0.0000000000000104
 20
-0.000000000000004
 30
0.0
  9
$EXTMAX
 10
147.0
 20
120.0
 30
0.0
  9
$LIMMIN
 10
0.0
 20
0.0
  9
$LIMMAX
 10
12.0
 20
9.0
  9
$ORTHOMODE
 70
     0
  9
$REGENMODE
 70
     1
  9
$FILLMODE
 70
     1
  9
$QTEXTMODE
 70
     0
  9
$MIRRTEXT
 70
     1
  9
$LTSCALE
 40
1.0
  9
$ATTMODE
 70
     1
  9
$TEXTSIZE
 40
0.2
  9
$TRACEWID
 40
0.05
  9
$TEXTSTYLE
  7
Standard
  9
$CLAYER
  8
0
  9
$CELTYPE
  6
Continuous
  9
$CECOLOR
 62
   256
  9
$CELTSCALE
 40
1.0
  9
$DISPSILH
 70
     0
  9
$DIMSCALE
 40
1.0
  9
$DIMASZ
 40
0.18
  9
$DIMEXO
 40
0.0625
  9
$DIMDLI
 40
0.38
  9
$DIMRND
 40
0.0
  9
$DIMDLE
 40
0.0
  9
$DIMEXE
 40
0.18
  9
$DIMTP
 40
0.0
  9
$DIMTM
 40
0.0
  9
$DIMTXT
 40
0.18
  9
$DIMCEN
 40
0.09
  9
$DIMTSZ
 40
0.0
  9
$DIMTOL
 70
     0
  9
$DIMLIM
 70
     0
  9
$DIMTIH
 70
     1
  9
$DIMTOH
 70
     1
  9
$DIMSE1
 70
     0
  9
$DIMSE2
 70
     0
  9
$DIMTAD
 70
     0
  9
$DIMZIN
 70
     0
  9
$DIMBLK
  1

  9
$DIMASO
 70
     1
  9
$DIMSHO
 70
     1
  9
$DIMPOST
  1

  9
$DIMAPOST
  1

  9
$DIMALT
 70
     0
  9
$DIMALTD
 70
     2
  9
$DIMALTF
 40
25.4
  9
$DIMLFAC
 40
1.0
  9
$DIMTOFL
 70
     0
  9
$DIMTVP
 40
0.0
  9
$DIMTIX
 70
     0
  9
$DIMSOXD
 70
     0
  9
$DIMSAH
 70
     0
  9
$DIMBLK1
  1

  9
$DIMBLK2
  1

  9
$DIMSTYLE
  2
Standard
  9
$DIMCLRD
 70
     0
  9
$DIMCLRE
 70
     0
  9
$DIMCLRT
 70
     0
  9
$DIMTFAC
 40
1.0
  9
$DIMGAP
 40
0.09
  9
$DIMJUST
 70
     0
  9
$DIMSD1
 70
     0
  9
$DIMSD2
 70
     0
  9
$DIMTOLJ
 70
     1
  9
$DIMTZIN
 70
     0
  9
$DIMALTZ
 70
     0
  9
$DIMALTTZ
 70
     0
  9
$DIMUPT
 70
     0
  9
$DIMDEC
 70
     4
  9
$DIMTDEC
 70
     4
  9
$DIMALTU
 70
     2
  9
$DIMALTTD
 70
     2
  9
$DIMTXSTY
  7
Standard
  9
$DIMAUNIT
 70
     0
  9
$DIMADEC
 70
     0
  9
$DIMALTRND
 40
0.0
  9
$DIMAZIN
 70
     0
  9
$DIMDSEP
 70
    46
  9
$DIMATFIT
 70
     3
  9
$DIMFRAC
 70
     0
  9
$DIMLDRBLK
  1

  9
$DIMLUNIT
 70
     2
  9
$DIMLWD
 70
    -2
  9
$DIMLWE
 70
    -2
  9
$DIMTMOVE
 70
     0
  9
$LUNITS
 70
     2
  9
$LUPREC
 70
     4
  9
$SKETCHINC
 40
0.1
  9
$FILLETRAD
 40
0.0
  9
$AUNITS
 70
     0
  9
$AUPREC
 70
     0
  9
$MENU
  1
.
  9
$ELEVATION
 40
0.0
  9
$PELEVATION
 40
0.0
  9
$THICKNESS
 40
0.0
  9
$LIMCHECK
 70
     0
  9
$CHAMFERA
 40
0.0
  9
$CHAMFERB
 40
0.0
  9
$CHAMFERC
 40
0.0
  9
$CHAMFERD
 40
0.0
  9
$SKPOLY
 70
     0
  9
$TDCREATE
 40
2454874.753489398
  9
$TDUCREATE
 40
2454874.711822731
  9
$TDUPDATE
 40
2454874.756727962
  9
$TDUUPDATE
 40
2454874.715061296
  9
$TDINDWG
 40
0.0032387500
  9
$TDUSRTIMER
 40
0.0032387500
  9
$USRTIMER
 70
     1
  9
$ANGBASE
 50
0.0
  9
$ANGDIR
 70
     0
  9
$PDMODE
 70
     0
  9
$PDSIZE
 40
0.0
  9
$PLINEWID
 40
0.0
  9
$SPLFRAME
 70
     0
  9
$SPLINETYPE
 70
     6
  9
$SPLINESEGS
 70
     8
  9
$HANDSEED
  5
2D8
  9
$SURFTAB1
 70
     6
  9
$SURFTAB2
 70
     6
  9
$SURFTYPE
 70
     6
  9
$SURFU
 70
     6
  9
$SURFV
 70
     6
  9
$UCSBASE
  2

  9
$UCSNAME
  2

  9
$UCSORG
 10
0.0
 20
0.0
 30
0.0
  9
$UCSXDIR
 10
1.0
 20
0.0
 30
0.0
  9
$UCSYDIR
 10
0.0
 20
1.0
 30
0.0
  9
$UCSORTHOREF
  2

  9
$UCSORTHOVIEW
 70
     1
  9
$UCSORGTOP
 10
0.0
 20
0.0
 30
0.0
  9
$UCSORGBOTTOM
 10
0.0
 20
0.0
 30
0.0
  9
$UCSORGLEFT
 10
0.0
 20
0.0
 30
0.0
  9
$UCSORGRIGHT
 10
0.0
 20
0.0
 30
0.0
  9
$UCSORGFRONT
 10
0.0
 20
0.0
 30
0.0
  9
$UCSORGBACK
 10
0.0
 20
0.0
 30
0.0
  9
$PUCSBASE
  2

  9
$PUCSNAME
  2

  9
$PUCSORG
 10
0.0
 20
0.0
 30
0.0
  9
$PUCSXDIR
 10
1.0
 20
0.0
 30
0.0
  9
$PUCSYDIR
 10
0.0
 20
1.0
 30
0.0
  9
$PUCSORTHOREF
  2

  9
$PUCSORTHOVIEW
 70
     0
  9
$PUCSORGTOP
 10
0.0
 20
0.0
 30
0.0
  9
$PUCSORGBOTTOM
 10
0.0
 20
0.0
 30
0.0
  9
$PUCSORGLEFT
 10
0.0
 20
0.0
 30
0.0
  9
$PUCSORGRIGHT
 10
0.0
 20
0.0
 30
0.0
  9
$PUCSORGFRONT
 10
0.0
 20
0.0
 30
0.0
  9
$PUCSORGBACK
 10
0.0
 20
0.0
 30
0.0
  9
$USERI1
 70
     0
  9
$USERI2
 70
     0
  9
$USERI3
 70
     0
  9
$USERI4
 70
     0
  9
$USERI5
 70
     0
  9
$USERR1
 40
0.0
  9
$USERR2
 40
0.0
  9
$USERR3
 40
0.0
  9
$USERR4
 40
0.0
  9
$USERR5
 40
0.0
  9
$WORLDVIEW
 70
     1
  9
$SHADEDGE
 70
     3
  9
$SHADEDIF
 70
    70
  9
$TILEMODE
 70
     1
  9
$MAXACTVP
 70
    64
  9
$PINSBASE
 10
0.0
 20
0.0
 30
0.0
  9
$PLIMCHECK
 70
     0
  9
$PEXTMIN
 10
1.000000000000000E+20
 20
1.000000000000000E+20
 30
1.000000000000000E+20
  9
$PEXTMAX
 10
-1.000000000000000E+20
 20
-1.000000000000000E+20
 30
-1.000000000000000E+20
  9
$PLIMMIN
 10
0.0
 20
0.0
  9
$PLIMMAX
 10
12.0
 20
9.0
  9
$UNITMODE
 70
     0
  9
$VISRETAIN
 70
     1
  9
$PLINEGEN
 70
     0
  9
$PSLTSCALE
 70
     1
  9
$TREEDEPTH
 70
  3020
  9
$CMLSTYLE
  2
Standard
  9
$CMLJUST
 70
     0
  9
$CMLSCALE
 40
1.0
  9
$PROXYGRAPHICS
 70
     1
  9
$MEASUREMENT
 70
     0
  9
$CELWEIGHT
370
    -1
  9
$ENDCAPS
280
     0
  9
$JOINSTYLE
280
     0
  9
$LWDISPLAY
290
     0
  9
$INSUNITS
 70
     0
  9
$HYPERLINKBASE
  1

  9
$STYLESHEET
  1

  9
$XEDIT
290
     1
  9
$CEPSNTYPE
380
     0
  9
$PSTYLEMODE
290
     1
  9
$FINGERPRINTGUID
  2
{3FA75D42-977B-4F02-9C01-E151F914541C}
  9
$VERSIONGUID
  2
{49E4876E-19F5-4E17-A773-77B2F581BFDD}
  9
$EXTNAMES
290
     1
  9
$PSVPSCALE
 40
0.0
  9
$OLESTARTUP
290
     0
  0
ENDSEC
  0
SECTION
  2
CLASSES
  0
CLASS
  1
ACDBDICTIONARYWDFLT
  2
AcDbDictionaryWithDefault
  3
AutoCAD 2000
 90
        0
280
     0
281
     0
  0
CLASS
  1
ACDBPLACEHOLDER
  2
AcDbPlaceHolder
  3
AutoCAD 2000
 90
        0
280
     0
281
     0
  0
CLASS
  1
LAYOUT
  2
AcDbLayout
  3
AutoCAD 2000
 90
        0
280
     0
281
     0
  0
CLASS
  1
DICTIONARYVAR
  2
AcDbDictionaryVar
  3
AutoCAD 2000
 90
        0
280
     0
281
     0
  0
ENDSEC
  0
SECTION
  2
TABLES
  0
TABLE
  2
VPORT
  5
8
330
0
100
AcDbSymbolTable
 70
     2
  0
VPORT
  5
2D7
330
8
100
AcDbSymbolTableRecord
100
AcDbViewportTableRecord
  2
*Active
 70
     0
 10
0.0
 20
0.0
 11
1.0
 21
1.0
 12
73.50000000000001
 22
60.0
 13
0.0
 23
0.0
 14
1.0
 24
1.0
 15
0.0
 25
0.0
 16
0.0
 26
0.0
 36
1.0
 17
0.0
 27
0.0
 37
0.0
 40
120.7578947368421
 41
1.968387776606954
 42
50.0
 43
0.0
 44
0.0
 50
0.0
 51
0.0
 71
     0
 72
   100
 73
     1
 74
     3
 75
     0
 76
     0
 77
     0
 78
     0
281
     0
 65
     1
110
0.0
120
0.0
130
0.0
111
1.0
121
0.0
131
0.0
112
0.0
122
1.0
132
0.0
 79
     1
146
0.0
  0
ENDTAB
  0
TABLE
  2
LTYPE
  5
5
330
0
100
AcDbSymbolTable
 70
     1
  0
LTYPE
  5
13
330
5
100
AcDbSymbolTableRecord
100
AcDbLinetypeTableRecord
  2
ByBlock
 70
     0
  3

 72
    65
 73
     0
 40
0.0
  0
LTYPE
  5
14
330
5
100
AcDbSymbolTableRecord
100
AcDbLinetypeTableRecord
  2
ByLayer
 70
     0
  3

 72
    65
 73
     0
 40
0.0
  0
LTYPE
  5
15
330
5
100
AcDbSymbolTableRecord
100
AcDbLinetypeTableRecord
  2
Continuous
 70
     0
  3
Solid line
 72
    65
 73
     0
 40
0.0
  0
ENDTAB
  0
TABLE
  2
LAYER
  5
2
330
0
100
AcDbSymbolTable
 70
     1
  0
LAYER
  5
10
330
2
100
AcDbSymbolTableRecord
100
AcDbLayerTableRecord
  2
0
 70
     0
 62
     7
  6
Continuous
370
    -3
390
F
  0
ENDTAB
  0
TABLE
  2
STYLE
  5
3
330
0
100
AcDbSymbolTable
 70
     1
  0
STYLE
  5
11
330
3
100
AcDbSymbolTableRecord
100
AcDbTextStyleTableRecord
  2
Standard
 70
     0
 40
0.0
 41
1.0
 50
0.0
 71
     0
 42
0.2
  3
txt
  4

  0
ENDTAB
  0
TABLE
  2
VIEW
  5
6
330
0
100
AcDbSymbolTable
 70
     0
  0
ENDTAB
  0
TABLE
  2
UCS
  5
7
330
0
100
AcDbSymbolTable
 70
     0
  0
ENDTAB
  0
TABLE
  2
APPID
  5
9
330
0
100
AcDbSymbolTable
 70
     1
  0
APPID
  5
12
330
9
100
AcDbSymbolTableRecord
100
AcDbRegAppTableRecord
  2
ACAD
 70
     0
  0
ENDTAB
  0
TABLE
  2
DIMSTYLE
  5
A
330
0
100
AcDbSymbolTable
 70
     1
100
AcDbDimStyleTable
 71
     0
  0
DIMSTYLE
105
2D0
330
A
100
AcDbSymbolTableRecord
100
AcDbDimStyleTableRecord
  2
Standard
 70
     0
340
11
  0
ENDTAB
  0
TABLE
  2
BLOCK_RECORD
  5
1
330
0
100
AcDbSymbolTable
 70
     0
  0
BLOCK_RECORD
  5
1E
330
1
100
AcDbSymbolTableRecord
100
AcDbBlockTableRecord
  2
*Model_Space
340
21
  0
BLOCK_RECORD
  5
1A
330
1
100
AcDbSymbolTableRecord
100
AcDbBlockTableRecord
  2
*Paper_Space
340
1D
  0
ENDTAB
  0
ENDSEC
  0
SECTION
  2
BLOCKS
  0
BLOCK
  5
1F
330
1E
100
AcDbEntity
  8
0
100
AcDbBlockBegin
  2
*Model_Space
 70
     0
 10
0.0
 20
0.0
 30
0.0
  3
*Model_Space
  1

  0
ENDBLK
  5
20
330
1E
100
AcDbEntity
  8
0
100
AcDbBlockEnd
  0
BLOCK
  5
1B
330
1A
100
AcDbEntity
 67
     1
  8
0
100
AcDbBlockBegin
  2
*Paper_Space
 70
     0
 10
0.0
 20
0.0
 30
0.0
  3
*Paper_Space
  1

  0
ENDBLK
  5
1C
330
1A
100
AcDbEntity
 67
     1
  8
0
100
AcDbBlockEnd
  0
ENDSEC
  0
SECTION
  2
ENTITIES
  0
LINE
  5
22
330
1E
100
AcDbEntity
  8
0
100
AcDbLine
 10
44.18
 20
0.179999999999997
 30
0.0
 11
44.29999999999999
 21
0.179999999999997
 31
0.0
  0
LINE
  5
23
330
1E
100
AcDbEntity
  8
0
100
AcDbLine
 10
44.18
 20
0.179999999999997
 30
0.0
 11
44.59999999999999
 21
-0.0000000000000027
 31
0.0
  0
LINE
  5
24
330
1E
100
AcDbEntity
  8
0
100
AcDbLine
 10
44.18
 20
0.179999999999997
 30
0.0
 11
44.59999999999999
 21
-0.0000000000000027
 31
0.0
  0
LINE
  5
25
330
1E
100
AcDbEntity
  8
0
100
AcDbLine
 10
44.18
 20
0.5999999999999979
 30
0.0
 11
44.18
 21
119.4
 31
0.0
  0
LINE
  5
26
330
1E
100
AcDbEntity
  8
0
100
AcDbLine
 10
44.18
 20
0.5999999999999979
 30
0.0
 11
44.29999999999999
 21
0.179999999999997
 31
0.0
  0
LINE
  5
27
330
1E
100
AcDbEntity
  8
0
100
AcDbLine
 10
0.8653850000000099
 20
35.5
 30
0.0
 11
35.0
 21
35.5
 31
0.0
  0
LINE
  5
28
330
1E
100
AcDbEntity
  8
0
100
AcDbLine
 10
35.8654
 20
35.5
 30
0.0
 11
44.0
 21
35.5
 31
0.0
  0
LINE
  5
29
330
1E
100
AcDbEntity
  8
0
100
AcDbLine
 10
35.0
 20
35.5
 30
0.0
 11
35.0
 21
36.3647
 31
0.0
  0
LINE
  5
2A
330
1E
100
AcDbEntity
  8
0
100
AcDbLine
 10
0.0000000000000104
 20
36.5809
 30
0.0
 11
0.28846200000001
 21
35.8603
 31
0.0
  0
LINE
  5
2B
330
1E
100
AcDbEntity
  8
0
100
AcDbLine
 10
0.0000000000000104
 20
36.5809
 30
0.0
 11
0.0000000000000105
 21
37.44559999999999
 31
0.0
  0
LINE
  5
2C
330
1E
100
AcDbEntity
  8
0
100
AcDbLine
 10
0.0000000000000109
 20
43.42649999999999
 30
0.0
 11
0.0000000000000112
 21
48.32650000000001
 31
0.0
  0
LINE
  5
2D
330
1E
100
AcDbEntity
  8
0
100
AcDbLine
 10
0.0000000000000112
 20
48.32650000000001
 30
0.0
 11
0.0000000000000115
 21
53.94709999999999
 31
0.0
  0
LINE
  5
2E
330
1E
100
AcDbEntity
  8
0
100
AcDbLine
 10
0.0000000000000126
 20
71.6735
 30
0.0
 11
0.0000000000000129
 21
76.5735
 31
0.0
  0
LINE
  5
2F
330
1E
100
AcDbEntity
  8
0
100
AcDbLine
 10
0.0000000000000122
 20
66.0529
 30
0.0
 11
0.0000000000000126
 21
71.6735
 31
0.0
  0
LINE
  5
30
330
1E
100
AcDbEntity
  8
0
100
AcDbLine
 10
0.0000000000000119
 20
60.0
 30
0.0
 11
0.0000000000000122
 21
66.0529
 31
0.0
  0
LINE
  5
31
330
1E
100
AcDbEntity
  8
0
100
AcDbLine
 10
0.0000000000000129
 20
76.5735
 30
0.0
 11
0.0000000000000131
 21
80.2485
 31
0.0
  0
LINE
  5
32
330
1E
100
AcDbEntity
  8
0
100
AcDbLine
 10
0.0000000000000131
 20
80.2485
 30
0.0
 11
0.0000000000000133
 21
82.5544
 31
0.0
  0
LINE
  5
33
330
1E
100
AcDbEntity
  8
0
100
AcDbLine
 10
0.0000000000000133
 20
83.4191
 30
0.0
 11
0.2884620000000129
 21
84.1397
 31
0.0
  0
LINE
  5
34
330
1E
100
AcDbEntity
  8
0
100
AcDbLine
 10
0.0000000000000133
 20
83.4191
 30
0.0
 11
0.2884620000000129
 21
84.1397
 31
0.0
  0
LINE
  5
35
330
1E
100
AcDbEntity
  8
0
100
AcDbLine
 10
0.0000000000000133
 20
82.5544
 30
0.0
 11
0.0000000000000133
 21
83.4191
 31
0.0
  0
LINE
  5
36
330
1E
100
AcDbEntity
  8
0
100
AcDbLine
 10
0.0000000000000115
 20
53.94709999999999
 30
0.0
 11
0.0000000000000119
 21
60.0
 31
0.0
  0
LINE
  5
37
330
1E
100
AcDbEntity
  8
0
100
AcDbLine
 10
0.0000000000000106
 20
39.7515
 30
0.0
 11
0.0000000000000109
 21
43.42649999999999
 31
0.0
  0
LINE
  5
38
330
1E
100
AcDbEntity
  8
0
100
AcDbLine
 10
0.0000000000000105
 20
37.44559999999999
 30
0.0
 11
0.0000000000000106
 21
39.7515
 31
0.0
  0
LINE
  5
39
330
1E
100
AcDbEntity
  8
0
100
AcDbLine
 10
0.0000000000000105
 20
36.5809
 30
0.0
 11
0.28846200000001
 21
35.8603
 31
0.0
  0
LINE
  5
3A
330
1E
100
AcDbEntity
  8
0
100
AcDbLine
 10
35.2885
 20
35.8603
 30
0.0
 11
35.8654
 21
35.5
 31
0.0
  0
LINE
  5
3B
330
1E
100
AcDbEntity
  8
0
100
AcDbLine
 10
35.2885
 20
35.8603
 30
0.0
 11
35.2885
 21
36.725
 31
0.0
  0
LINE
  5
3C
330
1E
100
AcDbEntity
  8
0
100
AcDbLine
 10
35.0
 20
36.5809
 30
0.0
 11
35.2885
 21
35.8603
 31
0.0
  0
LINE
  5
3D
330
1E
100
AcDbEntity
  8
0
100
AcDbLine
 10
0.288462000000011
 20
39.10289999999999
 30
0.0
 11
0.288462000000011
 21
42.92209999999999
 31
0.0
  0
LINE
  5
3E
330
1E
100
AcDbEntity
  8
0
100
AcDbLine
 10
0.28846200000001
 20
36.725
 30
0.0
 11
0.288462000000011
 21
39.10289999999999
 31
0.0
  0
LINE
  5
3F
330
1E
100
AcDbEntity
  8
0
100
AcDbLine
 10
0.288462000000011
 20
42.92209999999999
 30
0.0
 11
0.288462000000011
 21
47.96619999999999
 31
0.0
  0
LINE
  5
40
330
1E
100
AcDbEntity
  8
0
100
AcDbLine
 10
0.288462000000011
 20
47.96619999999999
 30
0.0
 11
0.2884620000000119
 21
53.8029
 31
0.0
  0
LINE
  5
41
330
1E
100
AcDbEntity
  8
0
100
AcDbLine
 10
35.0
 20
47.8221
 30
0.0
 11
35.0
 21
42.7059
 31
0.0
  0
LINE
  5
42
330
1E
100
AcDbEntity
  8
0
100
AcDbLine
 10
35.0
 20
47.8221
 30
0.0
 11
35.0
 21
53.7309
 31
0.0
  0
LINE
  5
43
330
1E
100
AcDbEntity
  8
0
100
AcDbLine
 10
0.2884620000000129
 20
72.0338
 30
0.0
 11
0.2884620000000129
 21
77.0779
 31
0.0
  0
LINE
  5
44
330
1E
100
AcDbEntity
  8
0
100
AcDbLine
 10
0.2884620000000119
 20
66.19710000000001
 30
0.0
 11
0.2884620000000129
 21
72.0338
 31
0.0
  0
LINE
  5
45
330
1E
100
AcDbEntity
  8
0
100
AcDbLine
 10
0.2884620000000119
 20
60.0
 30
0.0
 11
0.2884620000000119
 21
66.19710000000001
 31
0.0
  0
LINE
  5
46
330
1E
100
AcDbEntity
  8
0
100
AcDbLine
 10
35.0
 20
72.17789999999999
 30
0.0
 11
35.0
 21
66.26909999999999
 31
0.0
  0
LINE
  5
47
330
1E
100
AcDbEntity
  8
0
100
AcDbLine
 10
35.0
 20
72.17789999999999
 30
0.0
 11
35.0
 21
77.2941
 31
0.0
  0
LINE
  5
48
330
1E
100
AcDbEntity
  8
0
100
AcDbLine
 10
35.0
 20
66.26909999999999
 30
0.0
 11
35.0
 21
60.0
 31
0.0
  0
LINE
  5
49
330
1E
100
AcDbEntity
  8
0
100
AcDbLine
 10
35.0
 20
66.26909999999999
 30
0.0
 11
35.0
 21
72.17789999999999
 31
0.0
  0
LINE
  5
4A
330
1E
100
AcDbEntity
  8
0
100
AcDbLine
 10
0.2884620000000129
 20
77.0779
 30
0.0
 11
0.2884620000000129
 21
80.8971
 31
0.0
  0
LINE
  5
4B
330
1E
100
AcDbEntity
  8
0
100
AcDbLine
 10
0.2884620000000129
 20
80.8971
 30
0.0
 11
0.2884620000000129
 21
83.275
 31
0.0
  0
LINE
  5
4C
330
1E
100
AcDbEntity
  8
0
100
AcDbLine
 10
35.0
 20
77.2941
 30
0.0
 11
35.0
 21
81.18529999999999
 31
0.0
  0
LINE
  5
4D
330
1E
100
AcDbEntity
  8
0
100
AcDbLine
 10
35.0
 20
77.2941
 30
0.0
 11
35.0
 21
72.17789999999999
 31
0.0
  0
LINE
  5
4E
330
1E
100
AcDbEntity
  8
0
100
AcDbLine
 10
0.2884620000000129
 20
84.1397
 30
0.0
 11
0.8653850000000129
 21
84.50000000000001
 31
0.0
  0
LINE
  5
4F
330
1E
100
AcDbEntity
  8
0
100
AcDbLine
 10
17.0572
 20
84.50000000000001
 30
0.0
 11
17.0572
 21
86.8881
 31
0.0
  0
LINE
  5
50
330
1E
100
AcDbEntity
  8
0
100
AcDbLine
 10
0.8653850000000129
 20
84.50000000000001
 30
0.0
 11
25.0572
 21
84.50000000000001
 31
0.0
  0
LINE
  5
51
330
1E
100
AcDbEntity
  8
0
100
AcDbLine
 10
0.2884620000000129
 20
84.1397
 30
0.0
 11
0.865385000000014
 21
84.50000000000001
 31
0.0
  0
LINE
  5
52
330
1E
100
AcDbEntity
  8
0
100
AcDbLine
 10
0.2884620000000129
 20
83.275
 30
0.0
 11
0.2884620000000129
 21
84.1397
 31
0.0
  0
LINE
  5
53
330
1E
100
AcDbEntity
  8
0
100
AcDbLine
 10
0.8653850000000129
 20
84.50000000000001
 30
0.0
 11
25.0572
 21
84.50000000000001
 31
0.0
  0
LINE
  5
54
330
1E
100
AcDbEntity
  8
0
100
AcDbLine
 10
35.0
 20
83.4191
 30
0.0
 11
35.2885
 21
84.1397
 31
0.0
  0
LINE
  5
55
330
1E
100
AcDbEntity
  8
0
100
AcDbLine
 10
25.0572
 20
84.50000000000001
 30
0.0
 11
35.0
 21
84.50000000000001
 31
0.0
  0
LINE
  5
56
330
1E
100
AcDbEntity
  8
0
100
AcDbLine
 10
25.0572
 20
84.50000000000001
 30
0.0
 11
25.0572
 21
86.8881
 31
0.0
  0
LINE
  5
57
330
1E
100
AcDbEntity
  8
0
100
AcDbLine
 10
35.0
 20
81.18529999999999
 30
0.0
 11
35.0
 21
77.2941
 31
0.0
  0
LINE
  5
58
330
1E
100
AcDbEntity
  8
0
100
AcDbLine
 10
35.0
 20
81.18529999999999
 30
0.0
 11
35.0
 21
83.6353
 31
0.0
  0
LINE
  5
59
330
1E
100
AcDbEntity
  8
0
100
AcDbLine
 10
35.0
 20
83.6353
 30
0.0
 11
35.0
 21
81.18529999999999
 31
0.0
  0
LINE
  5
5A
330
1E
100
AcDbEntity
  8
0
100
AcDbLine
 10
35.0
 20
83.6353
 30
0.0
 11
35.0
 21
84.50000000000001
 31
0.0
  0
LINE
  5
5B
330
1E
100
AcDbEntity
  8
0
100
AcDbLine
 10
25.0572
 20
86.8881
 30
0.0
 11
25.0572
 21
84.50000000000001
 31
0.0
  0
LINE
  5
5C
330
1E
100
AcDbEntity
  8
0
100
AcDbLine
 10
24.9984
 20
87.11
 30
0.0
 11
25.0572
 21
86.8881
 31
0.0
  0
LINE
  5
5D
330
1E
100
AcDbEntity
  8
0
100
AcDbLine
 10
18.35129999999999
 20
87.22089999999999
 30
0.0
 11
19.15129999999999
 21
87.22089999999999
 31
0.0
  0
LINE
  5
5E
330
1E
100
AcDbEntity
  8
0
100
AcDbLine
 10
22.9631
 20
87.22089999999999
 30
0.0
 11
23.7631
 21
87.22089999999999
 31
0.0
  0
LINE
  5
5F
330
1E
100
AcDbEntity
  8
0
100
AcDbLine
 10
22.0454
 20
87.22089999999999
 30
0.0
 11
22.9631
 21
87.22089999999999
 31
0.0
  0
LINE
  5
60
330
1E
100
AcDbEntity
  8
0
100
AcDbLine
 10
21.0572
 20
87.22089999999999
 30
0.0
 11
22.0454
 21
87.22089999999999
 31
0.0
  0
LINE
  5
61
330
1E
100
AcDbEntity
  8
0
100
AcDbLine
 10
23.7631
 20
87.22089999999999
 30
0.0
 11
24.3631
 21
87.22089999999999
 31
0.0
  0
LINE
  5
62
330
1E
100
AcDbEntity
  8
0
100
AcDbLine
 10
24.3631
 20
87.22089999999999
 30
0.0
 11
24.73959999999999
 21
87.22089999999999
 31
0.0
  0
LINE
  5
63
330
1E
100
AcDbEntity
  8
0
100
AcDbLine
 10
24.73959999999999
 20
87.22089999999999
 30
0.0
 11
24.8807
 21
87.22089999999999
 31
0.0
  0
LINE
  5
64
330
1E
100
AcDbEntity
  8
0
100
AcDbLine
 10
24.8807
 20
87.22089999999999
 30
0.0
 11
24.9984
 21
87.11
 31
0.0
  0
LINE
  5
65
330
1E
100
AcDbEntity
  8
0
100
AcDbLine
 10
19.15129999999999
 20
87.22089999999999
 30
0.0
 11
20.069
 21
87.22089999999999
 31
0.0
  0
LINE
  5
66
330
1E
100
AcDbEntity
  8
0
100
AcDbLine
 10
20.069
 20
87.22089999999999
 30
0.0
 11
21.0572
 21
87.22089999999999
 31
0.0
  0
LINE
  5
67
330
1E
100
AcDbEntity
  8
0
100
AcDbLine
 10
17.7513
 20
87.22089999999999
 30
0.0
 11
18.35129999999999
 21
87.22089999999999
 31
0.0
  0
LINE
  5
68
330
1E
100
AcDbEntity
  8
0
100
AcDbLine
 10
17.3749
 20
87.22089999999999
 30
0.0
 11
17.7513
 21
87.22089999999999
 31
0.0
  0
LINE
  5
69
330
1E
100
AcDbEntity
  8
0
100
AcDbLine
 10
17.2337
 20
87.22089999999999
 30
0.0
 11
17.3749
 21
87.22089999999999
 31
0.0
  0
LINE
  5
6A
330
1E
100
AcDbEntity
  8
0
100
AcDbLine
 10
17.11599999999999
 20
87.11
 30
0.0
 11
17.2337
 21
87.22089999999999
 31
0.0
  0
LINE
  5
6B
330
1E
100
AcDbEntity
  8
0
100
AcDbLine
 10
17.0572
 20
86.8881
 30
0.0
 11
17.11599999999999
 21
87.11
 31
0.0
  0
LINE
  5
6C
330
1E
100
AcDbEntity
  8
0
100
AcDbLine
 10
35.0
 20
84.50000000000001
 30
0.0
 11
35.0
 21
83.6353
 31
0.0
  0
LINE
  5
6D
330
1E
100
AcDbEntity
  8
0
100
AcDbLine
 10
0.2884620000000119
 20
53.8029
 30
0.0
 11
0.2884620000000119
 21
60.0
 31
0.0
  0
LINE
  5
6E
330
1E
100
AcDbEntity
  8
0
100
AcDbLine
 10
35.0
 20
53.7309
 30
0.0
 11
35.0
 21
47.8221
 31
0.0
  0
LINE
  5
6F
330
1E
100
AcDbEntity
  8
0
100
AcDbLine
 10
35.0
 20
53.7309
 30
0.0
 11
35.0
 21
60.0
 31
0.0
  0
LINE
  5
70
330
1E
100
AcDbEntity
  8
0
100
AcDbLine
 10
35.0
 20
60.0
 30
0.0
 11
35.0
 21
53.7309
 31
0.0
  0
LINE
  5
71
330
1E
100
AcDbEntity
  8
0
100
AcDbLine
 10
35.0
 20
60.0
 30
0.0
 11
35.0
 21
66.26909999999999
 31
0.0
  0
LINE
  5
72
330
1E
100
AcDbEntity
  8
0
100
AcDbLine
 10
35.0
 20
42.7059
 30
0.0
 11
35.0
 21
38.8147
 31
0.0
  0
LINE
  5
73
330
1E
100
AcDbEntity
  8
0
100
AcDbLine
 10
35.0
 20
42.7059
 30
0.0
 11
35.0
 21
47.8221
 31
0.0
  0
LINE
  5
74
330
1E
100
AcDbEntity
  8
0
100
AcDbLine
 10
35.2885
 20
47.96619999999999
 30
0.0
 11
35.2885
 21
42.92209999999999
 31
0.0
  0
LINE
  5
75
330
1E
100
AcDbEntity
  8
0
100
AcDbLine
 10
35.2885
 20
47.96619999999999
 30
0.0
 11
35.2885
 21
53.8029
 31
0.0
  0
LINE
  5
76
330
1E
100
AcDbEntity
  8
0
100
AcDbLine
 10
35.2885
 20
72.0338
 30
0.0
 11
35.2885
 21
66.19710000000001
 31
0.0
  0
LINE
  5
77
330
1E
100
AcDbEntity
  8
0
100
AcDbLine
 10
35.2885
 20
72.0338
 30
0.0
 11
35.2885
 21
77.0779
 31
0.0
  0
LINE
  5
78
330
1E
100
AcDbEntity
  8
0
100
AcDbLine
 10
35.2885
 20
66.19710000000001
 30
0.0
 11
35.2885
 21
60.0
 31
0.0
  0
LINE
  5
79
330
1E
100
AcDbEntity
  8
0
100
AcDbLine
 10
35.2885
 20
66.19710000000001
 30
0.0
 11
35.2885
 21
72.0338
 31
0.0
  0
LINE
  5
7A
330
1E
100
AcDbEntity
  8
0
100
AcDbLine
 10
35.2885
 20
77.0779
 30
0.0
 11
35.2885
 21
80.8971
 31
0.0
  0
LINE
  5
7B
330
1E
100
AcDbEntity
  8
0
100
AcDbLine
 10
35.2885
 20
77.0779
 30
0.0
 11
35.2885
 21
72.0338
 31
0.0
  0
LINE
  5
7C
330
1E
100
AcDbEntity
  8
0
100
AcDbLine
 10
35.2885
 20
80.8971
 30
0.0
 11
35.2885
 21
77.0779
 31
0.0
  0
LINE
  5
7D
330
1E
100
AcDbEntity
  8
0
100
AcDbLine
 10
35.2885
 20
80.8971
 30
0.0
 11
35.2885
 21
83.275
 31
0.0
  0
LINE
  5
7E
330
1E
100
AcDbEntity
  8
0
100
AcDbLine
 10
35.2885
 20
83.275
 30
0.0
 11
35.2885
 21
80.8971
 31
0.0
  0
LINE
  5
7F
330
1E
100
AcDbEntity
  8
0
100
AcDbLine
 10
35.2885
 20
83.275
 30
0.0
 11
35.2885
 21
84.1397
 31
0.0
  0
LINE
  5
80
330
1E
100
AcDbEntity
  8
0
100
AcDbLine
 10
35.2885
 20
84.1397
 30
0.0
 11
35.2885
 21
83.275
 31
0.0
  0
LINE
  5
81
330
1E
100
AcDbEntity
  8
0
100
AcDbLine
 10
35.2885
 20
84.1397
 30
0.0
 11
35.8654
 21
84.50000000000001
 31
0.0
  0
LINE
  5
82
330
1E
100
AcDbEntity
  8
0
100
AcDbLine
 10
35.2885
 20
53.8029
 30
0.0
 11
35.2885
 21
47.96619999999999
 31
0.0
  0
LINE
  5
83
330
1E
100
AcDbEntity
  8
0
100
AcDbLine
 10
35.2885
 20
53.8029
 30
0.0
 11
35.2885
 21
60.0
 31
0.0
  0
LINE
  5
84
330
1E
100
AcDbEntity
  8
0
100
AcDbLine
 10
35.2885
 20
60.0
 30
0.0
 11
35.2885
 21
53.8029
 31
0.0
  0
LINE
  5
85
330
1E
100
AcDbEntity
  8
0
100
AcDbLine
 10
35.2885
 20
60.0
 30
0.0
 11
35.2885
 21
66.19710000000001
 31
0.0
  0
LINE
  5
86
330
1E
100
AcDbEntity
  8
0
100
AcDbLine
 10
35.2885
 20
42.92209999999999
 30
0.0
 11
35.2885
 21
39.10289999999999
 31
0.0
  0
LINE
  5
87
330
1E
100
AcDbEntity
  8
0
100
AcDbLine
 10
35.2885
 20
42.92209999999999
 30
0.0
 11
35.2885
 21
47.96619999999999
 31
0.0
  0
LINE
  5
88
330
1E
100
AcDbEntity
  8
0
100
AcDbLine
 10
35.8654
 20
84.50000000000001
 30
0.0
 11
44.0
 21
84.50000000000001
 31
0.0
  0
LINE
  5
89
330
1E
100
AcDbEntity
  8
0
100
AcDbLine
 10
35.2885
 20
39.10289999999999
 30
0.0
 11
35.2885
 21
36.725
 31
0.0
  0
LINE
  5
8A
330
1E
100
AcDbEntity
  8
0
100
AcDbLine
 10
35.2885
 20
39.10289999999999
 30
0.0
 11
35.2885
 21
42.92209999999999
 31
0.0
  0
LINE
  5
8B
330
1E
100
AcDbEntity
  8
0
100
AcDbLine
 10
35.2885
 20
36.725
 30
0.0
 11
35.2885
 21
35.8603
 31
0.0
  0
LINE
  5
8C
330
1E
100
AcDbEntity
  8
0
100
AcDbLine
 10
35.2885
 20
36.725
 30
0.0
 11
35.2885
 21
39.10289999999999
 31
0.0
  0
LINE
  5
8D
330
1E
100
AcDbEntity
  8
0
100
AcDbLine
 10
35.0
 20
38.8147
 30
0.0
 11
35.0
 21
36.3647
 31
0.0
  0
LINE
  5
8E
330
1E
100
AcDbEntity
  8
0
100
AcDbLine
 10
35.0
 20
38.8147
 30
0.0
 11
35.0
 21
42.7059
 31
0.0
  0
LINE
  5
8F
330
1E
100
AcDbEntity
  8
0
100
AcDbLine
 10
35.0
 20
36.3647
 30
0.0
 11
35.0
 21
35.5
 31
0.0
  0
LINE
  5
90
330
1E
100
AcDbEntity
  8
0
100
AcDbLine
 10
35.0
 20
36.3647
 30
0.0
 11
35.0
 21
38.8147
 31
0.0
  0
LINE
  5
91
330
1E
100
AcDbEntity
  8
0
100
AcDbLine
 10
0.28846200000001
 20
35.8603
 30
0.0
 11
0.8653850000000099
 21
35.5
 31
0.0
  0
LINE
  5
92
330
1E
100
AcDbEntity
  8
0
100
AcDbLine
 10
0.28846200000001
 20
35.8603
 30
0.0
 11
0.28846200000001
 21
36.725
 31
0.0
  0
LINE
  5
93
330
1E
100
AcDbEntity
  8
0
100
AcDbLine
 10
0.865385000000009
 20
35.5
 30
0.0
 11
35.0
 21
35.5
 31
0.0
  0
LINE
  5
94
330
1E
100
AcDbEntity
  8
0
100
AcDbLine
 10
44.18
 20
0.600000000000001
 30
0.0
 11
44.18
 21
119.4
 31
0.0
  0
LINE
  5
95
330
1E
100
AcDbEntity
  8
0
100
AcDbLine
 10
44.0
 20
0.600000000000001
 30
0.0
 11
44.0
 21
119.4
 31
0.0
  0
LINE
  5
96
330
1E
100
AcDbEntity
  8
0
100
AcDbLine
 10
44.0
 20
0.5999999999999979
 30
0.0
 11
44.0
 21
119.4
 31
0.0
  0
LINE
  5
97
330
1E
100
AcDbEntity
  8
0
100
AcDbLine
 10
44.0
 20
0.5999999999999979
 30
0.0
 11
44.18
 21
0.179999999999997
 31
0.0
  0
LINE
  5
98
330
1E
100
AcDbEntity
  8
0
100
AcDbLine
 10
44.18
 20
119.4
 30
0.0
 11
44.29999999999999
 21
119.8199999999999
 31
0.0
  0
LINE
  5
99
330
1E
100
AcDbEntity
  8
0
100
AcDbLine
 10
44.0
 20
119.4
 30
0.0
 11
44.18
 21
119.8199999999999
 31
0.0
  0
LINE
  5
9A
330
1E
100
AcDbEntity
  8
0
100
AcDbLine
 10
44.59999999999999
 20
-0.0000000000000027
 30
0.0
 11
64.40000000000001
 21
-0.0000000000000039
 31
0.0
  0
LINE
  5
9B
330
1E
100
AcDbEntity
  8
0
100
AcDbLine
 10
44.59999999999999
 20
0.179999999999997
 30
0.0
 11
64.40000000000001
 21
0.179999999999996
 31
0.0
  0
LINE
  5
9C
330
1E
100
AcDbEntity
  8
0
100
AcDbLine
 10
44.29999999999999
 20
0.179999999999997
 30
0.0
 11
44.59999999999999
 21
0.179999999999997
 31
0.0
  0
LINE
  5
9D
330
1E
100
AcDbEntity
  8
0
100
AcDbLine
 10
64.40000000000001
 20
-0.000000000000004
 30
0.0
 11
64.81999999999999
 21
0.179999999999996
 31
0.0
  0
LINE
  5
9E
330
1E
100
AcDbEntity
  8
0
100
AcDbLine
 10
64.40000000000001
 20
-0.0000000000000039
 30
0.0
 11
64.81999999999999
 21
0.179999999999996
 31
0.0
  0
LINE
  5
9F
330
1E
100
AcDbEntity
  8
0
100
AcDbLine
 10
64.7
 20
0.179999999999996
 30
0.0
 11
64.81999999999999
 21
0.599999999999996
 31
0.0
  0
LINE
  5
A0
330
1E
100
AcDbEntity
  8
0
100
AcDbLine
 10
64.7
 20
0.179999999999996
 30
0.0
 11
64.81999999999999
 21
0.179999999999996
 31
0.0
  0
LINE
  5
A1
330
1E
100
AcDbEntity
  8
0
100
AcDbLine
 10
64.40000000000001
 20
0.179999999999996
 30
0.0
 11
64.7
 21
0.179999999999996
 31
0.0
  0
LINE
  5
A2
330
1E
100
AcDbEntity
  8
0
100
AcDbLine
 10
64.81999999999999
 20
0.179999999999996
 30
0.0
 11
65.0
 21
0.599999999999996
 31
0.0
  0
LINE
  5
A3
330
1E
100
AcDbEntity
  8
0
100
AcDbLine
 10
64.81999999999999
 20
0.179999999999996
 30
0.0
 11
65.0
 21
0.599999999999996
 31
0.0
  0
LINE
  5
A4
330
1E
100
AcDbEntity
  8
0
100
AcDbLine
 10
64.81999999999999
 20
0.600000000000001
 30
0.0
 11
64.81999999999999
 21
119.4
 31
0.0
  0
LINE
  5
A5
330
1E
100
AcDbEntity
  8
0
100
AcDbLine
 10
65.0
 20
14.5
 30
0.0
 11
92.0
 21
14.5
 31
0.0
  0
LINE
  5
A6
330
1E
100
AcDbEntity
  8
0
100
AcDbLine
 10
111.0
 20
7.5
 30
0.0
 11
111.0
 21
20.0
 31
0.0
  0
LINE
  5
A7
330
1E
100
AcDbEntity
  8
0
100
AcDbLine
 10
75.0
 20
15.19801
 30
0.0
 11
75.0
 21
14.5
 31
0.0
  0
LINE
  5
A8
330
1E
100
AcDbEntity
  8
0
100
AcDbLine
 10
75.0
 20
16.59182999999999
 30
0.0
 11
75.0
 21
15.19801
 31
0.0
  0
LINE
  5
A9
330
1E
100
AcDbEntity
  8
0
100
AcDbLine
 10
75.0
 20
18.45029999999999
 30
0.0
 11
75.0
 21
16.59182999999999
 31
0.0
  0
LINE
  5
AA
330
1E
100
AcDbEntity
  8
0
100
AcDbLine
 10
92.0
 20
15.19801
 30
0.0
 11
92.0
 21
14.5
 31
0.0
  0
LINE
  5
AB
330
1E
100
AcDbEntity
  8
0
100
AcDbLine
 10
92.0
 20
15.19801
 30
0.0
 11
92.0
 21
16.59182999999999
 31
0.0
  0
LINE
  5
AC
330
1E
100
AcDbEntity
  8
0
100
AcDbLine
 10
92.0
 20
16.59182999999999
 30
0.0
 11
92.0
 21
15.19801
 31
0.0
  0
LINE
  5
AD
330
1E
100
AcDbEntity
  8
0
100
AcDbLine
 10
92.0
 20
16.59182999999999
 30
0.0
 11
92.0
 21
18.45029999999999
 31
0.0
  0
LINE
  5
AE
330
1E
100
AcDbEntity
  8
0
100
AcDbLine
 10
92.0
 20
18.45029999999999
 30
0.0
 11
92.0
 21
16.59182999999999
 31
0.0
  0
LINE
  5
AF
330
1E
100
AcDbEntity
  8
0
100
AcDbLine
 10
92.0
 20
18.45029999999999
 30
0.0
 11
92.0
 21
21.2379
 31
0.0
  0
LINE
  5
B0
330
1E
100
AcDbEntity
  8
0
100
AcDbLine
 10
92.0
 20
14.5
 30
0.0
 11
92.0
 21
15.19801
 31
0.0
  0
LINE
  5
B1
330
1E
100
AcDbEntity
  8
0
100
AcDbLine
 10
99.0
 20
7.5
 30
0.0
 11
99.0
 21
20.0
 31
0.0
  0
LINE
  5
B2
330
1E
100
AcDbEntity
  8
0
100
AcDbLine
 10
99.0
 20
7.5
 30
0.0
 11
111.0
 21
7.5
 31
0.0
  0
LINE
  5
B3
330
1E
100
AcDbEntity
  8
0
100
AcDbLine
 10
111.0
 20
20.0
 30
0.0
 11
111.612
 21
20.0
 31
0.0
  0
LINE
  5
B4
330
1E
100
AcDbEntity
  8
0
100
AcDbLine
 10
75.0
 20
21.2379
 30
0.0
 11
75.0
 21
18.45029999999999
 31
0.0
  0
LINE
  5
B5
330
1E
100
AcDbEntity
  8
0
100
AcDbLine
 10
75.0
 20
23.9326
 30
0.0
 11
75.0
 21
21.2379
 31
0.0
  0
LINE
  5
B6
330
1E
100
AcDbEntity
  8
0
100
AcDbLine
 10
92.0
 20
21.2379
 30
0.0
 11
92.0
 21
18.45029999999999
 31
0.0
  0
LINE
  5
B7
330
1E
100
AcDbEntity
  8
0
100
AcDbLine
 10
92.0
 20
21.2379
 30
0.0
 11
92.0
 21
23.9326
 31
0.0
  0
LINE
  5
B8
330
1E
100
AcDbEntity
  8
0
100
AcDbLine
 10
75.0
 20
27.4636
 30
0.0
 11
75.0
 21
23.9326
 31
0.0
  0
LINE
  5
B9
330
1E
100
AcDbEntity
  8
0
100
AcDbLine
 10
75.0
 20
32.2956
 30
0.0
 11
75.0
 21
27.4636
 31
0.0
  0
LINE
  5
BA
330
1E
100
AcDbEntity
  8
0
100
AcDbLine
 10
92.0
 20
23.9326
 30
0.0
 11
92.0
 21
21.2379
 31
0.0
  0
LINE
  5
BB
330
1E
100
AcDbEntity
  8
0
100
AcDbLine
 10
92.0
 20
23.9326
 30
0.0
 11
92.0
 21
27.4636
 31
0.0
  0
LINE
  5
BC
330
1E
100
AcDbEntity
  8
0
100
AcDbLine
 10
92.0
 20
27.4636
 30
0.0
 11
92.0
 21
23.9326
 31
0.0
  0
LINE
  5
BD
330
1E
100
AcDbEntity
  8
0
100
AcDbLine
 10
92.0
 20
27.4636
 30
0.0
 11
92.0
 21
32.2956
 31
0.0
  0
LINE
  5
BE
330
1E
100
AcDbEntity
  8
0
100
AcDbLine
 10
92.0
 20
32.2956
 30
0.0
 11
92.0
 21
27.4636
 31
0.0
  0
LINE
  5
BF
330
1E
100
AcDbEntity
  8
0
100
AcDbLine
 10
92.0
 20
32.2956
 30
0.0
 11
92.0
 21
40.8443
 31
0.0
  0
LINE
  5
C0
330
1E
100
AcDbEntity
  8
0
100
AcDbLine
 10
111.0
 20
20.0
 30
0.0
 11
111.0
 21
7.5
 31
0.0
  0
LINE
  5
C1
330
1E
100
AcDbEntity
  8
0
100
AcDbLine
 10
99.0
 20
20.0
 30
0.0
 11
99.0
 21
7.5
 31
0.0
  0
LINE
  5
C2
330
1E
100
AcDbEntity
  8
0
100
AcDbLine
 10
111.612
 20
20.0
 30
0.0
 11
113.244
 21
20.0
 31
0.0
  0
LINE
  5
C3
330
1E
100
AcDbEntity
  8
0
100
AcDbLine
 10
113.244
 20
20.0
 30
0.0
 11
115.964
 21
20.0
 31
0.0
  0
LINE
  5
C4
330
1E
100
AcDbEntity
  8
0
100
AcDbLine
 10
92.0
 20
35.07199999999999
 30
0.0
 11
111.5523749999999
 21
35.07199999999999
 31
0.0
  0
LINE
  5
C5
330
1E
100
AcDbEntity
  8
0
100
AcDbLine
 10
111.612
 20
34.648
 30
0.0
 11
113.244
 21
30.568
 31
0.0
  0
LINE
  5
C6
330
1E
100
AcDbEntity
  8
0
100
AcDbLine
 10
114.0909
 20
20.0
 30
0.0
 11
114.5915999999999
 21
20.0
 31
0.0
  0
LINE
  5
C7
330
1E
100
AcDbEntity
  8
0
100
AcDbLine
 10
113.244
 20
30.568
 30
0.0
 11
115.964
 21
26.964
 31
0.0
  0
LINE
  5
C8
330
1E
100
AcDbEntity
  8
0
100
AcDbLine
 10
75.0
 20
40.8443
 30
0.0
 11
75.0
 21
32.2956
 31
0.0
  0
LINE
  5
C9
330
1E
100
AcDbEntity
  8
0
100
AcDbLine
 10
92.0
 20
40.8443
 30
0.0
 11
92.0
 21
32.2956
 31
0.0
  0
LINE
  5
CA
330
1E
100
AcDbEntity
  8
0
100
AcDbLine
 10
92.0
 20
40.8443
 30
0.0
 11
92.0
 21
55.3401
 31
0.0
  0
LINE
  5
CB
330
1E
100
AcDbEntity
  8
0
100
AcDbLine
 10
111.0
 20
39.0
 30
0.0
 11
111.612
 21
43.35199999999999
 31
0.0
  0
LINE
  5
CC
330
1E
100
AcDbEntity
  8
0
100
AcDbLine
 10
111.0
 20
39.0
 30
0.0
 11
111.612
 21
34.648
 31
0.0
  0
LINE
  5
CD
330
1E
100
AcDbEntity
  8
0
100
AcDbLine
 10
114.5915999999999
 20
20.0
 30
0.0
 11
115.9269
 21
20.0
 31
0.0
  0
LINE
  5
CE
330
1E
100
AcDbEntity
  8
0
100
AcDbLine
 10
115.9269
 20
20.0
 30
0.0
 11
118.1524
 21
20.0
 31
0.0
  0
LINE
  5
CF
330
1E
100
AcDbEntity
  8
0
100
AcDbLine
 10
114.5915999999999
 20
35.4393
 30
0.0
 11
115.9269
 21
32.1011
 31
0.0
  0
LINE
  5
D0
330
1E
100
AcDbEntity
  8
0
100
AcDbLine
 10
115.9269
 20
32.1011
 30
0.0
 11
118.1524
 21
29.1524
 31
0.0
  0
LINE
  5
D1
330
1E
100
AcDbEntity
  8
0
100
AcDbLine
 10
114.0909
 20
39.0
 30
0.0
 11
114.5915999999999
 21
42.5607
 31
0.0
  0
LINE
  5
D2
330
1E
100
AcDbEntity
  8
0
100
AcDbLine
 10
114.0909
 20
39.0
 30
0.0
 11
114.5915999999999
 21
35.4393
 31
0.0
  0
LINE
  5
D3
330
1E
100
AcDbEntity
  8
0
100
AcDbLine
 10
111.612
 20
43.35199999999999
 30
0.0
 11
113.244
 21
47.43199999999999
 31
0.0
  0
LINE
  5
D4
330
1E
100
AcDbEntity
  8
0
100
AcDbLine
 10
113.244
 20
47.43199999999999
 30
0.0
 11
115.964
 21
51.036
 31
0.0
  0
LINE
  5
D5
330
1E
100
AcDbEntity
  8
0
100
AcDbLine
 10
114.5915999999999
 20
42.5607
 30
0.0
 11
115.9269
 21
45.89889999999999
 31
0.0
  0
LINE
  5
D6
330
1E
100
AcDbEntity
  8
0
100
AcDbLine
 10
115.964
 20
20.0
 30
0.0
 11
119.568
 21
20.0
 31
0.0
  0
LINE
  5
D7
330
1E
100
AcDbEntity
  8
0
100
AcDbLine
 10
119.568
 20
20.0
 30
0.0
 11
123.648
 21
20.0
 31
0.0
  0
LINE
  5
D8
330
1E
100
AcDbEntity
  8
0
100
AcDbLine
 10
118.1524
 20
20.0
 30
0.0
 11
121.1011
 21
20.0
 31
0.0
  0
LINE
  5
D9
330
1E
100
AcDbEntity
  8
0
100
AcDbLine
 10
121.1011
 20
20.0
 30
0.0
 11
124.4393
 21
20.0
 31
0.0
  0
LINE
  5
DA
330
1E
100
AcDbEntity
  8
0
100
AcDbLine
 10
119.568
 20
24.244
 30
0.0
 11
123.648
 21
22.612
 31
0.0
  0
LINE
  5
DB
330
1E
100
AcDbEntity
  8
0
100
AcDbLine
 10
115.964
 20
26.964
 30
0.0
 11
119.568
 21
24.244
 31
0.0
  0
LINE
  5
DC
330
1E
100
AcDbEntity
  8
0
100
AcDbLine
 10
118.1524
 20
29.1524
 30
0.0
 11
121.1011
 21
26.9269
 31
0.0
  0
LINE
  5
DD
330
1E
100
AcDbEntity
  8
0
100
AcDbLine
 10
121.1011
 20
26.9269
 30
0.0
 11
124.4393
 21
25.5916
 31
0.0
  0
LINE
  5
DE
330
1E
100
AcDbEntity
  8
0
100
AcDbLine
 10
115.9269
 20
45.89889999999999
 30
0.0
 11
118.1524
 21
48.84759999999999
 31
0.0
  0
LINE
  5
DF
330
1E
100
AcDbEntity
  8
0
100
AcDbLine
 10
115.964
 20
51.036
 30
0.0
 11
119.568
 21
53.756
 31
0.0
  0
LINE
  5
E0
330
1E
100
AcDbEntity
  8
0
100
AcDbLine
 10
118.1524
 20
48.84759999999999
 30
0.0
 11
121.1011
 21
51.0731
 31
0.0
  0
LINE
  5
E1
330
1E
100
AcDbEntity
  8
0
100
AcDbLine
 10
123.648
 20
20.0
 30
0.0
 11
128.0
 21
20.0
 31
0.0
  0
LINE
  5
E2
330
1E
100
AcDbEntity
  8
0
100
AcDbLine
 10
128.0
 20
20.0
 30
0.0
 11
131.5606999999999
 21
20.0
 31
0.0
  0
LINE
  5
E3
330
1E
100
AcDbEntity
  8
0
100
AcDbLine
 10
128.0
 20
20.0
 30
0.0
 11
132.352
 21
20.0
 31
0.0
  0
LINE
  5
E9
330
1E
100
AcDbEntity
  8
0
100
AcDbLine
 10
124.4393
 20
20.0
 30
0.0
 11
128.0
 21
20.0
 31
0.0
  0
LINE
  5
EA
330
1E
100
AcDbEntity
  8
0
100
AcDbLine
 10
135.0
 20
11.5
 30
0.0
 11
135.0
 21
11.644
 31
0.0
  0
LINE
  5
EB
330
1E
100
AcDbEntity
  8
0
100
AcDbLine
 10
135.0
 20
11.644
 30
0.0
 11
135.0
 21
11.5
 31
0.0
  0
LINE
  5
EC
330
1E
100
AcDbEntity
  8
0
100
AcDbLine
 10
135.0
 20
11.644
 30
0.0
 11
135.0
 21
12.02799999999999
 31
0.0
  0
LINE
  5
ED
330
1E
100
AcDbEntity
  8
0
100
AcDbLine
 10
135.0
 20
8.5
 30
0.0
 11
135.0
 21
8.752
 31
0.0
  0
LINE
  5
EE
330
1E
100
AcDbEntity
  8
0
100
AcDbLine
 10
135.0
 20
8.5
 30
0.0
 11
140.0
 21
8.5
 31
0.0
  0
LINE
  5
EF
330
1E
100
AcDbEntity
  8
0
100
AcDbLine
 10
135.0
 20
8.752
 30
0.0
 11
135.0
 21
9.423999999999999
 31
0.0
  0
LINE
  5
F0
330
1E
100
AcDbEntity
  8
0
100
AcDbLine
 10
135.0
 20
8.752
 30
0.0
 11
135.0
 21
8.5
 31
0.0
  0
LINE
  5
F1
330
1E
100
AcDbEntity
  8
0
100
AcDbLine
 10
135.0
 20
12.66799999999999
 30
0.0
 11
135.0
 21
12.02799999999999
 31
0.0
  0
LINE
  5
F2
330
1E
100
AcDbEntity
  8
0
100
AcDbLine
 10
135.0
 20
12.66799999999999
 30
0.0
 11
135.0
 21
13.51599999999999
 31
0.0
  0
LINE
  5
F3
330
1E
100
AcDbEntity
  8
0
100
AcDbLine
 10
135.0
 20
9.423999999999999
 30
0.0
 11
135.0
 21
10.544
 31
0.0
  0
LINE
  5
F4
330
1E
100
AcDbEntity
  8
0
100
AcDbLine
 10
135.0
 20
9.423999999999999
 30
0.0
 11
135.0
 21
8.752
 31
0.0
  0
LINE
  5
F6
330
1E
100
AcDbEntity
  8
0
100
AcDbLine
 10
135.0
 20
13.51599999999999
 30
0.0
 11
135.0
 21
12.66799999999999
 31
0.0
  0
LINE
  5
F7
330
1E
100
AcDbEntity
  8
0
100
AcDbLine
 10
135.0
 20
13.51599999999999
 30
0.0
 11
135.0
 21
14.47599999999999
 31
0.0
  0
LINE
  5
F8
330
1E
100
AcDbEntity
  8
0
100
AcDbLine
 10
135.0
 20
10.544
 30
0.0
 11
135.0
 21
12.02799999999999
 31
0.0
  0
LINE
  5
F9
330
1E
100
AcDbEntity
  8
0
100
AcDbLine
 10
135.0
 20
10.544
 30
0.0
 11
135.0
 21
9.423999999999999
 31
0.0
  0
LINE
  5
FA
330
1E
100
AcDbEntity
  8
0
100
AcDbLine
 10
135.0
 20
14.47599999999999
 30
0.0
 11
135.0
 21
13.51599999999999
 31
0.0
  0
LINE
  5
FB
330
1E
100
AcDbEntity
  8
0
100
AcDbLine
 10
135.0
 20
14.47599999999999
 30
0.0
 11
135.0
 21
15.5
 31
0.0
  0
LINE
  5
FC
330
1E
100
AcDbEntity
  8
0
100
AcDbLine
 10
135.0
 20
12.02799999999999
 30
0.0
 11
135.0
 21
13.708
 31
0.0
  0
LINE
  5
FD
330
1E
100
AcDbEntity
  8
0
100
AcDbLine
 10
135.0
 20
12.02799999999999
 30
0.0
 11
135.0
 21
11.644
 31
0.0
  0
LINE
  5
FE
330
1E
100
AcDbEntity
  8
0
100
AcDbLine
 10
135.0
 20
12.02799999999999
 30
0.0
 11
135.0
 21
10.544
 31
0.0
  0
LINE
  5
FF
330
1E
100
AcDbEntity
  8
0
100
AcDbLine
 10
135.0
 20
12.02799999999999
 30
0.0
 11
135.0
 21
12.66799999999999
 31
0.0
  0
LINE
  5
100
330
1E
100
AcDbEntity
  8
0
100
AcDbLine
 10
135.0
 20
18.332
 30
0.0
 11
135.0
 21
18.972
 31
0.0
  0
LINE
  5
101
330
1E
100
AcDbEntity
  8
0
100
AcDbLine
 10
135.0
 20
18.332
 30
0.0
 11
135.0
 21
17.484
 31
0.0
  0
LINE
  5
102
330
1E
100
AcDbEntity
  8
0
100
AcDbLine
 10
135.0
 20
17.484
 30
0.0
 11
135.0
 21
18.332
 31
0.0
  0
LINE
  5
103
330
1E
100
AcDbEntity
  8
0
100
AcDbLine
 10
135.0
 20
17.484
 30
0.0
 11
135.0
 21
16.524
 31
0.0
  0
LINE
  5
104
330
1E
100
AcDbEntity
  8
0
100
AcDbLine
 10
135.0
 20
16.524
 30
0.0
 11
135.0
 21
17.484
 31
0.0
  0
LINE
  5
105
330
1E
100
AcDbEntity
  8
0
100
AcDbLine
 10
135.0
 20
16.524
 30
0.0
 11
135.0
 21
15.5
 31
0.0
  0
LINE
  5
106
330
1E
100
AcDbEntity
  8
0
100
AcDbLine
 10
135.0
 20
19.5
 30
0.0
 11
135.0
 21
19.35599999999999
 31
0.0
  0
LINE
  5
107
330
1E
100
AcDbEntity
  8
0
100
AcDbLine
 10
135.0
 20
19.35599999999999
 30
0.0
 11
135.0
 21
19.5
 31
0.0
  0
LINE
  5
108
330
1E
100
AcDbEntity
  8
0
100
AcDbLine
 10
135.0
 20
19.35599999999999
 30
0.0
 11
135.0
 21
18.972
 31
0.0
  0
LINE
  5
109
330
1E
100
AcDbEntity
  8
0
100
AcDbLine
 10
135.0
 20
20.0
 30
0.0
 11
135.0
 21
18.972
 31
0.0
  0
LINE
  5
10A
330
1E
100
AcDbEntity
  8
0
100
AcDbLine
 10
135.0
 20
18.972
 30
0.0
 11
135.0
 21
17.292
 31
0.0
  0
LINE
  5
10B
330
1E
100
AcDbEntity
  8
0
100
AcDbLine
 10
135.0
 20
18.972
 30
0.0
 11
135.0
 21
19.35599999999999
 31
0.0
  0
LINE
  5
10C
330
1E
100
AcDbEntity
  8
0
100
AcDbLine
 10
135.0
 20
18.972
 30
0.0
 11
135.0
 21
20.0
 31
0.0
  0
LINE
  5
10D
330
1E
100
AcDbEntity
  8
0
100
AcDbLine
 10
135.0
 20
18.972
 30
0.0
 11
135.0
 21
18.332
 31
0.0
  0
LINE
  5
10E
330
1E
100
AcDbEntity
  8
0
100
AcDbLine
 10
135.0
 20
18.972
 30
0.0
 11
135.0
 21
20.45599999999999
 31
0.0
  0
LINE
  5
10F
330
1E
100
AcDbEntity
  8
0
100
AcDbLine
 10
135.0
 20
17.292
 30
0.0
 11
135.0
 21
15.5
 31
0.0
  0
LINE
  5
110
330
1E
100
AcDbEntity
  8
0
100
AcDbLine
 10
135.0
 20
17.292
 30
0.0
 11
135.0
 21
18.972
 31
0.0
  0
LINE
  5
111
330
1E
100
AcDbEntity
  8
0
100
AcDbLine
 10
135.0
 20
15.5
 30
0.0
 11
135.0
 21
14.47599999999999
 31
0.0
  0
LINE
  5
112
330
1E
100
AcDbEntity
  8
0
100
AcDbLine
 10
135.0
 20
15.5
 30
0.0
 11
135.0
 21
13.708
 31
0.0
  0
LINE
  5
113
330
1E
100
AcDbEntity
  8
0
100
AcDbLine
 10
135.0
 20
15.5
 30
0.0
 11
135.0
 21
16.524
 31
0.0
  0
LINE
  5
114
330
1E
100
AcDbEntity
  8
0
100
AcDbLine
 10
135.0
 20
15.5
 30
0.0
 11
135.0
 21
17.292
 31
0.0
  0
LINE
  5
115
330
1E
100
AcDbEntity
  8
0
100
AcDbLine
 10
145.0
 20
9.42399999999999
 30
0.0
 11
145.0
 21
10.544
 31
0.0
  0
LINE
  5
116
330
1E
100
AcDbEntity
  8
0
100
AcDbLine
 10
145.0
 20
9.42399999999999
 30
0.0
 11
145.0
 21
8.752
 31
0.0
  0
LINE
  5
117
330
1E
100
AcDbEntity
  8
0
100
AcDbLine
 10
140.0
 20
8.5
 30
0.0
 11
145.0
 21
8.499999999999991
 31
0.0
  0
LINE
  5
118
330
1E
100
AcDbEntity
  8
0
100
AcDbLine
 10
145.0
 20
8.499999999999991
 30
0.0
 11
145.0
 21
8.752
 31
0.0
  0
LINE
  5
119
330
1E
100
AcDbEntity
  8
0
100
AcDbLine
 10
145.0
 20
8.752
 30
0.0
 11
145.0
 21
9.42399999999999
 31
0.0
  0
LINE
  5
11A
330
1E
100
AcDbEntity
  8
0
100
AcDbLine
 10
145.0
 20
8.752
 30
0.0
 11
145.0
 21
8.499999999999991
 31
0.0
  0
LINE
  5
11C
330
1E
100
AcDbEntity
  8
0
100
AcDbLine
 10
145.0
 20
10.544
 30
0.0
 11
145.0
 21
9.42399999999999
 31
0.0
  0
LINE
  5
11D
330
1E
100
AcDbEntity
  8
0
100
AcDbLine
 10
145.0
 20
10.544
 30
0.0
 11
145.0
 21
12.02799999999999
 31
0.0
  0
LINE
  5
120
330
1E
100
AcDbEntity
  8
0
100
AcDbLine
 10
145.0
 20
12.02799999999999
 30
0.0
 11
145.0
 21
10.544
 31
0.0
  0
LINE
  5
121
330
1E
100
AcDbEntity
  8
0
100
AcDbLine
 10
145.0
 20
12.02799999999999
 30
0.0
 11
145.0
 21
13.708
 31
0.0
  0
LINE
  5
122
330
1E
100
AcDbEntity
  8
0
100
AcDbLine
 10
145.0
 20
13.708
 30
0.0
 11
145.0
 21
12.02799999999999
 31
0.0
  0
LINE
  5
123
330
1E
100
AcDbEntity
  8
0
100
AcDbLine
 10
145.0
 20
13.708
 30
0.0
 11
145.0
 21
15.5
 31
0.0
  0
LINE
  5
128
330
1E
100
AcDbEntity
  8
0
100
AcDbLine
 10
145.0
 20
15.5
 30
0.0
 11
145.0
 21
13.708
 31
0.0
  0
LINE
  5
129
330
1E
100
AcDbEntity
  8
0
100
AcDbLine
 10
145.0
 20
15.5
 30
0.0
 11
145.0
 21
39.0
 31
0.0
  0
LINE
  5
12A
330
1E
100
AcDbEntity
  8
0
100
AcDbLine
 10
135.0
 20
13.708
 30
0.0
 11
135.0
 21
15.5
 31
0.0
  0
LINE
  5
12B
330
1E
100
AcDbEntity
  8
0
100
AcDbLine
 10
135.0
 20
13.708
 30
0.0
 11
135.0
 21
12.02799999999999
 31
0.0
  0
LINE
  5
12C
330
1E
100
AcDbEntity
  8
0
100
AcDbLine
 10
135.0
 20
20.45599999999999
 30
0.0
 11
135.0
 21
21.57599999999999
 31
0.0
  0
LINE
  5
12D
330
1E
100
AcDbEntity
  8
0
100
AcDbLine
 10
135.0
 20
20.45599999999999
 30
0.0
 11
135.0
 21
18.972
 31
0.0
  0
LINE
  5
12E
330
1E
100
AcDbEntity
  8
0
100
AcDbLine
 10
135.0
 20
22.5
 30
0.0
 11
145.0
 21
22.5
 31
0.0
  0
LINE
  5
12F
330
1E
100
AcDbEntity
  8
0
100
AcDbLine
 10
135.0
 20
22.5
 30
0.0
 11
135.0
 21
22.248
 31
0.0
  0
LINE
  5
131
330
1E
100
AcDbEntity
  8
0
100
AcDbLine
 10
135.0
 20
22.248
 30
0.0
 11
135.0
 21
22.5
 31
0.0
  0
LINE
  5
132
330
1E
100
AcDbEntity
  8
0
100
AcDbLine
 10
135.0
 20
22.248
 30
0.0
 11
135.0
 21
21.57599999999999
 31
0.0
  0
LINE
  5
135
330
1E
100
AcDbEntity
  8
0
100
AcDbLine
 10
135.0
 20
21.57599999999999
 30
0.0
 11
135.0
 21
22.248
 31
0.0
  0
LINE
  5
136
330
1E
100
AcDbEntity
  8
0
100
AcDbLine
 10
135.0
 20
21.57599999999999
 30
0.0
 11
135.0
 21
20.45599999999999
 31
0.0
  0
LINE
  5
13B
330
1E
100
AcDbEntity
  8
0
100
AcDbLine
 10
132.352
 20
20.0
 30
0.0
 11
135.0
 21
20.0
 31
0.0
  0
LINE
  5
13C
330
1E
100
AcDbEntity
  8
0
100
AcDbLine
 10
134.8988999999999
 20
20.0
 30
0.0
 11
135.0
 21
20.0
 31
0.0
  0
LINE
  5
13D
330
1E
100
AcDbEntity
  8
0
100
AcDbLine
 10
131.5606999999999
 20
20.0
 30
0.0
 11
134.8988999999999
 21
20.0
 31
0.0
  0
LINE
  5
13E
330
1E
100
AcDbEntity
  8
0
100
AcDbLine
 10
136.432
 20
24.244
 30
0.0
 11
140.036
 21
26.964
 31
0.0
  0
LINE
  5
13F
330
1E
100
AcDbEntity
  8
0
100
AcDbLine
 10
132.352
 20
22.612
 30
0.0
 11
136.432
 21
24.244
 31
0.0
  0
LINE
  5
140
330
1E
100
AcDbEntity
  8
0
100
AcDbLine
 10
128.0
 20
22.0
 30
0.0
 11
132.352
 21
22.612
 31
0.0
  0
LINE
  5
142
330
1E
100
AcDbEntity
  8
0
100
AcDbLine
 10
131.5606999999999
 20
25.5916
 30
0.0
 11
134.8988999999999
 21
26.9269
 31
0.0
  0
LINE
  5
143
330
1E
100
AcDbEntity
  8
0
100
AcDbLine
 10
128.0
 20
25.0909
 30
0.0
 11
131.5606999999999
 21
25.5916
 31
0.0
  0
LINE
  5
144
330
1E
100
AcDbEntity
  8
0
100
AcDbLine
 10
123.648
 20
22.612
 30
0.0
 11
128.0
 21
22.0
 31
0.0
  0
LINE
  5
145
330
1E
100
AcDbEntity
  8
0
100
AcDbLine
 10
134.8988999999999
 20
51.0731
 30
0.0
 11
137.8476
 21
48.84759999999999
 31
0.0
  0
LINE
  5
146
330
1E
100
AcDbEntity
  8
0
100
AcDbLine
 10
131.5606999999999
 20
52.4084
 30
0.0
 11
134.8988999999999
 21
51.0731
 31
0.0
  0
LINE
  5
148
330
1E
100
AcDbEntity
  8
0
100
AcDbLine
 10
140.036
 20
26.964
 30
0.0
 11
142.7559999999999
 21
30.568
 31
0.0
  0
LINE
  5
149
330
1E
100
AcDbEntity
  8
0
100
AcDbLine
 10
140.0731
 20
45.89889999999999
 30
0.0
 11
141.4084
 21
42.5607
 31
0.0
  0
LINE
  5
14A
330
1E
100
AcDbEntity
  8
0
100
AcDbLine
 10
140.036
 20
51.036
 30
0.0
 11
142.7559999999999
 21
47.43199999999999
 31
0.0
  0
LINE
  5
14B
330
1E
100
AcDbEntity
  8
0
100
AcDbLine
 10
137.8476
 20
48.84759999999999
 30
0.0
 11
140.0731
 21
45.89889999999999
 31
0.0
  0
LINE
  5
14C
330
1E
100
AcDbEntity
  8
0
100
AcDbLine
 10
141.4084
 20
42.5607
 30
0.0
 11
141.9090999999999
 21
39.0
 31
0.0
  0
LINE
  5
14D
330
1E
100
AcDbEntity
  8
0
100
AcDbLine
 10
145.0
 20
39.0
 30
0.0
 11
145.0
 21
15.5
 31
0.0
  0
LINE
  5
14E
330
1E
100
AcDbEntity
  8
0
100
AcDbLine
 10
144.949965133683
 20
39.35580349380909
 30
0.0
 11
145.0
 21
39.3594
 31
0.0
  0
LINE
  5
14F
330
1E
100
AcDbEntity
  8
0
100
AcDbLine
 10
145.0
 20
35.0
 30
0.0
 11
145.2692
 21
35.0
 31
0.0
  0
LINE
  5
151
330
1E
100
AcDbEntity
  8
0
100
AcDbLine
 10
145.0
 20
39.3594
 30
0.0
 11
145.0
 21
39.0
 31
0.0
  0
LINE
  5
157
330
1E
100
AcDbEntity
  8
0
100
AcDbLine
 10
147.0
 20
43.08819999999999
 30
0.0
 11
147.0
 21
39.3382
 31
0.0
  0
LINE
  5
158
330
1E
100
AcDbEntity
  8
0
100
AcDbLine
 10
147.0
 20
43.08819999999999
 30
0.0
 11
147.0
 21
48.0882
 31
0.0
  0
LINE
  5
159
330
1E
100
AcDbEntity
  8
0
100
AcDbLine
 10
147.0
 20
39.3382
 30
0.0
 11
147.0
 21
43.08819999999999
 31
0.0
  0
LINE
  5
15A
330
1E
100
AcDbEntity
  8
0
100
AcDbLine
 10
147.0
 20
39.3382
 30
0.0
 11
147.0
 21
36.9853
 31
0.0
  0
LINE
  5
15B
330
1E
100
AcDbEntity
  8
0
100
AcDbLine
 10
147.0
 20
36.9853
 30
0.0
 11
147.0
 21
39.3382
 31
0.0
  0
LINE
  5
15C
330
1E
100
AcDbEntity
  8
0
100
AcDbLine
 10
147.0
 20
36.9853
 30
0.0
 11
147.0
 21
36.10289999999999
 31
0.0
  0
LINE
  5
15D
330
1E
100
AcDbEntity
  8
0
100
AcDbLine
 10
147.0
 20
36.10289999999999
 30
0.0
 11
147.0
 21
36.9853
 31
0.0
  0
LINE
  5
15E
330
1E
100
AcDbEntity
  8
0
100
AcDbLine
 10
146.4231
 20
35.3676
 30
0.0
 11
147.0
 21
36.10289999999999
 31
0.0
  0
LINE
  5
15F
330
1E
100
AcDbEntity
  8
0
100
AcDbLine
 10
145.2692
 20
35.0
 30
0.0
 11
146.4231
 21
35.3676
 31
0.0
  0
LINE
  5
161
330
1E
100
AcDbEntity
  8
0
100
AcDbLine
 10
147.0
 20
48.0882
 30
0.0
 11
147.0
 21
53.8235
 31
0.0
  0
LINE
  5
162
330
1E
100
AcDbEntity
  8
0
100
AcDbLine
 10
147.0
 20
48.0882
 30
0.0
 11
147.0
 21
43.08819999999999
 31
0.0
  0
LINE
  5
165
330
1E
100
AcDbEntity
  8
0
100
AcDbLine
 10
144.388
 20
43.35199999999999
 30
0.0
 11
145.0
 21
39.0
 31
0.0
  0
LINE
  5
166
330
1E
100
AcDbEntity
  8
0
100
AcDbLine
 10
142.7559999999999
 20
47.43199999999999
 30
0.0
 11
144.388
 21
43.35199999999999
 31
0.0
  0
LINE
  5
167
330
1E
100
AcDbEntity
  8
0
100
AcDbLine
 10
144.388
 20
34.648
 30
0.0
 11
145.0
 21
39.0
 31
0.0
  0
LINE
  5
168
330
1E
100
AcDbEntity
  8
0
100
AcDbLine
 10
141.4084
 20
35.4393
 30
0.0
 11
141.9090999999999
 21
39.0
 31
0.0
  0
LINE
  5
169
330
1E
100
AcDbEntity
  8
0
100
AcDbLine
 10
142.7559999999999
 20
30.568
 30
0.0
 11
144.388
 21
34.648
 31
0.0
  0
LINE
  5
16A
330
1E
100
AcDbEntity
  8
0
100
AcDbLine
 10
140.0731
 20
32.1011
 30
0.0
 11
141.4084
 21
35.4393
 31
0.0
  0
LINE
  5
16B
330
1E
100
AcDbEntity
  8
0
100
AcDbLine
 10
137.8476
 20
29.1524
 30
0.0
 11
140.0731
 21
32.1011
 31
0.0
  0
LINE
  5
16C
330
1E
100
AcDbEntity
  8
0
100
AcDbLine
 10
134.8988999999999
 20
26.9269
 30
0.0
 11
137.8476
 21
29.1524
 31
0.0
  0
LINE
  5
16D
330
1E
100
AcDbEntity
  8
0
100
AcDbLine
 10
124.4393
 20
25.5916
 30
0.0
 11
128.0
 21
25.0909
 31
0.0
  0
LINE
  5
16E
330
1E
100
AcDbEntity
  8
0
100
AcDbLine
 10
121.1011
 20
51.0731
 30
0.0
 11
124.4393
 21
52.4084
 31
0.0
  0
LINE
  5
16F
330
1E
100
AcDbEntity
  8
0
100
AcDbLine
 10
75.0
 20
55.3401
 30
0.0
 11
75.0
 21
67.04819999999999
 31
0.0
  0
LINE
  5
170
330
1E
100
AcDbEntity
  8
0
100
AcDbLine
 10
75.0
 20
55.3401
 30
0.0
 11
75.0
 21
40.8443
 31
0.0
  0
LINE
  5
171
330
1E
100
AcDbEntity
  8
0
100
AcDbLine
 10
75.0
 20
74.6817
 30
0.0
 11
75.0
 21
67.04819999999999
 31
0.0
  0
LINE
  5
172
330
1E
100
AcDbEntity
  8
0
100
AcDbLine
 10
92.0
 20
55.3401
 30
0.0
 11
92.0
 21
40.8443
 31
0.0
  0
LINE
  5
173
330
1E
100
AcDbEntity
  8
0
100
AcDbLine
 10
92.0
 20
55.3401
 30
0.0
 11
92.0
 21
67.04819999999999
 31
0.0
  0
LINE
  5
174
330
1E
100
AcDbEntity
  8
0
100
AcDbLine
 10
92.0
 20
67.04819999999999
 30
0.0
 11
92.0
 21
55.3401
 31
0.0
  0
LINE
  5
175
330
1E
100
AcDbEntity
  8
0
100
AcDbLine
 10
92.0
 20
67.04819999999999
 30
0.0
 11
92.0
 21
74.6817
 31
0.0
  0
LINE
  5
176
330
1E
100
AcDbEntity
  8
0
100
AcDbLine
 10
75.0
 20
80.4428
 30
0.0
 11
75.0
 21
74.6817
 31
0.0
  0
LINE
  5
177
330
1E
100
AcDbEntity
  8
0
100
AcDbLine
 10
92.0
 20
74.6817
 30
0.0
 11
92.0
 21
67.04819999999999
 31
0.0
  0
LINE
  5
178
330
1E
100
AcDbEntity
  8
0
100
AcDbLine
 10
92.0
 20
74.6817
 30
0.0
 11
92.0
 21
80.4428
 31
0.0
  0
LINE
  5
179
330
1E
100
AcDbEntity
  8
0
100
AcDbLine
 10
92.0
 20
80.4428
 30
0.0
 11
92.0
 21
74.6817
 31
0.0
  0
LINE
  5
17A
330
1E
100
AcDbEntity
  8
0
100
AcDbLine
 10
92.0
 20
80.4428
 30
0.0
 11
92.0
 21
85.8323
 31
0.0
  0
LINE
  5
17B
330
1E
100
AcDbEntity
  8
0
100
AcDbLine
 10
75.0
 20
85.8323
 30
0.0
 11
75.0
 21
80.4428
 31
0.0
  0
LINE
  5
17C
330
1E
100
AcDbEntity
  8
0
100
AcDbLine
 10
75.0
 20
91.454
 30
0.0
 11
75.0
 21
85.8323
 31
0.0
  0
LINE
  5
17D
330
1E
100
AcDbEntity
  8
0
100
AcDbLine
 10
92.0
 20
85.8323
 30
0.0
 11
92.0
 21
80.4428
 31
0.0
  0
LINE
  5
17E
330
1E
100
AcDbEntity
  8
0
100
AcDbLine
 10
92.0
 20
85.8323
 30
0.0
 11
92.0
 21
91.454
 31
0.0
  0
LINE
  5
17F
330
1E
100
AcDbEntity
  8
0
100
AcDbLine
 10
92.0
 20
91.454
 30
0.0
 11
92.0
 21
85.8323
 31
0.0
  0
LINE
  5
180
330
1E
100
AcDbEntity
  8
0
100
AcDbLine
 10
92.0
 20
91.454
 30
0.0
 11
92.0
 21
94.84569999999999
 31
0.0
  0
LINE
  5
181
330
1E
100
AcDbEntity
  8
0
100
AcDbLine
 10
75.0
 20
94.84569999999999
 30
0.0
 11
75.0
 21
91.454
 31
0.0
  0
LINE
  5
182
330
1E
100
AcDbEntity
  8
0
100
AcDbLine
 10
75.0
 20
97.81919999999999
 30
0.0
 11
75.0
 21
94.84569999999999
 31
0.0
  0
LINE
  5
183
330
1E
100
AcDbEntity
  8
0
100
AcDbLine
 10
92.0
 20
94.84569999999999
 30
0.0
 11
92.0
 21
91.454
 31
0.0
  0
LINE
  5
184
330
1E
100
AcDbEntity
  8
0
100
AcDbLine
 10
92.0
 20
94.84569999999999
 30
0.0
 11
92.0
 21
97.81919999999999
 31
0.0
  0
LINE
  5
185
330
1E
100
AcDbEntity
  8
0
100
AcDbLine
 10
92.0
 20
97.81919999999999
 30
0.0
 11
92.0
 21
94.84569999999999
 31
0.0
  0
LINE
  5
186
330
1E
100
AcDbEntity
  8
0
100
AcDbLine
 10
92.0
 20
97.81919999999999
 30
0.0
 11
92.0
 21
100.0027999999999
 31
0.0
  0
LINE
  5
187
330
1E
100
AcDbEntity
  8
0
100
AcDbLine
 10
99.0
 20
91.5
 30
0.0
 11
107.272727272727
 21
85.0
 31
0.0
  0
LINE
  5
188
330
1E
100
AcDbEntity
  8
0
100
AcDbLine
 10
99.0
 20
91.5
 30
0.0
 11
107.272727272727
 21
85.0
 31
0.0
  0
LINE
  5
189
330
1E
100
AcDbEntity
  8
0
100
AcDbLine
 10
99.0
 20
91.5
 30
0.0
 11
99.0
 21
100.0
 31
0.0
  0
LINE
  5
18A
330
1E
100
AcDbEntity
  8
0
100
AcDbLine
 10
111.0
 20
100.0
 30
0.0
 11
111.0
 21
112.5
 31
0.0
  0
LINE
  5
18B
330
1E
100
AcDbEntity
  8
0
100
AcDbLine
 10
99.0
 20
100.0
 30
0.0
 11
99.0
 21
112.5
 31
0.0
  0
LINE
  5
18C
330
1E
100
AcDbEntity
  8
0
100
AcDbLine
 10
99.0
 20
100.0
 30
0.0
 11
111.612
 21
100.0
 31
0.0
  0
LINE
  5
18D
330
1E
100
AcDbEntity
  8
0
100
AcDbLine
 10
99.0
 20
100.0
 30
0.0
 11
99.0
 21
91.5
 31
0.0
  0
LINE
  5
18E
330
1E
100
AcDbEntity
  8
0
100
AcDbLine
 10
92.0
 20
85.0
 30
0.0
 11
107.272727272727
 21
85.0
 31
0.0
  0
LINE
  5
18F
330
1E
100
AcDbEntity
  8
0
100
AcDbLine
 10
111.612
 20
100.0
 30
0.0
 11
113.244
 21
100.0
 31
0.0
  0
LINE
  5
190
330
1E
100
AcDbEntity
  8
0
100
AcDbLine
 10
113.244
 20
100.0
 30
0.0
 11
115.964
 21
100.0
 31
0.0
  0
LINE
  5
191
330
1E
100
AcDbEntity
  8
0
100
AcDbLine
 10
115.964
 20
100.0
 30
0.0
 11
119.568
 21
100.0
 31
0.0
  0
LINE
  5
192
330
1E
100
AcDbEntity
  8
0
100
AcDbLine
 10
75.0
 20
100.0027999999999
 30
0.0
 11
75.0
 21
97.81919999999999
 31
0.0
  0
LINE
  5
193
330
1E
100
AcDbEntity
  8
0
100
AcDbLine
 10
75.0
 20
101.3502
 30
0.0
 11
75.0
 21
100.0027999999999
 31
0.0
  0
LINE
  5
194
330
1E
100
AcDbEntity
  8
0
100
AcDbLine
 10
92.0
 20
100.0027999999999
 30
0.0
 11
92.0
 21
97.81919999999999
 31
0.0
  0
LINE
  5
195
330
1E
100
AcDbEntity
  8
0
100
AcDbLine
 10
92.0
 20
100.0027999999999
 30
0.0
 11
92.0
 21
101.3502
 31
0.0
  0
LINE
  5
196
330
1E
100
AcDbEntity
  8
0
100
AcDbLine
 10
75.0
 20
102.0471
 30
0.0
 11
75.0
 21
101.3502
 31
0.0
  0
LINE
  5
197
330
1E
100
AcDbEntity
  8
0
100
AcDbLine
 10
75.0
 20
102.4017999999999
 30
0.0
 11
75.0
 21
102.0471
 31
0.0
  0
LINE
  5
198
330
1E
100
AcDbEntity
  8
0
100
AcDbLine
 10
92.0
 20
101.3502
 30
0.0
 11
92.0
 21
100.0027999999999
 31
0.0
  0
LINE
  5
199
330
1E
100
AcDbEntity
  8
0
100
AcDbLine
 10
92.0
 20
101.3502
 30
0.0
 11
92.0
 21
102.0471
 31
0.0
  0
LINE
  5
19A
330
1E
100
AcDbEntity
  8
0
100
AcDbLine
 10
92.0
 20
102.0471
 30
0.0
 11
92.0
 21
101.3502
 31
0.0
  0
LINE
  5
19B
330
1E
100
AcDbEntity
  8
0
100
AcDbLine
 10
92.0
 20
102.0471
 30
0.0
 11
92.0
 21
102.4017999999999
 31
0.0
  0
LINE
  5
19C
330
1E
100
AcDbEntity
  8
0
100
AcDbLine
 10
75.0
 20
102.4999999999999
 30
0.0
 11
75.0
 21
102.4017999999999
 31
0.0
  0
LINE
  5
19D
330
1E
100
AcDbEntity
  8
0
100
AcDbLine
 10
92.0
 20
102.4017999999999
 30
0.0
 11
92.0
 21
102.0471
 31
0.0
  0
LINE
  5
19E
330
1E
100
AcDbEntity
  8
0
100
AcDbLine
 10
92.0
 20
102.4017999999999
 30
0.0
 11
92.0
 21
102.4999999999999
 31
0.0
  0
LINE
  5
19F
330
1E
100
AcDbEntity
  8
0
100
AcDbLine
 10
92.0
 20
102.4999999999999
 30
0.0
 11
92.0
 21
102.4017999999999
 31
0.0
  0
LINE
  5
1A0
330
1E
100
AcDbEntity
  8
0
100
AcDbLine
 10
65.0
 20
102.4999999999999
 30
0.0
 11
92.0
 21
102.4999999999999
 31
0.0
  0
LINE
  5
1A1
330
1E
100
AcDbEntity
  8
0
100
AcDbLine
 10
111.0
 20
112.5
 30
0.0
 11
111.0
 21
100.0
 31
0.0
  0
LINE
  5
1A2
330
1E
100
AcDbEntity
  8
0
100
AcDbLine
 10
99.0
 20
112.5
 30
0.0
 11
99.0
 21
100.0
 31
0.0
  0
LINE
  5
1A3
330
1E
100
AcDbEntity
  8
0
100
AcDbLine
 10
99.0
 20
112.5
 30
0.0
 11
111.0
 21
112.5
 31
0.0
  0
LINE
  5
1A4
330
1E
100
AcDbEntity
  8
0
100
AcDbLine
 10
119.568
 20
100.0
 30
0.0
 11
123.648
 21
100.0
 31
0.0
  0
LINE
  5
1A5
330
1E
100
AcDbEntity
  8
0
100
AcDbLine
 10
123.648
 20
100.0
 30
0.0
 11
128.0
 21
100.0
 31
0.0
  0
LINE
  5
1A6
330
1E
100
AcDbEntity
  8
0
100
AcDbLine
 10
119.568
 20
53.756
 30
0.0
 11
123.648
 21
55.38800000000001
 31
0.0
  0
LINE
  5
1A7
330
1E
100
AcDbEntity
  8
0
100
AcDbLine
 10
128.0
 20
100.0
 30
0.0
 11
132.352
 21
100.0
 31
0.0
  0
LINE
  5
1A9
330
1E
100
AcDbEntity
  8
0
100
AcDbLine
 10
147.0
 20
53.8235
 30
0.0
 11
147.0
 21
60.0
 31
0.0
  0
LINE
  5
1AA
330
1E
100
AcDbEntity
  8
0
100
AcDbLine
 10
147.0
 20
53.8235
 30
0.0
 11
147.0
 21
48.0882
 31
0.0
  0
LINE
  5
1AB
330
1E
100
AcDbEntity
  8
0
100
AcDbLine
 10
136.432
 20
53.756
 30
0.0
 11
140.036
 21
51.036
 31
0.0
  0
LINE
  5
1AC
330
1E
100
AcDbEntity
  8
0
100
AcDbLine
 10
135.0
 20
92.75200000000001
 30
0.0
 11
135.0
 21
93.42399999999999
 31
0.0
  0
LINE
  5
1AD
330
1E
100
AcDbEntity
  8
0
100
AcDbLine
 10
135.0
 20
92.75200000000001
 30
0.0
 11
135.0
 21
92.5
 31
0.0
  0
LINE
  5
1AE
330
1E
100
AcDbEntity
  8
0
100
AcDbLine
 10
135.0
 20
93.42399999999999
 30
0.0
 11
135.0
 21
94.54399999999999
 31
0.0
  0
LINE
  5
1AF
330
1E
100
AcDbEntity
  8
0
100
AcDbLine
 10
135.0
 20
93.42399999999999
 30
0.0
 11
135.0
 21
92.75200000000001
 31
0.0
  0
LINE
  5
1B0
330
1E
100
AcDbEntity
  8
0
100
AcDbLine
 10
135.0
 20
94.54399999999999
 30
0.0
 11
135.0
 21
96.028
 31
0.0
  0
LINE
  5
1B1
330
1E
100
AcDbEntity
  8
0
100
AcDbLine
 10
135.0
 20
94.54399999999999
 30
0.0
 11
135.0
 21
93.42399999999999
 31
0.0
  0
LINE
  5
1B2
330
1E
100
AcDbEntity
  8
0
100
AcDbLine
 10
135.0
 20
96.028
 30
0.0
 11
135.0
 21
97.70800000000001
 31
0.0
  0
LINE
  5
1B3
330
1E
100
AcDbEntity
  8
0
100
AcDbLine
 10
135.0
 20
96.028
 30
0.0
 11
135.0
 21
94.54399999999999
 31
0.0
  0
LINE
  5
1B4
330
1E
100
AcDbEntity
  8
0
100
AcDbLine
 10
135.0
 20
97.70800000000001
 30
0.0
 11
135.0
 21
99.50000000000001
 31
0.0
  0
LINE
  5
1B5
330
1E
100
AcDbEntity
  8
0
100
AcDbLine
 10
135.0
 20
97.70800000000001
 30
0.0
 11
135.0
 21
96.028
 31
0.0
  0
LINE
  5
1B6
330
1E
100
AcDbEntity
  8
0
100
AcDbLine
 10
135.0
 20
99.50000000000001
 30
0.0
 11
135.0
 21
99.64399999999999
 31
0.0
  0
LINE
  5
1B7
330
1E
100
AcDbEntity
  8
0
100
AcDbLine
 10
135.0
 20
99.50000000000001
 30
0.0
 11
135.0
 21
97.70800000000001
 31
0.0
  0
LINE
  5
1B8
330
1E
100
AcDbEntity
  8
0
100
AcDbLine
 10
135.0
 20
99.50000000000001
 30
0.0
 11
135.0
 21
103.4999999999999
 31
0.0
  0
LINE
  5
1B9
330
1E
100
AcDbEntity
  8
0
100
AcDbLine
 10
135.0
 20
99.64399999999999
 30
0.0
 11
135.0
 21
99.50000000000001
 31
0.0
  0
LINE
  5
1BA
330
1E
100
AcDbEntity
  8
0
100
AcDbLine
 10
135.0
 20
99.64399999999999
 30
0.0
 11
135.0
 21
100.0279999999999
 31
0.0
  0
LINE
  5
1BB
330
1E
100
AcDbEntity
  8
0
100
AcDbLine
 10
135.0
 20
92.5
 30
0.0
 11
140.0
 21
92.5
 31
0.0
  0
LINE
  5
1BC
330
1E
100
AcDbEntity
  8
0
100
AcDbLine
 10
135.0
 20
92.5
 30
0.0
 11
135.0
 21
100.0
 31
0.0
  0
LINE
  5
1BD
330
1E
100
AcDbEntity
  8
0
100
AcDbLine
 10
135.0
 20
92.5
 30
0.0
 11
135.0
 21
103.4999999999999
 31
0.0
  0
LINE
  5
1BE
330
1E
100
AcDbEntity
  8
0
100
AcDbLine
 10
135.0
 20
92.5
 30
0.0
 11
135.0
 21
92.75200000000001
 31
0.0
  0
LINE
  5
1BF
330
1E
100
AcDbEntity
  8
0
100
AcDbLine
 10
135.0
 20
100.0
 30
0.0
 11
135.0
 21
103.4999999999999
 31
0.0
  0
LINE
  5
1C0
330
1E
100
AcDbEntity
  8
0
100
AcDbLine
 10
135.0
 20
100.0
 30
0.0
 11
135.0
 21
92.5
 31
0.0
  0
LINE
  5
1C1
330
1E
100
AcDbEntity
  8
0
100
AcDbLine
 10
135.0
 20
100.0279999999999
 30
0.0
 11
135.0
 21
100.668
 31
0.0
  0
LINE
  5
1C2
330
1E
100
AcDbEntity
  8
0
100
AcDbLine
 10
135.0
 20
100.0279999999999
 30
0.0
 11
135.0
 21
99.64399999999999
 31
0.0
  0
LINE
  5
1C3
330
1E
100
AcDbEntity
  8
0
100
AcDbLine
 10
135.0
 20
100.668
 30
0.0
 11
135.0
 21
101.516
 31
0.0
  0
LINE
  5
1C4
330
1E
100
AcDbEntity
  8
0
100
AcDbLine
 10
135.0
 20
100.668
 30
0.0
 11
135.0
 21
100.0279999999999
 31
0.0
  0
LINE
  5
1C5
330
1E
100
AcDbEntity
  8
0
100
AcDbLine
 10
145.0
 20
72.5
 30
0.0
 11
145.0
 21
72.86
 31
0.0
  0
LINE
  5
1C6
330
1E
100
AcDbEntity
  8
0
100
AcDbLine
 10
140.0
 20
72.86
 30
0.0
 11
140.0
 21
72.5
 31
0.0
  0
LINE
  5
1C7
330
1E
100
AcDbEntity
  8
0
100
AcDbLine
 10
140.0
 20
72.86
 30
0.0
 11
140.0
 21
73.81999999999999
 31
0.0
  0
LINE
  5
1C8
330
1E
100
AcDbEntity
  8
0
100
AcDbLine
 10
140.0
 20
73.81999999999999
 30
0.0
 11
140.0
 21
72.86
 31
0.0
  0
LINE
  5
1C9
330
1E
100
AcDbEntity
  8
0
100
AcDbLine
 10
140.0
 20
73.81999999999999
 30
0.0
 11
140.0
 21
75.42
 31
0.0
  0
LINE
  5
1CA
330
1E
100
AcDbEntity
  8
0
100
AcDbLine
 10
139.0
 20
76.76470000000001
 30
0.0
 11
139.0962
 21
76.5882
 31
0.0
  0
LINE
  5
1CB
330
1E
100
AcDbEntity
  8
0
100
AcDbLine
 10
139.0
 20
76.76470000000001
 30
0.0
 11
139.0
 21
77.5412
 31
0.0
  0
LINE
  5
1CC
330
1E
100
AcDbEntity
  8
0
100
AcDbLine
 10
139.0
 20
77.5412
 30
0.0
 11
139.0
 21
78.4412
 31
0.0
  0
LINE
  5
1CD
330
1E
100
AcDbEntity
  8
0
100
AcDbLine
 10
139.0
 20
77.5412
 30
0.0
 11
139.0
 21
76.76470000000001
 31
0.0
  0
LINE
  5
1CE
330
1E
100
AcDbEntity
  8
0
100
AcDbLine
 10
139.0
 20
79.6412
 30
0.0
 11
139.0
 21
81.0176
 31
0.0
  0
LINE
  5
1CF
330
1E
100
AcDbEntity
  8
0
100
AcDbLine
 10
139.0
 20
79.6412
 30
0.0
 11
139.0
 21
78.4412
 31
0.0
  0
LINE
  5
1D0
330
1E
100
AcDbEntity
  8
0
100
AcDbLine
 10
139.2884999999999
 20
76.5
 30
0.0
 11
140.0
 21
76.5
 31
0.0
  0
LINE
  5
1D1
330
1E
100
AcDbEntity
  8
0
100
AcDbLine
 10
139.0962
 20
76.79999999999999
 30
0.0
 11
139.0962
 21
76.5882
 31
0.0
  0
LINE
  5
1D2
330
1E
100
AcDbEntity
  8
0
100
AcDbLine
 10
139.0962
 20
76.79999999999999
 30
0.0
 11
139.0962
 21
77.38240000000001
 31
0.0
  0
LINE
  5
1D3
330
1E
100
AcDbEntity
  8
0
100
AcDbLine
 10
139.0962
 20
79.55289999999999
 30
0.0
 11
139.0962
 21
78.3176
 31
0.0
  0
LINE
  5
1D4
330
1E
100
AcDbEntity
  8
0
100
AcDbLine
 10
139.0962
 20
79.55289999999999
 30
0.0
 11
139.0962
 21
80.9824
 31
0.0
  0
LINE
  5
1D5
330
1E
100
AcDbEntity
  8
0
100
AcDbLine
 10
139.0962
 20
77.38240000000001
 30
0.0
 11
139.0962
 21
76.79999999999999
 31
0.0
  0
LINE
  5
1D6
330
1E
100
AcDbEntity
  8
0
100
AcDbLine
 10
139.0962
 20
77.38240000000001
 30
0.0
 11
139.0962
 21
78.3176
 31
0.0
  0
LINE
  5
1D7
330
1E
100
AcDbEntity
  8
0
100
AcDbLine
 10
140.0
 20
76.71179999999999
 30
0.0
 11
140.0
 21
76.5
 31
0.0
  0
LINE
  5
1D8
330
1E
100
AcDbEntity
  8
0
100
AcDbLine
 10
140.0
 20
77.31180000000001
 30
0.0
 11
140.0
 21
76.71179999999999
 31
0.0
  0
LINE
  5
1D9
330
1E
100
AcDbEntity
  8
0
100
AcDbLine
 10
140.0
 20
79.5176
 30
0.0
 11
140.0
 21
78.2647
 31
0.0
  0
LINE
  5
1DA
330
1E
100
AcDbEntity
  8
0
100
AcDbLine
 10
140.0
 20
78.2647
 30
0.0
 11
140.0
 21
77.31180000000001
 31
0.0
  0
LINE
  5
1DB
330
1E
100
AcDbEntity
  8
0
100
AcDbLine
 10
139.0962
 20
78.3176
 30
0.0
 11
139.0962
 21
77.38240000000001
 31
0.0
  0
LINE
  5
1DC
330
1E
100
AcDbEntity
  8
0
100
AcDbLine
 10
139.0962
 20
78.3176
 30
0.0
 11
139.0962
 21
79.55289999999999
 31
0.0
  0
LINE
  5
1DD
330
1E
100
AcDbEntity
  8
0
100
AcDbLine
 10
139.0962
 20
76.5882
 30
0.0
 11
139.2884999999999
 21
76.5
 31
0.0
  0
LINE
  5
1DE
330
1E
100
AcDbEntity
  8
0
100
AcDbLine
 10
139.0962
 20
76.5882
 30
0.0
 11
139.0962
 21
76.79999999999999
 31
0.0
  0
LINE
  5
1DF
330
1E
100
AcDbEntity
  8
0
100
AcDbLine
 10
139.0
 20
78.4412
 30
0.0
 11
139.0
 21
79.6412
 31
0.0
  0
LINE
  5
1E0
330
1E
100
AcDbEntity
  8
0
100
AcDbLine
 10
139.0
 20
78.4412
 30
0.0
 11
139.0
 21
77.5412
 31
0.0
  0
LINE
  5
1E1
330
1E
100
AcDbEntity
  8
0
100
AcDbLine
 10
140.0
 20
75.42
 30
0.0
 11
140.0
 21
73.81999999999999
 31
0.0
  0
LINE
  5
1E2
330
1E
100
AcDbEntity
  8
0
100
AcDbLine
 10
140.0
 20
75.42
 30
0.0
 11
140.0
 21
77.54000000000001
 31
0.0
  0
LINE
  5
1E3
330
1E
100
AcDbEntity
  8
0
100
AcDbLine
 10
140.0
 20
77.54000000000001
 30
0.0
 11
140.0
 21
75.42
 31
0.0
  0
LINE
  5
1E4
330
1E
100
AcDbEntity
  8
0
100
AcDbLine
 10
140.0
 20
77.54000000000001
 30
0.0
 11
140.0
 21
79.93999999999999
 31
0.0
  0
LINE
  5
1E5
330
1E
100
AcDbEntity
  8
0
100
AcDbLine
 10
139.0
 20
81.0176
 30
0.0
 11
139.0
 21
82.5
 31
0.0
  0
LINE
  5
1E6
330
1E
100
AcDbEntity
  8
0
100
AcDbLine
 10
139.0
 20
81.0176
 30
0.0
 11
139.0
 21
79.6412
 31
0.0
  0
LINE
  5
1E7
330
1E
100
AcDbEntity
  8
0
100
AcDbLine
 10
139.0
 20
82.5
 30
0.0
 11
139.0
 21
83.98239999999999
 31
0.0
  0
LINE
  5
1E8
330
1E
100
AcDbEntity
  8
0
100
AcDbLine
 10
139.0
 20
82.5
 30
0.0
 11
139.0
 21
81.0176
 31
0.0
  0
LINE
  5
1E9
330
1E
100
AcDbEntity
  8
0
100
AcDbLine
 10
139.0
 20
87.45879999999999
 30
0.0
 11
139.0
 21
88.0235
 31
0.0
  0
LINE
  5
1EA
330
1E
100
AcDbEntity
  8
0
100
AcDbLine
 10
139.0
 20
87.45879999999999
 30
0.0
 11
139.0
 21
86.55880000000001
 31
0.0
  0
LINE
  5
1EB
330
1E
100
AcDbEntity
  8
0
100
AcDbLine
 10
139.0
 20
86.55880000000001
 30
0.0
 11
139.0
 21
85.3588
 31
0.0
  0
LINE
  5
1EC
330
1E
100
AcDbEntity
  8
0
100
AcDbLine
 10
139.0
 20
86.55880000000001
 30
0.0
 11
139.0
 21
87.45879999999999
 31
0.0
  0
LINE
  5
1ED
330
1E
100
AcDbEntity
  8
0
100
AcDbLine
 10
139.0
 20
83.98239999999999
 30
0.0
 11
139.0
 21
85.3588
 31
0.0
  0
LINE
  5
1EE
330
1E
100
AcDbEntity
  8
0
100
AcDbLine
 10
139.0
 20
83.98239999999999
 30
0.0
 11
139.0
 21
82.5
 31
0.0
  0
LINE
  5
1EF
330
1E
100
AcDbEntity
  8
0
100
AcDbLine
 10
139.0962
 20
80.9824
 30
0.0
 11
139.0962
 21
79.55289999999999
 31
0.0
  0
LINE
  5
1F0
330
1E
100
AcDbEntity
  8
0
100
AcDbLine
 10
139.0962
 20
80.9824
 30
0.0
 11
139.0962
 21
82.5
 31
0.0
  0
LINE
  5
1F1
330
1E
100
AcDbEntity
  8
0
100
AcDbLine
 10
139.0962
 20
82.5
 30
0.0
 11
139.0962
 21
84.01760000000001
 31
0.0
  0
LINE
  5
1F2
330
1E
100
AcDbEntity
  8
0
100
AcDbLine
 10
139.0962
 20
82.5
 30
0.0
 11
139.0962
 21
80.9824
 31
0.0
  0
LINE
  5
1F3
330
1E
100
AcDbEntity
  8
0
100
AcDbLine
 10
139.0962
 20
84.01760000000001
 30
0.0
 11
139.0962
 21
82.5
 31
0.0
  0
LINE
  5
1F4
330
1E
100
AcDbEntity
  8
0
100
AcDbLine
 10
139.0962
 20
84.01760000000001
 30
0.0
 11
139.0962
 21
85.4471
 31
0.0
  0
LINE
  5
1F5
330
1E
100
AcDbEntity
  8
0
100
AcDbLine
 10
140.0
 20
80.9647
 30
0.0
 11
140.0
 21
79.5176
 31
0.0
  0
LINE
  5
1F6
330
1E
100
AcDbEntity
  8
0
100
AcDbLine
 10
140.0
 20
84.03530000000001
 30
0.0
 11
140.0
 21
82.5
 31
0.0
  0
LINE
  5
1F7
330
1E
100
AcDbEntity
  8
0
100
AcDbLine
 10
140.0
 20
85.48239999999999
 30
0.0
 11
140.0
 21
84.03530000000001
 31
0.0
  0
LINE
  5
1F8
330
1E
100
AcDbEntity
  8
0
100
AcDbLine
 10
139.0962
 20
85.4471
 30
0.0
 11
139.0962
 21
84.01760000000001
 31
0.0
  0
LINE
  5
1F9
330
1E
100
AcDbEntity
  8
0
100
AcDbLine
 10
139.0962
 20
85.4471
 30
0.0
 11
139.0962
 21
86.6824
 31
0.0
  0
LINE
  5
1FA
330
1E
100
AcDbEntity
  8
0
100
AcDbLine
 10
140.0
 20
86.73529999999999
 30
0.0
 11
140.0
 21
85.48239999999999
 31
0.0
  0
LINE
  5
1FB
330
1E
100
AcDbEntity
  8
0
100
AcDbLine
 10
139.0962
 20
86.6824
 30
0.0
 11
139.0962
 21
85.4471
 31
0.0
  0
LINE
  5
1FC
330
1E
100
AcDbEntity
  8
0
100
AcDbLine
 10
139.0962
 20
86.6824
 30
0.0
 11
139.0962
 21
87.6176
 31
0.0
  0
LINE
  5
1FD
330
1E
100
AcDbEntity
  8
0
100
AcDbLine
 10
139.0
 20
85.3588
 30
0.0
 11
139.0
 21
86.55880000000001
 31
0.0
  0
LINE
  5
1FE
330
1E
100
AcDbEntity
  8
0
100
AcDbLine
 10
139.0
 20
85.3588
 30
0.0
 11
139.0
 21
83.98239999999999
 31
0.0
  0
LINE
  5
1FF
330
1E
100
AcDbEntity
  8
0
100
AcDbLine
 10
140.0
 20
79.93999999999999
 30
0.0
 11
140.0
 21
77.54000000000001
 31
0.0
  0
LINE
  5
200
330
1E
100
AcDbEntity
  8
0
100
AcDbLine
 10
140.0
 20
79.93999999999999
 30
0.0
 11
140.0
 21
82.5
 31
0.0
  0
LINE
  5
201
330
1E
100
AcDbEntity
  8
0
100
AcDbLine
 10
140.0
 20
82.5
 30
0.0
 11
140.0
 21
85.06
 31
0.0
  0
LINE
  5
202
330
1E
100
AcDbEntity
  8
0
100
AcDbLine
 10
140.0
 20
82.5
 30
0.0
 11
140.0
 21
79.93999999999999
 31
0.0
  0
LINE
  5
203
330
1E
100
AcDbEntity
  8
0
100
AcDbLine
 10
140.0
 20
82.5
 30
0.0
 11
140.0
 21
80.9647
 31
0.0
  0
LINE
  5
204
330
1E
100
AcDbEntity
  8
0
100
AcDbLine
 10
139.0
 20
88.23529999999999
 30
0.0
 11
139.0962
 21
88.41179999999999
 31
0.0
  0
LINE
  5
205
330
1E
100
AcDbEntity
  8
0
100
AcDbLine
 10
139.0
 20
88.23529999999999
 30
0.0
 11
139.0
 21
88.0235
 31
0.0
  0
LINE
  5
206
330
1E
100
AcDbEntity
  8
0
100
AcDbLine
 10
139.0962
 20
88.41179999999999
 30
0.0
 11
139.0962
 21
88.2
 31
0.0
  0
LINE
  5
207
330
1E
100
AcDbEntity
  8
0
100
AcDbLine
 10
139.0962
 20
88.41179999999999
 30
0.0
 11
139.2884999999999
 21
88.49999999999999
 31
0.0
  0
LINE
  5
208
330
1E
100
AcDbEntity
  8
0
100
AcDbLine
 10
139.2884999999999
 20
88.49999999999999
 30
0.0
 11
140.0
 21
88.49999999999999
 31
0.0
  0
LINE
  5
209
330
1E
100
AcDbEntity
  8
0
100
AcDbLine
 10
140.0
 20
88.49999999999999
 30
0.0
 11
140.0
 21
88.2882
 31
0.0
  0
LINE
  5
20A
330
1E
100
AcDbEntity
  8
0
100
AcDbLine
 10
140.0
 20
88.2882
 30
0.0
 11
140.0
 21
87.68819999999999
 31
0.0
  0
LINE
  5
20B
330
1E
100
AcDbEntity
  8
0
100
AcDbLine
 10
140.0
 20
87.68819999999999
 30
0.0
 11
140.0
 21
86.73529999999999
 31
0.0
  0
LINE
  5
20C
330
1E
100
AcDbEntity
  8
0
100
AcDbLine
 10
139.0962
 20
88.2
 30
0.0
 11
139.0962
 21
87.6176
 31
0.0
  0
LINE
  5
20D
330
1E
100
AcDbEntity
  8
0
100
AcDbLine
 10
139.0962
 20
88.2
 30
0.0
 11
139.0962
 21
88.41179999999999
 31
0.0
  0
LINE
  5
20E
330
1E
100
AcDbEntity
  8
0
100
AcDbLine
 10
139.0962
 20
87.6176
 30
0.0
 11
139.0962
 21
86.6824
 31
0.0
  0
LINE
  5
20F
330
1E
100
AcDbEntity
  8
0
100
AcDbLine
 10
139.0962
 20
87.6176
 30
0.0
 11
139.0962
 21
88.2
 31
0.0
  0
LINE
  5
210
330
1E
100
AcDbEntity
  8
0
100
AcDbLine
 10
139.0
 20
88.0235
 30
0.0
 11
139.0
 21
87.45879999999999
 31
0.0
  0
LINE
  5
211
330
1E
100
AcDbEntity
  8
0
100
AcDbLine
 10
139.0
 20
88.0235
 30
0.0
 11
139.0
 21
88.23529999999999
 31
0.0
  0
LINE
  5
212
330
1E
100
AcDbEntity
  8
0
100
AcDbLine
 10
140.0
 20
92.14
 30
0.0
 11
140.0
 21
91.18
 31
0.0
  0
LINE
  5
213
330
1E
100
AcDbEntity
  8
0
100
AcDbLine
 10
140.0
 20
92.14
 30
0.0
 11
140.0
 21
92.5
 31
0.0
  0
LINE
  5
214
330
1E
100
AcDbEntity
  8
0
100
AcDbLine
 10
140.0
 20
91.18
 30
0.0
 11
140.0
 21
89.58
 31
0.0
  0
LINE
  5
215
330
1E
100
AcDbEntity
  8
0
100
AcDbLine
 10
140.0
 20
91.18
 30
0.0
 11
140.0
 21
92.14
 31
0.0
  0
LINE
  5
216
330
1E
100
AcDbEntity
  8
0
100
AcDbLine
 10
140.0
 20
89.58
 30
0.0
 11
140.0
 21
87.46
 31
0.0
  0
LINE
  5
217
330
1E
100
AcDbEntity
  8
0
100
AcDbLine
 10
140.0
 20
89.58
 30
0.0
 11
140.0
 21
91.18
 31
0.0
  0
LINE
  5
218
330
1E
100
AcDbEntity
  8
0
100
AcDbLine
 10
140.0
 20
87.46
 30
0.0
 11
140.0
 21
85.06
 31
0.0
  0
LINE
  5
219
330
1E
100
AcDbEntity
  8
0
100
AcDbLine
 10
140.0
 20
87.46
 30
0.0
 11
140.0
 21
89.58
 31
0.0
  0
LINE
  5
21A
330
1E
100
AcDbEntity
  8
0
100
AcDbLine
 10
140.0
 20
85.06
 30
0.0
 11
140.0
 21
82.5
 31
0.0
  0
LINE
  5
21B
330
1E
100
AcDbEntity
  8
0
100
AcDbLine
 10
140.0
 20
85.06
 30
0.0
 11
140.0
 21
87.46
 31
0.0
  0
LINE
  5
228
330
1E
100
AcDbEntity
  8
0
100
AcDbLine
 10
136.432
 20
92.5
 30
0.0
 11
140.0
 21
92.5
 31
0.0
  0
LINE
  5
229
330
1E
100
AcDbEntity
  8
0
100
AcDbLine
 10
145.0
 20
72.86
 30
0.0
 11
145.0
 21
72.5
 31
0.0
  0
LINE
  5
22A
330
1E
100
AcDbEntity
  8
0
100
AcDbLine
 10
145.0
 20
72.86
 30
0.0
 11
145.0
 21
73.81999999999999
 31
0.0
  0
LINE
  5
22B
330
1E
100
AcDbEntity
  8
0
100
AcDbLine
 10
145.0
 20
73.81999999999999
 30
0.0
 11
145.0
 21
72.86
 31
0.0
  0
LINE
  5
22C
330
1E
100
AcDbEntity
  8
0
100
AcDbLine
 10
145.0
 20
73.81999999999999
 30
0.0
 11
145.0
 21
75.42
 31
0.0
  0
LINE
  5
22D
330
1E
100
AcDbEntity
  8
0
100
AcDbLine
 10
145.0
 20
76.5
 30
0.0
 11
145.7114999999999
 21
76.5
 31
0.0
  0
LINE
  5
22E
330
1E
100
AcDbEntity
  8
0
100
AcDbLine
 10
145.0
 20
75.42
 30
0.0
 11
145.0
 21
73.81999999999999
 31
0.0
  0
LINE
  5
22F
330
1E
100
AcDbEntity
  8
0
100
AcDbLine
 10
145.0
 20
75.42
 30
0.0
 11
145.0
 21
77.54000000000001
 31
0.0
  0
LINE
  5
230
330
1E
100
AcDbEntity
  8
0
100
AcDbLine
 10
145.0
 20
77.54000000000001
 30
0.0
 11
145.0
 21
75.42
 31
0.0
  0
LINE
  5
231
330
1E
100
AcDbEntity
  8
0
100
AcDbLine
 10
145.0
 20
77.54000000000001
 30
0.0
 11
145.0
 21
79.93999999999999
 31
0.0
  0
LINE
  5
232
330
1E
100
AcDbEntity
  8
0
100
AcDbLine
 10
145.0
 20
79.93999999999999
 30
0.0
 11
145.0
 21
77.54000000000001
 31
0.0
  0
LINE
  5
233
330
1E
100
AcDbEntity
  8
0
100
AcDbLine
 10
145.0
 20
79.93999999999999
 30
0.0
 11
145.0
 21
82.5
 31
0.0
  0
LINE
  5
234
330
1E
100
AcDbEntity
  8
0
100
AcDbLine
 10
145.0
 20
82.5
 30
0.0
 11
145.0
 21
85.06
 31
0.0
  0
LINE
  5
235
330
1E
100
AcDbEntity
  8
0
100
AcDbLine
 10
145.0
 20
82.5
 30
0.0
 11
145.0
 21
79.93999999999999
 31
0.0
  0
LINE
  5
236
330
1E
100
AcDbEntity
  8
0
100
AcDbLine
 10
145.0
 20
88.49999999999999
 30
0.0
 11
145.7114999999999
 21
88.49999999999999
 31
0.0
  0
LINE
  5
237
330
1E
100
AcDbEntity
  8
0
100
AcDbLine
 10
145.0
 20
92.14
 30
0.0
 11
145.0
 21
91.18
 31
0.0
  0
LINE
  5
238
330
1E
100
AcDbEntity
  8
0
100
AcDbLine
 10
145.0
 20
92.14
 30
0.0
 11
145.0
 21
92.5
 31
0.0
  0
LINE
  5
239
330
1E
100
AcDbEntity
  8
0
100
AcDbLine
 10
145.0
 20
91.18
 30
0.0
 11
145.0
 21
89.58
 31
0.0
  0
LINE
  5
23A
330
1E
100
AcDbEntity
  8
0
100
AcDbLine
 10
145.0
 20
91.18
 30
0.0
 11
145.0
 21
92.14
 31
0.0
  0
LINE
  5
23B
330
1E
100
AcDbEntity
  8
0
100
AcDbLine
 10
145.0
 20
89.58
 30
0.0
 11
145.0
 21
87.46
 31
0.0
  0
LINE
  5
23C
330
1E
100
AcDbEntity
  8
0
100
AcDbLine
 10
145.0
 20
89.58
 30
0.0
 11
145.0
 21
91.18
 31
0.0
  0
LINE
  5
23D
330
1E
100
AcDbEntity
  8
0
100
AcDbLine
 10
145.0
 20
87.46
 30
0.0
 11
145.0
 21
85.06
 31
0.0
  0
LINE
  5
23E
330
1E
100
AcDbEntity
  8
0
100
AcDbLine
 10
145.0
 20
87.46
 30
0.0
 11
145.0
 21
89.58
 31
0.0
  0
LINE
  5
23F
330
1E
100
AcDbEntity
  8
0
100
AcDbLine
 10
145.7114999999999
 20
76.5
 30
0.0
 11
145.9037999999999
 21
76.5882
 31
0.0
  0
LINE
  5
240
330
1E
100
AcDbEntity
  8
0
100
AcDbLine
 10
145.9037999999999
 20
76.79999999999999
 30
0.0
 11
145.9037999999999
 21
76.5882
 31
0.0
  0
LINE
  5
241
330
1E
100
AcDbEntity
  8
0
100
AcDbLine
 10
145.9037999999999
 20
76.79999999999999
 30
0.0
 11
145.9037999999999
 21
77.38240000000001
 31
0.0
  0
LINE
  5
242
330
1E
100
AcDbEntity
  8
0
100
AcDbLine
 10
145.9037999999999
 20
80.9824
 30
0.0
 11
145.9037999999999
 21
79.55289999999999
 31
0.0
  0
LINE
  5
243
330
1E
100
AcDbEntity
  8
0
100
AcDbLine
 10
145.9037999999999
 20
80.9824
 30
0.0
 11
145.9037999999999
 21
82.5
 31
0.0
  0
LINE
  5
244
330
1E
100
AcDbEntity
  8
0
100
AcDbLine
 10
145.9037999999999
 20
79.55289999999999
 30
0.0
 11
145.9037999999999
 21
78.3176
 31
0.0
  0
LINE
  5
245
330
1E
100
AcDbEntity
  8
0
100
AcDbLine
 10
145.9037999999999
 20
79.55289999999999
 30
0.0
 11
145.9037999999999
 21
80.9824
 31
0.0
  0
LINE
  5
246
330
1E
100
AcDbEntity
  8
0
100
AcDbLine
 10
145.9037999999999
 20
77.38240000000001
 30
0.0
 11
145.9037999999999
 21
76.79999999999999
 31
0.0
  0
LINE
  5
247
330
1E
100
AcDbEntity
  8
0
100
AcDbLine
 10
145.9037999999999
 20
77.38240000000001
 30
0.0
 11
145.9037999999999
 21
78.3176
 31
0.0
  0
LINE
  5
248
330
1E
100
AcDbEntity
  8
0
100
AcDbLine
 10
145.9037999999999
 20
78.3176
 30
0.0
 11
145.9037999999999
 21
77.38240000000001
 31
0.0
  0
LINE
  5
249
330
1E
100
AcDbEntity
  8
0
100
AcDbLine
 10
145.9037999999999
 20
78.3176
 30
0.0
 11
145.9037999999999
 21
79.55289999999999
 31
0.0
  0
LINE
  5
24A
330
1E
100
AcDbEntity
  8
0
100
AcDbLine
 10
145.9037999999999
 20
76.5882
 30
0.0
 11
146.0
 21
76.76470000000001
 31
0.0
  0
LINE
  5
24B
330
1E
100
AcDbEntity
  8
0
100
AcDbLine
 10
145.9037999999999
 20
76.5882
 30
0.0
 11
145.9037999999999
 21
76.79999999999999
 31
0.0
  0
LINE
  5
24C
330
1E
100
AcDbEntity
  8
0
100
AcDbLine
 10
146.0
 20
76.76470000000001
 30
0.0
 11
146.0
 21
76.9765
 31
0.0
  0
LINE
  5
24D
330
1E
100
AcDbEntity
  8
0
100
AcDbLine
 10
146.0
 20
76.9765
 30
0.0
 11
146.0
 21
76.76470000000001
 31
0.0
  0
LINE
  5
24E
330
1E
100
AcDbEntity
  8
0
100
AcDbLine
 10
146.0
 20
76.9765
 30
0.0
 11
146.0
 21
77.5412
 31
0.0
  0
LINE
  5
24F
330
1E
100
AcDbEntity
  8
0
100
AcDbLine
 10
146.0
 20
77.5412
 30
0.0
 11
146.0
 21
79.6412
 31
0.0
  0
LINE
  5
250
330
1E
100
AcDbEntity
  8
0
100
AcDbLine
 10
146.0
 20
81.0176
 30
0.0
 11
146.0
 21
79.6412
 31
0.0
  0
LINE
  5
251
330
1E
100
AcDbEntity
  8
0
100
AcDbLine
 10
146.0
 20
81.0176
 30
0.0
 11
146.0
 21
82.5
 31
0.0
  0
LINE
  5
252
330
1E
100
AcDbEntity
  8
0
100
AcDbLine
 10
146.0
 20
79.6412
 30
0.0
 11
146.0
 21
77.5412
 31
0.0
  0
LINE
  5
253
330
1E
100
AcDbEntity
  8
0
100
AcDbLine
 10
146.0
 20
79.6412
 30
0.0
 11
146.0
 21
81.0176
 31
0.0
  0
LINE
  5
254
330
1E
100
AcDbEntity
  8
0
100
AcDbLine
 10
146.0
 20
77.5412
 30
0.0
 11
146.0
 21
76.9765
 31
0.0
  0
LINE
  5
255
330
1E
100
AcDbEntity
  8
0
100
AcDbLine
 10
145.9037999999999
 20
82.5
 30
0.0
 11
145.9037999999999
 21
84.01760000000001
 31
0.0
  0
LINE
  5
256
330
1E
100
AcDbEntity
  8
0
100
AcDbLine
 10
145.9037999999999
 20
82.5
 30
0.0
 11
145.9037999999999
 21
80.9824
 31
0.0
  0
LINE
  5
257
330
1E
100
AcDbEntity
  8
0
100
AcDbLine
 10
145.9037999999999
 20
84.01760000000001
 30
0.0
 11
145.9037999999999
 21
82.5
 31
0.0
  0
LINE
  5
258
330
1E
100
AcDbEntity
  8
0
100
AcDbLine
 10
145.9037999999999
 20
84.01760000000001
 30
0.0
 11
145.9037999999999
 21
85.4471
 31
0.0
  0
LINE
  5
259
330
1E
100
AcDbEntity
  8
0
100
AcDbLine
 10
146.0
 20
82.5
 30
0.0
 11
146.0
 21
83.98239999999999
 31
0.0
  0
LINE
  5
25A
330
1E
100
AcDbEntity
  8
0
100
AcDbLine
 10
146.0
 20
82.5
 30
0.0
 11
146.0
 21
81.0176
 31
0.0
  0
LINE
  5
25B
330
1E
100
AcDbEntity
  8
0
100
AcDbLine
 10
146.0
 20
83.98239999999999
 30
0.0
 11
146.0
 21
82.5
 31
0.0
  0
LINE
  5
25C
330
1E
100
AcDbEntity
  8
0
100
AcDbLine
 10
146.0
 20
83.98239999999999
 30
0.0
 11
146.0
 21
88.0235
 31
0.0
  0
LINE
  5
25D
330
1E
100
AcDbEntity
  8
0
100
AcDbLine
 10
145.7114999999999
 20
88.49999999999999
 30
0.0
 11
145.9037999999999
 21
88.41179999999999
 31
0.0
  0
LINE
  5
25E
330
1E
100
AcDbEntity
  8
0
100
AcDbLine
 10
145.9037999999999
 20
88.41179999999999
 30
0.0
 11
145.9037999999999
 21
88.2
 31
0.0
  0
LINE
  5
25F
330
1E
100
AcDbEntity
  8
0
100
AcDbLine
 10
145.9037999999999
 20
88.41179999999999
 30
0.0
 11
146.0
 21
88.23529999999999
 31
0.0
  0
LINE
  5
260
330
1E
100
AcDbEntity
  8
0
100
AcDbLine
 10
145.9037999999999
 20
88.2
 30
0.0
 11
145.9037999999999
 21
87.6176
 31
0.0
  0
LINE
  5
261
330
1E
100
AcDbEntity
  8
0
100
AcDbLine
 10
145.9037999999999
 20
88.2
 30
0.0
 11
145.9037999999999
 21
88.41179999999999
 31
0.0
  0
LINE
  5
262
330
1E
100
AcDbEntity
  8
0
100
AcDbLine
 10
145.9037999999999
 20
87.6176
 30
0.0
 11
145.9037999999999
 21
86.6824
 31
0.0
  0
LINE
  5
263
330
1E
100
AcDbEntity
  8
0
100
AcDbLine
 10
145.9037999999999
 20
87.6176
 30
0.0
 11
145.9037999999999
 21
88.2
 31
0.0
  0
LINE
  5
264
330
1E
100
AcDbEntity
  8
0
100
AcDbLine
 10
145.9037999999999
 20
85.4471
 30
0.0
 11
145.9037999999999
 21
84.01760000000001
 31
0.0
  0
LINE
  5
265
330
1E
100
AcDbEntity
  8
0
100
AcDbLine
 10
145.9037999999999
 20
85.4471
 30
0.0
 11
145.9037999999999
 21
86.6824
 31
0.0
  0
LINE
  5
267
330
1E
100
AcDbEntity
  8
0
100
AcDbLine
 10
146.0
 20
88.0235
 30
0.0
 11
146.0
 21
88.23529999999999
 31
0.0
  0
LINE
  5
268
330
1E
100
AcDbEntity
  8
0
100
AcDbLine
 10
146.0
 20
88.23529999999999
 30
0.0
 11
146.0
 21
88.0235
 31
0.0
  0
LINE
  5
26A
330
1E
100
AcDbEntity
  8
0
100
AcDbLine
 10
145.9037999999999
 20
86.6824
 30
0.0
 11
145.9037999999999
 21
85.4471
 31
0.0
  0
LINE
  5
26B
330
1E
100
AcDbEntity
  8
0
100
AcDbLine
 10
145.9037999999999
 20
86.6824
 30
0.0
 11
145.9037999999999
 21
87.6176
 31
0.0
  0
LINE
  5
26C
330
1E
100
AcDbEntity
  8
0
100
AcDbLine
 10
146.0
 20
88.0235
 30
0.0
 11
146.0
 21
83.98239999999999
 31
0.0
  0
LINE
  5
26D
330
1E
100
AcDbEntity
  8
0
100
AcDbLine
 10
145.0
 20
85.06
 30
0.0
 11
145.0
 21
82.5
 31
0.0
  0
LINE
  5
26E
330
1E
100
AcDbEntity
  8
0
100
AcDbLine
 10
145.0
 20
85.06
 30
0.0
 11
145.0
 21
87.46
 31
0.0
  0
LINE
  5
26F
330
1E
100
AcDbEntity
  8
0
100
AcDbLine
 10
145.0
 20
92.5
 30
0.0
 11
145.0
 21
103.4999999999999
 31
0.0
  0
LINE
  5
270
330
1E
100
AcDbEntity
  8
0
100
AcDbLine
 10
145.0
 20
92.5
 30
0.0
 11
145.0
 21
92.14
 31
0.0
  0
LINE
  5
271
330
1E
100
AcDbEntity
  8
0
100
AcDbLine
 10
140.0
 20
92.5
 30
0.0
 11
145.0
 21
92.5
 31
0.0
  0
LINE
  5
274
330
1E
100
AcDbEntity
  8
0
100
AcDbLine
 10
140.0
 20
92.5
 30
0.0
 11
140.0
 21
92.14
 31
0.0
  0
LINE
  5
275
330
1E
100
AcDbEntity
  8
0
100
AcDbLine
 10
140.0
 20
72.5
 30
0.0
 11
145.0
 21
72.5
 31
0.0
  0
LINE
  5
276
330
1E
100
AcDbEntity
  8
0
100
AcDbLine
 10
140.0
 20
72.5
 30
0.0
 11
140.0
 21
72.86
 31
0.0
  0
LINE
  5
277
330
1E
100
AcDbEntity
  8
0
100
AcDbLine
 10
135.0
 20
101.516
 30
0.0
 11
135.0
 21
102.476
 31
0.0
  0
LINE
  5
278
330
1E
100
AcDbEntity
  8
0
100
AcDbLine
 10
135.0
 20
101.516
 30
0.0
 11
135.0
 21
100.668
 31
0.0
  0
LINE
  5
279
330
1E
100
AcDbEntity
  8
0
100
AcDbLine
 10
135.0
 20
110.4999999999999
 30
0.0
 11
135.0
 21
110.2479999999999
 31
0.0
  0
LINE
  5
27A
330
1E
100
AcDbEntity
  8
0
100
AcDbLine
 10
135.0
 20
110.4999999999999
 30
0.0
 11
140.0
 21
110.4999999999999
 31
0.0
  0
LINE
  5
27B
330
1E
100
AcDbEntity
  8
0
100
AcDbLine
 10
135.0
 20
110.2479999999999
 30
0.0
 11
135.0
 21
110.4999999999999
 31
0.0
  0
LINE
  5
27C
330
1E
100
AcDbEntity
  8
0
100
AcDbLine
 10
135.0
 20
110.2479999999999
 30
0.0
 11
135.0
 21
109.576
 31
0.0
  0
LINE
  5
27D
330
1E
100
AcDbEntity
  8
0
100
AcDbLine
 10
135.0
 20
107.4999999999999
 30
0.0
 11
135.0
 21
107.356
 31
0.0
  0
LINE
  5
27E
330
1E
100
AcDbEntity
  8
0
100
AcDbLine
 10
135.0
 20
109.576
 30
0.0
 11
135.0
 21
110.2479999999999
 31
0.0
  0
LINE
  5
27F
330
1E
100
AcDbEntity
  8
0
100
AcDbLine
 10
135.0
 20
109.576
 30
0.0
 11
135.0
 21
108.4559999999999
 31
0.0
  0
LINE
  5
280
330
1E
100
AcDbEntity
  8
0
100
AcDbLine
 10
135.0
 20
107.356
 30
0.0
 11
135.0
 21
106.972
 31
0.0
  0
LINE
  5
281
330
1E
100
AcDbEntity
  8
0
100
AcDbLine
 10
135.0
 20
107.356
 30
0.0
 11
135.0
 21
107.4999999999999
 31
0.0
  0
LINE
  5
282
330
1E
100
AcDbEntity
  8
0
100
AcDbLine
 10
135.0
 20
108.4559999999999
 30
0.0
 11
135.0
 21
109.576
 31
0.0
  0
LINE
  5
283
330
1E
100
AcDbEntity
  8
0
100
AcDbLine
 10
135.0
 20
108.4559999999999
 30
0.0
 11
135.0
 21
106.972
 31
0.0
  0
LINE
  5
284
330
1E
100
AcDbEntity
  8
0
100
AcDbLine
 10
135.0
 20
106.972
 30
0.0
 11
135.0
 21
108.4559999999999
 31
0.0
  0
LINE
  5
285
330
1E
100
AcDbEntity
  8
0
100
AcDbLine
 10
135.0
 20
106.972
 30
0.0
 11
135.0
 21
106.332
 31
0.0
  0
LINE
  5
286
330
1E
100
AcDbEntity
  8
0
100
AcDbLine
 10
135.0
 20
106.972
 30
0.0
 11
135.0
 21
105.292
 31
0.0
  0
LINE
  5
287
330
1E
100
AcDbEntity
  8
0
100
AcDbLine
 10
135.0
 20
106.972
 30
0.0
 11
135.0
 21
107.356
 31
0.0
  0
LINE
  5
288
330
1E
100
AcDbEntity
  8
0
100
AcDbLine
 10
135.0
 20
106.332
 30
0.0
 11
135.0
 21
105.4839999999999
 31
0.0
  0
LINE
  5
289
330
1E
100
AcDbEntity
  8
0
100
AcDbLine
 10
135.0
 20
106.332
 30
0.0
 11
135.0
 21
106.972
 31
0.0
  0
LINE
  5
28A
330
1E
100
AcDbEntity
  8
0
100
AcDbLine
 10
135.0
 20
105.292
 30
0.0
 11
135.0
 21
106.972
 31
0.0
  0
LINE
  5
28B
330
1E
100
AcDbEntity
  8
0
100
AcDbLine
 10
135.0
 20
105.292
 30
0.0
 11
135.0
 21
103.4999999999999
 31
0.0
  0
LINE
  5
28C
330
1E
100
AcDbEntity
  8
0
100
AcDbLine
 10
135.0
 20
105.4839999999999
 30
0.0
 11
135.0
 21
104.5239999999999
 31
0.0
  0
LINE
  5
28D
330
1E
100
AcDbEntity
  8
0
100
AcDbLine
 10
135.0
 20
105.4839999999999
 30
0.0
 11
135.0
 21
106.332
 31
0.0
  0
LINE
  5
28E
330
1E
100
AcDbEntity
  8
0
100
AcDbLine
 10
135.0
 20
104.5239999999999
 30
0.0
 11
135.0
 21
103.4999999999999
 31
0.0
  0
LINE
  5
28F
330
1E
100
AcDbEntity
  8
0
100
AcDbLine
 10
135.0
 20
104.5239999999999
 30
0.0
 11
135.0
 21
105.4839999999999
 31
0.0
  0
LINE
  5
290
330
1E
100
AcDbEntity
  8
0
100
AcDbLine
 10
145.0
 20
110.4999999999999
 30
0.0
 11
145.0
 21
110.2479999999999
 31
0.0
  0
LINE
  5
291
330
1E
100
AcDbEntity
  8
0
100
AcDbLine
 10
145.0
 20
110.2479999999999
 30
0.0
 11
145.0
 21
109.576
 31
0.0
  0
LINE
  5
292
330
1E
100
AcDbEntity
  8
0
100
AcDbLine
 10
145.0
 20
110.2479999999999
 30
0.0
 11
145.0
 21
110.4999999999999
 31
0.0
  0
LINE
  5
293
330
1E
100
AcDbEntity
  8
0
100
AcDbLine
 10
145.0
 20
109.576
 30
0.0
 11
145.0
 21
108.4559999999999
 31
0.0
  0
LINE
  5
294
330
1E
100
AcDbEntity
  8
0
100
AcDbLine
 10
145.0
 20
109.576
 30
0.0
 11
145.0
 21
110.2479999999999
 31
0.0
  0
LINE
  5
295
330
1E
100
AcDbEntity
  8
0
100
AcDbLine
 10
145.0
 20
108.4559999999999
 30
0.0
 11
145.0
 21
106.972
 31
0.0
  0
LINE
  5
296
330
1E
100
AcDbEntity
  8
0
100
AcDbLine
 10
145.0
 20
108.4559999999999
 30
0.0
 11
145.0
 21
109.576
 31
0.0
  0
LINE
  5
297
330
1E
100
AcDbEntity
  8
0
100
AcDbLine
 10
145.0
 20
106.972
 30
0.0
 11
145.0
 21
105.292
 31
0.0
  0
LINE
  5
298
330
1E
100
AcDbEntity
  8
0
100
AcDbLine
 10
145.0
 20
106.972
 30
0.0
 11
145.0
 21
108.4559999999999
 31
0.0
  0
LINE
  5
299
330
1E
100
AcDbEntity
  8
0
100
AcDbLine
 10
145.0
 20
105.292
 30
0.0
 11
145.0
 21
103.4999999999999
 31
0.0
  0
LINE
  5
29A
330
1E
100
AcDbEntity
  8
0
100
AcDbLine
 10
145.0
 20
105.292
 30
0.0
 11
145.0
 21
106.972
 31
0.0
  0
LINE
  5
29B
330
1E
100
AcDbEntity
  8
0
100
AcDbLine
 10
140.0
 20
110.4999999999999
 30
0.0
 11
145.0
 21
110.4999999999999
 31
0.0
  0
LINE
  5
29C
330
1E
100
AcDbEntity
  8
0
100
AcDbLine
 10
145.0
 20
103.4999999999999
 30
0.0
 11
145.0
 21
92.5
 31
0.0
  0
LINE
  5
29D
330
1E
100
AcDbEntity
  8
0
100
AcDbLine
 10
145.0
 20
103.4999999999999
 30
0.0
 11
145.0
 21
105.292
 31
0.0
  0
LINE
  5
29E
330
1E
100
AcDbEntity
  8
0
100
AcDbLine
 10
135.0
 20
103.4999999999999
 30
0.0
 11
135.0
 21
102.476
 31
0.0
  0
LINE
  5
29F
330
1E
100
AcDbEntity
  8
0
100
AcDbLine
 10
135.0
 20
103.4999999999999
 30
0.0
 11
135.0
 21
105.292
 31
0.0
  0
LINE
  5
2A0
330
1E
100
AcDbEntity
  8
0
100
AcDbLine
 10
135.0
 20
103.4999999999999
 30
0.0
 11
135.0
 21
104.5239999999999
 31
0.0
  0
LINE
  5
2A1
330
1E
100
AcDbEntity
  8
0
100
AcDbLine
 10
135.0
 20
103.4999999999999
 30
0.0
 11
135.0
 21
100.0
 31
0.0
  0
LINE
  5
2A2
330
1E
100
AcDbEntity
  8
0
100
AcDbLine
 10
135.0
 20
103.4999999999999
 30
0.0
 11
135.0
 21
92.5
 31
0.0
  0
LINE
  5
2A3
330
1E
100
AcDbEntity
  8
0
100
AcDbLine
 10
135.0
 20
103.4999999999999
 30
0.0
 11
135.0
 21
99.50000000000001
 31
0.0
  0
LINE
  5
2A4
330
1E
100
AcDbEntity
  8
0
100
AcDbLine
 10
135.0
 20
102.476
 30
0.0
 11
135.0
 21
103.4999999999999
 31
0.0
  0
LINE
  5
2A5
330
1E
100
AcDbEntity
  8
0
100
AcDbLine
 10
135.0
 20
102.476
 30
0.0
 11
135.0
 21
101.516
 31
0.0
  0
LINE
  5
2A9
330
1E
100
AcDbEntity
  8
0
100
AcDbLine
 10
147.0
 20
71.9118
 30
0.0
 11
147.0
 21
76.9118
 31
0.0
  0
LINE
  5
2AA
330
1E
100
AcDbEntity
  8
0
100
AcDbLine
 10
147.0
 20
71.9118
 30
0.0
 11
147.0
 21
66.17650000000001
 31
0.0
  0
LINE
  5
2AB
330
1E
100
AcDbEntity
  8
0
100
AcDbLine
 10
147.0
 20
66.17650000000001
 30
0.0
 11
147.0
 21
71.9118
 31
0.0
  0
LINE
  5
2AC
330
1E
100
AcDbEntity
  8
0
100
AcDbLine
 10
147.0
 20
66.17650000000001
 30
0.0
 11
147.0
 21
60.0
 31
0.0
  0
LINE
  5
2AD
330
1E
100
AcDbEntity
  8
0
100
AcDbLine
 10
147.0
 20
76.9118
 30
0.0
 11
147.0
 21
80.66180000000001
 31
0.0
  0
LINE
  5
2AE
330
1E
100
AcDbEntity
  8
0
100
AcDbLine
 10
147.0
 20
76.9118
 30
0.0
 11
147.0
 21
71.9118
 31
0.0
  0
LINE
  5
2AF
330
1E
100
AcDbEntity
  8
0
100
AcDbLine
 10
147.0
 20
80.66180000000001
 30
0.0
 11
147.0
 21
83.0147
 31
0.0
  0
LINE
  5
2B0
330
1E
100
AcDbEntity
  8
0
100
AcDbLine
 10
147.0
 20
80.66180000000001
 30
0.0
 11
147.0
 21
76.9118
 31
0.0
  0
LINE
  5
2B3
330
1E
100
AcDbEntity
  8
0
100
AcDbLine
 10
147.0
 20
83.89709999999999
 30
0.0
 11
147.0
 21
83.0147
 31
0.0
  0
LINE
  5
2B5
330
1E
100
AcDbEntity
  8
0
100
AcDbLine
 10
146.4231
 20
84.6324
 30
0.0
 11
147.0
 21
83.89709999999999
 31
0.0
  0
LINE
  5
2B6
330
1E
100
AcDbEntity
  8
0
100
AcDbLine
 10
147.0
 20
83.0147
 30
0.0
 11
147.0
 21
83.89709999999999
 31
0.0
  0
LINE
  5
2B7
330
1E
100
AcDbEntity
  8
0
100
AcDbLine
 10
147.0
 20
83.0147
 30
0.0
 11
147.0
 21
80.66180000000001
 31
0.0
  0
LINE
  5
2BA
330
1E
100
AcDbEntity
  8
0
100
AcDbLine
 10
146.0
 20
84.76718772857271
 30
0.0
 11
146.4231
 21
84.6324
 31
0.0
  0
LINE
  5
2BB
330
1E
100
AcDbEntity
  8
0
100
AcDbLine
 10
147.0
 20
60.0
 30
0.0
 11
147.0
 21
53.8235
 31
0.0
  0
LINE
  5
2BC
330
1E
100
AcDbEntity
  8
0
100
AcDbLine
 10
147.0
 20
60.0
 30
0.0
 11
147.0
 21
66.17650000000001
 31
0.0
  0
LINE
  5
2BD
330
1E
100
AcDbEntity
  8
0
100
AcDbLine
 10
132.352
 20
100.0
 30
0.0
 11
135.0
 21
100.0
 31
0.0
  0
LINE
  5
2BE
330
1E
100
AcDbEntity
  8
0
100
AcDbLine
 10
132.352
 20
55.38800000000001
 30
0.0
 11
136.432
 21
53.756
 31
0.0
  0
LINE
  5
2BF
330
1E
100
AcDbEntity
  8
0
100
AcDbLine
 10
128.0
 20
56.0
 30
0.0
 11
132.352
 21
55.38800000000001
 31
0.0
  0
LINE
  5
2C0
330
1E
100
AcDbEntity
  8
0
100
AcDbLine
 10
128.0
 20
52.9091
 30
0.0
 11
131.5606999999999
 21
52.4084
 31
0.0
  0
LINE
  5
2C1
330
1E
100
AcDbEntity
  8
0
100
AcDbLine
 10
123.648
 20
55.38800000000001
 30
0.0
 11
128.0
 21
56.0
 31
0.0
  0
LINE
  5
2C2
330
1E
100
AcDbEntity
  8
0
100
AcDbLine
 10
124.4393
 20
52.4084
 30
0.0
 11
128.0
 21
52.9091
 31
0.0
  0
LINE
  5
2C3
330
1E
100
AcDbEntity
  8
0
100
AcDbLine
 10
65.0
 20
0.600000000000001
 30
0.0
 11
65.0
 21
119.4
 31
0.0
  0
LINE
  5
2C4
330
1E
100
AcDbEntity
  8
0
100
AcDbLine
 10
65.0
 20
0.599999999999996
 30
0.0
 11
65.0
 21
119.4
 31
0.0
  0
LINE
  5
2C5
330
1E
100
AcDbEntity
  8
0
100
AcDbLine
 10
64.81999999999999
 20
0.599999999999996
 30
0.0
 11
64.81999999999999
 21
119.4
 31
0.0
  0
LINE
  5
2C6
330
1E
100
AcDbEntity
  8
0
100
AcDbLine
 10
64.81999999999999
 20
119.8199999999999
 30
0.0
 11
65.0
 21
119.4
 31
0.0
  0
LINE
  5
2C7
330
1E
100
AcDbEntity
  8
0
100
AcDbLine
 10
64.7
 20
119.8199999999999
 30
0.0
 11
64.81999999999999
 21
119.8199999999999
 31
0.0
  0
LINE
  5
2C8
330
1E
100
AcDbEntity
  8
0
100
AcDbLine
 10
64.7
 20
119.8199999999999
 30
0.0
 11
64.81999999999999
 21
119.4
 31
0.0
  0
LINE
  5
2C9
330
1E
100
AcDbEntity
  8
0
100
AcDbLine
 10
64.40000000000001
 20
119.8199999999999
 30
0.0
 11
64.7
 21
119.8199999999999
 31
0.0
  0
LINE
  5
2CA
330
1E
100
AcDbEntity
  8
0
100
AcDbLine
 10
44.59999999999999
 20
119.8199999999999
 30
0.0
 11
64.40000000000001
 21
119.8199999999999
 31
0.0
  0
LINE
  5
2CB
330
1E
100
AcDbEntity
  8
0
100
AcDbLine
 10
64.40000000000001
 20
120.0
 30
0.0
 11
64.81999999999999
 21
119.8199999999999
 31
0.0
  0
LINE
  5
2CC
330
1E
100
AcDbEntity
  8
0
100
AcDbLine
 10
44.59999999999999
 20
120.0
 30
0.0
 11
64.40000000000001
 21
120.0
 31
0.0
  0
LINE
  5
2CD
330
1E
100
AcDbEntity
  8
0
100
AcDbLine
 10
44.29999999999999
 20
119.8199999999999
 30
0.0
 11
44.59999999999999
 21
119.8199999999999
 31
0.0
  0
LINE
  5
2CE
330
1E
100
AcDbEntity
  8
0
100
AcDbLine
 10
44.18
 20
119.8199999999999
 30
0.0
 11
44.59999999999999
 21
120.0
 31
0.0
  0
LINE
  5
2CF
330
1E
100
AcDbEntity
  8
0
100
AcDbLine
 10
44.18
 20
119.8199999999999
 30
0.0
 11
44.29999999999999
 21
119.8199999999999
 31
0.0
  0
LINE
  5
2D4
330
1E
100
AcDbEntity
  8
0
100
AcDbLine
 10
99.0
 20
20.0
 30
0.0
 11
92.0
 21
14.5
 31
0.0
  0
ENDSEC
  0
SECTION
  2
OBJECTS
  0
DICTIONARY
  5
C
330
0
100
AcDbDictionary
281
     1
  3
ACAD_GROUP
350
D
  3
ACAD_LAYOUT
350
19
  3
ACAD_MLINESTYLE
350
16
  3
ACAD_PLOTSETTINGS
350
18
  3
ACAD_PLOTSTYLENAME
350
E
  3
AcDbVariableDictionary
350
2D5
  0
DICTIONARY
  5
D
102
{ACAD_REACTORS
330
C
102
}
330
C
100
AcDbDictionary
281
     1
  0
DICTIONARY
  5
19
102
{ACAD_REACTORS
330
C
102
}
330
C
100
AcDbDictionary
281
     1
  3
Layout1
350
1D
  3
Model
350
21
  0
DICTIONARY
  5
16
102
{ACAD_REACTORS
330
C
102
}
330
C
100
AcDbDictionary
281
     1
  3
Standard
350
17
  0
DICTIONARY
  5
18
102
{ACAD_REACTORS
330
C
102
}
330
C
100
AcDbDictionary
281
     1
  0
ACDBDICTIONARYWDFLT
  5
E
102
{ACAD_REACTORS
330
C
102
}
330
C
100
AcDbDictionary
281
     1
  3
Normal
350
F
100
AcDbDictionaryWithDefault
340
F
  0
DICTIONARY
  5
2D5
102
{ACAD_REACTORS
330
C
102
}
330
C
100
AcDbDictionary
281
     1
  3
DIMASSOC
350
2D6
  0
LAYOUT
  5
1D
102
{ACAD_REACTORS
330
19
102
}
330
19
100
AcDbPlotSettings
  1

  2
hp deskjet 980c series
  4

  6

 40
0.0
 41
0.0
 42
0.0
 43
0.0
 44
0.0
 45
0.0
 46
0.0
 47
0.0
 48
0.0
 49
0.0
140
0.0
141
0.0
142
1.0
143
1.0
 70
   688
 72
     0
 73
     0
 74
     5
  7

 75
    16
147
1.0
148
0.0
149
0.0
100
AcDbLayout
  1
Layout1
 70
     1
 71
     1
 10
0.0
 20
0.0
 11
12.0
 21
9.0
 12
0.0
 22
0.0
 32
0.0
 14
1.000000000000000E+20
 24
1.000000000000000E+20
 34
1.000000000000000E+20
 15
-1.000000000000000E+20
 25
-1.000000000000000E+20
 35
-1.000000000000000E+20
146
0.0
 13
0.0
 23
0.0
 33
0.0
 16
1.0
 26
0.0
 36
0.0
 17
0.0
 27
1.0
 37
0.0
 76
     0
330
1A
  0
LAYOUT
  5
21
102
{ACAD_REACTORS
330
19
102
}
330
19
100
AcDbPlotSettings
  1

  2
hp deskjet 980c series
  4

  6

 40
0.0
 41
0.0
 42
0.0
 43
0.0
 44
0.0
 45
0.0
 46
0.0
 47
0.0
 48
0.0
 49
0.0
140
0.0
141
0.0
142
1.0
143
1.0
 70
  1712
 72
     0
 73
     0
 74
     0
  7

 75
     0
147
1.0
148
0.0
149
0.0
100
AcDbLayout
  1
Model
 70
     1
 71
     0
 10
0.0
 20
0.0
 11
12.0
 21
9.0
 12
0.0
 22
0.0
 32
0.0
 14
0.0
 24
0.0
 34
0.0
 15
0.0
 25
0.0
 35
0.0
146
0.0
 13
0.0
 23
0.0
 33
0.0
 16
1.0
 26
0.0
 36
0.0
 17
0.0
 27
1.0
 37
0.0
 76
     0
330
1E
  0
MLINESTYLE
  5
17
102
{ACAD_REACTORS
330
16
102
}
330
16
100
AcDbMlineStyle
  2
STANDARD
 70
     0
  3

 62
   256
 51
90.0
 52
90.0
 71
     2
 49
0.5
 62
   256
  6
BYLAYER
 49
-0.5
 62
   256
  6
BYLAYER
  0
ACDBPLACEHOLDER
  5
F
102
{ACAD_REACTORS
330
E
102
}
330
E
  0
DICTIONARYVAR
  5
2D6
102
{ACAD_REACTORS
330
2D5
102
}
330
2D5
100
DictionaryVariables
280
     0
  1
1
  0
ENDSEC
  0
EOF
