  0
SECTION
  2
HEADER
  9
$ACADVER
  1
AC1015
  9
$ACADMAINTVER
 70
    13
  9
$DWGCODEPAGE
  3
ANSI_1252
  9
$INSBASE
 10
0.0
 20
0.0
 30
0.0
  9
$EXTMIN
 10
0.0
 20
0.0
 30
0.0
  9
$EXTMAX
 10
82.0
 20
105.0
 30
0.0
  9
$LIMMIN
 10
0.0
 20
0.0
  9
$LIMMAX
 10
12.0
 20
9.0
  9
$ORTHOMODE
 70
     0
  9
$REGENMODE
 70
     1
  9
$FILLMODE
 70
     1
  9
$QTEXTMODE
 70
     0
  9
$MIRRTEXT
 70
     1
  9
$LTSCALE
 40
1.0
  9
$ATTMODE
 70
     1
  9
$TEXTSIZE
 40
0.2
  9
$TRACEWID
 40
0.05
  9
$TEXTSTYLE
  7
Standard
  9
$CLAYER
  8
0
  9
$CELTYPE
  6
Continuous
  9
$CECOLOR
 62
   256
  9
$CELTSCALE
 40
1.0
  9
$DISPSILH
 70
     0
  9
$DIMSCALE
 40
1.0
  9
$DIMASZ
 40
0.18
  9
$DIMEXO
 40
0.0625
  9
$DIMDLI
 40
0.38
  9
$DIMRND
 40
0.0
  9
$DIMDLE
 40
0.0
  9
$DIMEXE
 40
0.18
  9
$DIMTP
 40
0.0
  9
$DIMTM
 40
0.0
  9
$DIMTXT
 40
0.18
  9
$DIMCEN
 40
0.09
  9
$DIMTSZ
 40
0.0
  9
$DIMTOL
 70
     0
  9
$DIMLIM
 70
     0
  9
$DIMTIH
 70
     1
  9
$DIMTOH
 70
     1
  9
$DIMSE1
 70
     0
  9
$DIMSE2
 70
     0
  9
$DIMTAD
 70
     0
  9
$DIMZIN
 70
     0
  9
$DIMBLK
  1

  9
$DIMASO
 70
     1
  9
$DIMSHO
 70
     1
  9
$DIMPOST
  1

  9
$DIMAPOST
  1

  9
$DIMALT
 70
     0
  9
$DIMALTD
 70
     2
  9
$DIMALTF
 40
25.4
  9
$DIMLFAC
 40
1.0
  9
$DIMTOFL
 70
     0
  9
$DIMTVP
 40
0.0
  9
$DIMTIX
 70
     0
  9
$DIMSOXD
 70
     0
  9
$DIMSAH
 70
     0
  9
$DIMBLK1
  1

  9
$DIMBLK2
  1

  9
$DIMSTYLE
  2
Standard
  9
$DIMCLRD
 70
     0
  9
$DIMCLRE
 70
     0
  9
$DIMCLRT
 70
     0
  9
$DIMTFAC
 40
1.0
  9
$DIMGAP
 40
0.09
  9
$DIMJUST
 70
     0
  9
$DIMSD1
 70
     0
  9
$DIMSD2
 70
     0
  9
$DIMTOLJ
 70
     1
  9
$DIMTZIN
 70
     0
  9
$DIMALTZ
 70
     0
  9
$DIMALTTZ
 70
     0
  9
$DIMUPT
 70
     0
  9
$DIMDEC
 70
     4
  9
$DIMTDEC
 70
     4
  9
$DIMALTU
 70
     2
  9
$DIMALTTD
 70
     2
  9
$DIMTXSTY
  7
Standard
  9
$DIMAUNIT
 70
     0
  9
$DIMADEC
 70
     0
  9
$DIMALTRND
 40
0.0
  9
$DIMAZIN
 70
     0
  9
$DIMDSEP
 70
    46
  9
$DIMATFIT
 70
     3
  9
$DIMFRAC
 70
     0
  9
$DIMLDRBLK
  1

  9
$DIMLUNIT
 70
     2
  9
$DIMLWD
 70
    -2
  9
$DIMLWE
 70
    -2
  9
$DIMTMOVE
 70
     0
  9
$LUNITS
 70
     2
  9
$LUPREC
 70
     4
  9
$SKETCHINC
 40
0.1
  9
$FILLETRAD
 40
0.0
  9
$AUNITS
 70
     0
  9
$AUPREC
 70
     0
  9
$MENU
  1
.
  9
$ELEVATION
 40
0.0
  9
$PELEVATION
 40
0.0
  9
$THICKNESS
 40
0.0
  9
$LIMCHECK
 70
     0
  9
$CHAMFERA
 40
0.0
  9
$CHAMFERB
 40
0.0
  9
$CHAMFERC
 40
0.0
  9
$CHAMFERD
 40
0.0
  9
$SKPOLY
 70
     0
  9
$TDCREATE
 40
2454874.753489398
  9
$TDUCREATE
 40
2454874.711822731
  9
$TDUPDATE
 40
2454874.757210822
  9
$TDUUPDATE
 40
2454874.715544154
  9
$TDINDWG
 40
0.0037216088
  9
$TDUSRTIMER
 40
0.0037216088
  9
$USRTIMER
 70
     1
  9
$ANGBASE
 50
0.0
  9
$ANGDIR
 70
     0
  9
$PDMODE
 70
     0
  9
$PDSIZE
 40
0.0
  9
$PLINEWID
 40
0.0
  9
$SPLFRAME
 70
     0
  9
$SPLINETYPE
 70
     6
  9
$SPLINESEGS
 70
     8
  9
$HANDSEED
  5
2DB
  9
$SURFTAB1
 70
     6
  9
$SURFTAB2
 70
     6
  9
$SURFTYPE
 70
     6
  9
$SURFU
 70
     6
  9
$SURFV
 70
     6
  9
$UCSBASE
  2

  9
$UCSNAME
  2

  9
$UCSORG
 10
0.0
 20
0.0
 30
0.0
  9
$UCSXDIR
 10
1.0
 20
0.0
 30
0.0
  9
$UCSYDIR
 10
0.0
 20
1.0
 30
0.0
  9
$UCSORTHOREF
  2

  9
$UCSORTHOVIEW
 70
     1
  9
$UCSORGTOP
 10
0.0
 20
0.0
 30
0.0
  9
$UCSORGBOTTOM
 10
0.0
 20
0.0
 30
0.0
  9
$UCSORGLEFT
 10
0.0
 20
0.0
 30
0.0
  9
$UCSORGRIGHT
 10
0.0
 20
0.0
 30
0.0
  9
$UCSORGFRONT
 10
0.0
 20
0.0
 30
0.0
  9
$UCSORGBACK
 10
0.0
 20
0.0
 30
0.0
  9
$PUCSBASE
  2

  9
$PUCSNAME
  2

  9
$PUCSORG
 10
0.0
 20
0.0
 30
0.0
  9
$PUCSXDIR
 10
1.0
 20
0.0
 30
0.0
  9
$PUCSYDIR
 10
0.0
 20
1.0
 30
0.0
  9
$PUCSORTHOREF
  2

  9
$PUCSORTHOVIEW
 70
     0
  9
$PUCSORGTOP
 10
0.0
 20
0.0
 30
0.0
  9
$PUCSORGBOTTOM
 10
0.0
 20
0.0
 30
0.0
  9
$PUCSORGLEFT
 10
0.0
 20
0.0
 30
0.0
  9
$PUCSORGRIGHT
 10
0.0
 20
0.0
 30
0.0
  9
$PUCSORGFRONT
 10
0.0
 20
0.0
 30
0.0
  9
$PUCSORGBACK
 10
0.0
 20
0.0
 30
0.0
  9
$USERI1
 70
     0
  9
$USERI2
 70
     0
  9
$USERI3
 70
     0
  9
$USERI4
 70
     0
  9
$USERI5
 70
     0
  9
$USERR1
 40
0.0
  9
$USERR2
 40
0.0
  9
$USERR3
 40
0.0
  9
$USERR4
 40
0.0
  9
$USERR5
 40
0.0
  9
$WORLDVIEW
 70
     1
  9
$SHADEDGE
 70
     3
  9
$SHADEDIF
 70
    70
  9
$TILEMODE
 70
     1
  9
$MAXACTVP
 70
    64
  9
$PINSBASE
 10
0.0
 20
0.0
 30
0.0
  9
$PLIMCHECK
 70
     0
  9
$PEXTMIN
 10
1.000000000000000E+20
 20
1.000000000000000E+20
 30
1.000000000000000E+20
  9
$PEXTMAX
 10
-1.000000000000000E+20
 20
-1.000000000000000E+20
 30
-1.000000000000000E+20
  9
$PLIMMIN
 10
0.0
 20
0.0
  9
$PLIMMAX
 10
12.0
 20
9.0
  9
$UNITMODE
 70
     0
  9
$VISRETAIN
 70
     1
  9
$PLINEGEN
 70
     0
  9
$PSLTSCALE
 70
     1
  9
$TREEDEPTH
 70
  3020
  9
$CMLSTYLE
  2
Standard
  9
$CMLJUST
 70
     0
  9
$CMLSCALE
 40
1.0
  9
$PROXYGRAPHICS
 70
     1
  9
$MEASUREMENT
 70
     0
  9
$CELWEIGHT
370
    -1
  9
$ENDCAPS
280
     0
  9
$JOINSTYLE
280
     0
  9
$LWDISPLAY
290
     0
  9
$INSUNITS
 70
     0
  9
$HYPERLINKBASE
  1

  9
$STYLESHEET
  1

  9
$XEDIT
290
     1
  9
$CEPSNTYPE
380
     0
  9
$PSTYLEMODE
290
     1
  9
$FINGERPRINTGUID
  2
{3FA75D42-977B-4F02-9C01-E151F914541C}
  9
$VERSIONGUID
  2
{8F19365F-0847-4437-9CF0-5E8E4507BCD2}
  9
$EXTNAMES
290
     1
  9
$PSVPSCALE
 40
0.0
  9
$OLESTARTUP
290
     0
  0
ENDSEC
  0
SECTION
  2
CLASSES
  0
CLASS
  1
ACDBDICTIONARYWDFLT
  2
AcDbDictionaryWithDefault
  3
AutoCAD 2000
 90
        0
280
     0
281
     0
  0
CLASS
  1
ACDBPLACEHOLDER
  2
AcDbPlaceHolder
  3
AutoCAD 2000
 90
        0
280
     0
281
     0
  0
CLASS
  1
LAYOUT
  2
AcDbLayout
  3
AutoCAD 2000
 90
        0
280
     0
281
     0
  0
CLASS
  1
DICTIONARYVAR
  2
AcDbDictionaryVar
  3
AutoCAD 2000
 90
        0
280
     0
281
     0
  0
ENDSEC
  0
SECTION
  2
TABLES
  0
TABLE
  2
VPORT
  5
8
330
0
100
AcDbSymbolTable
 70
     3
  0
VPORT
  5
2DA
330
8
100
AcDbSymbolTableRecord
100
AcDbViewportTableRecord
  2
*Active
 70
     0
 10
0.0
 20
0.0
 11
1.0
 21
1.0
 12
41.0
 22
52.5
 13
0.0
 23
0.0
 14
1.0
 24
1.0
 15
0.0
 25
0.0
 16
0.0
 26
0.0
 36
1.0
 17
0.0
 27
0.0
 37
0.0
 40
105.6631578947368
 41
1.968387776606954
 42
50.0
 43
0.0
 44
0.0
 50
0.0
 51
0.0
 71
     0
 72
   100
 73
     1
 74
     3
 75
     0
 76
     0
 77
     0
 78
     0
281
     0
 65
     1
110
0.0
120
0.0
130
0.0
111
1.0
121
0.0
131
0.0
112
0.0
122
1.0
132
0.0
 79
     1
146
0.0
  0
ENDTAB
  0
TABLE
  2
LTYPE
  5
5
330
0
100
AcDbSymbolTable
 70
     1
  0
LTYPE
  5
13
330
5
100
AcDbSymbolTableRecord
100
AcDbLinetypeTableRecord
  2
ByBlock
 70
     0
  3

 72
    65
 73
     0
 40
0.0
  0
LTYPE
  5
14
330
5
100
AcDbSymbolTableRecord
100
AcDbLinetypeTableRecord
  2
ByLayer
 70
     0
  3

 72
    65
 73
     0
 40
0.0
  0
LTYPE
  5
15
330
5
100
AcDbSymbolTableRecord
100
AcDbLinetypeTableRecord
  2
Continuous
 70
     0
  3
Solid line
 72
    65
 73
     0
 40
0.0
  0
ENDTAB
  0
TABLE
  2
LAYER
  5
2
330
0
100
AcDbSymbolTable
 70
     1
  0
LAYER
  5
10
330
2
100
AcDbSymbolTableRecord
100
AcDbLayerTableRecord
  2
0
 70
     0
 62
     7
  6
Continuous
370
    -3
390
F
  0
ENDTAB
  0
TABLE
  2
STYLE
  5
3
330
0
100
AcDbSymbolTable
 70
     1
  0
STYLE
  5
11
330
3
100
AcDbSymbolTableRecord
100
AcDbTextStyleTableRecord
  2
Standard
 70
     0
 40
0.0
 41
1.0
 50
0.0
 71
     0
 42
0.2
  3
txt
  4

  0
ENDTAB
  0
TABLE
  2
VIEW
  5
6
330
0
100
AcDbSymbolTable
 70
     0
  0
ENDTAB
  0
TABLE
  2
UCS
  5
7
330
0
100
AcDbSymbolTable
 70
     0
  0
ENDTAB
  0
TABLE
  2
APPID
  5
9
330
0
100
AcDbSymbolTable
 70
     1
  0
APPID
  5
12
330
9
100
AcDbSymbolTableRecord
100
AcDbRegAppTableRecord
  2
ACAD
 70
     0
  0
ENDTAB
  0
TABLE
  2
DIMSTYLE
  5
A
330
0
100
AcDbSymbolTable
 70
     1
100
AcDbDimStyleTable
 71
     0
  0
DIMSTYLE
105
2D0
330
A
100
AcDbSymbolTableRecord
100
AcDbDimStyleTableRecord
  2
Standard
 70
     0
340
11
  0
ENDTAB
  0
TABLE
  2
BLOCK_RECORD
  5
1
330
0
100
AcDbSymbolTable
 70
     0
  0
BLOCK_RECORD
  5
1E
330
1
100
AcDbSymbolTableRecord
100
AcDbBlockTableRecord
  2
*Model_Space
340
21
  0
BLOCK_RECORD
  5
1A
330
1
100
AcDbSymbolTableRecord
100
AcDbBlockTableRecord
  2
*Paper_Space
340
1D
  0
ENDTAB
  0
ENDSEC
  0
SECTION
  2
BLOCKS
  0
BLOCK
  5
1F
330
1E
100
AcDbEntity
  8
0
100
AcDbBlockBegin
  2
*Model_Space
 70
     0
 10
0.0
 20
0.0
 30
0.0
  3
*Model_Space
  1

  0
ENDBLK
  5
20
330
1E
100
AcDbEntity
  8
0
100
AcDbBlockEnd
  0
BLOCK
  5
1B
330
1A
100
AcDbEntity
 67
     1
  8
0
100
AcDbBlockBegin
  2
*Paper_Space
 70
     0
 10
0.0
 20
0.0
 30
0.0
  3
*Paper_Space
  1

  0
ENDBLK
  5
1C
330
1A
100
AcDbEntity
 67
     1
  8
0
100
AcDbBlockEnd
  0
ENDSEC
  0
SECTION
  2
ENTITIES
  0
LINE
  5
A5
330
1E
100
AcDbEntity
  8
0
100
AcDbLine
 10
0.0
 20
7.0
 30
0.0
 11
27.0
 21
7.0
 31
0.0
  0
LINE
  5
A6
330
1E
100
AcDbEntity
  8
0
100
AcDbLine
 10
46.0
 20
0.0
 30
0.0
 11
46.0
 21
12.5
 31
0.0
  0
LINE
  5
A7
330
1E
100
AcDbEntity
  8
0
100
AcDbLine
 10
10.0
 20
7.69801
 30
0.0
 11
10.0
 21
7.0
 31
0.0
  0
LINE
  5
A8
330
1E
100
AcDbEntity
  8
0
100
AcDbLine
 10
10.0
 20
9.091829999999998
 30
0.0
 11
10.0
 21
7.69801
 31
0.0
  0
LINE
  5
A9
330
1E
100
AcDbEntity
  8
0
100
AcDbLine
 10
10.0
 20
10.95029999999999
 30
0.0
 11
10.0
 21
9.091829999999998
 31
0.0
  0
LINE
  5
AA
330
1E
100
AcDbEntity
  8
0
100
AcDbLine
 10
27.0
 20
7.69801
 30
0.0
 11
27.0
 21
7.0
 31
0.0
  0
LINE
  5
AB
330
1E
100
AcDbEntity
  8
0
100
AcDbLine
 10
27.0
 20
7.69801
 30
0.0
 11
27.0
 21
9.091829999999998
 31
0.0
  0
LINE
  5
AC
330
1E
100
AcDbEntity
  8
0
100
AcDbLine
 10
27.0
 20
9.091829999999998
 30
0.0
 11
27.0
 21
7.69801
 31
0.0
  0
LINE
  5
AD
330
1E
100
AcDbEntity
  8
0
100
AcDbLine
 10
27.0
 20
9.091829999999998
 30
0.0
 11
27.0
 21
10.95029999999999
 31
0.0
  0
LINE
  5
AE
330
1E
100
AcDbEntity
  8
0
100
AcDbLine
 10
27.0
 20
10.95029999999999
 30
0.0
 11
27.0
 21
9.091829999999998
 31
0.0
  0
LINE
  5
AF
330
1E
100
AcDbEntity
  8
0
100
AcDbLine
 10
27.0
 20
10.95029999999999
 30
0.0
 11
27.0
 21
13.7379
 31
0.0
  0
LINE
  5
B0
330
1E
100
AcDbEntity
  8
0
100
AcDbLine
 10
27.0
 20
7.0
 30
0.0
 11
27.0
 21
7.69801
 31
0.0
  0
LINE
  5
B1
330
1E
100
AcDbEntity
  8
0
100
AcDbLine
 10
34.0
 20
0.0
 30
0.0
 11
34.0
 21
12.5
 31
0.0
  0
LINE
  5
B2
330
1E
100
AcDbEntity
  8
0
100
AcDbLine
 10
34.0
 20
0.0
 30
0.0
 11
46.0
 21
0.0
 31
0.0
  0
LINE
  5
B3
330
1E
100
AcDbEntity
  8
0
100
AcDbLine
 10
46.0
 20
12.5
 30
0.0
 11
46.612
 21
12.5
 31
0.0
  0
LINE
  5
B4
330
1E
100
AcDbEntity
  8
0
100
AcDbLine
 10
10.0
 20
13.7379
 30
0.0
 11
10.0
 21
10.95029999999999
 31
0.0
  0
LINE
  5
B5
330
1E
100
AcDbEntity
  8
0
100
AcDbLine
 10
10.0
 20
16.4326
 30
0.0
 11
10.0
 21
13.7379
 31
0.0
  0
LINE
  5
B6
330
1E
100
AcDbEntity
  8
0
100
AcDbLine
 10
27.0
 20
13.7379
 30
0.0
 11
27.0
 21
10.95029999999999
 31
0.0
  0
LINE
  5
B7
330
1E
100
AcDbEntity
  8
0
100
AcDbLine
 10
27.0
 20
13.7379
 30
0.0
 11
27.0
 21
16.4326
 31
0.0
  0
LINE
  5
B8
330
1E
100
AcDbEntity
  8
0
100
AcDbLine
 10
10.0
 20
19.9636
 30
0.0
 11
10.0
 21
16.4326
 31
0.0
  0
LINE
  5
B9
330
1E
100
AcDbEntity
  8
0
100
AcDbLine
 10
10.0
 20
24.7956
 30
0.0
 11
10.0
 21
19.9636
 31
0.0
  0
LINE
  5
BA
330
1E
100
AcDbEntity
  8
0
100
AcDbLine
 10
27.0
 20
16.4326
 30
0.0
 11
27.0
 21
13.7379
 31
0.0
  0
LINE
  5
BB
330
1E
100
AcDbEntity
  8
0
100
AcDbLine
 10
27.0
 20
16.4326
 30
0.0
 11
27.0
 21
19.9636
 31
0.0
  0
LINE
  5
BC
330
1E
100
AcDbEntity
  8
0
100
AcDbLine
 10
27.0
 20
19.9636
 30
0.0
 11
27.0
 21
16.4326
 31
0.0
  0
LINE
  5
BD
330
1E
100
AcDbEntity
  8
0
100
AcDbLine
 10
27.0
 20
19.9636
 30
0.0
 11
27.0
 21
24.7956
 31
0.0
  0
LINE
  5
BE
330
1E
100
AcDbEntity
  8
0
100
AcDbLine
 10
27.0
 20
24.7956
 30
0.0
 11
27.0
 21
19.9636
 31
0.0
  0
LINE
  5
BF
330
1E
100
AcDbEntity
  8
0
100
AcDbLine
 10
27.0
 20
24.7956
 30
0.0
 11
27.0
 21
33.34429999999999
 31
0.0
  0
LINE
  5
C0
330
1E
100
AcDbEntity
  8
0
100
AcDbLine
 10
46.0
 20
12.5
 30
0.0
 11
46.0
 21
0.0
 31
0.0
  0
LINE
  5
C1
330
1E
100
AcDbEntity
  8
0
100
AcDbLine
 10
34.0
 20
12.5
 30
0.0
 11
34.0
 21
0.0
 31
0.0
  0
LINE
  5
C2
330
1E
100
AcDbEntity
  8
0
100
AcDbLine
 10
46.612
 20
12.5
 30
0.0
 11
48.244
 21
12.5
 31
0.0
  0
LINE
  5
C3
330
1E
100
AcDbEntity
  8
0
100
AcDbLine
 10
48.244
 20
12.5
 30
0.0
 11
50.964
 21
12.5
 31
0.0
  0
LINE
  5
C4
330
1E
100
AcDbEntity
  8
0
100
AcDbLine
 10
27.0
 20
27.57199999999999
 30
0.0
 11
46.552375
 21
27.57199999999999
 31
0.0
  0
LINE
  5
C5
330
1E
100
AcDbEntity
  8
0
100
AcDbLine
 10
46.612
 20
27.148
 30
0.0
 11
48.244
 21
23.068
 31
0.0
  0
LINE
  5
C6
330
1E
100
AcDbEntity
  8
0
100
AcDbLine
 10
49.0909
 20
12.5
 30
0.0
 11
49.5916
 21
12.5
 31
0.0
  0
LINE
  5
C7
330
1E
100
AcDbEntity
  8
0
100
AcDbLine
 10
48.244
 20
23.068
 30
0.0
 11
50.964
 21
19.464
 31
0.0
  0
LINE
  5
C8
330
1E
100
AcDbEntity
  8
0
100
AcDbLine
 10
10.0
 20
33.34429999999999
 30
0.0
 11
10.0
 21
24.7956
 31
0.0
  0
LINE
  5
C9
330
1E
100
AcDbEntity
  8
0
100
AcDbLine
 10
27.0
 20
33.34429999999999
 30
0.0
 11
27.0
 21
24.7956
 31
0.0
  0
LINE
  5
CA
330
1E
100
AcDbEntity
  8
0
100
AcDbLine
 10
27.0
 20
33.34429999999999
 30
0.0
 11
27.0
 21
47.8401
 31
0.0
  0
LINE
  5
CB
330
1E
100
AcDbEntity
  8
0
100
AcDbLine
 10
46.0
 20
31.5
 30
0.0
 11
46.612
 21
35.85199999999999
 31
0.0
  0
LINE
  5
CC
330
1E
100
AcDbEntity
  8
0
100
AcDbLine
 10
46.0
 20
31.5
 30
0.0
 11
46.612
 21
27.148
 31
0.0
  0
LINE
  5
CD
330
1E
100
AcDbEntity
  8
0
100
AcDbLine
 10
49.5916
 20
12.5
 30
0.0
 11
50.92690000000001
 21
12.5
 31
0.0
  0
LINE
  5
CE
330
1E
100
AcDbEntity
  8
0
100
AcDbLine
 10
50.92690000000001
 20
12.5
 30
0.0
 11
53.1524
 21
12.5
 31
0.0
  0
LINE
  5
CF
330
1E
100
AcDbEntity
  8
0
100
AcDbLine
 10
49.5916
 20
27.9393
 30
0.0
 11
50.92690000000001
 21
24.6011
 31
0.0
  0
LINE
  5
D0
330
1E
100
AcDbEntity
  8
0
100
AcDbLine
 10
50.92690000000001
 20
24.6011
 30
0.0
 11
53.1524
 21
21.6524
 31
0.0
  0
LINE
  5
D1
330
1E
100
AcDbEntity
  8
0
100
AcDbLine
 10
49.0909
 20
31.5
 30
0.0
 11
49.5916
 21
35.06069999999999
 31
0.0
  0
LINE
  5
D2
330
1E
100
AcDbEntity
  8
0
100
AcDbLine
 10
49.0909
 20
31.5
 30
0.0
 11
49.5916
 21
27.9393
 31
0.0
  0
LINE
  5
D3
330
1E
100
AcDbEntity
  8
0
100
AcDbLine
 10
46.612
 20
35.85199999999999
 30
0.0
 11
48.244
 21
39.93199999999999
 31
0.0
  0
LINE
  5
D4
330
1E
100
AcDbEntity
  8
0
100
AcDbLine
 10
48.244
 20
39.93199999999999
 30
0.0
 11
50.964
 21
43.536
 31
0.0
  0
LINE
  5
D5
330
1E
100
AcDbEntity
  8
0
100
AcDbLine
 10
49.5916
 20
35.06069999999999
 30
0.0
 11
50.92690000000001
 21
38.3989
 31
0.0
  0
LINE
  5
D6
330
1E
100
AcDbEntity
  8
0
100
AcDbLine
 10
50.964
 20
12.5
 30
0.0
 11
54.568
 21
12.5
 31
0.0
  0
LINE
  5
D7
330
1E
100
AcDbEntity
  8
0
100
AcDbLine
 10
54.568
 20
12.5
 30
0.0
 11
58.64799999999999
 21
12.5
 31
0.0
  0
LINE
  5
D8
330
1E
100
AcDbEntity
  8
0
100
AcDbLine
 10
53.1524
 20
12.5
 30
0.0
 11
56.1011
 21
12.5
 31
0.0
  0
LINE
  5
D9
330
1E
100
AcDbEntity
  8
0
100
AcDbLine
 10
56.1011
 20
12.5
 30
0.0
 11
59.4393
 21
12.5
 31
0.0
  0
LINE
  5
DA
330
1E
100
AcDbEntity
  8
0
100
AcDbLine
 10
54.568
 20
16.744
 30
0.0
 11
58.64799999999999
 21
15.11199999999999
 31
0.0
  0
LINE
  5
DB
330
1E
100
AcDbEntity
  8
0
100
AcDbLine
 10
50.964
 20
19.464
 30
0.0
 11
54.568
 21
16.744
 31
0.0
  0
LINE
  5
DC
330
1E
100
AcDbEntity
  8
0
100
AcDbLine
 10
53.1524
 20
21.6524
 30
0.0
 11
56.1011
 21
19.42689999999999
 31
0.0
  0
LINE
  5
DD
330
1E
100
AcDbEntity
  8
0
100
AcDbLine
 10
56.1011
 20
19.42689999999999
 30
0.0
 11
59.4393
 21
18.0916
 31
0.0
  0
LINE
  5
DE
330
1E
100
AcDbEntity
  8
0
100
AcDbLine
 10
50.92690000000001
 20
38.3989
 30
0.0
 11
53.1524
 21
41.34759999999999
 31
0.0
  0
LINE
  5
DF
330
1E
100
AcDbEntity
  8
0
100
AcDbLine
 10
50.964
 20
43.536
 30
0.0
 11
54.568
 21
46.256
 31
0.0
  0
LINE
  5
E0
330
1E
100
AcDbEntity
  8
0
100
AcDbLine
 10
53.1524
 20
41.34759999999999
 30
0.0
 11
56.1011
 21
43.5731
 31
0.0
  0
LINE
  5
E1
330
1E
100
AcDbEntity
  8
0
100
AcDbLine
 10
58.64799999999999
 20
12.5
 30
0.0
 11
63.0
 21
12.5
 31
0.0
  0
LINE
  5
E2
330
1E
100
AcDbEntity
  8
0
100
AcDbLine
 10
63.0
 20
12.5
 30
0.0
 11
66.56069999999999
 21
12.5
 31
0.0
  0
LINE
  5
E3
330
1E
100
AcDbEntity
  8
0
100
AcDbLine
 10
63.0
 20
12.5
 30
0.0
 11
67.352
 21
12.5
 31
0.0
  0
LINE
  5
E9
330
1E
100
AcDbEntity
  8
0
100
AcDbLine
 10
59.4393
 20
12.5
 30
0.0
 11
63.0
 21
12.5
 31
0.0
  0
LINE
  5
EA
330
1E
100
AcDbEntity
  8
0
100
AcDbLine
 10
70.0
 20
4.0
 30
0.0
 11
70.0
 21
4.144
 31
0.0
  0
LINE
  5
EB
330
1E
100
AcDbEntity
  8
0
100
AcDbLine
 10
70.0
 20
4.144
 30
0.0
 11
70.0
 21
4.0
 31
0.0
  0
LINE
  5
EC
330
1E
100
AcDbEntity
  8
0
100
AcDbLine
 10
70.0
 20
4.144
 30
0.0
 11
70.0
 21
4.527999999999998
 31
0.0
  0
LINE
  5
ED
330
1E
100
AcDbEntity
  8
0
100
AcDbLine
 10
70.0
 20
1.0
 30
0.0
 11
70.0
 21
1.252
 31
0.0
  0
LINE
  5
EE
330
1E
100
AcDbEntity
  8
0
100
AcDbLine
 10
70.0
 20
1.0
 30
0.0
 11
75.0
 21
1.0
 31
0.0
  0
LINE
  5
EF
330
1E
100
AcDbEntity
  8
0
100
AcDbLine
 10
70.0
 20
1.252
 30
0.0
 11
70.0
 21
1.923999999999999
 31
0.0
  0
LINE
  5
F0
330
1E
100
AcDbEntity
  8
0
100
AcDbLine
 10
70.0
 20
1.252
 30
0.0
 11
70.0
 21
1.0
 31
0.0
  0
LINE
  5
F1
330
1E
100
AcDbEntity
  8
0
100
AcDbLine
 10
70.0
 20
5.167999999999999
 30
0.0
 11
70.0
 21
4.527999999999998
 31
0.0
  0
LINE
  5
F2
330
1E
100
AcDbEntity
  8
0
100
AcDbLine
 10
70.0
 20
5.167999999999999
 30
0.0
 11
70.0
 21
6.015999999999998
 31
0.0
  0
LINE
  5
F3
330
1E
100
AcDbEntity
  8
0
100
AcDbLine
 10
70.0
 20
1.923999999999999
 30
0.0
 11
70.0
 21
3.044
 31
0.0
  0
LINE
  5
F4
330
1E
100
AcDbEntity
  8
0
100
AcDbLine
 10
70.0
 20
1.923999999999999
 30
0.0
 11
70.0
 21
1.252
 31
0.0
  0
LINE
  5
F6
330
1E
100
AcDbEntity
  8
0
100
AcDbLine
 10
70.0
 20
6.015999999999998
 30
0.0
 11
70.0
 21
5.167999999999999
 31
0.0
  0
LINE
  5
F7
330
1E
100
AcDbEntity
  8
0
100
AcDbLine
 10
70.0
 20
6.015999999999998
 30
0.0
 11
70.0
 21
6.975999999999999
 31
0.0
  0
LINE
  5
F8
330
1E
100
AcDbEntity
  8
0
100
AcDbLine
 10
70.0
 20
3.044
 30
0.0
 11
70.0
 21
4.527999999999998
 31
0.0
  0
LINE
  5
F9
330
1E
100
AcDbEntity
  8
0
100
AcDbLine
 10
70.0
 20
3.044
 30
0.0
 11
70.0
 21
1.923999999999999
 31
0.0
  0
LINE
  5
FA
330
1E
100
AcDbEntity
  8
0
100
AcDbLine
 10
70.0
 20
6.975999999999999
 30
0.0
 11
70.0
 21
6.015999999999998
 31
0.0
  0
LINE
  5
FB
330
1E
100
AcDbEntity
  8
0
100
AcDbLine
 10
70.0
 20
6.975999999999999
 30
0.0
 11
70.0
 21
8.0
 31
0.0
  0
LINE
  5
FC
330
1E
100
AcDbEntity
  8
0
100
AcDbLine
 10
70.0
 20
4.527999999999998
 30
0.0
 11
70.0
 21
6.208
 31
0.0
  0
LINE
  5
FD
330
1E
100
AcDbEntity
  8
0
100
AcDbLine
 10
70.0
 20
4.527999999999998
 30
0.0
 11
70.0
 21
4.144
 31
0.0
  0
LINE
  5
FE
330
1E
100
AcDbEntity
  8
0
100
AcDbLine
 10
70.0
 20
4.527999999999998
 30
0.0
 11
70.0
 21
3.044
 31
0.0
  0
LINE
  5
FF
330
1E
100
AcDbEntity
  8
0
100
AcDbLine
 10
70.0
 20
4.527999999999998
 30
0.0
 11
70.0
 21
5.167999999999999
 31
0.0
  0
LINE
  5
100
330
1E
100
AcDbEntity
  8
0
100
AcDbLine
 10
70.0
 20
10.832
 30
0.0
 11
70.0
 21
11.472
 31
0.0
  0
LINE
  5
101
330
1E
100
AcDbEntity
  8
0
100
AcDbLine
 10
70.0
 20
10.832
 30
0.0
 11
70.0
 21
9.984000000000001
 31
0.0
  0
LINE
  5
102
330
1E
100
AcDbEntity
  8
0
100
AcDbLine
 10
70.0
 20
9.984000000000001
 30
0.0
 11
70.0
 21
10.832
 31
0.0
  0
LINE
  5
103
330
1E
100
AcDbEntity
  8
0
100
AcDbLine
 10
70.0
 20
9.984000000000001
 30
0.0
 11
70.0
 21
9.024
 31
0.0
  0
LINE
  5
104
330
1E
100
AcDbEntity
  8
0
100
AcDbLine
 10
70.0
 20
9.024
 30
0.0
 11
70.0
 21
9.984000000000001
 31
0.0
  0
LINE
  5
105
330
1E
100
AcDbEntity
  8
0
100
AcDbLine
 10
70.0
 20
9.024
 30
0.0
 11
70.0
 21
8.0
 31
0.0
  0
LINE
  5
106
330
1E
100
AcDbEntity
  8
0
100
AcDbLine
 10
70.0
 20
12.0
 30
0.0
 11
70.0
 21
11.85599999999999
 31
0.0
  0
LINE
  5
107
330
1E
100
AcDbEntity
  8
0
100
AcDbLine
 10
70.0
 20
11.85599999999999
 30
0.0
 11
70.0
 21
12.0
 31
0.0
  0
LINE
  5
108
330
1E
100
AcDbEntity
  8
0
100
AcDbLine
 10
70.0
 20
11.85599999999999
 30
0.0
 11
70.0
 21
11.472
 31
0.0
  0
LINE
  5
109
330
1E
100
AcDbEntity
  8
0
100
AcDbLine
 10
70.0
 20
12.5
 30
0.0
 11
70.0
 21
11.472
 31
0.0
  0
LINE
  5
10A
330
1E
100
AcDbEntity
  8
0
100
AcDbLine
 10
70.0
 20
11.472
 30
0.0
 11
70.0
 21
9.792000000000001
 31
0.0
  0
LINE
  5
10B
330
1E
100
AcDbEntity
  8
0
100
AcDbLine
 10
70.0
 20
11.472
 30
0.0
 11
70.0
 21
11.85599999999999
 31
0.0
  0
LINE
  5
10C
330
1E
100
AcDbEntity
  8
0
100
AcDbLine
 10
70.0
 20
11.472
 30
0.0
 11
70.0
 21
12.5
 31
0.0
  0
LINE
  5
10D
330
1E
100
AcDbEntity
  8
0
100
AcDbLine
 10
70.0
 20
11.472
 30
0.0
 11
70.0
 21
10.832
 31
0.0
  0
LINE
  5
10E
330
1E
100
AcDbEntity
  8
0
100
AcDbLine
 10
70.0
 20
11.472
 30
0.0
 11
70.0
 21
12.956
 31
0.0
  0
LINE
  5
10F
330
1E
100
AcDbEntity
  8
0
100
AcDbLine
 10
70.0
 20
9.792000000000001
 30
0.0
 11
70.0
 21
8.0
 31
0.0
  0
LINE
  5
110
330
1E
100
AcDbEntity
  8
0
100
AcDbLine
 10
70.0
 20
9.792000000000001
 30
0.0
 11
70.0
 21
11.472
 31
0.0
  0
LINE
  5
111
330
1E
100
AcDbEntity
  8
0
100
AcDbLine
 10
70.0
 20
8.0
 30
0.0
 11
70.0
 21
6.975999999999999
 31
0.0
  0
LINE
  5
112
330
1E
100
AcDbEntity
  8
0
100
AcDbLine
 10
70.0
 20
8.0
 30
0.0
 11
70.0
 21
6.208
 31
0.0
  0
LINE
  5
113
330
1E
100
AcDbEntity
  8
0
100
AcDbLine
 10
70.0
 20
8.0
 30
0.0
 11
70.0
 21
9.024
 31
0.0
  0
LINE
  5
114
330
1E
100
AcDbEntity
  8
0
100
AcDbLine
 10
70.0
 20
8.0
 30
0.0
 11
70.0
 21
9.792000000000001
 31
0.0
  0
LINE
  5
115
330
1E
100
AcDbEntity
  8
0
100
AcDbLine
 10
80.0
 20
1.92399999999999
 30
0.0
 11
80.0
 21
3.044
 31
0.0
  0
LINE
  5
116
330
1E
100
AcDbEntity
  8
0
100
AcDbLine
 10
80.0
 20
1.92399999999999
 30
0.0
 11
80.0
 21
1.252
 31
0.0
  0
LINE
  5
117
330
1E
100
AcDbEntity
  8
0
100
AcDbLine
 10
75.0
 20
1.0
 30
0.0
 11
80.0
 21
0.9999999999999911
 31
0.0
  0
LINE
  5
118
330
1E
100
AcDbEntity
  8
0
100
AcDbLine
 10
80.0
 20
0.9999999999999911
 30
0.0
 11
80.0
 21
1.252
 31
0.0
  0
LINE
  5
119
330
1E
100
AcDbEntity
  8
0
100
AcDbLine
 10
80.0
 20
1.252
 30
0.0
 11
80.0
 21
1.92399999999999
 31
0.0
  0
LINE
  5
11A
330
1E
100
AcDbEntity
  8
0
100
AcDbLine
 10
80.0
 20
1.252
 30
0.0
 11
80.0
 21
0.9999999999999911
 31
0.0
  0
LINE
  5
11C
330
1E
100
AcDbEntity
  8
0
100
AcDbLine
 10
80.0
 20
3.044
 30
0.0
 11
80.0
 21
1.92399999999999
 31
0.0
  0
LINE
  5
11D
330
1E
100
AcDbEntity
  8
0
100
AcDbLine
 10
80.0
 20
3.044
 30
0.0
 11
80.0
 21
4.527999999999998
 31
0.0
  0
LINE
  5
120
330
1E
100
AcDbEntity
  8
0
100
AcDbLine
 10
80.0
 20
4.527999999999998
 30
0.0
 11
80.0
 21
3.044
 31
0.0
  0
LINE
  5
121
330
1E
100
AcDbEntity
  8
0
100
AcDbLine
 10
80.0
 20
4.527999999999998
 30
0.0
 11
80.0
 21
6.208
 31
0.0
  0
LINE
  5
122
330
1E
100
AcDbEntity
  8
0
100
AcDbLine
 10
80.0
 20
6.208
 30
0.0
 11
80.0
 21
4.527999999999998
 31
0.0
  0
LINE
  5
123
330
1E
100
AcDbEntity
  8
0
100
AcDbLine
 10
80.0
 20
6.208
 30
0.0
 11
80.0
 21
8.0
 31
0.0
  0
LINE
  5
128
330
1E
100
AcDbEntity
  8
0
100
AcDbLine
 10
80.0
 20
8.0
 30
0.0
 11
80.0
 21
6.208
 31
0.0
  0
LINE
  5
129
330
1E
100
AcDbEntity
  8
0
100
AcDbLine
 10
80.0
 20
8.0
 30
0.0
 11
80.0
 21
31.5
 31
0.0
  0
LINE
  5
12A
330
1E
100
AcDbEntity
  8
0
100
AcDbLine
 10
70.0
 20
6.208
 30
0.0
 11
70.0
 21
8.0
 31
0.0
  0
LINE
  5
12B
330
1E
100
AcDbEntity
  8
0
100
AcDbLine
 10
70.0
 20
6.208
 30
0.0
 11
70.0
 21
4.527999999999998
 31
0.0
  0
LINE
  5
12C
330
1E
100
AcDbEntity
  8
0
100
AcDbLine
 10
70.0
 20
12.956
 30
0.0
 11
70.0
 21
14.076
 31
0.0
  0
LINE
  5
12D
330
1E
100
AcDbEntity
  8
0
100
AcDbLine
 10
70.0
 20
12.956
 30
0.0
 11
70.0
 21
11.472
 31
0.0
  0
LINE
  5
12E
330
1E
100
AcDbEntity
  8
0
100
AcDbLine
 10
70.0
 20
15.0
 30
0.0
 11
80.0
 21
15.0
 31
0.0
  0
LINE
  5
12F
330
1E
100
AcDbEntity
  8
0
100
AcDbLine
 10
70.0
 20
15.0
 30
0.0
 11
70.0
 21
14.748
 31
0.0
  0
LINE
  5
131
330
1E
100
AcDbEntity
  8
0
100
AcDbLine
 10
70.0
 20
14.748
 30
0.0
 11
70.0
 21
15.0
 31
0.0
  0
LINE
  5
132
330
1E
100
AcDbEntity
  8
0
100
AcDbLine
 10
70.0
 20
14.748
 30
0.0
 11
70.0
 21
14.076
 31
0.0
  0
LINE
  5
135
330
1E
100
AcDbEntity
  8
0
100
AcDbLine
 10
70.0
 20
14.076
 30
0.0
 11
70.0
 21
14.748
 31
0.0
  0
LINE
  5
136
330
1E
100
AcDbEntity
  8
0
100
AcDbLine
 10
70.0
 20
14.076
 30
0.0
 11
70.0
 21
12.956
 31
0.0
  0
LINE
  5
13B
330
1E
100
AcDbEntity
  8
0
100
AcDbLine
 10
67.352
 20
12.5
 30
0.0
 11
70.0
 21
12.5
 31
0.0
  0
LINE
  5
13C
330
1E
100
AcDbEntity
  8
0
100
AcDbLine
 10
69.89889999999999
 20
12.5
 30
0.0
 11
70.0
 21
12.5
 31
0.0
  0
LINE
  5
13D
330
1E
100
AcDbEntity
  8
0
100
AcDbLine
 10
66.56069999999999
 20
12.5
 30
0.0
 11
69.89889999999999
 21
12.5
 31
0.0
  0
LINE
  5
13E
330
1E
100
AcDbEntity
  8
0
100
AcDbLine
 10
71.43200000000001
 20
16.744
 30
0.0
 11
75.036
 21
19.464
 31
0.0
  0
LINE
  5
13F
330
1E
100
AcDbEntity
  8
0
100
AcDbLine
 10
67.352
 20
15.11199999999999
 30
0.0
 11
71.43200000000001
 21
16.744
 31
0.0
  0
LINE
  5
140
330
1E
100
AcDbEntity
  8
0
100
AcDbLine
 10
63.0
 20
14.5
 30
0.0
 11
67.352
 21
15.11199999999999
 31
0.0
  0
LINE
  5
142
330
1E
100
AcDbEntity
  8
0
100
AcDbLine
 10
66.56069999999999
 20
18.0916
 30
0.0
 11
69.89889999999999
 21
19.42689999999999
 31
0.0
  0
LINE
  5
143
330
1E
100
AcDbEntity
  8
0
100
AcDbLine
 10
63.0
 20
17.5909
 30
0.0
 11
66.56069999999999
 21
18.0916
 31
0.0
  0
LINE
  5
144
330
1E
100
AcDbEntity
  8
0
100
AcDbLine
 10
58.64799999999999
 20
15.11199999999999
 30
0.0
 11
63.0
 21
14.5
 31
0.0
  0
LINE
  5
145
330
1E
100
AcDbEntity
  8
0
100
AcDbLine
 10
69.89889999999999
 20
43.5731
 30
0.0
 11
72.8476
 21
41.34759999999999
 31
0.0
  0
LINE
  5
146
330
1E
100
AcDbEntity
  8
0
100
AcDbLine
 10
66.56069999999999
 20
44.9084
 30
0.0
 11
69.89889999999999
 21
43.5731
 31
0.0
  0
LINE
  5
148
330
1E
100
AcDbEntity
  8
0
100
AcDbLine
 10
75.036
 20
19.464
 30
0.0
 11
77.756
 21
23.068
 31
0.0
  0
LINE
  5
149
330
1E
100
AcDbEntity
  8
0
100
AcDbLine
 10
75.07310000000001
 20
38.3989
 30
0.0
 11
76.4084
 21
35.06069999999999
 31
0.0
  0
LINE
  5
14A
330
1E
100
AcDbEntity
  8
0
100
AcDbLine
 10
75.036
 20
43.536
 30
0.0
 11
77.756
 21
39.93199999999999
 31
0.0
  0
LINE
  5
14B
330
1E
100
AcDbEntity
  8
0
100
AcDbLine
 10
72.8476
 20
41.34759999999999
 30
0.0
 11
75.07310000000001
 21
38.3989
 31
0.0
  0
LINE
  5
14C
330
1E
100
AcDbEntity
  8
0
100
AcDbLine
 10
76.4084
 20
35.06069999999999
 30
0.0
 11
76.90909999999999
 21
31.5
 31
0.0
  0
LINE
  5
14D
330
1E
100
AcDbEntity
  8
0
100
AcDbLine
 10
80.0
 20
31.5
 30
0.0
 11
80.0
 21
8.0
 31
0.0
  0
LINE
  5
14E
330
1E
100
AcDbEntity
  8
0
100
AcDbLine
 10
79.94996513368301
 20
31.85580349380909
 30
0.0
 11
80.0
 21
31.8594
 31
0.0
  0
LINE
  5
14F
330
1E
100
AcDbEntity
  8
0
100
AcDbLine
 10
80.0
 20
27.5
 30
0.0
 11
80.26920000000002
 21
27.5
 31
0.0
  0
LINE
  5
151
330
1E
100
AcDbEntity
  8
0
100
AcDbLine
 10
80.0
 20
31.8594
 30
0.0
 11
80.0
 21
31.5
 31
0.0
  0
LINE
  5
157
330
1E
100
AcDbEntity
  8
0
100
AcDbLine
 10
82.0
 20
35.5882
 30
0.0
 11
82.0
 21
31.8382
 31
0.0
  0
LINE
  5
158
330
1E
100
AcDbEntity
  8
0
100
AcDbLine
 10
82.0
 20
35.5882
 30
0.0
 11
82.0
 21
40.58819999999999
 31
0.0
  0
LINE
  5
159
330
1E
100
AcDbEntity
  8
0
100
AcDbLine
 10
82.0
 20
31.8382
 30
0.0
 11
82.0
 21
35.5882
 31
0.0
  0
LINE
  5
15A
330
1E
100
AcDbEntity
  8
0
100
AcDbLine
 10
82.0
 20
31.8382
 30
0.0
 11
82.0
 21
29.4853
 31
0.0
  0
LINE
  5
15B
330
1E
100
AcDbEntity
  8
0
100
AcDbLine
 10
82.0
 20
29.4853
 30
0.0
 11
82.0
 21
31.8382
 31
0.0
  0
LINE
  5
15C
330
1E
100
AcDbEntity
  8
0
100
AcDbLine
 10
82.0
 20
29.4853
 30
0.0
 11
82.0
 21
28.60289999999999
 31
0.0
  0
LINE
  5
15D
330
1E
100
AcDbEntity
  8
0
100
AcDbLine
 10
82.0
 20
28.60289999999999
 30
0.0
 11
82.0
 21
29.4853
 31
0.0
  0
LINE
  5
15E
330
1E
100
AcDbEntity
  8
0
100
AcDbLine
 10
81.4231
 20
27.8676
 30
0.0
 11
82.0
 21
28.60289999999999
 31
0.0
  0
LINE
  5
15F
330
1E
100
AcDbEntity
  8
0
100
AcDbLine
 10
80.26920000000002
 20
27.5
 30
0.0
 11
81.4231
 21
27.8676
 31
0.0
  0
LINE
  5
161
330
1E
100
AcDbEntity
  8
0
100
AcDbLine
 10
82.0
 20
40.58819999999999
 30
0.0
 11
82.0
 21
46.3235
 31
0.0
  0
LINE
  5
162
330
1E
100
AcDbEntity
  8
0
100
AcDbLine
 10
82.0
 20
40.58819999999999
 30
0.0
 11
82.0
 21
35.5882
 31
0.0
  0
LINE
  5
165
330
1E
100
AcDbEntity
  8
0
100
AcDbLine
 10
79.388
 20
35.85199999999999
 30
0.0
 11
80.0
 21
31.5
 31
0.0
  0
LINE
  5
166
330
1E
100
AcDbEntity
  8
0
100
AcDbLine
 10
77.756
 20
39.93199999999999
 30
0.0
 11
79.388
 21
35.85199999999999
 31
0.0
  0
LINE
  5
167
330
1E
100
AcDbEntity
  8
0
100
AcDbLine
 10
79.388
 20
27.148
 30
0.0
 11
80.0
 21
31.5
 31
0.0
  0
LINE
  5
168
330
1E
100
AcDbEntity
  8
0
100
AcDbLine
 10
76.4084
 20
27.9393
 30
0.0
 11
76.90909999999999
 21
31.5
 31
0.0
  0
LINE
  5
169
330
1E
100
AcDbEntity
  8
0
100
AcDbLine
 10
77.756
 20
23.068
 30
0.0
 11
79.388
 21
27.148
 31
0.0
  0
LINE
  5
16A
330
1E
100
AcDbEntity
  8
0
100
AcDbLine
 10
75.07310000000001
 20
24.6011
 30
0.0
 11
76.4084
 21
27.9393
 31
0.0
  0
LINE
  5
16B
330
1E
100
AcDbEntity
  8
0
100
AcDbLine
 10
72.8476
 20
21.6524
 30
0.0
 11
75.07310000000001
 21
24.6011
 31
0.0
  0
LINE
  5
16C
330
1E
100
AcDbEntity
  8
0
100
AcDbLine
 10
69.89889999999999
 20
19.42689999999999
 30
0.0
 11
72.8476
 21
21.6524
 31
0.0
  0
LINE
  5
16D
330
1E
100
AcDbEntity
  8
0
100
AcDbLine
 10
59.4393
 20
18.0916
 30
0.0
 11
63.0
 21
17.5909
 31
0.0
  0
LINE
  5
16E
330
1E
100
AcDbEntity
  8
0
100
AcDbLine
 10
56.1011
 20
43.5731
 30
0.0
 11
59.4393
 21
44.9084
 31
0.0
  0
LINE
  5
16F
330
1E
100
AcDbEntity
  8
0
100
AcDbLine
 10
10.0
 20
47.8401
 30
0.0
 11
10.0
 21
59.54819999999999
 31
0.0
  0
LINE
  5
170
330
1E
100
AcDbEntity
  8
0
100
AcDbLine
 10
10.0
 20
47.8401
 30
0.0
 11
10.0
 21
33.34429999999999
 31
0.0
  0
LINE
  5
171
330
1E
100
AcDbEntity
  8
0
100
AcDbLine
 10
10.0
 20
67.1817
 30
0.0
 11
10.0
 21
59.54819999999999
 31
0.0
  0
LINE
  5
172
330
1E
100
AcDbEntity
  8
0
100
AcDbLine
 10
27.0
 20
47.8401
 30
0.0
 11
27.0
 21
33.34429999999999
 31
0.0
  0
LINE
  5
173
330
1E
100
AcDbEntity
  8
0
100
AcDbLine
 10
27.0
 20
47.8401
 30
0.0
 11
27.0
 21
59.54819999999999
 31
0.0
  0
LINE
  5
174
330
1E
100
AcDbEntity
  8
0
100
AcDbLine
 10
27.0
 20
59.54819999999999
 30
0.0
 11
27.0
 21
47.8401
 31
0.0
  0
LINE
  5
175
330
1E
100
AcDbEntity
  8
0
100
AcDbLine
 10
27.0
 20
59.54819999999999
 30
0.0
 11
27.0
 21
67.1817
 31
0.0
  0
LINE
  5
176
330
1E
100
AcDbEntity
  8
0
100
AcDbLine
 10
10.0
 20
72.9428
 30
0.0
 11
10.0
 21
67.1817
 31
0.0
  0
LINE
  5
177
330
1E
100
AcDbEntity
  8
0
100
AcDbLine
 10
27.0
 20
67.1817
 30
0.0
 11
27.0
 21
59.54819999999999
 31
0.0
  0
LINE
  5
178
330
1E
100
AcDbEntity
  8
0
100
AcDbLine
 10
27.0
 20
67.1817
 30
0.0
 11
27.0
 21
72.9428
 31
0.0
  0
LINE
  5
179
330
1E
100
AcDbEntity
  8
0
100
AcDbLine
 10
27.0
 20
72.9428
 30
0.0
 11
27.0
 21
67.1817
 31
0.0
  0
LINE
  5
17A
330
1E
100
AcDbEntity
  8
0
100
AcDbLine
 10
27.0
 20
72.9428
 30
0.0
 11
27.0
 21
78.3323
 31
0.0
  0
LINE
  5
17B
330
1E
100
AcDbEntity
  8
0
100
AcDbLine
 10
10.0
 20
78.3323
 30
0.0
 11
10.0
 21
72.9428
 31
0.0
  0
LINE
  5
17C
330
1E
100
AcDbEntity
  8
0
100
AcDbLine
 10
10.0
 20
83.954
 30
0.0
 11
10.0
 21
78.3323
 31
0.0
  0
LINE
  5
17D
330
1E
100
AcDbEntity
  8
0
100
AcDbLine
 10
27.0
 20
78.3323
 30
0.0
 11
27.0
 21
72.9428
 31
0.0
  0
LINE
  5
17E
330
1E
100
AcDbEntity
  8
0
100
AcDbLine
 10
27.0
 20
78.3323
 30
0.0
 11
27.0
 21
83.954
 31
0.0
  0
LINE
  5
17F
330
1E
100
AcDbEntity
  8
0
100
AcDbLine
 10
27.0
 20
83.954
 30
0.0
 11
27.0
 21
78.3323
 31
0.0
  0
LINE
  5
180
330
1E
100
AcDbEntity
  8
0
100
AcDbLine
 10
27.0
 20
83.954
 30
0.0
 11
27.0
 21
87.34569999999999
 31
0.0
  0
LINE
  5
181
330
1E
100
AcDbEntity
  8
0
100
AcDbLine
 10
10.0
 20
87.34569999999999
 30
0.0
 11
10.0
 21
83.954
 31
0.0
  0
LINE
  5
182
330
1E
100
AcDbEntity
  8
0
100
AcDbLine
 10
10.0
 20
90.31919999999999
 30
0.0
 11
10.0
 21
87.34569999999999
 31
0.0
  0
LINE
  5
183
330
1E
100
AcDbEntity
  8
0
100
AcDbLine
 10
27.0
 20
87.34569999999999
 30
0.0
 11
27.0
 21
83.954
 31
0.0
  0
LINE
  5
184
330
1E
100
AcDbEntity
  8
0
100
AcDbLine
 10
27.0
 20
87.34569999999999
 30
0.0
 11
27.0
 21
90.31919999999999
 31
0.0
  0
LINE
  5
185
330
1E
100
AcDbEntity
  8
0
100
AcDbLine
 10
27.0
 20
90.31919999999999
 30
0.0
 11
27.0
 21
87.34569999999999
 31
0.0
  0
LINE
  5
186
330
1E
100
AcDbEntity
  8
0
100
AcDbLine
 10
27.0
 20
90.31919999999999
 30
0.0
 11
27.0
 21
92.5028
 31
0.0
  0
LINE
  5
187
330
1E
100
AcDbEntity
  8
0
100
AcDbLine
 10
34.0
 20
84.0
 30
0.0
 11
42.27272727272699
 21
77.5
 31
0.0
  0
LINE
  5
188
330
1E
100
AcDbEntity
  8
0
100
AcDbLine
 10
34.0
 20
84.0
 30
0.0
 11
42.27272727272699
 21
77.5
 31
0.0
  0
LINE
  5
189
330
1E
100
AcDbEntity
  8
0
100
AcDbLine
 10
34.0
 20
84.0
 30
0.0
 11
34.0
 21
92.5
 31
0.0
  0
LINE
  5
18A
330
1E
100
AcDbEntity
  8
0
100
AcDbLine
 10
46.0
 20
92.5
 30
0.0
 11
46.0
 21
105.0
 31
0.0
  0
LINE
  5
18B
330
1E
100
AcDbEntity
  8
0
100
AcDbLine
 10
34.0
 20
92.5
 30
0.0
 11
34.0
 21
105.0
 31
0.0
  0
LINE
  5
18C
330
1E
100
AcDbEntity
  8
0
100
AcDbLine
 10
34.0
 20
92.5
 30
0.0
 11
46.612
 21
92.5
 31
0.0
  0
LINE
  5
18D
330
1E
100
AcDbEntity
  8
0
100
AcDbLine
 10
34.0
 20
92.5
 30
0.0
 11
34.0
 21
84.0
 31
0.0
  0
LINE
  5
18E
330
1E
100
AcDbEntity
  8
0
100
AcDbLine
 10
27.0
 20
77.5
 30
0.0
 11
42.27272727272699
 21
77.5
 31
0.0
  0
LINE
  5
18F
330
1E
100
AcDbEntity
  8
0
100
AcDbLine
 10
46.612
 20
92.5
 30
0.0
 11
48.244
 21
92.5
 31
0.0
  0
LINE
  5
190
330
1E
100
AcDbEntity
  8
0
100
AcDbLine
 10
48.244
 20
92.5
 30
0.0
 11
50.964
 21
92.5
 31
0.0
  0
LINE
  5
191
330
1E
100
AcDbEntity
  8
0
100
AcDbLine
 10
50.964
 20
92.5
 30
0.0
 11
54.568
 21
92.5
 31
0.0
  0
LINE
  5
192
330
1E
100
AcDbEntity
  8
0
100
AcDbLine
 10
10.0
 20
92.5028
 30
0.0
 11
10.0
 21
90.31919999999999
 31
0.0
  0
LINE
  5
193
330
1E
100
AcDbEntity
  8
0
100
AcDbLine
 10
10.0
 20
93.8502
 30
0.0
 11
10.0
 21
92.5028
 31
0.0
  0
LINE
  5
194
330
1E
100
AcDbEntity
  8
0
100
AcDbLine
 10
27.0
 20
92.5028
 30
0.0
 11
27.0
 21
90.31919999999999
 31
0.0
  0
LINE
  5
195
330
1E
100
AcDbEntity
  8
0
100
AcDbLine
 10
27.0
 20
92.5028
 30
0.0
 11
27.0
 21
93.8502
 31
0.0
  0
LINE
  5
196
330
1E
100
AcDbEntity
  8
0
100
AcDbLine
 10
10.0
 20
94.5471
 30
0.0
 11
10.0
 21
93.8502
 31
0.0
  0
LINE
  5
197
330
1E
100
AcDbEntity
  8
0
100
AcDbLine
 10
10.0
 20
94.9018
 30
0.0
 11
10.0
 21
94.5471
 31
0.0
  0
LINE
  5
198
330
1E
100
AcDbEntity
  8
0
100
AcDbLine
 10
27.0
 20
93.8502
 30
0.0
 11
27.0
 21
92.5028
 31
0.0
  0
LINE
  5
199
330
1E
100
AcDbEntity
  8
0
100
AcDbLine
 10
27.0
 20
93.8502
 30
0.0
 11
27.0
 21
94.5471
 31
0.0
  0
LINE
  5
19A
330
1E
100
AcDbEntity
  8
0
100
AcDbLine
 10
27.0
 20
94.5471
 30
0.0
 11
27.0
 21
93.8502
 31
0.0
  0
LINE
  5
19B
330
1E
100
AcDbEntity
  8
0
100
AcDbLine
 10
27.0
 20
94.5471
 30
0.0
 11
27.0
 21
94.9018
 31
0.0
  0
LINE
  5
19C
330
1E
100
AcDbEntity
  8
0
100
AcDbLine
 10
10.0
 20
95.0
 30
0.0
 11
10.0
 21
94.9018
 31
0.0
  0
LINE
  5
19D
330
1E
100
AcDbEntity
  8
0
100
AcDbLine
 10
27.0
 20
94.9018
 30
0.0
 11
27.0
 21
94.5471
 31
0.0
  0
LINE
  5
19E
330
1E
100
AcDbEntity
  8
0
100
AcDbLine
 10
27.0
 20
94.9018
 30
0.0
 11
27.0
 21
95.0
 31
0.0
  0
LINE
  5
19F
330
1E
100
AcDbEntity
  8
0
100
AcDbLine
 10
27.0
 20
95.0
 30
0.0
 11
27.0
 21
94.9018
 31
0.0
  0
LINE
  5
1A0
330
1E
100
AcDbEntity
  8
0
100
AcDbLine
 10
0.0
 20
95.0
 30
0.0
 11
27.0
 21
95.0
 31
0.0
  0
LINE
  5
1A1
330
1E
100
AcDbEntity
  8
0
100
AcDbLine
 10
46.0
 20
105.0
 30
0.0
 11
46.0
 21
92.5
 31
0.0
  0
LINE
  5
1A2
330
1E
100
AcDbEntity
  8
0
100
AcDbLine
 10
34.0
 20
105.0
 30
0.0
 11
34.0
 21
92.5
 31
0.0
  0
LINE
  5
1A3
330
1E
100
AcDbEntity
  8
0
100
AcDbLine
 10
34.0
 20
105.0
 30
0.0
 11
46.0
 21
105.0
 31
0.0
  0
LINE
  5
1A4
330
1E
100
AcDbEntity
  8
0
100
AcDbLine
 10
54.568
 20
92.5
 30
0.0
 11
58.64799999999999
 21
92.5
 31
0.0
  0
LINE
  5
1A5
330
1E
100
AcDbEntity
  8
0
100
AcDbLine
 10
58.64799999999999
 20
92.5
 30
0.0
 11
63.0
 21
92.5
 31
0.0
  0
LINE
  5
1A6
330
1E
100
AcDbEntity
  8
0
100
AcDbLine
 10
54.568
 20
46.256
 30
0.0
 11
58.64799999999999
 21
47.88800000000001
 31
0.0
  0
LINE
  5
1A7
330
1E
100
AcDbEntity
  8
0
100
AcDbLine
 10
63.0
 20
92.5
 30
0.0
 11
67.352
 21
92.5
 31
0.0
  0
LINE
  5
1A9
330
1E
100
AcDbEntity
  8
0
100
AcDbLine
 10
82.0
 20
46.3235
 30
0.0
 11
82.0
 21
52.5
 31
0.0
  0
LINE
  5
1AA
330
1E
100
AcDbEntity
  8
0
100
AcDbLine
 10
82.0
 20
46.3235
 30
0.0
 11
82.0
 21
40.58819999999999
 31
0.0
  0
LINE
  5
1AB
330
1E
100
AcDbEntity
  8
0
100
AcDbLine
 10
71.43200000000001
 20
46.256
 30
0.0
 11
75.036
 21
43.536
 31
0.0
  0
LINE
  5
1AC
330
1E
100
AcDbEntity
  8
0
100
AcDbLine
 10
70.0
 20
85.25200000000001
 30
0.0
 11
70.0
 21
85.92399999999999
 31
0.0
  0
LINE
  5
1AD
330
1E
100
AcDbEntity
  8
0
100
AcDbLine
 10
70.0
 20
85.25200000000001
 30
0.0
 11
70.0
 21
85.0
 31
0.0
  0
LINE
  5
1AE
330
1E
100
AcDbEntity
  8
0
100
AcDbLine
 10
70.0
 20
85.92399999999999
 30
0.0
 11
70.0
 21
87.04399999999999
 31
0.0
  0
LINE
  5
1AF
330
1E
100
AcDbEntity
  8
0
100
AcDbLine
 10
70.0
 20
85.92399999999999
 30
0.0
 11
70.0
 21
85.25200000000001
 31
0.0
  0
LINE
  5
1B0
330
1E
100
AcDbEntity
  8
0
100
AcDbLine
 10
70.0
 20
87.04399999999999
 30
0.0
 11
70.0
 21
88.528
 31
0.0
  0
LINE
  5
1B1
330
1E
100
AcDbEntity
  8
0
100
AcDbLine
 10
70.0
 20
87.04399999999999
 30
0.0
 11
70.0
 21
85.92399999999999
 31
0.0
  0
LINE
  5
1B2
330
1E
100
AcDbEntity
  8
0
100
AcDbLine
 10
70.0
 20
88.528
 30
0.0
 11
70.0
 21
90.20799999999999
 31
0.0
  0
LINE
  5
1B3
330
1E
100
AcDbEntity
  8
0
100
AcDbLine
 10
70.0
 20
88.528
 30
0.0
 11
70.0
 21
87.04399999999999
 31
0.0
  0
LINE
  5
1B4
330
1E
100
AcDbEntity
  8
0
100
AcDbLine
 10
70.0
 20
90.20799999999999
 30
0.0
 11
70.0
 21
92.0
 31
0.0
  0
LINE
  5
1B5
330
1E
100
AcDbEntity
  8
0
100
AcDbLine
 10
70.0
 20
90.20799999999999
 30
0.0
 11
70.0
 21
88.528
 31
0.0
  0
LINE
  5
1B6
330
1E
100
AcDbEntity
  8
0
100
AcDbLine
 10
70.0
 20
92.0
 30
0.0
 11
70.0
 21
92.14399999999999
 31
0.0
  0
LINE
  5
1B7
330
1E
100
AcDbEntity
  8
0
100
AcDbLine
 10
70.0
 20
92.0
 30
0.0
 11
70.0
 21
90.20799999999999
 31
0.0
  0
LINE
  5
1B8
330
1E
100
AcDbEntity
  8
0
100
AcDbLine
 10
70.0
 20
92.0
 30
0.0
 11
70.0
 21
96.0
 31
0.0
  0
LINE
  5
1B9
330
1E
100
AcDbEntity
  8
0
100
AcDbLine
 10
70.0
 20
92.14399999999999
 30
0.0
 11
70.0
 21
92.0
 31
0.0
  0
LINE
  5
1BA
330
1E
100
AcDbEntity
  8
0
100
AcDbLine
 10
70.0
 20
92.14399999999999
 30
0.0
 11
70.0
 21
92.52799999999998
 31
0.0
  0
LINE
  5
1BB
330
1E
100
AcDbEntity
  8
0
100
AcDbLine
 10
70.0
 20
85.0
 30
0.0
 11
75.0
 21
85.0
 31
0.0
  0
LINE
  5
1BC
330
1E
100
AcDbEntity
  8
0
100
AcDbLine
 10
70.0
 20
85.0
 30
0.0
 11
70.0
 21
92.5
 31
0.0
  0
LINE
  5
1BD
330
1E
100
AcDbEntity
  8
0
100
AcDbLine
 10
70.0
 20
85.0
 30
0.0
 11
70.0
 21
96.0
 31
0.0
  0
LINE
  5
1BE
330
1E
100
AcDbEntity
  8
0
100
AcDbLine
 10
70.0
 20
85.0
 30
0.0
 11
70.0
 21
85.25200000000001
 31
0.0
  0
LINE
  5
1BF
330
1E
100
AcDbEntity
  8
0
100
AcDbLine
 10
70.0
 20
92.5
 30
0.0
 11
70.0
 21
96.0
 31
0.0
  0
LINE
  5
1C0
330
1E
100
AcDbEntity
  8
0
100
AcDbLine
 10
70.0
 20
92.5
 30
0.0
 11
70.0
 21
85.0
 31
0.0
  0
LINE
  5
1C1
330
1E
100
AcDbEntity
  8
0
100
AcDbLine
 10
70.0
 20
92.52799999999998
 30
0.0
 11
70.0
 21
93.16799999999998
 31
0.0
  0
LINE
  5
1C2
330
1E
100
AcDbEntity
  8
0
100
AcDbLine
 10
70.0
 20
92.52799999999998
 30
0.0
 11
70.0
 21
92.14399999999999
 31
0.0
  0
LINE
  5
1C3
330
1E
100
AcDbEntity
  8
0
100
AcDbLine
 10
70.0
 20
93.16799999999998
 30
0.0
 11
70.0
 21
94.016
 31
0.0
  0
LINE
  5
1C4
330
1E
100
AcDbEntity
  8
0
100
AcDbLine
 10
70.0
 20
93.16799999999998
 30
0.0
 11
70.0
 21
92.52799999999998
 31
0.0
  0
LINE
  5
1C5
330
1E
100
AcDbEntity
  8
0
100
AcDbLine
 10
80.0
 20
65.0
 30
0.0
 11
80.0
 21
65.36
 31
0.0
  0
LINE
  5
1C6
330
1E
100
AcDbEntity
  8
0
100
AcDbLine
 10
75.0
 20
65.36
 30
0.0
 11
75.0
 21
65.0
 31
0.0
  0
LINE
  5
1C7
330
1E
100
AcDbEntity
  8
0
100
AcDbLine
 10
75.0
 20
65.36
 30
0.0
 11
75.0
 21
66.31999999999999
 31
0.0
  0
LINE
  5
1C8
330
1E
100
AcDbEntity
  8
0
100
AcDbLine
 10
75.0
 20
66.31999999999999
 30
0.0
 11
75.0
 21
65.36
 31
0.0
  0
LINE
  5
1C9
330
1E
100
AcDbEntity
  8
0
100
AcDbLine
 10
75.0
 20
66.31999999999999
 30
0.0
 11
75.0
 21
67.92
 31
0.0
  0
LINE
  5
1CA
330
1E
100
AcDbEntity
  8
0
100
AcDbLine
 10
74.0
 20
69.26470000000001
 30
0.0
 11
74.09620000000001
 21
69.0882
 31
0.0
  0
LINE
  5
1CB
330
1E
100
AcDbEntity
  8
0
100
AcDbLine
 10
74.0
 20
69.26470000000001
 30
0.0
 11
74.0
 21
70.0412
 31
0.0
  0
LINE
  5
1CC
330
1E
100
AcDbEntity
  8
0
100
AcDbLine
 10
74.0
 20
70.0412
 30
0.0
 11
74.0
 21
70.9412
 31
0.0
  0
LINE
  5
1CD
330
1E
100
AcDbEntity
  8
0
100
AcDbLine
 10
74.0
 20
70.0412
 30
0.0
 11
74.0
 21
69.26470000000001
 31
0.0
  0
LINE
  5
1CE
330
1E
100
AcDbEntity
  8
0
100
AcDbLine
 10
74.0
 20
72.1412
 30
0.0
 11
74.0
 21
73.5176
 31
0.0
  0
LINE
  5
1CF
330
1E
100
AcDbEntity
  8
0
100
AcDbLine
 10
74.0
 20
72.1412
 30
0.0
 11
74.0
 21
70.9412
 31
0.0
  0
LINE
  5
1D0
330
1E
100
AcDbEntity
  8
0
100
AcDbLine
 10
74.2885
 20
69.0
 30
0.0
 11
75.0
 21
69.0
 31
0.0
  0
LINE
  5
1D1
330
1E
100
AcDbEntity
  8
0
100
AcDbLine
 10
74.09620000000001
 20
69.29999999999999
 30
0.0
 11
74.09620000000001
 21
69.0882
 31
0.0
  0
LINE
  5
1D2
330
1E
100
AcDbEntity
  8
0
100
AcDbLine
 10
74.09620000000001
 20
69.29999999999999
 30
0.0
 11
74.09620000000001
 21
69.88240000000001
 31
0.0
  0
LINE
  5
1D3
330
1E
100
AcDbEntity
  8
0
100
AcDbLine
 10
74.09620000000001
 20
72.05289999999999
 30
0.0
 11
74.09620000000001
 21
70.8176
 31
0.0
  0
LINE
  5
1D4
330
1E
100
AcDbEntity
  8
0
100
AcDbLine
 10
74.09620000000001
 20
72.05289999999999
 30
0.0
 11
74.09620000000001
 21
73.4824
 31
0.0
  0
LINE
  5
1D5
330
1E
100
AcDbEntity
  8
0
100
AcDbLine
 10
74.09620000000001
 20
69.88240000000001
 30
0.0
 11
74.09620000000001
 21
69.29999999999999
 31
0.0
  0
LINE
  5
1D6
330
1E
100
AcDbEntity
  8
0
100
AcDbLine
 10
74.09620000000001
 20
69.88240000000001
 30
0.0
 11
74.09620000000001
 21
70.8176
 31
0.0
  0
LINE
  5
1D7
330
1E
100
AcDbEntity
  8
0
100
AcDbLine
 10
75.0
 20
69.21179999999999
 30
0.0
 11
75.0
 21
69.0
 31
0.0
  0
LINE
  5
1D8
330
1E
100
AcDbEntity
  8
0
100
AcDbLine
 10
75.0
 20
69.81180000000001
 30
0.0
 11
75.0
 21
69.21179999999999
 31
0.0
  0
LINE
  5
1D9
330
1E
100
AcDbEntity
  8
0
100
AcDbLine
 10
75.0
 20
72.0176
 30
0.0
 11
75.0
 21
70.7647
 31
0.0
  0
LINE
  5
1DA
330
1E
100
AcDbEntity
  8
0
100
AcDbLine
 10
75.0
 20
70.7647
 30
0.0
 11
75.0
 21
69.81180000000001
 31
0.0
  0
LINE
  5
1DB
330
1E
100
AcDbEntity
  8
0
100
AcDbLine
 10
74.09620000000001
 20
70.8176
 30
0.0
 11
74.09620000000001
 21
69.88240000000001
 31
0.0
  0
LINE
  5
1DC
330
1E
100
AcDbEntity
  8
0
100
AcDbLine
 10
74.09620000000001
 20
70.8176
 30
0.0
 11
74.09620000000001
 21
72.05289999999999
 31
0.0
  0
LINE
  5
1DD
330
1E
100
AcDbEntity
  8
0
100
AcDbLine
 10
74.09620000000001
 20
69.0882
 30
0.0
 11
74.2885
 21
69.0
 31
0.0
  0
LINE
  5
1DE
330
1E
100
AcDbEntity
  8
0
100
AcDbLine
 10
74.09620000000001
 20
69.0882
 30
0.0
 11
74.09620000000001
 21
69.29999999999999
 31
0.0
  0
LINE
  5
1DF
330
1E
100
AcDbEntity
  8
0
100
AcDbLine
 10
74.0
 20
70.9412
 30
0.0
 11
74.0
 21
72.1412
 31
0.0
  0
LINE
  5
1E0
330
1E
100
AcDbEntity
  8
0
100
AcDbLine
 10
74.0
 20
70.9412
 30
0.0
 11
74.0
 21
70.0412
 31
0.0
  0
LINE
  5
1E1
330
1E
100
AcDbEntity
  8
0
100
AcDbLine
 10
75.0
 20
67.92
 30
0.0
 11
75.0
 21
66.31999999999999
 31
0.0
  0
LINE
  5
1E2
330
1E
100
AcDbEntity
  8
0
100
AcDbLine
 10
75.0
 20
67.92
 30
0.0
 11
75.0
 21
70.04000000000001
 31
0.0
  0
LINE
  5
1E3
330
1E
100
AcDbEntity
  8
0
100
AcDbLine
 10
75.0
 20
70.04000000000001
 30
0.0
 11
75.0
 21
67.92
 31
0.0
  0
LINE
  5
1E4
330
1E
100
AcDbEntity
  8
0
100
AcDbLine
 10
75.0
 20
70.04000000000001
 30
0.0
 11
75.0
 21
72.43999999999999
 31
0.0
  0
LINE
  5
1E5
330
1E
100
AcDbEntity
  8
0
100
AcDbLine
 10
74.0
 20
73.5176
 30
0.0
 11
74.0
 21
75.0
 31
0.0
  0
LINE
  5
1E6
330
1E
100
AcDbEntity
  8
0
100
AcDbLine
 10
74.0
 20
73.5176
 30
0.0
 11
74.0
 21
72.1412
 31
0.0
  0
LINE
  5
1E7
330
1E
100
AcDbEntity
  8
0
100
AcDbLine
 10
74.0
 20
75.0
 30
0.0
 11
74.0
 21
76.4824
 31
0.0
  0
LINE
  5
1E8
330
1E
100
AcDbEntity
  8
0
100
AcDbLine
 10
74.0
 20
75.0
 30
0.0
 11
74.0
 21
73.5176
 31
0.0
  0
LINE
  5
1E9
330
1E
100
AcDbEntity
  8
0
100
AcDbLine
 10
74.0
 20
79.95879999999999
 30
0.0
 11
74.0
 21
80.5235
 31
0.0
  0
LINE
  5
1EA
330
1E
100
AcDbEntity
  8
0
100
AcDbLine
 10
74.0
 20
79.95879999999999
 30
0.0
 11
74.0
 21
79.0588
 31
0.0
  0
LINE
  5
1EB
330
1E
100
AcDbEntity
  8
0
100
AcDbLine
 10
74.0
 20
79.0588
 30
0.0
 11
74.0
 21
77.8588
 31
0.0
  0
LINE
  5
1EC
330
1E
100
AcDbEntity
  8
0
100
AcDbLine
 10
74.0
 20
79.0588
 30
0.0
 11
74.0
 21
79.95879999999999
 31
0.0
  0
LINE
  5
1ED
330
1E
100
AcDbEntity
  8
0
100
AcDbLine
 10
74.0
 20
76.4824
 30
0.0
 11
74.0
 21
77.8588
 31
0.0
  0
LINE
  5
1EE
330
1E
100
AcDbEntity
  8
0
100
AcDbLine
 10
74.0
 20
76.4824
 30
0.0
 11
74.0
 21
75.0
 31
0.0
  0
LINE
  5
1EF
330
1E
100
AcDbEntity
  8
0
100
AcDbLine
 10
74.09620000000001
 20
73.4824
 30
0.0
 11
74.09620000000001
 21
72.05289999999999
 31
0.0
  0
LINE
  5
1F0
330
1E
100
AcDbEntity
  8
0
100
AcDbLine
 10
74.09620000000001
 20
73.4824
 30
0.0
 11
74.09620000000001
 21
75.0
 31
0.0
  0
LINE
  5
1F1
330
1E
100
AcDbEntity
  8
0
100
AcDbLine
 10
74.09620000000001
 20
75.0
 30
0.0
 11
74.09620000000001
 21
76.5176
 31
0.0
  0
LINE
  5
1F2
330
1E
100
AcDbEntity
  8
0
100
AcDbLine
 10
74.09620000000001
 20
75.0
 30
0.0
 11
74.09620000000001
 21
73.4824
 31
0.0
  0
LINE
  5
1F3
330
1E
100
AcDbEntity
  8
0
100
AcDbLine
 10
74.09620000000001
 20
76.5176
 30
0.0
 11
74.09620000000001
 21
75.0
 31
0.0
  0
LINE
  5
1F4
330
1E
100
AcDbEntity
  8
0
100
AcDbLine
 10
74.09620000000001
 20
76.5176
 30
0.0
 11
74.09620000000001
 21
77.94710000000001
 31
0.0
  0
LINE
  5
1F5
330
1E
100
AcDbEntity
  8
0
100
AcDbLine
 10
75.0
 20
73.4647
 30
0.0
 11
75.0
 21
72.0176
 31
0.0
  0
LINE
  5
1F6
330
1E
100
AcDbEntity
  8
0
100
AcDbLine
 10
75.0
 20
76.5353
 30
0.0
 11
75.0
 21
75.0
 31
0.0
  0
LINE
  5
1F7
330
1E
100
AcDbEntity
  8
0
100
AcDbLine
 10
75.0
 20
77.98239999999999
 30
0.0
 11
75.0
 21
76.5353
 31
0.0
  0
LINE
  5
1F8
330
1E
100
AcDbEntity
  8
0
100
AcDbLine
 10
74.09620000000001
 20
77.94710000000001
 30
0.0
 11
74.09620000000001
 21
76.5176
 31
0.0
  0
LINE
  5
1F9
330
1E
100
AcDbEntity
  8
0
100
AcDbLine
 10
74.09620000000001
 20
77.94710000000001
 30
0.0
 11
74.09620000000001
 21
79.1824
 31
0.0
  0
LINE
  5
1FA
330
1E
100
AcDbEntity
  8
0
100
AcDbLine
 10
75.0
 20
79.23529999999999
 30
0.0
 11
75.0
 21
77.98239999999999
 31
0.0
  0
LINE
  5
1FB
330
1E
100
AcDbEntity
  8
0
100
AcDbLine
 10
74.09620000000001
 20
79.1824
 30
0.0
 11
74.09620000000001
 21
77.94710000000001
 31
0.0
  0
LINE
  5
1FC
330
1E
100
AcDbEntity
  8
0
100
AcDbLine
 10
74.09620000000001
 20
79.1824
 30
0.0
 11
74.09620000000001
 21
80.1176
 31
0.0
  0
LINE
  5
1FD
330
1E
100
AcDbEntity
  8
0
100
AcDbLine
 10
74.0
 20
77.8588
 30
0.0
 11
74.0
 21
79.0588
 31
0.0
  0
LINE
  5
1FE
330
1E
100
AcDbEntity
  8
0
100
AcDbLine
 10
74.0
 20
77.8588
 30
0.0
 11
74.0
 21
76.4824
 31
0.0
  0
LINE
  5
1FF
330
1E
100
AcDbEntity
  8
0
100
AcDbLine
 10
75.0
 20
72.43999999999999
 30
0.0
 11
75.0
 21
70.04000000000001
 31
0.0
  0
LINE
  5
200
330
1E
100
AcDbEntity
  8
0
100
AcDbLine
 10
75.0
 20
72.43999999999999
 30
0.0
 11
75.0
 21
75.0
 31
0.0
  0
LINE
  5
201
330
1E
100
AcDbEntity
  8
0
100
AcDbLine
 10
75.0
 20
75.0
 30
0.0
 11
75.0
 21
77.56
 31
0.0
  0
LINE
  5
202
330
1E
100
AcDbEntity
  8
0
100
AcDbLine
 10
75.0
 20
75.0
 30
0.0
 11
75.0
 21
72.43999999999999
 31
0.0
  0
LINE
  5
203
330
1E
100
AcDbEntity
  8
0
100
AcDbLine
 10
75.0
 20
75.0
 30
0.0
 11
75.0
 21
73.4647
 31
0.0
  0
LINE
  5
204
330
1E
100
AcDbEntity
  8
0
100
AcDbLine
 10
74.0
 20
80.73529999999999
 30
0.0
 11
74.09620000000001
 21
80.91179999999999
 31
0.0
  0
LINE
  5
205
330
1E
100
AcDbEntity
  8
0
100
AcDbLine
 10
74.0
 20
80.73529999999999
 30
0.0
 11
74.0
 21
80.5235
 31
0.0
  0
LINE
  5
206
330
1E
100
AcDbEntity
  8
0
100
AcDbLine
 10
74.09620000000001
 20
80.91179999999999
 30
0.0
 11
74.09620000000001
 21
80.7
 31
0.0
  0
LINE
  5
207
330
1E
100
AcDbEntity
  8
0
100
AcDbLine
 10
74.09620000000001
 20
80.91179999999999
 30
0.0
 11
74.2885
 21
81.0
 31
0.0
  0
LINE
  5
208
330
1E
100
AcDbEntity
  8
0
100
AcDbLine
 10
74.2885
 20
81.0
 30
0.0
 11
75.0
 21
81.0
 31
0.0
  0
LINE
  5
209
330
1E
100
AcDbEntity
  8
0
100
AcDbLine
 10
75.0
 20
81.0
 30
0.0
 11
75.0
 21
80.7882
 31
0.0
  0
LINE
  5
20A
330
1E
100
AcDbEntity
  8
0
100
AcDbLine
 10
75.0
 20
80.7882
 30
0.0
 11
75.0
 21
80.18819999999999
 31
0.0
  0
LINE
  5
20B
330
1E
100
AcDbEntity
  8
0
100
AcDbLine
 10
75.0
 20
80.18819999999999
 30
0.0
 11
75.0
 21
79.23529999999999
 31
0.0
  0
LINE
  5
20C
330
1E
100
AcDbEntity
  8
0
100
AcDbLine
 10
74.09620000000001
 20
80.7
 30
0.0
 11
74.09620000000001
 21
80.1176
 31
0.0
  0
LINE
  5
20D
330
1E
100
AcDbEntity
  8
0
100
AcDbLine
 10
74.09620000000001
 20
80.7
 30
0.0
 11
74.09620000000001
 21
80.91179999999999
 31
0.0
  0
LINE
  5
20E
330
1E
100
AcDbEntity
  8
0
100
AcDbLine
 10
74.09620000000001
 20
80.1176
 30
0.0
 11
74.09620000000001
 21
79.1824
 31
0.0
  0
LINE
  5
20F
330
1E
100
AcDbEntity
  8
0
100
AcDbLine
 10
74.09620000000001
 20
80.1176
 30
0.0
 11
74.09620000000001
 21
80.7
 31
0.0
  0
LINE
  5
210
330
1E
100
AcDbEntity
  8
0
100
AcDbLine
 10
74.0
 20
80.5235
 30
0.0
 11
74.0
 21
79.95879999999999
 31
0.0
  0
LINE
  5
211
330
1E
100
AcDbEntity
  8
0
100
AcDbLine
 10
74.0
 20
80.5235
 30
0.0
 11
74.0
 21
80.73529999999999
 31
0.0
  0
LINE
  5
212
330
1E
100
AcDbEntity
  8
0
100
AcDbLine
 10
75.0
 20
84.64
 30
0.0
 11
75.0
 21
83.68
 31
0.0
  0
LINE
  5
213
330
1E
100
AcDbEntity
  8
0
100
AcDbLine
 10
75.0
 20
84.64
 30
0.0
 11
75.0
 21
85.0
 31
0.0
  0
LINE
  5
214
330
1E
100
AcDbEntity
  8
0
100
AcDbLine
 10
75.0
 20
83.68
 30
0.0
 11
75.0
 21
82.08
 31
0.0
  0
LINE
  5
215
330
1E
100
AcDbEntity
  8
0
100
AcDbLine
 10
75.0
 20
83.68
 30
0.0
 11
75.0
 21
84.64
 31
0.0
  0
LINE
  5
216
330
1E
100
AcDbEntity
  8
0
100
AcDbLine
 10
75.0
 20
82.08
 30
0.0
 11
75.0
 21
79.95999999999999
 31
0.0
  0
LINE
  5
217
330
1E
100
AcDbEntity
  8
0
100
AcDbLine
 10
75.0
 20
82.08
 30
0.0
 11
75.0
 21
83.68
 31
0.0
  0
LINE
  5
218
330
1E
100
AcDbEntity
  8
0
100
AcDbLine
 10
75.0
 20
79.95999999999999
 30
0.0
 11
75.0
 21
77.56
 31
0.0
  0
LINE
  5
219
330
1E
100
AcDbEntity
  8
0
100
AcDbLine
 10
75.0
 20
79.95999999999999
 30
0.0
 11
75.0
 21
82.08
 31
0.0
  0
LINE
  5
21A
330
1E
100
AcDbEntity
  8
0
100
AcDbLine
 10
75.0
 20
77.56
 30
0.0
 11
75.0
 21
75.0
 31
0.0
  0
LINE
  5
21B
330
1E
100
AcDbEntity
  8
0
100
AcDbLine
 10
75.0
 20
77.56
 30
0.0
 11
75.0
 21
79.95999999999999
 31
0.0
  0
LINE
  5
228
330
1E
100
AcDbEntity
  8
0
100
AcDbLine
 10
71.43200000000001
 20
85.0
 30
0.0
 11
75.0
 21
85.0
 31
0.0
  0
LINE
  5
229
330
1E
100
AcDbEntity
  8
0
100
AcDbLine
 10
80.0
 20
65.36
 30
0.0
 11
80.0
 21
65.0
 31
0.0
  0
LINE
  5
22A
330
1E
100
AcDbEntity
  8
0
100
AcDbLine
 10
80.0
 20
65.36
 30
0.0
 11
80.0
 21
66.31999999999999
 31
0.0
  0
LINE
  5
22B
330
1E
100
AcDbEntity
  8
0
100
AcDbLine
 10
80.0
 20
66.31999999999999
 30
0.0
 11
80.0
 21
65.36
 31
0.0
  0
LINE
  5
22C
330
1E
100
AcDbEntity
  8
0
100
AcDbLine
 10
80.0
 20
66.31999999999999
 30
0.0
 11
80.0
 21
67.92
 31
0.0
  0
LINE
  5
22D
330
1E
100
AcDbEntity
  8
0
100
AcDbLine
 10
80.0
 20
69.0
 30
0.0
 11
80.71150000000001
 21
69.0
 31
0.0
  0
LINE
  5
22E
330
1E
100
AcDbEntity
  8
0
100
AcDbLine
 10
80.0
 20
67.92
 30
0.0
 11
80.0
 21
66.31999999999999
 31
0.0
  0
LINE
  5
22F
330
1E
100
AcDbEntity
  8
0
100
AcDbLine
 10
80.0
 20
67.92
 30
0.0
 11
80.0
 21
70.04000000000001
 31
0.0
  0
LINE
  5
230
330
1E
100
AcDbEntity
  8
0
100
AcDbLine
 10
80.0
 20
70.04000000000001
 30
0.0
 11
80.0
 21
67.92
 31
0.0
  0
LINE
  5
231
330
1E
100
AcDbEntity
  8
0
100
AcDbLine
 10
80.0
 20
70.04000000000001
 30
0.0
 11
80.0
 21
72.43999999999999
 31
0.0
  0
LINE
  5
232
330
1E
100
AcDbEntity
  8
0
100
AcDbLine
 10
80.0
 20
72.43999999999999
 30
0.0
 11
80.0
 21
70.04000000000001
 31
0.0
  0
LINE
  5
233
330
1E
100
AcDbEntity
  8
0
100
AcDbLine
 10
80.0
 20
72.43999999999999
 30
0.0
 11
80.0
 21
75.0
 31
0.0
  0
LINE
  5
234
330
1E
100
AcDbEntity
  8
0
100
AcDbLine
 10
80.0
 20
75.0
 30
0.0
 11
80.0
 21
77.56
 31
0.0
  0
LINE
  5
235
330
1E
100
AcDbEntity
  8
0
100
AcDbLine
 10
80.0
 20
75.0
 30
0.0
 11
80.0
 21
72.43999999999999
 31
0.0
  0
LINE
  5
236
330
1E
100
AcDbEntity
  8
0
100
AcDbLine
 10
80.0
 20
81.0
 30
0.0
 11
80.71150000000001
 21
81.0
 31
0.0
  0
LINE
  5
237
330
1E
100
AcDbEntity
  8
0
100
AcDbLine
 10
80.0
 20
84.64
 30
0.0
 11
80.0
 21
83.68
 31
0.0
  0
LINE
  5
238
330
1E
100
AcDbEntity
  8
0
100
AcDbLine
 10
80.0
 20
84.64
 30
0.0
 11
80.0
 21
85.0
 31
0.0
  0
LINE
  5
239
330
1E
100
AcDbEntity
  8
0
100
AcDbLine
 10
80.0
 20
83.68
 30
0.0
 11
80.0
 21
82.08
 31
0.0
  0
LINE
  5
23A
330
1E
100
AcDbEntity
  8
0
100
AcDbLine
 10
80.0
 20
83.68
 30
0.0
 11
80.0
 21
84.64
 31
0.0
  0
LINE
  5
23B
330
1E
100
AcDbEntity
  8
0
100
AcDbLine
 10
80.0
 20
82.08
 30
0.0
 11
80.0
 21
79.95999999999999
 31
0.0
  0
LINE
  5
23C
330
1E
100
AcDbEntity
  8
0
100
AcDbLine
 10
80.0
 20
82.08
 30
0.0
 11
80.0
 21
83.68
 31
0.0
  0
LINE
  5
23D
330
1E
100
AcDbEntity
  8
0
100
AcDbLine
 10
80.0
 20
79.95999999999999
 30
0.0
 11
80.0
 21
77.56
 31
0.0
  0
LINE
  5
23E
330
1E
100
AcDbEntity
  8
0
100
AcDbLine
 10
80.0
 20
79.95999999999999
 30
0.0
 11
80.0
 21
82.08
 31
0.0
  0
LINE
  5
23F
330
1E
100
AcDbEntity
  8
0
100
AcDbLine
 10
80.71150000000001
 20
69.0
 30
0.0
 11
80.90379999999999
 21
69.0882
 31
0.0
  0
LINE
  5
240
330
1E
100
AcDbEntity
  8
0
100
AcDbLine
 10
80.90379999999999
 20
69.29999999999999
 30
0.0
 11
80.90379999999999
 21
69.0882
 31
0.0
  0
LINE
  5
241
330
1E
100
AcDbEntity
  8
0
100
AcDbLine
 10
80.90379999999999
 20
69.29999999999999
 30
0.0
 11
80.90379999999999
 21
69.88240000000001
 31
0.0
  0
LINE
  5
242
330
1E
100
AcDbEntity
  8
0
100
AcDbLine
 10
80.90379999999999
 20
73.4824
 30
0.0
 11
80.90379999999999
 21
72.05289999999999
 31
0.0
  0
LINE
  5
243
330
1E
100
AcDbEntity
  8
0
100
AcDbLine
 10
80.90379999999999
 20
73.4824
 30
0.0
 11
80.90379999999999
 21
75.0
 31
0.0
  0
LINE
  5
244
330
1E
100
AcDbEntity
  8
0
100
AcDbLine
 10
80.90379999999999
 20
72.05289999999999
 30
0.0
 11
80.90379999999999
 21
70.8176
 31
0.0
  0
LINE
  5
245
330
1E
100
AcDbEntity
  8
0
100
AcDbLine
 10
80.90379999999999
 20
72.05289999999999
 30
0.0
 11
80.90379999999999
 21
73.4824
 31
0.0
  0
LINE
  5
246
330
1E
100
AcDbEntity
  8
0
100
AcDbLine
 10
80.90379999999999
 20
69.88240000000001
 30
0.0
 11
80.90379999999999
 21
69.29999999999999
 31
0.0
  0
LINE
  5
247
330
1E
100
AcDbEntity
  8
0
100
AcDbLine
 10
80.90379999999999
 20
69.88240000000001
 30
0.0
 11
80.90379999999999
 21
70.8176
 31
0.0
  0
LINE
  5
248
330
1E
100
AcDbEntity
  8
0
100
AcDbLine
 10
80.90379999999999
 20
70.8176
 30
0.0
 11
80.90379999999999
 21
69.88240000000001
 31
0.0
  0
LINE
  5
249
330
1E
100
AcDbEntity
  8
0
100
AcDbLine
 10
80.90379999999999
 20
70.8176
 30
0.0
 11
80.90379999999999
 21
72.05289999999999
 31
0.0
  0
LINE
  5
24A
330
1E
100
AcDbEntity
  8
0
100
AcDbLine
 10
80.90379999999999
 20
69.0882
 30
0.0
 11
81.0
 21
69.26470000000001
 31
0.0
  0
LINE
  5
24B
330
1E
100
AcDbEntity
  8
0
100
AcDbLine
 10
80.90379999999999
 20
69.0882
 30
0.0
 11
80.90379999999999
 21
69.29999999999999
 31
0.0
  0
LINE
  5
24C
330
1E
100
AcDbEntity
  8
0
100
AcDbLine
 10
81.0
 20
69.26470000000001
 30
0.0
 11
81.0
 21
69.4765
 31
0.0
  0
LINE
  5
24D
330
1E
100
AcDbEntity
  8
0
100
AcDbLine
 10
81.0
 20
69.4765
 30
0.0
 11
81.0
 21
69.26470000000001
 31
0.0
  0
LINE
  5
24E
330
1E
100
AcDbEntity
  8
0
100
AcDbLine
 10
81.0
 20
69.4765
 30
0.0
 11
81.0
 21
70.0412
 31
0.0
  0
LINE
  5
24F
330
1E
100
AcDbEntity
  8
0
100
AcDbLine
 10
81.0
 20
70.0412
 30
0.0
 11
81.0
 21
72.1412
 31
0.0
  0
LINE
  5
250
330
1E
100
AcDbEntity
  8
0
100
AcDbLine
 10
81.0
 20
73.5176
 30
0.0
 11
81.0
 21
72.1412
 31
0.0
  0
LINE
  5
251
330
1E
100
AcDbEntity
  8
0
100
AcDbLine
 10
81.0
 20
73.5176
 30
0.0
 11
81.0
 21
75.0
 31
0.0
  0
LINE
  5
252
330
1E
100
AcDbEntity
  8
0
100
AcDbLine
 10
81.0
 20
72.1412
 30
0.0
 11
81.0
 21
70.0412
 31
0.0
  0
LINE
  5
253
330
1E
100
AcDbEntity
  8
0
100
AcDbLine
 10
81.0
 20
72.1412
 30
0.0
 11
81.0
 21
73.5176
 31
0.0
  0
LINE
  5
254
330
1E
100
AcDbEntity
  8
0
100
AcDbLine
 10
81.0
 20
70.0412
 30
0.0
 11
81.0
 21
69.4765
 31
0.0
  0
LINE
  5
255
330
1E
100
AcDbEntity
  8
0
100
AcDbLine
 10
80.90379999999999
 20
75.0
 30
0.0
 11
80.90379999999999
 21
76.5176
 31
0.0
  0
LINE
  5
256
330
1E
100
AcDbEntity
  8
0
100
AcDbLine
 10
80.90379999999999
 20
75.0
 30
0.0
 11
80.90379999999999
 21
73.4824
 31
0.0
  0
LINE
  5
257
330
1E
100
AcDbEntity
  8
0
100
AcDbLine
 10
80.90379999999999
 20
76.5176
 30
0.0
 11
80.90379999999999
 21
75.0
 31
0.0
  0
LINE
  5
258
330
1E
100
AcDbEntity
  8
0
100
AcDbLine
 10
80.90379999999999
 20
76.5176
 30
0.0
 11
80.90379999999999
 21
77.94710000000001
 31
0.0
  0
LINE
  5
259
330
1E
100
AcDbEntity
  8
0
100
AcDbLine
 10
81.0
 20
75.0
 30
0.0
 11
81.0
 21
76.4824
 31
0.0
  0
LINE
  5
25A
330
1E
100
AcDbEntity
  8
0
100
AcDbLine
 10
81.0
 20
75.0
 30
0.0
 11
81.0
 21
73.5176
 31
0.0
  0
LINE
  5
25B
330
1E
100
AcDbEntity
  8
0
100
AcDbLine
 10
81.0
 20
76.4824
 30
0.0
 11
81.0
 21
75.0
 31
0.0
  0
LINE
  5
25C
330
1E
100
AcDbEntity
  8
0
100
AcDbLine
 10
81.0
 20
76.4824
 30
0.0
 11
81.0
 21
80.5235
 31
0.0
  0
LINE
  5
25D
330
1E
100
AcDbEntity
  8
0
100
AcDbLine
 10
80.71150000000001
 20
81.0
 30
0.0
 11
80.90379999999999
 21
80.91179999999999
 31
0.0
  0
LINE
  5
25E
330
1E
100
AcDbEntity
  8
0
100
AcDbLine
 10
80.90379999999999
 20
80.91179999999999
 30
0.0
 11
80.90379999999999
 21
80.7
 31
0.0
  0
LINE
  5
25F
330
1E
100
AcDbEntity
  8
0
100
AcDbLine
 10
80.90379999999999
 20
80.91179999999999
 30
0.0
 11
81.0
 21
80.73529999999999
 31
0.0
  0
LINE
  5
260
330
1E
100
AcDbEntity
  8
0
100
AcDbLine
 10
80.90379999999999
 20
80.7
 30
0.0
 11
80.90379999999999
 21
80.1176
 31
0.0
  0
LINE
  5
261
330
1E
100
AcDbEntity
  8
0
100
AcDbLine
 10
80.90379999999999
 20
80.7
 30
0.0
 11
80.90379999999999
 21
80.91179999999999
 31
0.0
  0
LINE
  5
262
330
1E
100
AcDbEntity
  8
0
100
AcDbLine
 10
80.90379999999999
 20
80.1176
 30
0.0
 11
80.90379999999999
 21
79.1824
 31
0.0
  0
LINE
  5
263
330
1E
100
AcDbEntity
  8
0
100
AcDbLine
 10
80.90379999999999
 20
80.1176
 30
0.0
 11
80.90379999999999
 21
80.7
 31
0.0
  0
LINE
  5
264
330
1E
100
AcDbEntity
  8
0
100
AcDbLine
 10
80.90379999999999
 20
77.94710000000001
 30
0.0
 11
80.90379999999999
 21
76.5176
 31
0.0
  0
LINE
  5
265
330
1E
100
AcDbEntity
  8
0
100
AcDbLine
 10
80.90379999999999
 20
77.94710000000001
 30
0.0
 11
80.90379999999999
 21
79.1824
 31
0.0
  0
LINE
  5
267
330
1E
100
AcDbEntity
  8
0
100
AcDbLine
 10
81.0
 20
80.5235
 30
0.0
 11
81.0
 21
80.73529999999999
 31
0.0
  0
LINE
  5
268
330
1E
100
AcDbEntity
  8
0
100
AcDbLine
 10
81.0
 20
80.73529999999999
 30
0.0
 11
81.0
 21
80.5235
 31
0.0
  0
LINE
  5
26A
330
1E
100
AcDbEntity
  8
0
100
AcDbLine
 10
80.90379999999999
 20
79.1824
 30
0.0
 11
80.90379999999999
 21
77.94710000000001
 31
0.0
  0
LINE
  5
26B
330
1E
100
AcDbEntity
  8
0
100
AcDbLine
 10
80.90379999999999
 20
79.1824
 30
0.0
 11
80.90379999999999
 21
80.1176
 31
0.0
  0
LINE
  5
26C
330
1E
100
AcDbEntity
  8
0
100
AcDbLine
 10
81.0
 20
80.5235
 30
0.0
 11
81.0
 21
76.4824
 31
0.0
  0
LINE
  5
26D
330
1E
100
AcDbEntity
  8
0
100
AcDbLine
 10
80.0
 20
77.56
 30
0.0
 11
80.0
 21
75.0
 31
0.0
  0
LINE
  5
26E
330
1E
100
AcDbEntity
  8
0
100
AcDbLine
 10
80.0
 20
77.56
 30
0.0
 11
80.0
 21
79.95999999999999
 31
0.0
  0
LINE
  5
26F
330
1E
100
AcDbEntity
  8
0
100
AcDbLine
 10
80.0
 20
85.0
 30
0.0
 11
80.0
 21
96.0
 31
0.0
  0
LINE
  5
270
330
1E
100
AcDbEntity
  8
0
100
AcDbLine
 10
80.0
 20
85.0
 30
0.0
 11
80.0
 21
84.64
 31
0.0
  0
LINE
  5
271
330
1E
100
AcDbEntity
  8
0
100
AcDbLine
 10
75.0
 20
85.0
 30
0.0
 11
80.0
 21
85.0
 31
0.0
  0
LINE
  5
274
330
1E
100
AcDbEntity
  8
0
100
AcDbLine
 10
75.0
 20
85.0
 30
0.0
 11
75.0
 21
84.64
 31
0.0
  0
LINE
  5
275
330
1E
100
AcDbEntity
  8
0
100
AcDbLine
 10
75.0
 20
65.0
 30
0.0
 11
80.0
 21
65.0
 31
0.0
  0
LINE
  5
276
330
1E
100
AcDbEntity
  8
0
100
AcDbLine
 10
75.0
 20
65.0
 30
0.0
 11
75.0
 21
65.36
 31
0.0
  0
LINE
  5
277
330
1E
100
AcDbEntity
  8
0
100
AcDbLine
 10
70.0
 20
94.016
 30
0.0
 11
70.0
 21
94.976
 31
0.0
  0
LINE
  5
278
330
1E
100
AcDbEntity
  8
0
100
AcDbLine
 10
70.0
 20
94.016
 30
0.0
 11
70.0
 21
93.16799999999998
 31
0.0
  0
LINE
  5
279
330
1E
100
AcDbEntity
  8
0
100
AcDbLine
 10
70.0
 20
103.0
 30
0.0
 11
70.0
 21
102.7479999999999
 31
0.0
  0
LINE
  5
27A
330
1E
100
AcDbEntity
  8
0
100
AcDbLine
 10
70.0
 20
103.0
 30
0.0
 11
75.0
 21
103.0
 31
0.0
  0
LINE
  5
27B
330
1E
100
AcDbEntity
  8
0
100
AcDbLine
 10
70.0
 20
102.7479999999999
 30
0.0
 11
70.0
 21
103.0
 31
0.0
  0
LINE
  5
27C
330
1E
100
AcDbEntity
  8
0
100
AcDbLine
 10
70.0
 20
102.7479999999999
 30
0.0
 11
70.0
 21
102.076
 31
0.0
  0
LINE
  5
27D
330
1E
100
AcDbEntity
  8
0
100
AcDbLine
 10
70.0
 20
100.0
 30
0.0
 11
70.0
 21
99.85600000000001
 31
0.0
  0
LINE
  5
27E
330
1E
100
AcDbEntity
  8
0
100
AcDbLine
 10
70.0
 20
102.076
 30
0.0
 11
70.0
 21
102.7479999999999
 31
0.0
  0
LINE
  5
27F
330
1E
100
AcDbEntity
  8
0
100
AcDbLine
 10
70.0
 20
102.076
 30
0.0
 11
70.0
 21
100.956
 31
0.0
  0
LINE
  5
280
330
1E
100
AcDbEntity
  8
0
100
AcDbLine
 10
70.0
 20
99.85600000000001
 30
0.0
 11
70.0
 21
99.47200000000002
 31
0.0
  0
LINE
  5
281
330
1E
100
AcDbEntity
  8
0
100
AcDbLine
 10
70.0
 20
99.85600000000001
 30
0.0
 11
70.0
 21
100.0
 31
0.0
  0
LINE
  5
282
330
1E
100
AcDbEntity
  8
0
100
AcDbLine
 10
70.0
 20
100.956
 30
0.0
 11
70.0
 21
102.076
 31
0.0
  0
LINE
  5
283
330
1E
100
AcDbEntity
  8
0
100
AcDbLine
 10
70.0
 20
100.956
 30
0.0
 11
70.0
 21
99.47200000000002
 31
0.0
  0
LINE
  5
284
330
1E
100
AcDbEntity
  8
0
100
AcDbLine
 10
70.0
 20
99.47200000000002
 30
0.0
 11
70.0
 21
100.956
 31
0.0
  0
LINE
  5
285
330
1E
100
AcDbEntity
  8
0
100
AcDbLine
 10
70.0
 20
99.47200000000002
 30
0.0
 11
70.0
 21
98.83200000000002
 31
0.0
  0
LINE
  5
286
330
1E
100
AcDbEntity
  8
0
100
AcDbLine
 10
70.0
 20
99.47200000000002
 30
0.0
 11
70.0
 21
97.79200000000001
 31
0.0
  0
LINE
  5
287
330
1E
100
AcDbEntity
  8
0
100
AcDbLine
 10
70.0
 20
99.47200000000002
 30
0.0
 11
70.0
 21
99.85600000000001
 31
0.0
  0
LINE
  5
288
330
1E
100
AcDbEntity
  8
0
100
AcDbLine
 10
70.0
 20
98.83200000000002
 30
0.0
 11
70.0
 21
97.984
 31
0.0
  0
LINE
  5
289
330
1E
100
AcDbEntity
  8
0
100
AcDbLine
 10
70.0
 20
98.83200000000002
 30
0.0
 11
70.0
 21
99.47200000000002
 31
0.0
  0
LINE
  5
28A
330
1E
100
AcDbEntity
  8
0
100
AcDbLine
 10
70.0
 20
97.79200000000001
 30
0.0
 11
70.0
 21
99.47200000000002
 31
0.0
  0
LINE
  5
28B
330
1E
100
AcDbEntity
  8
0
100
AcDbLine
 10
70.0
 20
97.79200000000001
 30
0.0
 11
70.0
 21
96.0
 31
0.0
  0
LINE
  5
28C
330
1E
100
AcDbEntity
  8
0
100
AcDbLine
 10
70.0
 20
97.984
 30
0.0
 11
70.0
 21
97.024
 31
0.0
  0
LINE
  5
28D
330
1E
100
AcDbEntity
  8
0
100
AcDbLine
 10
70.0
 20
97.984
 30
0.0
 11
70.0
 21
98.83200000000002
 31
0.0
  0
LINE
  5
28E
330
1E
100
AcDbEntity
  8
0
100
AcDbLine
 10
70.0
 20
97.024
 30
0.0
 11
70.0
 21
96.0
 31
0.0
  0
LINE
  5
28F
330
1E
100
AcDbEntity
  8
0
100
AcDbLine
 10
70.0
 20
97.024
 30
0.0
 11
70.0
 21
97.984
 31
0.0
  0
LINE
  5
290
330
1E
100
AcDbEntity
  8
0
100
AcDbLine
 10
80.0
 20
103.0
 30
0.0
 11
80.0
 21
102.7479999999999
 31
0.0
  0
LINE
  5
291
330
1E
100
AcDbEntity
  8
0
100
AcDbLine
 10
80.0
 20
102.7479999999999
 30
0.0
 11
80.0
 21
102.076
 31
0.0
  0
LINE
  5
292
330
1E
100
AcDbEntity
  8
0
100
AcDbLine
 10
80.0
 20
102.7479999999999
 30
0.0
 11
80.0
 21
103.0
 31
0.0
  0
LINE
  5
293
330
1E
100
AcDbEntity
  8
0
100
AcDbLine
 10
80.0
 20
102.076
 30
0.0
 11
80.0
 21
100.956
 31
0.0
  0
LINE
  5
294
330
1E
100
AcDbEntity
  8
0
100
AcDbLine
 10
80.0
 20
102.076
 30
0.0
 11
80.0
 21
102.7479999999999
 31
0.0
  0
LINE
  5
295
330
1E
100
AcDbEntity
  8
0
100
AcDbLine
 10
80.0
 20
100.956
 30
0.0
 11
80.0
 21
99.47200000000002
 31
0.0
  0
LINE
  5
296
330
1E
100
AcDbEntity
  8
0
100
AcDbLine
 10
80.0
 20
100.956
 30
0.0
 11
80.0
 21
102.076
 31
0.0
  0
LINE
  5
297
330
1E
100
AcDbEntity
  8
0
100
AcDbLine
 10
80.0
 20
99.47200000000002
 30
0.0
 11
80.0
 21
97.79200000000001
 31
0.0
  0
LINE
  5
298
330
1E
100
AcDbEntity
  8
0
100
AcDbLine
 10
80.0
 20
99.47200000000002
 30
0.0
 11
80.0
 21
100.956
 31
0.0
  0
LINE
  5
299
330
1E
100
AcDbEntity
  8
0
100
AcDbLine
 10
80.0
 20
97.79200000000001
 30
0.0
 11
80.0
 21
96.0
 31
0.0
  0
LINE
  5
29A
330
1E
100
AcDbEntity
  8
0
100
AcDbLine
 10
80.0
 20
97.79200000000001
 30
0.0
 11
80.0
 21
99.47200000000002
 31
0.0
  0
LINE
  5
29B
330
1E
100
AcDbEntity
  8
0
100
AcDbLine
 10
75.0
 20
103.0
 30
0.0
 11
80.0
 21
103.0
 31
0.0
  0
LINE
  5
29C
330
1E
100
AcDbEntity
  8
0
100
AcDbLine
 10
80.0
 20
96.0
 30
0.0
 11
80.0
 21
85.0
 31
0.0
  0
LINE
  5
29D
330
1E
100
AcDbEntity
  8
0
100
AcDbLine
 10
80.0
 20
96.0
 30
0.0
 11
80.0
 21
97.79200000000001
 31
0.0
  0
LINE
  5
29E
330
1E
100
AcDbEntity
  8
0
100
AcDbLine
 10
70.0
 20
96.0
 30
0.0
 11
70.0
 21
94.976
 31
0.0
  0
LINE
  5
29F
330
1E
100
AcDbEntity
  8
0
100
AcDbLine
 10
70.0
 20
96.0
 30
0.0
 11
70.0
 21
97.79200000000001
 31
0.0
  0
LINE
  5
2A0
330
1E
100
AcDbEntity
  8
0
100
AcDbLine
 10
70.0
 20
96.0
 30
0.0
 11
70.0
 21
97.024
 31
0.0
  0
LINE
  5
2A1
330
1E
100
AcDbEntity
  8
0
100
AcDbLine
 10
70.0
 20
96.0
 30
0.0
 11
70.0
 21
92.5
 31
0.0
  0
LINE
  5
2A2
330
1E
100
AcDbEntity
  8
0
100
AcDbLine
 10
70.0
 20
96.0
 30
0.0
 11
70.0
 21
85.0
 31
0.0
  0
LINE
  5
2A3
330
1E
100
AcDbEntity
  8
0
100
AcDbLine
 10
70.0
 20
96.0
 30
0.0
 11
70.0
 21
92.0
 31
0.0
  0
LINE
  5
2A4
330
1E
100
AcDbEntity
  8
0
100
AcDbLine
 10
70.0
 20
94.976
 30
0.0
 11
70.0
 21
96.0
 31
0.0
  0
LINE
  5
2A5
330
1E
100
AcDbEntity
  8
0
100
AcDbLine
 10
70.0
 20
94.976
 30
0.0
 11
70.0
 21
94.016
 31
0.0
  0
LINE
  5
2A9
330
1E
100
AcDbEntity
  8
0
100
AcDbLine
 10
82.0
 20
64.4118
 30
0.0
 11
82.0
 21
69.4118
 31
0.0
  0
LINE
  5
2AA
330
1E
100
AcDbEntity
  8
0
100
AcDbLine
 10
82.0
 20
64.4118
 30
0.0
 11
82.0
 21
58.67650000000001
 31
0.0
  0
LINE
  5
2AB
330
1E
100
AcDbEntity
  8
0
100
AcDbLine
 10
82.0
 20
58.67650000000001
 30
0.0
 11
82.0
 21
64.4118
 31
0.0
  0
LINE
  5
2AC
330
1E
100
AcDbEntity
  8
0
100
AcDbLine
 10
82.0
 20
58.67650000000001
 30
0.0
 11
82.0
 21
52.5
 31
0.0
  0
LINE
  5
2AD
330
1E
100
AcDbEntity
  8
0
100
AcDbLine
 10
82.0
 20
69.4118
 30
0.0
 11
82.0
 21
73.1618
 31
0.0
  0
LINE
  5
2AE
330
1E
100
AcDbEntity
  8
0
100
AcDbLine
 10
82.0
 20
69.4118
 30
0.0
 11
82.0
 21
64.4118
 31
0.0
  0
LINE
  5
2AF
330
1E
100
AcDbEntity
  8
0
100
AcDbLine
 10
82.0
 20
73.1618
 30
0.0
 11
82.0
 21
75.51470000000001
 31
0.0
  0
LINE
  5
2B0
330
1E
100
AcDbEntity
  8
0
100
AcDbLine
 10
82.0
 20
73.1618
 30
0.0
 11
82.0
 21
69.4118
 31
0.0
  0
LINE
  5
2B3
330
1E
100
AcDbEntity
  8
0
100
AcDbLine
 10
82.0
 20
76.3971
 30
0.0
 11
82.0
 21
75.51470000000001
 31
0.0
  0
LINE
  5
2B5
330
1E
100
AcDbEntity
  8
0
100
AcDbLine
 10
81.4231
 20
77.1324
 30
0.0
 11
82.0
 21
76.3971
 31
0.0
  0
LINE
  5
2B6
330
1E
100
AcDbEntity
  8
0
100
AcDbLine
 10
82.0
 20
75.51470000000001
 30
0.0
 11
82.0
 21
76.3971
 31
0.0
  0
LINE
  5
2B7
330
1E
100
AcDbEntity
  8
0
100
AcDbLine
 10
82.0
 20
75.51470000000001
 30
0.0
 11
82.0
 21
73.1618
 31
0.0
  0
LINE
  5
2BA
330
1E
100
AcDbEntity
  8
0
100
AcDbLine
 10
81.0
 20
77.26718772857271
 30
0.0
 11
81.4231
 21
77.1324
 31
0.0
  0
LINE
  5
2BB
330
1E
100
AcDbEntity
  8
0
100
AcDbLine
 10
82.0
 20
52.5
 30
0.0
 11
82.0
 21
46.3235
 31
0.0
  0
LINE
  5
2BC
330
1E
100
AcDbEntity
  8
0
100
AcDbLine
 10
82.0
 20
52.5
 30
0.0
 11
82.0
 21
58.67650000000001
 31
0.0
  0
LINE
  5
2BD
330
1E
100
AcDbEntity
  8
0
100
AcDbLine
 10
67.352
 20
92.5
 30
0.0
 11
70.0
 21
92.5
 31
0.0
  0
LINE
  5
2BE
330
1E
100
AcDbEntity
  8
0
100
AcDbLine
 10
67.352
 20
47.88800000000001
 30
0.0
 11
71.43200000000001
 21
46.256
 31
0.0
  0
LINE
  5
2BF
330
1E
100
AcDbEntity
  8
0
100
AcDbLine
 10
63.0
 20
48.5
 30
0.0
 11
67.352
 21
47.88800000000001
 31
0.0
  0
LINE
  5
2C0
330
1E
100
AcDbEntity
  8
0
100
AcDbLine
 10
63.0
 20
45.4091
 30
0.0
 11
66.56069999999999
 21
44.9084
 31
0.0
  0
LINE
  5
2C1
330
1E
100
AcDbEntity
  8
0
100
AcDbLine
 10
58.64799999999999
 20
47.88800000000001
 30
0.0
 11
63.0
 21
48.5
 31
0.0
  0
LINE
  5
2C2
330
1E
100
AcDbEntity
  8
0
100
AcDbLine
 10
59.4393
 20
44.9084
 30
0.0
 11
63.0
 21
45.4091
 31
0.0
  0
LINE
  5
2D4
330
1E
100
AcDbEntity
  8
0
100
AcDbLine
 10
34.0
 20
12.5
 30
0.0
 11
27.0
 21
7.0
 31
0.0
  0
LINE
  5
2D9
330
1E
100
AcDbEntity
  8
0
  6
Continuous
100
AcDbLine
 10
0.0
 20
95.0
 30
0.0
 11
0.0
 21
7.0
 31
0.0
  0
ENDSEC
  0
SECTION
  2
OBJECTS
  0
DICTIONARY
  5
C
330
0
100
AcDbDictionary
281
     1
  3
ACAD_GROUP
350
D
  3
ACAD_LAYOUT
350
19
  3
ACAD_MLINESTYLE
350
16
  3
ACAD_PLOTSETTINGS
350
18
  3
ACAD_PLOTSTYLENAME
350
E
  3
AcDbVariableDictionary
350
2D5
  0
DICTIONARY
  5
D
102
{ACAD_REACTORS
330
C
102
}
330
C
100
AcDbDictionary
281
     1
  0
DICTIONARY
  5
19
102
{ACAD_REACTORS
330
C
102
}
330
C
100
AcDbDictionary
281
     1
  3
Layout1
350
1D
  3
Model
350
21
  0
DICTIONARY
  5
16
102
{ACAD_REACTORS
330
C
102
}
330
C
100
AcDbDictionary
281
     1
  3
Standard
350
17
  0
DICTIONARY
  5
18
102
{ACAD_REACTORS
330
C
102
}
330
C
100
AcDbDictionary
281
     1
  0
ACDBDICTIONARYWDFLT
  5
E
102
{ACAD_REACTORS
330
C
102
}
330
C
100
AcDbDictionary
281
     1
  3
Normal
350
F
100
AcDbDictionaryWithDefault
340
F
  0
DICTIONARY
  5
2D5
102
{ACAD_REACTORS
330
C
102
}
330
C
100
AcDbDictionary
281
     1
  3
DIMASSOC
350
2D6
  0
LAYOUT
  5
1D
102
{ACAD_REACTORS
330
19
102
}
330
19
100
AcDbPlotSettings
  1

  2
hp deskjet 980c series
  4

  6

 40
0.0
 41
0.0
 42
0.0
 43
0.0
 44
0.0
 45
0.0
 46
0.0
 47
0.0
 48
0.0
 49
0.0
140
0.0
141
0.0
142
1.0
143
1.0
 70
   688
 72
     0
 73
     0
 74
     5
  7

 75
    16
147
1.0
148
0.0
149
0.0
100
AcDbLayout
  1
Layout1
 70
     1
 71
     1
 10
0.0
 20
0.0
 11
12.0
 21
9.0
 12
0.0
 22
0.0
 32
0.0
 14
1.000000000000000E+20
 24
1.000000000000000E+20
 34
1.000000000000000E+20
 15
-1.000000000000000E+20
 25
-1.000000000000000E+20
 35
-1.000000000000000E+20
146
0.0
 13
0.0
 23
0.0
 33
0.0
 16
1.0
 26
0.0
 36
0.0
 17
0.0
 27
1.0
 37
0.0
 76
     0
330
1A
  0
LAYOUT
  5
21
102
{ACAD_REACTORS
330
19
102
}
330
19
100
AcDbPlotSettings
  1

  2
hp deskjet 980c series
  4

  6

 40
0.0
 41
0.0
 42
0.0
 43
0.0
 44
0.0
 45
0.0
 46
0.0
 47
0.0
 48
0.0
 49
0.0
140
0.0
141
0.0
142
1.0
143
1.0
 70
  1712
 72
     0
 73
     0
 74
     0
  7

 75
     0
147
1.0
148
0.0
149
0.0
100
AcDbLayout
  1
Model
 70
     1
 71
     0
 10
0.0
 20
0.0
 11
12.0
 21
9.0
 12
0.0
 22
0.0
 32
0.0
 14
0.0
 24
0.0
 34
0.0
 15
0.0
 25
0.0
 35
0.0
146
0.0
 13
0.0
 23
0.0
 33
0.0
 16
1.0
 26
0.0
 36
0.0
 17
0.0
 27
1.0
 37
0.0
 76
     0
330
1E
  0
MLINESTYLE
  5
17
102
{ACAD_REACTORS
330
16
102
}
330
16
100
AcDbMlineStyle
  2
STANDARD
 70
     0
  3

 62
   256
 51
90.0
 52
90.0
 71
     2
 49
0.5
 62
   256
  6
BYLAYER
 49
-0.5
 62
   256
  6
BYLAYER
  0
ACDBPLACEHOLDER
  5
F
102
{ACAD_REACTORS
330
E
102
}
330
E
  0
DICTIONARYVAR
  5
2D6
102
{ACAD_REACTORS
330
2D5
102
}
330
2D5
100
DictionaryVariables
280
     0
  1
1
  0
ENDSEC
  0
EOF
