  0
SECTION
  2
HEADER
  9
$ACADVER
  1
AC1015
  9
$ACADMAINTVER
 70
    13
  9
$DWGCODEPAGE
  3
ANSI_1252
  9
$INSBASE
 10
0.0
 20
0.0
 30
0.0
  9
$EXTMIN
 10
0.0
 20
-0.0000000000000105
 30
0.0
  9
$EXTMAX
 10
624.0
 20
226.0
 30
0.0
  9
$LIMMIN
 10
0.0
 20
0.0
  9
$LIMMAX
 10
12.0
 20
9.0
  9
$ORTHOMODE
 70
     0
  9
$REGENMODE
 70
     1
  9
$FILLMODE
 70
     1
  9
$QTEXTMODE
 70
     0
  9
$MIRRTEXT
 70
     1
  9
$LTSCALE
 40
1.0
  9
$ATTMODE
 70
     1
  9
$TEXTSIZE
 40
0.2
  9
$TRACEWID
 40
0.05
  9
$TEXTSTYLE
  7
Standard
  9
$CLAYER
  8
0
  9
$CELTYPE
  6
Continuous
  9
$CECOLOR
 62
   256
  9
$CELTSCALE
 40
1.0
  9
$DISPSILH
 70
     0
  9
$DIMSCALE
 40
1.0
  9
$DIMASZ
 40
0.18
  9
$DIMEXO
 40
0.0625
  9
$DIMDLI
 40
0.38
  9
$DIMRND
 40
0.0
  9
$DIMDLE
 40
0.0
  9
$DIMEXE
 40
0.18
  9
$DIMTP
 40
0.0
  9
$DIMTM
 40
0.0
  9
$DIMTXT
 40
0.18
  9
$DIMCEN
 40
0.09
  9
$DIMTSZ
 40
0.0
  9
$DIMTOL
 70
     0
  9
$DIMLIM
 70
     0
  9
$DIMTIH
 70
     1
  9
$DIMTOH
 70
     1
  9
$DIMSE1
 70
     0
  9
$DIMSE2
 70
     0
  9
$DIMTAD
 70
     0
  9
$DIMZIN
 70
     0
  9
$DIMBLK
  1

  9
$DIMASO
 70
     1
  9
$DIMSHO
 70
     1
  9
$DIMPOST
  1

  9
$DIMAPOST
  1

  9
$DIMALT
 70
     0
  9
$DIMALTD
 70
     2
  9
$DIMALTF
 40
25.4
  9
$DIMLFAC
 40
1.0
  9
$DIMTOFL
 70
     0
  9
$DIMTVP
 40
0.0
  9
$DIMTIX
 70
     0
  9
$DIMSOXD
 70
     0
  9
$DIMSAH
 70
     0
  9
$DIMBLK1
  1

  9
$DIMBLK2
  1

  9
$DIMSTYLE
  2
Standard
  9
$DIMCLRD
 70
     0
  9
$DIMCLRE
 70
     0
  9
$DIMCLRT
 70
     0
  9
$DIMTFAC
 40
1.0
  9
$DIMGAP
 40
0.09
  9
$DIMJUST
 70
     0
  9
$DIMSD1
 70
     0
  9
$DIMSD2
 70
     0
  9
$DIMTOLJ
 70
     1
  9
$DIMTZIN
 70
     0
  9
$DIMALTZ
 70
     0
  9
$DIMALTTZ
 70
     0
  9
$DIMUPT
 70
     0
  9
$DIMDEC
 70
     4
  9
$DIMTDEC
 70
     4
  9
$DIMALTU
 70
     2
  9
$DIMALTTD
 70
     2
  9
$DIMTXSTY
  7
Standard
  9
$DIMAUNIT
 70
     0
  9
$DIMADEC
 70
     0
  9
$DIMALTRND
 40
0.0
  9
$DIMAZIN
 70
     0
  9
$DIMDSEP
 70
    46
  9
$DIMATFIT
 70
     3
  9
$DIMFRAC
 70
     0
  9
$DIMLDRBLK
  1

  9
$DIMLUNIT
 70
     2
  9
$DIMLWD
 70
    -2
  9
$DIMLWE
 70
    -2
  9
$DIMTMOVE
 70
     0
  9
$LUNITS
 70
     2
  9
$LUPREC
 70
     4
  9
$SKETCHINC
 40
0.1
  9
$FILLETRAD
 40
0.0
  9
$AUNITS
 70
     0
  9
$AUPREC
 70
     0
  9
$MENU
  1
.
  9
$ELEVATION
 40
0.0
  9
$PELEVATION
 40
0.0
  9
$THICKNESS
 40
0.0
  9
$LIMCHECK
 70
     0
  9
$CHAMFERA
 40
0.0
  9
$CHAMFERB
 40
0.0
  9
$CHAMFERC
 40
0.0
  9
$CHAMFERD
 40
0.0
  9
$SKPOLY
 70
     0
  9
$TDCREATE
 40
2454874.845647604
  9
$TDUCREATE
 40
2454874.803980938
  9
$TDUPDATE
 40
2454874.848852534
  9
$TDUUPDATE
 40
2454874.807185868
  9
$TDINDWG
 40
0.0032049306
  9
$TDUSRTIMER
 40
0.0032049306
  9
$USRTIMER
 70
     1
  9
$ANGBASE
 50
0.0
  9
$ANGDIR
 70
     0
  9
$PDMODE
 70
     0
  9
$PDSIZE
 40
0.0
  9
$PLINEWID
 40
0.0
  9
$SPLFRAME
 70
     0
  9
$SPLINETYPE
 70
     6
  9
$SPLINESEGS
 70
     8
  9
$HANDSEED
  5
16E
  9
$SURFTAB1
 70
     6
  9
$SURFTAB2
 70
     6
  9
$SURFTYPE
 70
     6
  9
$SURFU
 70
     6
  9
$SURFV
 70
     6
  9
$UCSBASE
  2

  9
$UCSNAME
  2

  9
$UCSORG
 10
0.0
 20
0.0
 30
0.0
  9
$UCSXDIR
 10
1.0
 20
0.0
 30
0.0
  9
$UCSYDIR
 10
0.0
 20
1.0
 30
0.0
  9
$UCSORTHOREF
  2

  9
$UCSORTHOVIEW
 70
     1
  9
$UCSORGTOP
 10
0.0
 20
0.0
 30
0.0
  9
$UCSORGBOTTOM
 10
0.0
 20
0.0
 30
0.0
  9
$UCSORGLEFT
 10
0.0
 20
0.0
 30
0.0
  9
$UCSORGRIGHT
 10
0.0
 20
0.0
 30
0.0
  9
$UCSORGFRONT
 10
0.0
 20
0.0
 30
0.0
  9
$UCSORGBACK
 10
0.0
 20
0.0
 30
0.0
  9
$PUCSBASE
  2

  9
$PUCSNAME
  2

  9
$PUCSORG
 10
0.0
 20
0.0
 30
0.0
  9
$PUCSXDIR
 10
1.0
 20
0.0
 30
0.0
  9
$PUCSYDIR
 10
0.0
 20
1.0
 30
0.0
  9
$PUCSORTHOREF
  2

  9
$PUCSORTHOVIEW
 70
     0
  9
$PUCSORGTOP
 10
0.0
 20
0.0
 30
0.0
  9
$PUCSORGBOTTOM
 10
0.0
 20
0.0
 30
0.0
  9
$PUCSORGLEFT
 10
0.0
 20
0.0
 30
0.0
  9
$PUCSORGRIGHT
 10
0.0
 20
0.0
 30
0.0
  9
$PUCSORGFRONT
 10
0.0
 20
0.0
 30
0.0
  9
$PUCSORGBACK
 10
0.0
 20
0.0
 30
0.0
  9
$USERI1
 70
     0
  9
$USERI2
 70
     0
  9
$USERI3
 70
     0
  9
$USERI4
 70
     0
  9
$USERI5
 70
     0
  9
$USERR1
 40
0.0
  9
$USERR2
 40
0.0
  9
$USERR3
 40
0.0
  9
$USERR4
 40
0.0
  9
$USERR5
 40
0.0
  9
$WORLDVIEW
 70
     1
  9
$SHADEDGE
 70
     3
  9
$SHADEDIF
 70
    70
  9
$TILEMODE
 70
     1
  9
$MAXACTVP
 70
    64
  9
$PINSBASE
 10
0.0
 20
0.0
 30
0.0
  9
$PLIMCHECK
 70
     0
  9
$PEXTMIN
 10
1.000000000000000E+20
 20
1.000000000000000E+20
 30
1.000000000000000E+20
  9
$PEXTMAX
 10
-1.000000000000000E+20
 20
-1.000000000000000E+20
 30
-1.000000000000000E+20
  9
$PLIMMIN
 10
0.0
 20
0.0
  9
$PLIMMAX
 10
12.0
 20
9.0
  9
$UNITMODE
 70
     0
  9
$VISRETAIN
 70
     1
  9
$PLINEGEN
 70
     0
  9
$PSLTSCALE
 70
     1
  9
$TREEDEPTH
 70
  3020
  9
$CMLSTYLE
  2
Standard
  9
$CMLJUST
 70
     0
  9
$CMLSCALE
 40
1.0
  9
$PROXYGRAPHICS
 70
     1
  9
$MEASUREMENT
 70
     0
  9
$CELWEIGHT
370
    -1
  9
$ENDCAPS
280
     0
  9
$JOINSTYLE
280
     0
  9
$LWDISPLAY
290
     0
  9
$INSUNITS
 70
     0
  9
$HYPERLINKBASE
  1

  9
$STYLESHEET
  1

  9
$XEDIT
290
     1
  9
$CEPSNTYPE
380
     0
  9
$PSTYLEMODE
290
     1
  9
$FINGERPRINTGUID
  2
{AC6EA847-2975-4A7B-A824-1F4CD0CF0DC1}
  9
$VERSIONGUID
  2
{F7069E42-00E3-476C-A625-F8FA7BC05292}
  9
$EXTNAMES
290
     1
  9
$PSVPSCALE
 40
0.0
  9
$OLESTARTUP
290
     0
  0
ENDSEC
  0
SECTION
  2
CLASSES
  0
CLASS
  1
ACDBDICTIONARYWDFLT
  2
AcDbDictionaryWithDefault
  3
AutoCAD 2000
 90
        0
280
     0
281
     0
  0
CLASS
  1
ACDBPLACEHOLDER
  2
AcDbPlaceHolder
  3
AutoCAD 2000
 90
        0
280
     0
281
     0
  0
CLASS
  1
LAYOUT
  2
AcDbLayout
  3
AutoCAD 2000
 90
        0
280
     0
281
     0
  0
CLASS
  1
DICTIONARYVAR
  2
AcDbDictionaryVar
  3
AutoCAD 2000
 90
        0
280
     0
281
     0
  0
ENDSEC
  0
SECTION
  2
TABLES
  0
TABLE
  2
VPORT
  5
8
330
0
100
AcDbSymbolTable
 70
     2
  0
VPORT
  5
16D
330
8
100
AcDbSymbolTableRecord
100
AcDbViewportTableRecord
  2
*Active
 70
     0
 10
0.0
 20
0.0
 11
1.0
 21
1.0
 12
312.0
 22
112.9999999999999
 13
0.0
 23
0.0
 14
1.0
 24
1.0
 15
0.0
 25
0.0
 16
0.0
 26
0.0
 36
1.0
 17
0.0
 27
0.0
 37
0.0
 40
318.0283975101481
 41
1.968387776606954
 42
50.0
 43
0.0
 44
0.0
 50
0.0
 51
0.0
 71
     0
 72
   100
 73
     1
 74
     3
 75
     0
 76
     0
 77
     0
 78
     0
281
     0
 65
     1
110
0.0
120
0.0
130
0.0
111
1.0
121
0.0
131
0.0
112
0.0
122
1.0
132
0.0
 79
     1
146
0.0
  0
ENDTAB
  0
TABLE
  2
LTYPE
  5
5
330
0
100
AcDbSymbolTable
 70
     1
  0
LTYPE
  5
13
330
5
100
AcDbSymbolTableRecord
100
AcDbLinetypeTableRecord
  2
ByBlock
 70
     0
  3

 72
    65
 73
     0
 40
0.0
  0
LTYPE
  5
14
330
5
100
AcDbSymbolTableRecord
100
AcDbLinetypeTableRecord
  2
ByLayer
 70
     0
  3

 72
    65
 73
     0
 40
0.0
  0
LTYPE
  5
15
330
5
100
AcDbSymbolTableRecord
100
AcDbLinetypeTableRecord
  2
Continuous
 70
     0
  3
Solid line
 72
    65
 73
     0
 40
0.0
  0
ENDTAB
  0
TABLE
  2
LAYER
  5
2
330
0
100
AcDbSymbolTable
 70
     1
  0
LAYER
  5
10
330
2
100
AcDbSymbolTableRecord
100
AcDbLayerTableRecord
  2
0
 70
     0
 62
     7
  6
Continuous
370
    -3
390
F
  0
ENDTAB
  0
TABLE
  2
STYLE
  5
3
330
0
100
AcDbSymbolTable
 70
     1
  0
STYLE
  5
11
330
3
100
AcDbSymbolTableRecord
100
AcDbTextStyleTableRecord
  2
Standard
 70
     0
 40
0.0
 41
1.0
 50
0.0
 71
     0
 42
0.2
  3
txt
  4

  0
ENDTAB
  0
TABLE
  2
VIEW
  5
6
330
0
100
AcDbSymbolTable
 70
     0
  0
ENDTAB
  0
TABLE
  2
UCS
  5
7
330
0
100
AcDbSymbolTable
 70
     0
  0
ENDTAB
  0
TABLE
  2
APPID
  5
9
330
0
100
AcDbSymbolTable
 70
     1
  0
APPID
  5
12
330
9
100
AcDbSymbolTableRecord
100
AcDbRegAppTableRecord
  2
ACAD
 70
     0
  0
ENDTAB
  0
TABLE
  2
DIMSTYLE
  5
A
330
0
100
AcDbSymbolTable
 70
     1
100
AcDbDimStyleTable
 71
     0
  0
DIMSTYLE
105
FC
330
A
100
AcDbSymbolTableRecord
100
AcDbDimStyleTableRecord
  2
Standard
 70
     0
340
11
  0
ENDTAB
  0
TABLE
  2
BLOCK_RECORD
  5
1
330
0
100
AcDbSymbolTable
 70
     0
  0
BLOCK_RECORD
  5
1E
330
1
100
AcDbSymbolTableRecord
100
AcDbBlockTableRecord
  2
*Model_Space
340
21
  0
BLOCK_RECORD
  5
1A
330
1
100
AcDbSymbolTableRecord
100
AcDbBlockTableRecord
  2
*Paper_Space
340
1D
  0
ENDTAB
  0
ENDSEC
  0
SECTION
  2
BLOCKS
  0
BLOCK
  5
1F
330
1E
100
AcDbEntity
  8
0
100
AcDbBlockBegin
  2
*Model_Space
 70
     0
 10
0.0
 20
0.0
 30
0.0
  3
*Model_Space
  1

  0
ENDBLK
  5
20
330
1E
100
AcDbEntity
  8
0
100
AcDbBlockEnd
  0
BLOCK
  5
1B
330
1A
100
AcDbEntity
 67
     1
  8
0
100
AcDbBlockBegin
  2
*Paper_Space
 70
     0
 10
0.0
 20
0.0
 30
0.0
  3
*Paper_Space
  1

  0
ENDBLK
  5
1C
330
1A
100
AcDbEntity
 67
     1
  8
0
100
AcDbBlockEnd
  0
ENDSEC
  0
SECTION
  2
ENTITIES
  0
LINE
  5
22
330
1E
100
AcDbEntity
  8
0
100
AcDbLine
 10
53.0
 20
30.0
 30
0.0
 11
54.0
 21
0.0
 31
0.0
  0
LINE
  5
23
330
1E
100
AcDbEntity
  8
0
100
AcDbLine
 10
53.0
 20
30.0
 30
0.0
 11
54.0
 21
0.0000000000000001
 31
0.0
  0
LINE
  5
24
330
1E
100
AcDbEntity
  8
0
100
AcDbLine
 10
54.27459999999999
 20
-0.0000000000000037
 30
0.0
 11
55.503
 21
-0.000000000000005
 31
0.0
  0
LINE
  5
25
330
1E
100
AcDbEntity
  8
0
100
AcDbLine
 10
54.1518
 20
-0.0000000000000021
 30
0.0
 11
54.27459999999999
 21
-0.0000000000000037
 31
0.0
  0
LINE
  5
26
330
1E
100
AcDbEntity
  8
0
100
AcDbLine
 10
54.27459999999999
 20
0.0000000000000039
 30
0.0
 11
55.503
 21
0.0000000000000052
 31
0.0
  0
LINE
  5
27
330
1E
100
AcDbEntity
  8
0
100
AcDbLine
 10
54.1518
 20
0.0000000000000022
 30
0.0
 11
54.27459999999999
 21
0.0000000000000039
 31
0.0
  0
LINE
  5
28
330
1E
100
AcDbEntity
  8
0
100
AcDbLine
 10
54.0
 20
0.0000000000000001
 30
0.0
 11
54.1518
 21
0.0000000000000022
 31
0.0
  0
LINE
  5
29
330
1E
100
AcDbEntity
  8
0
100
AcDbLine
 10
54.0
 20
0.0000000000000001
 30
0.0
 11
54.1518
 21
-0.0000000000000021
 31
0.0
  0
LINE
  5
2A
330
1E
100
AcDbEntity
  8
0
100
AcDbLine
 10
30.6009
 20
180.0
 30
0.0
 11
30.7693
 21
180.7159999999999
 31
0.0
  0
LINE
  5
2B
330
1E
100
AcDbEntity
  8
0
100
AcDbLine
 10
29.6544
 20
180.0
 30
0.0
 11
30.6009
 21
180.0
 31
0.0
  0
LINE
  5
2C
330
1E
100
AcDbEntity
  8
0
100
AcDbLine
 10
28.3023
 20
180.0
 30
0.0
 11
29.6544
 21
180.0
 31
0.0
  0
LINE
  5
2D
330
1E
100
AcDbEntity
  8
0
100
AcDbLine
 10
28.1671
 20
180.0
 30
0.0
 11
28.3023
 21
180.0
 31
0.0
  0
LINE
  5
2E
330
1E
100
AcDbEntity
  8
0
100
AcDbLine
 10
0.332075
 20
226.0
 30
0.0
 11
1.817529999999999
 21
226.0
 31
0.0
  0
LINE
  5
30
330
1E
100
AcDbEntity
  8
0
100
AcDbLine
 10
12.6613
 20
226.0
 30
0.0
 11
16.3668
 21
225.9129999999999
 31
0.0
  0
LINE
  5
32
330
1E
100
AcDbEntity
  8
0
100
AcDbLine
 10
8.056410000000001
 20
226.0
 30
0.0
 11
12.6613
 21
226.0
 31
0.0
  0
LINE
  5
33
330
1E
100
AcDbEntity
  8
0
100
AcDbLine
 10
5.82824
 20
226.0
 30
0.0
 11
8.056410000000001
 21
226.0
 31
0.0
  0
LINE
  5
34
330
1E
100
AcDbEntity
  8
0
100
AcDbLine
 10
4.342789999999999
 20
226.0
 30
0.0
 11
5.82824
 21
226.0
 31
0.0
  0
LINE
  5
35
330
1E
100
AcDbEntity
  8
0
100
AcDbLine
 10
2.85734
 20
226.0
 30
0.0
 11
4.342789999999999
 21
226.0
 31
0.0
  0
LINE
  5
36
330
1E
100
AcDbEntity
  8
0
100
AcDbLine
 10
1.817529999999999
 20
226.0
 30
0.0
 11
2.85734
 21
226.0
 31
0.0
  0
LINE
  5
37
330
1E
100
AcDbEntity
  8
0
100
AcDbLine
 10
0.332075
 20
226.0
 30
0.0
 11
1.817529999999999
 21
226.0
 31
0.0
  0
LINE
  5
38
330
1E
100
AcDbEntity
  8
0
100
AcDbLine
 10
0.183533
 20
226.0
 30
0.0
 11
0.332075
 21
226.0
 31
0.0
  0
LINE
  5
39
330
1E
100
AcDbEntity
  8
0
100
AcDbLine
 10
0.0
 20
226.0
 30
0.0
 11
10.0
 21
213.0
 31
0.0
  0
LINE
  5
3A
330
1E
100
AcDbEntity
  8
0
100
AcDbLine
 10
0.0
 20
226.0
 30
0.0
 11
0.183533
 21
226.0
 31
0.0
  0
LINE
  5
3B
330
1E
100
AcDbEntity
  8
0
100
AcDbLine
 10
10.0
 20
213.0
 30
0.0
 11
15.0
 21
205.0
 31
0.0
  0
LINE
  5
3C
330
1E
100
AcDbEntity
  8
0
100
AcDbLine
 10
19.66079999999999
 20
202.7099999999999
 30
0.0
 11
21.81919999999999
 21
199.1719999999999
 31
0.0
  0
LINE
  5
3D
330
1E
100
AcDbEntity
  8
0
100
AcDbLine
 10
18.4693
 20
204.4709999999999
 30
0.0
 11
19.66079999999999
 21
202.7099999999999
 31
0.0
  0
LINE
  5
3E
330
1E
100
AcDbEntity
  8
0
100
AcDbLine
 10
23.75707481622499
 20
195.774393936208
 30
0.0
 11
26.9203
 21
189.462
 31
0.0
  0
LINE
  5
3F
330
1E
100
AcDbEntity
  8
0
100
AcDbLine
 10
23.75707481622499
 20
195.774393936208
 30
0.0
 11
26.9203
 21
189.462
 31
0.0
  0
LINE
  5
40
330
1E
100
AcDbEntity
  8
0
100
AcDbLine
 10
30.32529999999999
 20
182.779
 30
0.0
 11
30.7693
 21
180.7159999999999
 31
0.0
  0
LINE
  5
41
330
1E
100
AcDbEntity
  8
0
100
AcDbLine
 10
28.65909999999999
 20
186.049
 30
0.0
 11
30.32529999999999
 21
182.779
 31
0.0
  0
LINE
  5
42
330
1E
100
AcDbEntity
  8
0
100
AcDbLine
 10
26.9203
 20
189.462
 30
0.0
 11
28.65909999999999
 21
186.049
 31
0.0
  0
LINE
  5
43
330
1E
100
AcDbEntity
  8
0
100
AcDbLine
 10
21.81919999999999
 20
199.1719999999999
 30
0.0
 11
23.7570748162249
 21
195.774393936208
 31
0.0
  0
LINE
  5
44
330
1E
100
AcDbEntity
  8
0
100
AcDbLine
 10
21.81919999999999
 20
199.1719999999999
 30
0.0
 11
23.7570748162249
 21
195.774393936208
 31
0.0
  0
LINE
  5
45
330
1E
100
AcDbEntity
  8
0
100
AcDbLine
 10
21.81919999999999
 20
199.1719999999999
 30
0.0
 11
23.75707481622499
 21
195.774393936208
 31
0.0
  0
LINE
  5
46
330
1E
100
AcDbEntity
  8
0
100
AcDbLine
 10
19.66079999999999
 20
202.7099999999999
 30
0.0
 11
21.81919999999999
 21
199.1719999999999
 31
0.0
  0
LINE
  5
48
330
1E
100
AcDbEntity
  8
0
100
AcDbLine
 10
18.4693
 20
204.4709999999999
 30
0.0
 11
19.66079999999999
 21
202.7099999999999
 31
0.0
  0
LINE
  5
49
330
1E
100
AcDbEntity
  8
0
100
AcDbLine
 10
17.72
 20
205.0
 30
0.0
 11
18.4693
 21
204.4709999999999
 31
0.0
  0
LINE
  5
4A
330
1E
100
AcDbEntity
  8
0
100
AcDbLine
 10
17.72
 20
205.0
 30
0.0
 11
18.4693
 21
204.4709999999999
 31
0.0
  0
LINE
  5
4B
330
1E
100
AcDbEntity
  8
0
100
AcDbLine
 10
16.7301
 20
205.0
 30
0.0
 11
17.72
 21
205.0
 31
0.0
  0
LINE
  5
4C
330
1E
100
AcDbEntity
  8
0
100
AcDbLine
 10
15.3161
 20
205.0
 30
0.0
 11
16.7301
 21
205.0
 31
0.0
  0
LINE
  5
4E
330
1E
100
AcDbEntity
  8
0
100
AcDbLine
 10
35.6
 20
219.0
 30
0.0
 11
55.2599
 21
206.632
 31
0.0
  0
LINE
  5
50
330
1E
100
AcDbEntity
  8
0
100
AcDbLine
 10
24.1205
 20
224.4369999999999
 30
0.0
 11
35.6
 21
219.0
 31
0.0
  0
LINE
  5
51
330
1E
100
AcDbEntity
  8
0
100
AcDbLine
 10
16.3668
 20
225.9129999999999
 30
0.0
 11
24.1205
 21
224.4369999999999
 31
0.0
  0
LINE
  5
52
330
1E
100
AcDbEntity
  8
0
100
AcDbLine
 10
15.1747
 20
205.0
 30
0.0
 11
15.3161
 21
205.0
 31
0.0
  0
LINE
  5
53
330
1E
100
AcDbEntity
  8
0
100
AcDbLine
 10
15.0
 20
205.0
 30
0.0
 11
15.1747
 21
205.0
 31
0.0
  0
LINE
  5
54
330
1E
100
AcDbEntity
  8
0
100
AcDbLine
 10
28.0
 20
180.0
 30
0.0
 11
38.0
 21
150.0
 31
0.0
  0
LINE
  5
55
330
1E
100
AcDbEntity
  8
0
100
AcDbLine
 10
28.0
 20
180.0
 30
0.0
 11
28.1671
 21
180.0
 31
0.0
  0
LINE
  5
56
330
1E
100
AcDbEntity
  8
0
100
AcDbLine
 10
50.0
 20
90.0
 30
0.0
 11
52.0
 21
60.0
 31
0.0
  0
LINE
  5
57
330
1E
100
AcDbEntity
  8
0
100
AcDbLine
 10
45.0
 20
120.0
 30
0.0
 11
50.0
 21
90.0
 31
0.0
  0
LINE
  5
58
330
1E
100
AcDbEntity
  8
0
100
AcDbLine
 10
38.0
 20
150.0
 30
0.0
 11
45.0
 21
120.0
 31
0.0
  0
LINE
  5
59
330
1E
100
AcDbEntity
  8
0
100
AcDbLine
 10
52.0
 20
60.0
 30
0.0
 11
53.0
 21
30.0
 31
0.0
  0
LINE
  5
5A
330
1E
100
AcDbEntity
  8
0
100
AcDbLine
 10
73.8054
 20
-0.0000000000000081
 30
0.0
 11
81.544
 21
-0.0000000000000085
 31
0.0
  0
LINE
  5
5B
330
1E
100
AcDbEntity
  8
0
100
AcDbLine
 10
67.5408
 20
-0.0000000000000078
 30
0.0
 11
73.8054
 21
-0.0000000000000081
 31
0.0
  0
LINE
  5
5C
330
1E
100
AcDbEntity
  8
0
100
AcDbLine
 10
64.46989999999999
 20
-0.0000000000000075
 30
0.0
 11
67.5408
 21
-0.0000000000000078
 31
0.0
  0
LINE
  5
5D
330
1E
100
AcDbEntity
  8
0
100
AcDbLine
 10
60.662
 20
-0.0000000000000071
 30
0.0
 11
64.46989999999999
 21
-0.0000000000000075
 31
0.0
  0
LINE
  5
5E
330
1E
100
AcDbEntity
  8
0
100
AcDbLine
 10
58.81949999999999
 20
-0.0000000000000068
 30
0.0
 11
60.662
 21
-0.0000000000000071
 31
0.0
  0
LINE
  5
5F
330
1E
100
AcDbEntity
  8
0
100
AcDbLine
 10
57.5912
 20
-0.0000000000000063
 30
0.0
 11
58.81949999999999
 21
-0.0000000000000068
 31
0.0
  0
LINE
  5
60
330
1E
100
AcDbEntity
  8
0
100
AcDbLine
 10
56.3628
 20
-0.0000000000000057
 30
0.0
 11
57.5912
 21
-0.0000000000000063
 31
0.0
  0
LINE
  5
61
330
1E
100
AcDbEntity
  8
0
100
AcDbLine
 10
55.503
 20
-0.000000000000005
 30
0.0
 11
56.3628
 21
-0.0000000000000057
 31
0.0
  0
LINE
  5
62
330
1E
100
AcDbEntity
  8
0
100
AcDbLine
 10
73.8054
 20
0.0000000000000082
 30
0.0
 11
81.544
 21
0.0000000000000086
 31
0.0
  0
LINE
  5
63
330
1E
100
AcDbEntity
  8
0
100
AcDbLine
 10
67.5408
 20
0.0000000000000079
 30
0.0
 11
73.8054
 21
0.0000000000000082
 31
0.0
  0
LINE
  5
64
330
1E
100
AcDbEntity
  8
0
100
AcDbLine
 10
64.46989999999999
 20
0.0000000000000076
 30
0.0
 11
67.5408
 21
0.0000000000000079
 31
0.0
  0
LINE
  5
65
330
1E
100
AcDbEntity
  8
0
100
AcDbLine
 10
60.662
 20
0.0000000000000072
 30
0.0
 11
64.46989999999999
 21
0.0000000000000076
 31
0.0
  0
LINE
  5
66
330
1E
100
AcDbEntity
  8
0
100
AcDbLine
 10
58.81949999999999
 20
0.0000000000000069
 30
0.0
 11
60.662
 21
0.0000000000000072
 31
0.0
  0
LINE
  5
67
330
1E
100
AcDbEntity
  8
0
100
AcDbLine
 10
57.5912
 20
0.0000000000000064
 30
0.0
 11
58.81949999999999
 21
0.0000000000000069
 31
0.0
  0
LINE
  5
68
330
1E
100
AcDbEntity
  8
0
100
AcDbLine
 10
56.3628
 20
0.0000000000000058
 30
0.0
 11
57.5912
 21
0.0000000000000064
 31
0.0
  0
LINE
  5
69
330
1E
100
AcDbEntity
  8
0
100
AcDbLine
 10
55.503
 20
0.0000000000000052
 30
0.0
 11
56.3628
 21
0.0000000000000058
 31
0.0
  0
LINE
  5
6A
330
1E
100
AcDbEntity
  8
0
100
AcDbLine
 10
110.0419999999999
 20
-0.0000000000000094
 30
0.0
 11
123.815
 21
-0.0000000000000097
 31
0.0
  0
LINE
  5
6B
330
1E
100
AcDbEntity
  8
0
100
AcDbLine
 10
100.952
 20
-0.0000000000000091
 30
0.0
 11
110.0419999999999
 21
-0.0000000000000094
 31
0.0
  0
LINE
  5
6C
330
1E
100
AcDbEntity
  8
0
100
AcDbLine
 10
91.00230000000001
 20
-0.0000000000000088
 30
0.0
 11
100.952
 21
-0.0000000000000091
 31
0.0
  0
LINE
  5
6D
330
1E
100
AcDbEntity
  8
0
100
AcDbLine
 10
81.544
 20
-0.0000000000000085
 30
0.0
 11
91.00230000000001
 21
-0.0000000000000088
 31
0.0
  0
LINE
  5
6E
330
1E
100
AcDbEntity
  8
0
100
AcDbLine
 10
110.0419999999999
 20
0.0000000000000095
 30
0.0
 11
123.815
 21
0.0000000000000098
 31
0.0
  0
LINE
  5
6F
330
1E
100
AcDbEntity
  8
0
100
AcDbLine
 10
100.952
 20
0.0000000000000092
 30
0.0
 11
110.0419999999999
 21
0.0000000000000095
 31
0.0
  0
LINE
  5
70
330
1E
100
AcDbEntity
  8
0
100
AcDbLine
 10
91.00230000000001
 20
0.0000000000000089
 30
0.0
 11
100.952
 21
0.0000000000000092
 31
0.0
  0
LINE
  5
71
330
1E
100
AcDbEntity
  8
0
100
AcDbLine
 10
81.544
 20
0.0000000000000086
 30
0.0
 11
91.00230000000001
 21
0.0000000000000089
 31
0.0
  0
LINE
  5
72
330
1E
100
AcDbEntity
  8
0
100
AcDbLine
 10
156.958
 20
-0.00000000000001
 30
0.0
 11
178.1279999999999
 21
-0.0000000000000102
 31
0.0
  0
LINE
  5
73
330
1E
100
AcDbEntity
  8
0
100
AcDbLine
 10
138.9079999999999
 20
-0.0000000000000098
 30
0.0
 11
156.958
 21
-0.00000000000001
 31
0.0
  0
LINE
  5
74
330
1E
100
AcDbEntity
  8
0
100
AcDbLine
 10
123.815
 20
-0.0000000000000097
 30
0.0
 11
138.9079999999999
 21
-0.0000000000000098
 31
0.0
  0
LINE
  5
75
330
1E
100
AcDbEntity
  8
0
100
AcDbLine
 10
156.958
 20
0.0000000000000101
 30
0.0
 11
178.1279999999999
 21
0.0000000000000103
 31
0.0
  0
LINE
  5
76
330
1E
100
AcDbEntity
  8
0
100
AcDbLine
 10
138.9079999999999
 20
0.00000000000001
 30
0.0
 11
156.958
 21
0.0000000000000101
 31
0.0
  0
LINE
  5
77
330
1E
100
AcDbEntity
  8
0
100
AcDbLine
 10
123.815
 20
0.0000000000000098
 30
0.0
 11
138.9079999999999
 21
0.00000000000001
 31
0.0
  0
LINE
  5
78
330
1E
100
AcDbEntity
  8
0
100
AcDbLine
 10
199.472
 20
-0.0000000000000102
 30
0.0
 11
223.939
 21
-0.0000000000000103
 31
0.0
  0
LINE
  5
79
330
1E
100
AcDbEntity
  8
0
100
AcDbLine
 10
178.1279999999999
 20
-0.0000000000000102
 30
0.0
 11
199.472
 21
-0.0000000000000102
 31
0.0
  0
LINE
  5
7A
330
1E
100
AcDbEntity
  8
0
100
AcDbLine
 10
199.472
 20
0.0000000000000104
 30
0.0
 11
223.939
 21
0.0000000000000104
 31
0.0
  0
LINE
  5
7B
330
1E
100
AcDbEntity
  8
0
100
AcDbLine
 10
178.1279999999999
 20
0.0000000000000103
 30
0.0
 11
199.472
 21
0.0000000000000104
 31
0.0
  0
LINE
  5
7C
330
1E
100
AcDbEntity
  8
0
100
AcDbLine
 10
248.4059999999999
 20
-0.0000000000000104
 30
0.0
 11
266.327
 21
-0.0000000000000104
 31
0.0
  0
LINE
  5
7D
330
1E
100
AcDbEntity
  8
0
100
AcDbLine
 10
223.939
 20
-0.0000000000000103
 30
0.0
 11
248.4059999999999
 21
-0.0000000000000104
 31
0.0
  0
LINE
  5
7E
330
1E
100
AcDbEntity
  8
0
100
AcDbLine
 10
248.4059999999999
 20
0.0000000000000105
 30
0.0
 11
266.327
 21
0.0000000000000105
 31
0.0
  0
LINE
  5
7F
330
1E
100
AcDbEntity
  8
0
100
AcDbLine
 10
223.939
 20
0.0000000000000104
 30
0.0
 11
248.4059999999999
 21
0.0000000000000105
 31
0.0
  0
LINE
  5
80
330
1E
100
AcDbEntity
  8
0
100
AcDbLine
 10
266.327
 20
-0.0000000000000104
 30
0.0
 11
285.538
 21
-0.0000000000000104
 31
0.0
  0
LINE
  5
9A
330
1E
100
AcDbEntity
  8
0
100
AcDbLine
 10
285.538
 20
-0.0000000000000104
 30
0.0
 11
312.0
 21
-0.0000000000000105
 31
0.0
  0
LINE
  5
C2
330
1E
100
AcDbEntity
  8
0
100
AcDbLine
 10
285.538
 20
0.0000000000000105
 30
0.0
 11
312.0
 21
0.0000000000000106
 31
0.0
  0
LINE
  5
C3
330
1E
100
AcDbEntity
  8
0
100
AcDbLine
 10
266.327
 20
0.0000000000000105
 30
0.0
 11
285.538
 21
0.0000000000000105
 31
0.0
  0
LINE
  5
C7
330
1E
100
AcDbEntity
  8
0
100
AcDbLine
 10
282.606
 20
184.6159999999999
 30
0.0
 11
312.0
 21
184.518
 31
0.0
  0
LINE
  5
C8
330
1E
100
AcDbEntity
  8
0
100
AcDbLine
 10
260.632
 20
184.717
 30
0.0
 11
282.606
 21
184.6159999999999
 31
0.0
  0
LINE
  5
CC
330
1E
100
AcDbEntity
  8
0
100
AcDbLine
 10
239.921
 20
184.8849999999999
 30
0.0
 11
260.632
 21
184.717
 31
0.0
  0
LINE
  5
CD
330
1E
100
AcDbEntity
  8
0
100
AcDbLine
 10
239.532
 20
184.844
 30
0.0
 11
260.632
 21
184.717
 31
0.0
  0
LINE
  5
CE
330
1E
100
AcDbEntity
  8
0
100
AcDbLine
 10
211.479
 20
185.1979999999999
 30
0.0
 11
239.532
 21
184.844
 31
0.0
  0
LINE
  5
CF
330
1E
100
AcDbEntity
  8
0
100
AcDbLine
 10
211.479
 20
185.1979999999999
 30
0.0
 11
239.921
 21
184.8849999999999
 31
0.0
  0
LINE
  5
D3
330
1E
100
AcDbEntity
  8
0
100
AcDbLine
 10
183.2069999999999
 20
185.477
 30
0.0
 11
211.479
 21
185.1979999999999
 31
0.0
  0
LINE
  5
D4
330
1E
100
AcDbEntity
  8
0
100
AcDbLine
 10
157.572
 20
185.7559999999999
 30
0.0
 11
183.2069999999999
 21
185.477
 31
0.0
  0
LINE
  5
D8
330
1E
100
AcDbEntity
  8
0
100
AcDbLine
 10
133.4429999999999
 20
186.265
 30
0.0
 11
157.572
 21
185.7559999999999
 31
0.0
  0
LINE
  5
D9
330
1E
100
AcDbEntity
  8
0
100
AcDbLine
 10
112.925
 20
187.944
 30
0.0
 11
133.4429999999999
 21
186.265
 31
0.0
  0
LINE
  5
DF
330
1E
100
AcDbEntity
  8
0
100
AcDbLine
 10
95.37969999999999
 20
191.4129999999999
 30
0.0
 11
112.925
 21
187.944
 31
0.0
  0
LINE
  5
E0
330
1E
100
AcDbEntity
  8
0
100
AcDbLine
 10
79.39879999999999
 20
196.222
 30
0.0
 11
95.37969999999999
 21
191.4129999999999
 31
0.0
  0
LINE
  5
FA
330
1E
100
AcDbEntity
  8
0
100
AcDbLine
 10
68.7822
 20
200.3359999999999
 30
0.0
 11
79.39879999999999
 21
196.222
 31
0.0
  0
LINE
  5
FB
330
1E
100
AcDbEntity
  8
0
100
AcDbLine
 10
55.2599
 20
206.632
 30
0.0
 11
68.7822
 21
200.3359999999999
 31
0.0
  0
LINE
  5
100
330
1E
100
AcDbEntity
  8
0
100
AcDbLine
 10
579.0
 20
120.0
 30
0.0
 11
574.0
 21
90.0
 31
0.0
  0
LINE
  5
101
330
1E
100
AcDbEntity
  8
0
100
AcDbLine
 10
513.9579999999999
 20
0.0000000000000095
 30
0.0
 11
500.185
 21
0.0000000000000098
 31
0.0
  0
LINE
  5
102
330
1E
100
AcDbEntity
  8
0
100
AcDbLine
 10
513.9579999999999
 20
-0.0000000000000094
 30
0.0
 11
500.185
 21
-0.0000000000000097
 31
0.0
  0
LINE
  5
103
330
1E
100
AcDbEntity
  8
0
100
AcDbLine
 10
572.0
 20
60.0
 30
0.0
 11
571.0
 21
30.0
 31
0.0
  0
LINE
  5
104
330
1E
100
AcDbEntity
  8
0
100
AcDbLine
 10
571.0
 20
30.0
 30
0.0
 11
570.0
 21
0.0000000000000001
 31
0.0
  0
LINE
  5
105
330
1E
100
AcDbEntity
  8
0
100
AcDbLine
 10
571.0
 20
30.0
 30
0.0
 11
570.0
 21
0.0
 31
0.0
  0
LINE
  5
106
330
1E
100
AcDbEntity
  8
0
100
AcDbLine
 10
556.4592
 20
0.0000000000000079
 30
0.0
 11
550.1946
 21
0.0000000000000082
 31
0.0
  0
LINE
  5
107
330
1E
100
AcDbEntity
  8
0
100
AcDbLine
 10
556.4592
 20
-0.0000000000000078
 30
0.0
 11
550.1946
 21
-0.0000000000000081
 31
0.0
  0
LINE
  5
108
330
1E
100
AcDbEntity
  8
0
100
AcDbLine
 10
568.4969999999999
 20
0.0000000000000052
 30
0.0
 11
567.6371999999999
 21
0.0000000000000058
 31
0.0
  0
LINE
  5
109
330
1E
100
AcDbEntity
  8
0
100
AcDbLine
 10
568.4969999999999
 20
-0.000000000000005
 30
0.0
 11
567.6371999999999
 21
-0.0000000000000057
 31
0.0
  0
LINE
  5
10A
330
1E
100
AcDbEntity
  8
0
100
AcDbLine
 10
570.0
 20
0.0000000000000001
 30
0.0
 11
569.8482
 21
-0.0000000000000021
 31
0.0
  0
LINE
  5
10B
330
1E
100
AcDbEntity
  8
0
100
AcDbLine
 10
570.0
 20
0.0000000000000001
 30
0.0
 11
569.8482
 21
0.0000000000000022
 31
0.0
  0
LINE
  5
10C
330
1E
100
AcDbEntity
  8
0
100
AcDbLine
 10
569.8482
 20
0.0000000000000022
 30
0.0
 11
569.7254
 21
0.0000000000000039
 31
0.0
  0
LINE
  5
10D
330
1E
100
AcDbEntity
  8
0
100
AcDbLine
 10
569.7254
 20
0.0000000000000039
 30
0.0
 11
568.4969999999999
 21
0.0000000000000052
 31
0.0
  0
LINE
  5
10E
330
1E
100
AcDbEntity
  8
0
100
AcDbLine
 10
569.8482
 20
-0.0000000000000021
 30
0.0
 11
569.7254
 21
-0.0000000000000037
 31
0.0
  0
LINE
  5
10F
330
1E
100
AcDbEntity
  8
0
100
AcDbLine
 10
569.7254
 20
-0.0000000000000037
 30
0.0
 11
568.4969999999999
 21
-0.000000000000005
 31
0.0
  0
LINE
  5
110
330
1E
100
AcDbEntity
  8
0
100
AcDbLine
 10
563.3379999999999
 20
0.0000000000000072
 30
0.0
 11
559.5300999999999
 21
0.0000000000000076
 31
0.0
  0
LINE
  5
111
330
1E
100
AcDbEntity
  8
0
100
AcDbLine
 10
563.3379999999999
 20
-0.0000000000000071
 30
0.0
 11
559.5300999999999
 21
-0.0000000000000075
 31
0.0
  0
LINE
  5
112
330
1E
100
AcDbEntity
  8
0
100
AcDbLine
 10
567.6371999999999
 20
0.0000000000000058
 30
0.0
 11
566.4088
 21
0.0000000000000064
 31
0.0
  0
LINE
  5
113
330
1E
100
AcDbEntity
  8
0
100
AcDbLine
 10
566.4088
 20
0.0000000000000064
 30
0.0
 11
565.1805
 21
0.0000000000000069
 31
0.0
  0
LINE
  5
114
330
1E
100
AcDbEntity
  8
0
100
AcDbLine
 10
565.1805
 20
0.0000000000000069
 30
0.0
 11
563.3379999999999
 21
0.0000000000000072
 31
0.0
  0
LINE
  5
115
330
1E
100
AcDbEntity
  8
0
100
AcDbLine
 10
567.6371999999999
 20
-0.0000000000000057
 30
0.0
 11
566.4088
 21
-0.0000000000000063
 31
0.0
  0
LINE
  5
116
330
1E
100
AcDbEntity
  8
0
100
AcDbLine
 10
566.4088
 20
-0.0000000000000063
 30
0.0
 11
565.1805
 21
-0.0000000000000068
 31
0.0
  0
LINE
  5
117
330
1E
100
AcDbEntity
  8
0
100
AcDbLine
 10
565.1805
 20
-0.0000000000000068
 30
0.0
 11
563.3379999999999
 21
-0.0000000000000071
 31
0.0
  0
LINE
  5
118
330
1E
100
AcDbEntity
  8
0
100
AcDbLine
 10
559.5300999999999
 20
0.0000000000000076
 30
0.0
 11
556.4592
 21
0.0000000000000079
 31
0.0
  0
LINE
  5
119
330
1E
100
AcDbEntity
  8
0
100
AcDbLine
 10
559.5300999999999
 20
-0.0000000000000075
 30
0.0
 11
556.4592
 21
-0.0000000000000078
 31
0.0
  0
LINE
  5
11A
330
1E
100
AcDbEntity
  8
0
100
AcDbLine
 10
532.9977
 20
0.0000000000000089
 30
0.0
 11
523.048
 21
0.0000000000000092
 31
0.0
  0
LINE
  5
11B
330
1E
100
AcDbEntity
  8
0
100
AcDbLine
 10
532.9977
 20
-0.0000000000000088
 30
0.0
 11
523.048
 21
-0.0000000000000091
 31
0.0
  0
LINE
  5
11C
330
1E
100
AcDbEntity
  8
0
100
AcDbLine
 10
550.1946
 20
0.0000000000000082
 30
0.0
 11
542.456
 21
0.0000000000000086
 31
0.0
  0
LINE
  5
11D
330
1E
100
AcDbEntity
  8
0
100
AcDbLine
 10
550.1946
 20
-0.0000000000000081
 30
0.0
 11
542.456
 21
-0.0000000000000085
 31
0.0
  0
LINE
  5
11E
330
1E
100
AcDbEntity
  8
0
100
AcDbLine
 10
542.456
 20
0.0000000000000086
 30
0.0
 11
532.9977
 21
0.0000000000000089
 31
0.0
  0
LINE
  5
11F
330
1E
100
AcDbEntity
  8
0
100
AcDbLine
 10
542.456
 20
-0.0000000000000085
 30
0.0
 11
532.9977
 21
-0.0000000000000088
 31
0.0
  0
LINE
  5
120
330
1E
100
AcDbEntity
  8
0
100
AcDbLine
 10
523.048
 20
0.0000000000000092
 30
0.0
 11
513.9579999999999
 21
0.0000000000000095
 31
0.0
  0
LINE
  5
121
330
1E
100
AcDbEntity
  8
0
100
AcDbLine
 10
523.048
 20
-0.0000000000000091
 30
0.0
 11
513.9579999999999
 21
-0.0000000000000094
 31
0.0
  0
LINE
  5
122
330
1E
100
AcDbEntity
  8
0
100
AcDbLine
 10
574.0
 20
90.0
 30
0.0
 11
572.0
 21
60.0
 31
0.0
  0
LINE
  5
123
330
1E
100
AcDbEntity
  8
0
100
AcDbLine
 10
424.528
 20
0.0000000000000104
 30
0.0
 11
400.0609999999999
 21
0.0000000000000104
 31
0.0
  0
LINE
  5
124
330
1E
100
AcDbEntity
  8
0
100
AcDbLine
 10
424.528
 20
-0.0000000000000102
 30
0.0
 11
400.0609999999999
 21
-0.0000000000000103
 31
0.0
  0
LINE
  5
125
330
1E
100
AcDbEntity
  8
0
100
AcDbLine
 10
467.042
 20
0.0000000000000101
 30
0.0
 11
445.872
 21
0.0000000000000103
 31
0.0
  0
LINE
  5
126
330
1E
100
AcDbEntity
  8
0
100
AcDbLine
 10
467.042
 20
-0.00000000000001
 30
0.0
 11
445.872
 21
-0.0000000000000102
 31
0.0
  0
LINE
  5
127
330
1E
100
AcDbEntity
  8
0
100
AcDbLine
 10
485.092
 20
0.00000000000001
 30
0.0
 11
467.042
 21
0.0000000000000101
 31
0.0
  0
LINE
  5
128
330
1E
100
AcDbEntity
  8
0
100
AcDbLine
 10
485.092
 20
-0.0000000000000098
 30
0.0
 11
467.042
 21
-0.00000000000001
 31
0.0
  0
LINE
  5
129
330
1E
100
AcDbEntity
  8
0
100
AcDbLine
 10
500.185
 20
0.0000000000000098
 30
0.0
 11
485.092
 21
0.00000000000001
 31
0.0
  0
LINE
  5
12A
330
1E
100
AcDbEntity
  8
0
100
AcDbLine
 10
500.185
 20
-0.0000000000000097
 30
0.0
 11
485.092
 21
-0.0000000000000098
 31
0.0
  0
LINE
  5
12B
330
1E
100
AcDbEntity
  8
0
100
AcDbLine
 10
445.872
 20
0.0000000000000103
 30
0.0
 11
424.528
 21
0.0000000000000104
 31
0.0
  0
LINE
  5
12C
330
1E
100
AcDbEntity
  8
0
100
AcDbLine
 10
445.872
 20
-0.0000000000000102
 30
0.0
 11
424.528
 21
-0.0000000000000102
 31
0.0
  0
LINE
  5
12D
330
1E
100
AcDbEntity
  8
0
100
AcDbLine
 10
375.594
 20
0.0000000000000105
 30
0.0
 11
357.6729999999999
 21
0.0000000000000105
 31
0.0
  0
LINE
  5
12E
330
1E
100
AcDbEntity
  8
0
100
AcDbLine
 10
375.594
 20
-0.0000000000000104
 30
0.0
 11
357.6729999999999
 21
-0.0000000000000104
 31
0.0
  0
LINE
  5
12F
330
1E
100
AcDbEntity
  8
0
100
AcDbLine
 10
400.0609999999999
 20
0.0000000000000104
 30
0.0
 11
375.594
 21
0.0000000000000105
 31
0.0
  0
LINE
  5
130
330
1E
100
AcDbEntity
  8
0
100
AcDbLine
 10
400.0609999999999
 20
-0.0000000000000103
 30
0.0
 11
375.594
 21
-0.0000000000000104
 31
0.0
  0
LINE
  5
131
330
1E
100
AcDbEntity
  8
0
100
AcDbLine
 10
338.4619999999999
 20
0.0000000000000105
 30
0.0
 11
312.0
 21
0.0000000000000106
 31
0.0
  0
LINE
  5
132
330
1E
100
AcDbEntity
  8
0
100
AcDbLine
 10
338.4619999999999
 20
-0.0000000000000104
 30
0.0
 11
312.0
 21
-0.0000000000000105
 31
0.0
  0
LINE
  5
133
330
1E
100
AcDbEntity
  8
0
100
AcDbLine
 10
357.6729999999999
 20
0.0000000000000105
 30
0.0
 11
338.4619999999999
 21
0.0000000000000105
 31
0.0
  0
LINE
  5
134
330
1E
100
AcDbEntity
  8
0
100
AcDbLine
 10
357.6729999999999
 20
-0.0000000000000104
 30
0.0
 11
338.4619999999999
 21
-0.0000000000000104
 31
0.0
  0
LINE
  5
135
330
1E
100
AcDbEntity
  8
0
100
AcDbLine
 10
511.075
 20
187.944
 30
0.0
 11
490.5569999999999
 21
186.265
 31
0.0
  0
LINE
  5
136
330
1E
100
AcDbEntity
  8
0
100
AcDbLine
 10
595.3409
 20
186.049
 30
0.0
 11
593.6747
 21
182.779
 31
0.0
  0
LINE
  5
137
330
1E
100
AcDbEntity
  8
0
100
AcDbLine
 10
586.0
 20
150.0
 30
0.0
 11
579.0
 21
120.0
 31
0.0
  0
LINE
  5
138
330
1E
100
AcDbEntity
  8
0
100
AcDbLine
 10
596.0
 20
180.0
 30
0.0
 11
586.0
 21
150.0
 31
0.0
  0
LINE
  5
139
330
1E
100
AcDbEntity
  8
0
100
AcDbLine
 10
596.0
 20
180.0
 30
0.0
 11
595.8328999999999
 21
180.0
 31
0.0
  0
LINE
  5
13A
330
1E
100
AcDbEntity
  8
0
100
AcDbLine
 10
593.6747
 20
182.779
 30
0.0
 11
593.2306999999999
 21
180.7159999999999
 31
0.0
  0
LINE
  5
13B
330
1E
100
AcDbEntity
  8
0
100
AcDbLine
 10
595.8328999999999
 20
180.0
 30
0.0
 11
595.6977000000001
 21
180.0
 31
0.0
  0
LINE
  5
13C
330
1E
100
AcDbEntity
  8
0
100
AcDbLine
 10
595.6977000000001
 20
180.0
 30
0.0
 11
594.3456
 21
180.0
 31
0.0
  0
LINE
  5
13D
330
1E
100
AcDbEntity
  8
0
100
AcDbLine
 10
594.3456
 20
180.0
 30
0.0
 11
593.3990999999999
 21
180.0
 31
0.0
  0
LINE
  5
13E
330
1E
100
AcDbEntity
  8
0
100
AcDbLine
 10
593.3990999999999
 20
180.0
 30
0.0
 11
593.2306999999999
 21
180.7159999999999
 31
0.0
  0
LINE
  5
13F
330
1E
100
AcDbEntity
  8
0
100
AcDbLine
 10
607.6331999999999
 20
225.9129999999999
 30
0.0
 11
599.8795
 21
224.4369999999999
 31
0.0
  0
LINE
  5
140
330
1E
100
AcDbEntity
  8
0
100
AcDbLine
 10
605.5306999999999
 20
204.4709999999999
 30
0.0
 11
604.3391999999999
 21
202.7099999999999
 31
0.0
  0
LINE
  5
141
330
1E
100
AcDbEntity
  8
0
100
AcDbLine
 10
605.5306999999999
 20
204.4709999999999
 30
0.0
 11
604.3391999999999
 21
202.7099999999999
 31
0.0
  0
LINE
  5
142
330
1E
100
AcDbEntity
  8
0
100
AcDbLine
 10
624.0
 20
226.0
 30
0.0
 11
614.0
 21
213.0
 31
0.0
  0
LINE
  5
143
330
1E
100
AcDbEntity
  8
0
100
AcDbLine
 10
614.0
 20
213.0
 30
0.0
 11
609.0
 21
205.0
 31
0.0
  0
LINE
  5
144
330
1E
100
AcDbEntity
  8
0
100
AcDbLine
 10
609.0
 20
205.0
 30
0.0
 11
608.8252999999999
 21
205.0
 31
0.0
  0
LINE
  5
145
330
1E
100
AcDbEntity
  8
0
100
AcDbLine
 10
608.8252999999999
 20
205.0
 30
0.0
 11
608.6839
 21
205.0
 31
0.0
  0
LINE
  5
146
330
1E
100
AcDbEntity
  8
0
100
AcDbLine
 10
608.6839
 20
205.0
 30
0.0
 11
607.2699
 21
205.0
 31
0.0
  0
LINE
  5
147
330
1E
100
AcDbEntity
  8
0
100
AcDbLine
 10
607.2699
 20
205.0
 30
0.0
 11
606.28
 21
205.0
 31
0.0
  0
LINE
  5
148
330
1E
100
AcDbEntity
  8
0
100
AcDbLine
 10
606.28
 20
205.0
 30
0.0
 11
605.5306999999999
 21
204.4709999999999
 31
0.0
  0
LINE
  5
149
330
1E
100
AcDbEntity
  8
0
100
AcDbLine
 10
606.28
 20
205.0
 30
0.0
 11
605.5306999999999
 21
204.4709999999999
 31
0.0
  0
LINE
  5
14A
330
1E
100
AcDbEntity
  8
0
100
AcDbLine
 10
618.1717599999999
 20
226.0
 30
0.0
 11
615.94359
 21
226.0
 31
0.0
  0
LINE
  5
14B
330
1E
100
AcDbEntity
  8
0
100
AcDbLine
 10
623.6679249999999
 20
226.0
 30
0.0
 11
622.1824699999999
 21
226.0
 31
0.0
  0
LINE
  5
14C
330
1E
100
AcDbEntity
  8
0
100
AcDbLine
 10
623.6679249999999
 20
226.0
 30
0.0
 11
622.1824699999999
 21
226.0
 31
0.0
  0
LINE
  5
14D
330
1E
100
AcDbEntity
  8
0
100
AcDbLine
 10
624.0
 20
226.0
 30
0.0
 11
623.8164669999999
 21
226.0
 31
0.0
  0
LINE
  5
14E
330
1E
100
AcDbEntity
  8
0
100
AcDbLine
 10
623.8164669999999
 20
226.0
 30
0.0
 11
623.6679249999999
 21
226.0
 31
0.0
  0
LINE
  5
14F
330
1E
100
AcDbEntity
  8
0
100
AcDbLine
 10
622.1824699999999
 20
226.0
 30
0.0
 11
621.14266
 21
226.0
 31
0.0
  0
LINE
  5
150
330
1E
100
AcDbEntity
  8
0
100
AcDbLine
 10
621.14266
 20
226.0
 30
0.0
 11
619.65721
 21
226.0
 31
0.0
  0
LINE
  5
151
330
1E
100
AcDbEntity
  8
0
100
AcDbLine
 10
619.65721
 20
226.0
 30
0.0
 11
618.1717599999999
 21
226.0
 31
0.0
  0
LINE
  5
152
330
1E
100
AcDbEntity
  8
0
100
AcDbLine
 10
611.3387
 20
226.0
 30
0.0
 11
607.6331999999999
 21
225.9129999999999
 31
0.0
  0
LINE
  5
153
330
1E
100
AcDbEntity
  8
0
100
AcDbLine
 10
615.94359
 20
226.0
 30
0.0
 11
611.3387
 21
226.0
 31
0.0
  0
LINE
  5
154
330
1E
100
AcDbEntity
  8
0
100
AcDbLine
 10
588.3999999999999
 20
219.0
 30
0.0
 11
568.7401
 21
206.632
 31
0.0
  0
LINE
  5
155
330
1E
100
AcDbEntity
  8
0
100
AcDbLine
 10
568.7401
 20
206.632
 30
0.0
 11
555.2178
 21
200.3359999999999
 31
0.0
  0
LINE
  5
156
330
1E
100
AcDbEntity
  8
0
100
AcDbLine
 10
604.3391999999999
 20
202.7099999999999
 30
0.0
 11
602.1808
 21
199.1719999999999
 31
0.0
  0
LINE
  5
157
330
1E
100
AcDbEntity
  8
0
100
AcDbLine
 10
604.3391999999999
 20
202.7099999999999
 30
0.0
 11
602.1808
 21
199.1719999999999
 31
0.0
  0
LINE
  5
158
330
1E
100
AcDbEntity
  8
0
100
AcDbLine
 10
600.242925183775
 20
195.774393936208
 30
0.0
 11
597.0797
 21
189.462
 31
0.0
  0
LINE
  5
159
330
1E
100
AcDbEntity
  8
0
100
AcDbLine
 10
600.242925183775
 20
195.774393936208
 30
0.0
 11
597.0797
 21
189.462
 31
0.0
  0
LINE
  5
15A
330
1E
100
AcDbEntity
  8
0
100
AcDbLine
 10
597.0797
 20
189.462
 30
0.0
 11
595.3409
 21
186.049
 31
0.0
  0
LINE
  5
15B
330
1E
100
AcDbEntity
  8
0
100
AcDbLine
 10
602.1808
 20
199.1719999999999
 30
0.0
 11
600.242925183775
 21
195.774393936208
 31
0.0
  0
LINE
  5
15C
330
1E
100
AcDbEntity
  8
0
100
AcDbLine
 10
602.1808
 20
199.1719999999999
 30
0.0
 11
600.2429251837751
 21
195.774393936208
 31
0.0
  0
LINE
  5
15D
330
1E
100
AcDbEntity
  8
0
100
AcDbLine
 10
602.1808
 20
199.1719999999999
 30
0.0
 11
600.2429251837751
 21
195.774393936208
 31
0.0
  0
LINE
  5
15E
330
1E
100
AcDbEntity
  8
0
100
AcDbLine
 10
544.6012
 20
196.222
 30
0.0
 11
528.6203
 21
191.4129999999999
 31
0.0
  0
LINE
  5
15F
330
1E
100
AcDbEntity
  8
0
100
AcDbLine
 10
555.2178
 20
200.3359999999999
 30
0.0
 11
544.6012
 21
196.222
 31
0.0
  0
LINE
  5
160
330
1E
100
AcDbEntity
  8
0
100
AcDbLine
 10
528.6203
 20
191.4129999999999
 30
0.0
 11
511.075
 21
187.944
 31
0.0
  0
LINE
  5
161
330
1E
100
AcDbEntity
  8
0
100
AcDbLine
 10
599.8795
 20
224.4369999999999
 30
0.0
 11
588.3999999999999
 21
219.0
 31
0.0
  0
LINE
  5
162
330
1E
100
AcDbEntity
  8
0
100
AcDbLine
 10
412.521
 20
185.1979999999999
 30
0.0
 11
384.079
 21
184.8849999999999
 31
0.0
  0
LINE
  5
163
330
1E
100
AcDbEntity
  8
0
100
AcDbLine
 10
412.521
 20
185.1979999999999
 30
0.0
 11
384.4679999999999
 21
184.844
 31
0.0
  0
LINE
  5
164
330
1E
100
AcDbEntity
  8
0
100
AcDbLine
 10
466.4279999999999
 20
185.7559999999999
 30
0.0
 11
440.793
 21
185.477
 31
0.0
  0
LINE
  5
165
330
1E
100
AcDbEntity
  8
0
100
AcDbLine
 10
490.5569999999999
 20
186.265
 30
0.0
 11
466.4279999999999
 21
185.7559999999999
 31
0.0
  0
LINE
  5
166
330
1E
100
AcDbEntity
  8
0
100
AcDbLine
 10
440.793
 20
185.477
 30
0.0
 11
412.521
 21
185.1979999999999
 31
0.0
  0
LINE
  5
167
330
1E
100
AcDbEntity
  8
0
100
AcDbLine
 10
363.368
 20
184.717
 30
0.0
 11
341.394
 21
184.6159999999999
 31
0.0
  0
LINE
  5
168
330
1E
100
AcDbEntity
  8
0
100
AcDbLine
 10
384.4679999999999
 20
184.844
 30
0.0
 11
363.368
 21
184.717
 31
0.0
  0
LINE
  5
169
330
1E
100
AcDbEntity
  8
0
100
AcDbLine
 10
384.079
 20
184.8849999999999
 30
0.0
 11
363.368
 21
184.717
 31
0.0
  0
LINE
  5
16A
330
1E
100
AcDbEntity
  8
0
100
AcDbLine
 10
341.394
 20
184.6159999999999
 30
0.0
 11
312.0
 21
184.518
 31
0.0
  0
ENDSEC
  0
SECTION
  2
OBJECTS
  0
DICTIONARY
  5
C
330
0
100
AcDbDictionary
281
     1
  3
ACAD_GROUP
350
D
  3
ACAD_LAYOUT
350
19
  3
ACAD_MLINESTYLE
350
16
  3
ACAD_PLOTSETTINGS
350
18
  3
ACAD_PLOTSTYLENAME
350
E
  3
AcDbVariableDictionary
350
16B
  0
DICTIONARY
  5
D
102
{ACAD_REACTORS
330
C
102
}
330
C
100
AcDbDictionary
281
     1
  0
DICTIONARY
  5
19
102
{ACAD_REACTORS
330
C
102
}
330
C
100
AcDbDictionary
281
     1
  3
Layout1
350
1D
  3
Model
350
21
  0
DICTIONARY
  5
16
102
{ACAD_REACTORS
330
C
102
}
330
C
100
AcDbDictionary
281
     1
  3
Standard
350
17
  0
DICTIONARY
  5
18
102
{ACAD_REACTORS
330
C
102
}
330
C
100
AcDbDictionary
281
     1
  0
ACDBDICTIONARYWDFLT
  5
E
102
{ACAD_REACTORS
330
C
102
}
330
C
100
AcDbDictionary
281
     1
  3
Normal
350
F
100
AcDbDictionaryWithDefault
340
F
  0
DICTIONARY
  5
16B
102
{ACAD_REACTORS
330
C
102
}
330
C
100
AcDbDictionary
281
     1
  3
DIMASSOC
350
16C
  0
LAYOUT
  5
1D
102
{ACAD_REACTORS
330
19
102
}
330
19
100
AcDbPlotSettings
  1

  2
hp deskjet 980c series
  4

  6

 40
0.0
 41
0.0
 42
0.0
 43
0.0
 44
0.0
 45
0.0
 46
0.0
 47
0.0
 48
0.0
 49
0.0
140
0.0
141
0.0
142
1.0
143
1.0
 70
   688
 72
     0
 73
     0
 74
     5
  7

 75
    16
147
1.0
148
0.0
149
0.0
100
AcDbLayout
  1
Layout1
 70
     1
 71
     1
 10
0.0
 20
0.0
 11
12.0
 21
9.0
 12
0.0
 22
0.0
 32
0.0
 14
1.000000000000000E+20
 24
1.000000000000000E+20
 34
1.000000000000000E+20
 15
-1.000000000000000E+20
 25
-1.000000000000000E+20
 35
-1.000000000000000E+20
146
0.0
 13
0.0
 23
0.0
 33
0.0
 16
1.0
 26
0.0
 36
0.0
 17
0.0
 27
1.0
 37
0.0
 76
     0
330
1A
  0
LAYOUT
  5
21
102
{ACAD_REACTORS
330
19
102
}
330
19
100
AcDbPlotSettings
  1

  2
hp deskjet 980c series
  4

  6

 40
0.0
 41
0.0
 42
0.0
 43
0.0
 44
0.0
 45
0.0
 46
0.0
 47
0.0
 48
0.0
 49
0.0
140
0.0
141
0.0
142
1.0
143
1.0
 70
  1712
 72
     0
 73
     0
 74
     0
  7

 75
     0
147
1.0
148
0.0
149
0.0
100
AcDbLayout
  1
Model
 70
     1
 71
     0
 10
0.0
 20
0.0
 11
12.0
 21
9.0
 12
0.0
 22
0.0
 32
0.0
 14
0.0
 24
0.0
 34
0.0
 15
0.0
 25
0.0
 35
0.0
146
0.0
 13
0.0
 23
0.0
 33
0.0
 16
1.0
 26
0.0
 36
0.0
 17
0.0
 27
1.0
 37
0.0
 76
     0
330
1E
  0
MLINESTYLE
  5
17
102
{ACAD_REACTORS
330
16
102
}
330
16
100
AcDbMlineStyle
  2
STANDARD
 70
     0
  3

 62
   256
 51
90.0
 52
90.0
 71
     2
 49
0.5
 62
   256
  6
BYLAYER
 49
-0.5
 62
   256
  6
BYLAYER
  0
ACDBPLACEHOLDER
  5
F
102
{ACAD_REACTORS
330
E
102
}
330
E
  0
DICTIONARYVAR
  5
16C
102
{ACAD_REACTORS
330
16B
102
}
330
16B
100
DictionaryVariables
280
     0
  1
1
  0
ENDSEC
  0
EOF
