  0
SECTION
  2
HEADER
  9
$ACADVER
  1
AC1015
  9
$ACADMAINTVER
 70
    13
  9
$DWGCODEPAGE
  3
ANSI_1252
  9
$INSBASE
 10
0.0
 20
0.0
 30
0.0
  9
$EXTMIN
 10
0.0
 20
-0.0760000000000001
 30
0.0
  9
$EXTMAX
 10
100.0
 20
164.076
 30
0.0
  9
$LIMMIN
 10
0.0
 20
0.0
  9
$LIMMAX
 10
12.0
 20
9.0
  9
$ORTHOMODE
 70
     0
  9
$REGENMODE
 70
     1
  9
$FILLMODE
 70
     1
  9
$QTEXTMODE
 70
     0
  9
$MIRRTEXT
 70
     1
  9
$LTSCALE
 40
1.0
  9
$ATTMODE
 70
     1
  9
$TEXTSIZE
 40
0.2
  9
$TRACEWID
 40
0.05
  9
$TEXTSTYLE
  7
Standard
  9
$CLAYER
  8
0
  9
$CELTYPE
  6
Continuous
  9
$CECOLOR
 62
   256
  9
$CELTSCALE
 40
1.0
  9
$DISPSILH
 70
     0
  9
$DIMSCALE
 40
1.0
  9
$DIMASZ
 40
0.18
  9
$DIMEXO
 40
0.0625
  9
$DIMDLI
 40
0.38
  9
$DIMRND
 40
0.0
  9
$DIMDLE
 40
0.0
  9
$DIMEXE
 40
0.18
  9
$DIMTP
 40
0.0
  9
$DIMTM
 40
0.0
  9
$DIMTXT
 40
0.18
  9
$DIMCEN
 40
0.09
  9
$DIMTSZ
 40
0.0
  9
$DIMTOL
 70
     0
  9
$DIMLIM
 70
     0
  9
$DIMTIH
 70
     1
  9
$DIMTOH
 70
     1
  9
$DIMSE1
 70
     0
  9
$DIMSE2
 70
     0
  9
$DIMTAD
 70
     0
  9
$DIMZIN
 70
     0
  9
$DIMBLK
  1

  9
$DIMASO
 70
     1
  9
$DIMSHO
 70
     1
  9
$DIMPOST
  1

  9
$DIMAPOST
  1

  9
$DIMALT
 70
     0
  9
$DIMALTD
 70
     2
  9
$DIMALTF
 40
25.4
  9
$DIMLFAC
 40
1.0
  9
$DIMTOFL
 70
     0
  9
$DIMTVP
 40
0.0
  9
$DIMTIX
 70
     0
  9
$DIMSOXD
 70
     0
  9
$DIMSAH
 70
     0
  9
$DIMBLK1
  1

  9
$DIMBLK2
  1

  9
$DIMSTYLE
  2
Standard
  9
$DIMCLRD
 70
     0
  9
$DIMCLRE
 70
     0
  9
$DIMCLRT
 70
     0
  9
$DIMTFAC
 40
1.0
  9
$DIMGAP
 40
0.09
  9
$DIMJUST
 70
     0
  9
$DIMSD1
 70
     0
  9
$DIMSD2
 70
     0
  9
$DIMTOLJ
 70
     1
  9
$DIMTZIN
 70
     0
  9
$DIMALTZ
 70
     0
  9
$DIMALTTZ
 70
     0
  9
$DIMUPT
 70
     0
  9
$DIMDEC
 70
     4
  9
$DIMTDEC
 70
     4
  9
$DIMALTU
 70
     2
  9
$DIMALTTD
 70
     2
  9
$DIMTXSTY
  7
Standard
  9
$DIMAUNIT
 70
     0
  9
$DIMADEC
 70
     0
  9
$DIMALTRND
 40
0.0
  9
$DIMAZIN
 70
     0
  9
$DIMDSEP
 70
    46
  9
$DIMATFIT
 70
     3
  9
$DIMFRAC
 70
     0
  9
$DIMLDRBLK
  1

  9
$DIMLUNIT
 70
     2
  9
$DIMLWD
 70
    -2
  9
$DIMLWE
 70
    -2
  9
$DIMTMOVE
 70
     0
  9
$LUNITS
 70
     2
  9
$LUPREC
 70
     4
  9
$SKETCHINC
 40
0.1
  9
$FILLETRAD
 40
0.0
  9
$AUNITS
 70
     0
  9
$AUPREC
 70
     0
  9
$MENU
  1
.
  9
$ELEVATION
 40
0.0
  9
$PELEVATION
 40
0.0
  9
$THICKNESS
 40
0.0
  9
$LIMCHECK
 70
     0
  9
$CHAMFERA
 40
0.0
  9
$CHAMFERB
 40
0.0
  9
$CHAMFERC
 40
0.0
  9
$CHAMFERD
 40
0.0
  9
$SKPOLY
 70
     0
  9
$TDCREATE
 40
2454875.811844606
  9
$TDUCREATE
 40
2454875.770177940
  9
$TDUPDATE
 40
2454875.814469745
  9
$TDUUPDATE
 40
2454875.772803079
  9
$TDINDWG
 40
0.0026251389
  9
$TDUSRTIMER
 40
0.0026251389
  9
$USRTIMER
 70
     1
  9
$ANGBASE
 50
0.0
  9
$ANGDIR
 70
     0
  9
$PDMODE
 70
     0
  9
$PDSIZE
 40
0.0
  9
$PLINEWID
 40
0.0
  9
$SPLFRAME
 70
     0
  9
$SPLINETYPE
 70
     6
  9
$SPLINESEGS
 70
     8
  9
$HANDSEED
  5
215
  9
$SURFTAB1
 70
     6
  9
$SURFTAB2
 70
     6
  9
$SURFTYPE
 70
     6
  9
$SURFU
 70
     6
  9
$SURFV
 70
     6
  9
$UCSBASE
  2

  9
$UCSNAME
  2

  9
$UCSORG
 10
0.0
 20
0.0
 30
0.0
  9
$UCSXDIR
 10
1.0
 20
0.0
 30
0.0
  9
$UCSYDIR
 10
0.0
 20
1.0
 30
0.0
  9
$UCSORTHOREF
  2

  9
$UCSORTHOVIEW
 70
     1
  9
$UCSORGTOP
 10
0.0
 20
0.0
 30
0.0
  9
$UCSORGBOTTOM
 10
0.0
 20
0.0
 30
0.0
  9
$UCSORGLEFT
 10
0.0
 20
0.0
 30
0.0
  9
$UCSORGRIGHT
 10
0.0
 20
0.0
 30
0.0
  9
$UCSORGFRONT
 10
0.0
 20
0.0
 30
0.0
  9
$UCSORGBACK
 10
0.0
 20
0.0
 30
0.0
  9
$PUCSBASE
  2

  9
$PUCSNAME
  2

  9
$PUCSORG
 10
0.0
 20
0.0
 30
0.0
  9
$PUCSXDIR
 10
1.0
 20
0.0
 30
0.0
  9
$PUCSYDIR
 10
0.0
 20
1.0
 30
0.0
  9
$PUCSORTHOREF
  2

  9
$PUCSORTHOVIEW
 70
     0
  9
$PUCSORGTOP
 10
0.0
 20
0.0
 30
0.0
  9
$PUCSORGBOTTOM
 10
0.0
 20
0.0
 30
0.0
  9
$PUCSORGLEFT
 10
0.0
 20
0.0
 30
0.0
  9
$PUCSORGRIGHT
 10
0.0
 20
0.0
 30
0.0
  9
$PUCSORGFRONT
 10
0.0
 20
0.0
 30
0.0
  9
$PUCSORGBACK
 10
0.0
 20
0.0
 30
0.0
  9
$USERI1
 70
     0
  9
$USERI2
 70
     0
  9
$USERI3
 70
     0
  9
$USERI4
 70
     0
  9
$USERI5
 70
     0
  9
$USERR1
 40
0.0
  9
$USERR2
 40
0.0
  9
$USERR3
 40
0.0
  9
$USERR4
 40
0.0
  9
$USERR5
 40
0.0
  9
$WORLDVIEW
 70
     1
  9
$SHADEDGE
 70
     3
  9
$SHADEDIF
 70
    70
  9
$TILEMODE
 70
     1
  9
$MAXACTVP
 70
    64
  9
$PINSBASE
 10
0.0
 20
0.0
 30
0.0
  9
$PLIMCHECK
 70
     0
  9
$PEXTMIN
 10
1.000000000000000E+20
 20
1.000000000000000E+20
 30
1.000000000000000E+20
  9
$PEXTMAX
 10
-1.000000000000000E+20
 20
-1.000000000000000E+20
 30
-1.000000000000000E+20
  9
$PLIMMIN
 10
0.0
 20
0.0
  9
$PLIMMAX
 10
12.0
 20
9.0
  9
$UNITMODE
 70
     0
  9
$VISRETAIN
 70
     1
  9
$PLINEGEN
 70
     0
  9
$PSLTSCALE
 70
     1
  9
$TREEDEPTH
 70
  3020
  9
$CMLSTYLE
  2
Standard
  9
$CMLJUST
 70
     0
  9
$CMLSCALE
 40
1.0
  9
$PROXYGRAPHICS
 70
     1
  9
$MEASUREMENT
 70
     0
  9
$CELWEIGHT
370
    -1
  9
$ENDCAPS
280
     0
  9
$JOINSTYLE
280
     0
  9
$LWDISPLAY
290
     0
  9
$INSUNITS
 70
     0
  9
$HYPERLINKBASE
  1

  9
$STYLESHEET
  1

  9
$XEDIT
290
     1
  9
$CEPSNTYPE
380
     0
  9
$PSTYLEMODE
290
     1
  9
$FINGERPRINTGUID
  2
{44A37C4D-0271-4867-B60E-15DD612F5B53}
  9
$VERSIONGUID
  2
{BEE5A785-D7F3-4840-AAA0-851814F38186}
  9
$EXTNAMES
290
     1
  9
$PSVPSCALE
 40
0.0
  9
$OLESTARTUP
290
     0
  0
ENDSEC
  0
SECTION
  2
CLASSES
  0
CLASS
  1
ACDBDICTIONARYWDFLT
  2
AcDbDictionaryWithDefault
  3
AutoCAD 2000
 90
        0
280
     0
281
     0
  0
CLASS
  1
ACDBPLACEHOLDER
  2
AcDbPlaceHolder
  3
AutoCAD 2000
 90
        0
280
     0
281
     0
  0
CLASS
  1
LAYOUT
  2
AcDbLayout
  3
AutoCAD 2000
 90
        0
280
     0
281
     0
  0
CLASS
  1
DICTIONARYVAR
  2
AcDbDictionaryVar
  3
AutoCAD 2000
 90
        0
280
     0
281
     0
  0
ENDSEC
  0
SECTION
  2
TABLES
  0
TABLE
  2
VPORT
  5
8
330
0
100
AcDbSymbolTable
 70
     2
  0
VPORT
  5
214
330
8
100
AcDbSymbolTableRecord
100
AcDbViewportTableRecord
  2
*Active
 70
     0
 10
0.0
 20
0.0
 11
1.0
 21
1.0
 12
50.0
 22
82.0
 13
0.0
 23
0.0
 14
1.0
 24
1.0
 15
0.0
 25
0.0
 16
0.0
 26
0.0
 36
1.0
 17
0.0
 27
0.0
 37
0.0
 40
165.1887494736842
 41
1.968387776606954
 42
50.0
 43
0.0
 44
0.0
 50
0.0
 51
0.0
 71
     0
 72
   100
 73
     1
 74
     3
 75
     0
 76
     0
 77
     0
 78
     0
281
     0
 65
     1
110
0.0
120
0.0
130
0.0
111
1.0
121
0.0
131
0.0
112
0.0
122
1.0
132
0.0
 79
     1
146
0.0
  0
ENDTAB
  0
TABLE
  2
LTYPE
  5
5
330
0
100
AcDbSymbolTable
 70
     1
  0
LTYPE
  5
13
330
5
100
AcDbSymbolTableRecord
100
AcDbLinetypeTableRecord
  2
ByBlock
 70
     0
  3

 72
    65
 73
     0
 40
0.0
  0
LTYPE
  5
14
330
5
100
AcDbSymbolTableRecord
100
AcDbLinetypeTableRecord
  2
ByLayer
 70
     0
  3

 72
    65
 73
     0
 40
0.0
  0
LTYPE
  5
15
330
5
100
AcDbSymbolTableRecord
100
AcDbLinetypeTableRecord
  2
Continuous
 70
     0
  3
Solid line
 72
    65
 73
     0
 40
0.0
  0
ENDTAB
  0
TABLE
  2
LAYER
  5
2
330
0
100
AcDbSymbolTable
 70
     1
  0
LAYER
  5
10
330
2
100
AcDbSymbolTableRecord
100
AcDbLayerTableRecord
  2
0
 70
     0
 62
     7
  6
Continuous
370
    -3
390
F
  0
ENDTAB
  0
TABLE
  2
STYLE
  5
3
330
0
100
AcDbSymbolTable
 70
     1
  0
STYLE
  5
11
330
3
100
AcDbSymbolTableRecord
100
AcDbTextStyleTableRecord
  2
Standard
 70
     0
 40
0.0
 41
1.0
 50
0.0
 71
     0
 42
0.2
  3
txt
  4

  0
ENDTAB
  0
TABLE
  2
VIEW
  5
6
330
0
100
AcDbSymbolTable
 70
     0
  0
ENDTAB
  0
TABLE
  2
UCS
  5
7
330
0
100
AcDbSymbolTable
 70
     0
  0
ENDTAB
  0
TABLE
  2
APPID
  5
9
330
0
100
AcDbSymbolTable
 70
     1
  0
APPID
  5
12
330
9
100
AcDbSymbolTableRecord
100
AcDbRegAppTableRecord
  2
ACAD
 70
     0
  0
ENDTAB
  0
TABLE
  2
DIMSTYLE
  5
A
330
0
100
AcDbSymbolTable
 70
     1
100
AcDbDimStyleTable
 71
     0
  0
DIMSTYLE
105
198
330
A
100
AcDbSymbolTableRecord
100
AcDbDimStyleTableRecord
  2
Standard
 70
     0
340
11
  0
ENDTAB
  0
TABLE
  2
BLOCK_RECORD
  5
1
330
0
100
AcDbSymbolTable
 70
     0
  0
BLOCK_RECORD
  5
1E
330
1
100
AcDbSymbolTableRecord
100
AcDbBlockTableRecord
  2
*Model_Space
340
21
  0
BLOCK_RECORD
  5
1A
330
1
100
AcDbSymbolTableRecord
100
AcDbBlockTableRecord
  2
*Paper_Space
340
1D
  0
ENDTAB
  0
ENDSEC
  0
SECTION
  2
BLOCKS
  0
BLOCK
  5
1F
330
1E
100
AcDbEntity
  8
0
100
AcDbBlockBegin
  2
*Model_Space
 70
     0
 10
0.0
 20
0.0
 30
0.0
  3
*Model_Space
  1

  0
ENDBLK
  5
20
330
1E
100
AcDbEntity
  8
0
100
AcDbBlockEnd
  0
BLOCK
  5
1B
330
1A
100
AcDbEntity
 67
     1
  8
0
100
AcDbBlockBegin
  2
*Paper_Space
 70
     0
 10
0.0
 20
0.0
 30
0.0
  3
*Paper_Space
  1

  0
ENDBLK
  5
1C
330
1A
100
AcDbEntity
 67
     1
  8
0
100
AcDbBlockEnd
  0
ENDSEC
  0
SECTION
  2
ENTITIES
  0
LINE
  5
29
330
1E
100
AcDbEntity
  8
0
100
AcDbLine
 10
2.588229999999999
 20
66.66419999999999
 30
0.0
 11
3.47059
 21
65.8995
 31
0.0
  0
LINE
  5
2A
330
1E
100
AcDbEntity
  8
0
100
AcDbLine
 10
3.47059
 20
65.8995
 30
0.0
 11
4.411769999999999
 21
65.25249999999999
 31
0.0
  0
LINE
  5
2D
330
1E
100
AcDbEntity
  8
0
100
AcDbLine
 10
4.411769999999999
 20
65.25249999999999
 30
0.0
 11
5.47059
 21
64.78189999999999
 31
0.0
  0
LINE
  5
2E
330
1E
100
AcDbEntity
  8
0
100
AcDbLine
 10
5.47059
 20
64.78189999999999
 30
0.0
 11
6.529409999999999
 21
64.37009999999999
 31
0.0
  0
LINE
  5
35
330
1E
100
AcDbEntity
  8
0
100
AcDbLine
 10
6.529409999999999
 20
64.37009999999999
 30
0.0
 11
7.64706
 21
64.19360000000001
 31
0.0
  0
LINE
  5
36
330
1E
100
AcDbEntity
  8
0
100
AcDbLine
 10
7.64706
 20
64.19360000000001
 30
0.0
 11
8.823529999999999
 21
64.07600000000001
 31
0.0
  0
LINE
  5
37
330
1E
100
AcDbEntity
  8
0
100
AcDbLine
 10
8.823529999999999
 20
64.07600000000001
 30
0.0
 11
39.3616
 21
64.07600000000001
 31
0.0
  0
LINE
  5
3B
330
1E
100
AcDbEntity
  8
0
100
AcDbLine
 10
1.823529999999999
 20
67.5466
 30
0.0
 11
2.588229999999999
 21
66.66419999999999
 31
0.0
  0
LINE
  5
3C
330
1E
100
AcDbEntity
  8
0
100
AcDbLine
 10
1.17647
 20
68.48779999999999
 30
0.0
 11
1.823529999999999
 21
67.5466
 31
0.0
  0
LINE
  5
41
330
1E
100
AcDbEntity
  8
0
100
AcDbLine
 10
0.705882
 20
69.5466
 30
0.0
 11
1.17647
 21
68.48779999999999
 31
0.0
  0
LINE
  5
42
330
1E
100
AcDbEntity
  8
0
100
AcDbLine
 10
0.294118
 20
70.6054
 30
0.0
 11
0.705882
 21
69.5466
 31
0.0
  0
LINE
  5
43
330
1E
100
AcDbEntity
  8
0
100
AcDbLine
 10
0.0
 20
72.89950000000001
 30
0.0
 11
0.0
 21
114.0759999999999
 31
0.0
  0
LINE
  5
44
330
1E
100
AcDbEntity
  8
0
100
AcDbLine
 10
0.0
 20
72.89950000000001
 30
0.0
 11
0.117647
 21
71.7231
 31
0.0
  0
LINE
  5
45
330
1E
100
AcDbEntity
  8
0
100
AcDbLine
 10
0.0
 20
72.89950000000001
 30
0.0
 11
0.0
 21
114.0759999999999
 31
0.0
  0
LINE
  5
46
330
1E
100
AcDbEntity
  8
0
100
AcDbLine
 10
35.0
 20
92.57600000000001
 30
0.0
 11
35.0
 21
92.946
 31
0.0
  0
LINE
  5
47
330
1E
100
AcDbEntity
  8
0
100
AcDbLine
 10
35.0
 20
92.946
 30
0.0
 11
35.0
 21
92.57600000000001
 31
0.0
  0
LINE
  5
48
330
1E
100
AcDbEntity
  8
0
100
AcDbLine
 10
35.0
 20
92.946
 30
0.0
 11
35.0
 21
93.406
 31
0.0
  0
LINE
  5
49
330
1E
100
AcDbEntity
  8
0
100
AcDbLine
 10
35.0
 20
93.406
 30
0.0
 11
35.0
 21
92.946
 31
0.0
  0
LINE
  5
4A
330
1E
100
AcDbEntity
  8
0
100
AcDbLine
 10
35.0
 20
93.406
 30
0.0
 11
35.0
 21
94.196
 31
0.0
  0
LINE
  5
4B
330
1E
100
AcDbEntity
  8
0
100
AcDbLine
 10
35.0
 20
94.196
 30
0.0
 11
35.0
 21
93.406
 31
0.0
  0
LINE
  5
4C
330
1E
100
AcDbEntity
  8
0
100
AcDbLine
 10
35.0
 20
94.196
 30
0.0
 11
35.0
 21
95.10600000000001
 31
0.0
  0
LINE
  5
4D
330
1E
100
AcDbEntity
  8
0
100
AcDbLine
 10
35.0
 20
95.10600000000001
 30
0.0
 11
35.0
 21
94.196
 31
0.0
  0
LINE
  5
4E
330
1E
100
AcDbEntity
  8
0
100
AcDbLine
 10
35.0
 20
95.10600000000001
 30
0.0
 11
35.0
 21
95.576
 31
0.0
  0
LINE
  5
4F
330
1E
100
AcDbEntity
  8
0
100
AcDbLine
 10
0.0
 20
114.0759999999999
 30
0.0
 11
0.0
 21
155.2524999999999
 31
0.0
  0
LINE
  5
50
330
1E
100
AcDbEntity
  8
0
100
AcDbLine
 10
0.0
 20
114.0759999999999
 30
0.0
 11
0.0
 21
72.89950000000001
 31
0.0
  0
LINE
  5
55
330
1E
100
AcDbEntity
  8
0
100
AcDbLine
 10
0.0
 20
114.0759999999999
 30
0.0
 11
0.0
 21
155.2524999999999
 31
0.0
  0
LINE
  5
56
330
1E
100
AcDbEntity
  8
0
100
AcDbLine
 10
0.0
 20
114.0759999999999
 30
0.0
 11
0.0
 21
72.89950000000001
 31
0.0
  0
LINE
  5
57
330
1E
100
AcDbEntity
  8
0
100
AcDbLine
 10
35.0
 20
95.576
 30
0.0
 11
35.0
 21
95.10600000000001
 31
0.0
  0
LINE
  5
58
330
1E
100
AcDbEntity
  8
0
100
AcDbLine
 10
35.0
 20
95.576
 30
0.0
 11
35.0
 21
135.5759999999999
 31
0.0
  0
LINE
  5
5A
330
1E
100
AcDbEntity
  8
0
100
AcDbLine
 10
35.29999999999999
 20
91.87600000000001
 30
0.0
 11
36.0
 21
91.576
 31
0.0
  0
LINE
  5
69
330
1E
100
AcDbEntity
  8
0
100
AcDbLine
 10
2.588229999999999
 20
161.4878
 30
0.0
 11
3.47059
 21
162.2524999999999
 31
0.0
  0
LINE
  5
6A
330
1E
100
AcDbEntity
  8
0
100
AcDbLine
 10
3.47059
 20
162.2524999999999
 30
0.0
 11
4.411769999999999
 21
162.8994999999999
 31
0.0
  0
LINE
  5
6D
330
1E
100
AcDbEntity
  8
0
100
AcDbLine
 10
4.411769999999999
 20
162.8994999999999
 30
0.0
 11
5.47059
 21
163.3701
 31
0.0
  0
LINE
  5
6E
330
1E
100
AcDbEntity
  8
0
100
AcDbLine
 10
5.47059
 20
163.3701
 30
0.0
 11
6.529409999999999
 21
163.7819
 31
0.0
  0
LINE
  5
75
330
1E
100
AcDbEntity
  8
0
100
AcDbLine
 10
7.64706
 20
163.9584
 30
0.0
 11
8.823529999999999
 21
164.076
 31
0.0
  0
LINE
  5
76
330
1E
100
AcDbEntity
  8
0
100
AcDbLine
 10
8.823529999999999
 20
164.076
 30
0.0
 11
50.0
 21
164.076
 31
0.0
  0
LINE
  5
77
330
1E
100
AcDbEntity
  8
0
100
AcDbLine
 10
6.529409999999999
 20
163.7819
 30
0.0
 11
7.64706
 21
163.9584
 31
0.0
  0
LINE
  5
79
330
1E
100
AcDbEntity
  8
0
100
AcDbLine
 10
1.823529999999999
 20
160.6054
 30
0.0
 11
2.588229999999999
 21
161.4878
 31
0.0
  0
LINE
  5
7A
330
1E
100
AcDbEntity
  8
0
100
AcDbLine
 10
1.17647
 20
159.6641999999999
 30
0.0
 11
1.823529999999999
 21
160.6054
 31
0.0
  0
LINE
  5
7B
330
1E
100
AcDbEntity
  8
0
100
AcDbLine
 10
0.705882
 20
158.6054
 30
0.0
 11
1.17647
 21
159.6641999999999
 31
0.0
  0
LINE
  5
7C
330
1E
100
AcDbEntity
  8
0
100
AcDbLine
 10
0.294118
 20
157.5466
 30
0.0
 11
0.705882
 21
158.6054
 31
0.0
  0
LINE
  5
7D
330
1E
100
AcDbEntity
  8
0
100
AcDbLine
 10
0.117647
 20
156.4289
 30
0.0
 11
0.294118
 21
157.5466
 31
0.0
  0
LINE
  5
7E
330
1E
100
AcDbEntity
  8
0
100
AcDbLine
 10
0.0
 20
155.2524999999999
 30
0.0
 11
0.117647
 21
156.4289
 31
0.0
  0
LINE
  5
7F
330
1E
100
AcDbEntity
  8
0
100
AcDbLine
 10
0.0
 20
155.2524999999999
 30
0.0
 11
0.0
 21
114.0759999999999
 31
0.0
  0
LINE
  5
80
330
1E
100
AcDbEntity
  8
0
100
AcDbLine
 10
0.0
 20
155.2524999999999
 30
0.0
 11
0.0
 21
114.0759999999999
 31
0.0
  0
LINE
  5
81
330
1E
100
AcDbEntity
  8
0
100
AcDbLine
 10
35.29999999999999
 20
136.276
 30
0.0
 11
36.0
 21
136.5759999999999
 31
0.0
  0
LINE
  5
83
330
1E
100
AcDbEntity
  8
0
100
AcDbLine
 10
35.0
 20
135.5759999999999
 30
0.0
 11
35.29999999999999
 21
136.276
 31
0.0
  0
LINE
  5
85
330
1E
100
AcDbEntity
  8
0
100
AcDbLine
 10
36.0
 20
91.576
 30
0.0
 11
37.0
 21
91.576
 31
0.0
  0
LINE
  5
86
330
1E
100
AcDbEntity
  8
0
100
AcDbLine
 10
36.663
 20
91.576
 30
0.0
 11
39.0
 21
91.576
 31
0.0
  0
LINE
  5
88
330
1E
100
AcDbEntity
  8
0
100
AcDbLine
 10
36.1565
 20
91.576
 30
0.0
 11
36.663
 21
91.576
 31
0.0
  0
LINE
  5
89
330
1E
100
AcDbEntity
  8
0
100
AcDbLine
 10
37.0
 20
91.576
 30
0.0
 11
37.0
 21
90.576
 31
0.0
  0
LINE
  5
8A
330
1E
100
AcDbEntity
  8
0
100
AcDbLine
 10
37.468
 20
90.576
 30
0.0
 11
38.716
 21
90.576
 31
0.0
  0
LINE
  5
8B
330
1E
100
AcDbEntity
  8
0
100
AcDbLine
 10
37.0
 20
90.576
 30
0.0
 11
37.468
 21
90.576
 31
0.0
  0
LINE
  5
8C
330
1E
100
AcDbEntity
  8
0
100
AcDbLine
 10
37.0
 20
90.576
 30
0.0
 11
37.0
 21
91.576
 31
0.0
  0
LINE
  5
8D
330
1E
100
AcDbEntity
  8
0
100
AcDbLine
 10
37.0
 20
136.5759999999999
 30
0.0
 11
37.0
 21
137.5759999999999
 31
0.0
  0
LINE
  5
8F
330
1E
100
AcDbEntity
  8
0
100
AcDbLine
 10
40.89999999999999
 20
59.92399999999999
 30
0.0
 11
42.6
 21
59.92399999999999
 31
0.0
  0
LINE
  5
90
330
1E
100
AcDbEntity
  8
0
100
AcDbLine
 10
40.89999999999999
 20
59.92399999999999
 30
0.0
 11
42.5
 21
59.92399999999999
 31
0.0
  0
LINE
  5
91
330
1E
100
AcDbEntity
  8
0
100
AcDbLine
 10
39.9
 20
59.92399999999999
 30
0.0
 11
40.89999999999999
 21
59.92399999999999
 31
0.0
  0
LINE
  5
92
330
1E
100
AcDbEntity
  8
0
100
AcDbLine
 10
39.5
 20
59.92399999999999
 30
0.0
 11
39.9
 21
59.92399999999999
 31
0.0
  0
LINE
  5
93
330
1E
100
AcDbEntity
  8
0
100
AcDbLine
 10
42.5
 20
59.92399999999999
 30
0.0
 11
42.8
 21
59.92399999999999
 31
0.0
  0
LINE
  5
94
330
1E
100
AcDbEntity
  8
0
100
AcDbLine
 10
42.5
 20
59.92399999999999
 30
0.0
 11
42.5
 21
9.92399999999999
 31
0.0
  0
LINE
  5
95
330
1E
100
AcDbEntity
  8
0
100
AcDbLine
 10
48.20899999999999
 20
5.53519999999999
 30
0.0
 11
49.972
 21
4.1858
 31
0.0
  0
LINE
  5
96
330
1E
100
AcDbEntity
  8
0
100
AcDbLine
 10
46.371
 20
6.73459999999999
 30
0.0
 11
48.20899999999999
 21
5.53519999999999
 31
0.0
  0
LINE
  5
97
330
1E
100
AcDbEntity
  8
0
100
AcDbLine
 10
44.56999999999999
 20
7.93399999999999
 30
0.0
 11
46.371
 21
6.73459999999999
 31
0.0
  0
LINE
  5
98
330
1E
100
AcDbEntity
  8
0
100
AcDbLine
 10
43.482
 20
8.983499999999981
 30
0.0
 11
44.56999999999999
 21
7.93399999999999
 31
0.0
  0
LINE
  5
99
330
1E
100
AcDbEntity
  8
0
100
AcDbLine
 10
42.6
 20
59.92399999999999
 30
0.0
 11
44.79999999999999
 21
59.92399999999999
 31
0.0
  0
LINE
  5
9A
330
1E
100
AcDbEntity
  8
0
100
AcDbLine
 10
47.29999999999999
 20
59.92399999999999
 30
0.0
 11
50.0
 21
59.92399999999999
 31
0.0
  0
LINE
  5
9B
330
1E
100
AcDbEntity
  8
0
100
AcDbLine
 10
44.79999999999999
 20
59.92399999999999
 30
0.0
 11
47.29999999999999
 21
59.92399999999999
 31
0.0
  0
LINE
  5
9C
330
1E
100
AcDbEntity
  8
0
100
AcDbLine
 10
48.1
 20
59.92399999999999
 30
0.0
 11
50.0
 21
59.92399999999999
 31
0.0
  0
LINE
  5
9D
330
1E
100
AcDbEntity
  8
0
100
AcDbLine
 10
46.29999999999999
 20
59.92399999999999
 30
0.0
 11
48.1
 21
59.92399999999999
 31
0.0
  0
LINE
  5
9E
330
1E
100
AcDbEntity
  8
0
100
AcDbLine
 10
44.7
 20
59.92399999999999
 30
0.0
 11
46.29999999999999
 21
59.92399999999999
 31
0.0
  0
LINE
  5
9F
330
1E
100
AcDbEntity
  8
0
100
AcDbLine
 10
43.5
 20
59.92399999999999
 30
0.0
 11
44.7
 21
59.92399999999999
 31
0.0
  0
LINE
  5
A0
330
1E
100
AcDbEntity
  8
0
100
AcDbLine
 10
42.8
 20
59.92399999999999
 30
0.0
 11
43.5
 21
59.92399999999999
 31
0.0
  0
LINE
  5
A1
330
1E
100
AcDbEntity
  8
0
100
AcDbLine
 10
42.769
 20
9.695699999999989
 30
0.0
 11
43.482
 21
8.983499999999981
 31
0.0
  0
LINE
  5
A2
330
1E
100
AcDbEntity
  8
0
100
AcDbLine
 10
42.5
 20
9.92399999999999
 30
0.0
 11
42.769
 21
9.695699999999989
 31
0.0
  0
LINE
  5
A3
330
1E
100
AcDbEntity
  8
0
100
AcDbLine
 10
42.5
 20
9.92399999999999
 30
0.0
 11
42.5
 21
59.92399999999999
 31
0.0
  0
LINE
  5
A4
330
1E
100
AcDbEntity
  8
0
100
AcDbLine
 10
49.972
 20
4.1858
 30
0.0
 11
51.923
 21
2.199199999999999
 31
0.0
  0
LINE
  5
A5
330
1E
100
AcDbEntity
  8
0
100
AcDbLine
 10
51.923
 20
2.199199999999999
 30
0.0
 11
53.723
 21
1.074699999999989
 31
0.0
  0
LINE
  5
A6
330
1E
100
AcDbEntity
  8
0
100
AcDbLine
 10
51.9
 20
59.92399999999999
 30
0.0
 11
53.7
 21
59.92399999999999
 31
0.0
  0
LINE
  5
A7
330
1E
100
AcDbEntity
  8
0
100
AcDbLine
 10
53.723
 20
1.074699999999989
 30
0.0
 11
55.224
 21
0.400099999999982
 31
0.0
  0
LINE
  5
A8
330
1E
100
AcDbEntity
  8
0
100
AcDbLine
 10
53.7
 20
59.92399999999999
 30
0.0
 11
55.3
 21
59.92399999999999
 31
0.0
  0
LINE
  5
A9
330
1E
100
AcDbEntity
  8
0
100
AcDbLine
 10
50.0
 20
59.92399999999999
 30
0.0
 11
52.7
 21
59.92399999999999
 31
0.0
  0
LINE
  5
AA
330
1E
100
AcDbEntity
  8
0
100
AcDbLine
 10
50.0
 20
59.92399999999999
 30
0.0
 11
51.9
 21
59.92399999999999
 31
0.0
  0
LINE
  5
AB
330
1E
100
AcDbEntity
  8
0
100
AcDbLine
 10
52.7
 20
59.92399999999999
 30
0.0
 11
55.2
 21
59.92399999999999
 31
0.0
  0
LINE
  5
AC
330
1E
100
AcDbEntity
  8
0
100
AcDbLine
 10
57.5
 20
-0.0760000000000001
 30
0.0
 11
57.5
 21
59.92399999999999
 31
0.0
  0
LINE
  5
AD
330
1E
100
AcDbEntity
  8
0
100
AcDbLine
 10
55.3
 20
59.92399999999999
 30
0.0
 11
56.5
 21
59.92399999999999
 31
0.0
  0
LINE
  5
AE
330
1E
100
AcDbEntity
  8
0
100
AcDbLine
 10
55.224
 20
0.400099999999982
 30
0.0
 11
56.462
 21
0.0251999999999946
 31
0.0
  0
LINE
  5
AF
330
1E
100
AcDbEntity
  8
0
100
AcDbLine
 10
56.5
 20
59.92399999999999
 30
0.0
 11
57.2
 21
59.92399999999999
 31
0.0
  0
LINE
  5
B0
330
1E
100
AcDbEntity
  8
0
100
AcDbLine
 10
56.462
 20
0.0251999999999946
 30
0.0
 11
57.137
 21
-0.0496999999999923
 31
0.0
  0
LINE
  5
B1
330
1E
100
AcDbEntity
  8
0
100
AcDbLine
 10
57.2
 20
59.92399999999999
 30
0.0
 11
57.5
 21
59.92399999999999
 31
0.0
  0
LINE
  5
B2
330
1E
100
AcDbEntity
  8
0
100
AcDbLine
 10
57.5
 20
59.92399999999999
 30
0.0
 11
57.5
 21
-0.0760000000000001
 31
0.0
  0
LINE
  5
B3
330
1E
100
AcDbEntity
  8
0
100
AcDbLine
 10
57.5
 20
59.92399999999999
 30
0.0
 11
59.1
 21
59.92399999999999
 31
0.0
  0
LINE
  5
B4
330
1E
100
AcDbEntity
  8
0
100
AcDbLine
 10
57.137
 20
-0.0496999999999923
 30
0.0
 11
57.5
 21
-0.0760000000000001
 31
0.0
  0
LINE
  5
B5
330
1E
100
AcDbEntity
  8
0
100
AcDbLine
 10
55.2
 20
59.92399999999999
 30
0.0
 11
57.4
 21
59.92399999999999
 31
0.0
  0
LINE
  5
B6
330
1E
100
AcDbEntity
  8
0
100
AcDbLine
 10
57.4
 20
59.92399999999999
 30
0.0
 11
59.1
 21
59.92399999999999
 31
0.0
  0
LINE
  5
B7
330
1E
100
AcDbEntity
  8
0
100
AcDbLine
 10
59.1
 20
59.92399999999999
 30
0.0
 11
60.1
 21
59.92399999999999
 31
0.0
  0
LINE
  5
B8
330
1E
100
AcDbEntity
  8
0
100
AcDbLine
 10
47.0
 20
89.92399999999999
 30
0.0
 11
50.0
 21
89.92399999999999
 31
0.0
  0
LINE
  5
B9
330
1E
100
AcDbEntity
  8
0
100
AcDbLine
 10
44.29999999999999
 20
89.92399999999999
 30
0.0
 11
47.0
 21
89.92399999999999
 31
0.0
  0
LINE
  5
BA
330
1E
100
AcDbEntity
  8
0
100
AcDbLine
 10
41.9
 20
89.92399999999999
 30
0.0
 11
44.29999999999999
 21
89.92399999999999
 31
0.0
  0
LINE
  5
BB
330
1E
100
AcDbEntity
  8
0
100
AcDbLine
 10
40.0
 20
89.92399999999999
 30
0.0
 11
41.9
 21
89.92399999999999
 31
0.0
  0
LINE
  5
BC
330
1E
100
AcDbEntity
  8
0
100
AcDbLine
 10
38.9
 20
89.92399999999999
 30
0.0
 11
40.0
 21
89.92399999999999
 31
0.0
  0
LINE
  5
BD
330
1E
100
AcDbEntity
  8
0
100
AcDbLine
 10
38.5
 20
89.92399999999999
 30
0.0
 11
39.5
 21
59.92399999999999
 31
0.0
  0
LINE
  5
BE
330
1E
100
AcDbEntity
  8
0
100
AcDbLine
 10
38.5
 20
89.92399999999999
 30
0.0
 11
38.9
 21
89.92399999999999
 31
0.0
  0
LINE
  5
C4
330
1E
100
AcDbEntity
  8
0
100
AcDbLine
 10
60.1
 20
59.92399999999999
 30
0.0
 11
60.5
 21
59.92399999999999
 31
0.0
  0
LINE
  5
CB
330
1E
100
AcDbEntity
  8
0
100
AcDbLine
 10
38.716
 20
90.576
 30
0.0
 11
39.0
 21
90.576
 31
0.0
  0
LINE
  5
CC
330
1E
100
AcDbEntity
  8
0
100
AcDbLine
 10
38.716
 20
90.576
 30
0.0
 11
40.796
 21
90.576
 31
0.0
  0
LINE
  5
CD
330
1E
100
AcDbEntity
  8
0
100
AcDbLine
 10
39.0
 20
91.576
 30
0.0
 11
39.0
 21
90.576
 31
0.0
  0
LINE
  5
CE
330
1E
100
AcDbEntity
  8
0
100
AcDbLine
 10
39.0
 20
135.5759999999999
 30
0.0
 11
39.0
 21
92.57600000000001
 31
0.0
  0
LINE
  5
CF
330
1E
100
AcDbEntity
  8
0
100
AcDbLine
 10
39.0
 20
135.5759999999999
 30
0.0
 11
39.0
 21
137.026
 31
0.0
  0
LINE
  5
D0
330
1E
100
AcDbEntity
  8
0
100
AcDbLine
 10
39.0
 20
92.57600000000001
 30
0.0
 11
39.0
 21
91.126
 31
0.0
  0
LINE
  5
D1
330
1E
100
AcDbEntity
  8
0
100
AcDbLine
 10
39.0
 20
92.57600000000001
 30
0.0
 11
39.0
 21
135.5759999999999
 31
0.0
  0
LINE
  5
D2
330
1E
100
AcDbEntity
  8
0
100
AcDbLine
 10
39.0
 20
91.126
 30
0.0
 11
39.0
 21
90.576
 31
0.0
  0
LINE
  5
D4
330
1E
100
AcDbEntity
  8
0
100
AcDbLine
 10
39.0
 20
91.126
 30
0.0
 11
39.0
 21
92.57600000000001
 31
0.0
  0
LINE
  5
D5
330
1E
100
AcDbEntity
  8
0
100
AcDbLine
 10
39.0
 20
90.576
 30
0.0
 11
39.0
 21
90.28399999999999
 31
0.0
  0
LINE
  5
D6
330
1E
100
AcDbEntity
  8
0
100
AcDbLine
 10
39.0
 20
90.576
 30
0.0
 11
39.396
 21
90.576
 31
0.0
  0
LINE
  5
D7
330
1E
100
AcDbEntity
  8
0
100
AcDbLine
 10
39.0
 20
90.576
 30
0.0
 11
39.0
 21
91.576
 31
0.0
  0
LINE
  5
D8
330
1E
100
AcDbEntity
  8
0
100
AcDbLine
 10
39.0
 20
90.576
 30
0.0
 11
39.0
 21
91.126
 31
0.0
  0
LINE
  5
E4
330
1E
100
AcDbEntity
  8
0
100
AcDbLine
 10
41.0
 20
90.576
 30
0.0
 11
41.0
 21
91.126
 31
0.0
  0
LINE
  5
E5
330
1E
100
AcDbEntity
  8
0
100
AcDbLine
 10
40.796
 20
90.576
 30
0.0
 11
43.55199999999999
 21
90.576
 31
0.0
  0
LINE
  5
F2
330
1E
100
AcDbEntity
  8
0
100
AcDbLine
 10
46.672
 20
90.576
 30
0.0
 11
50.0
 21
90.576
 31
0.0
  0
LINE
  5
F3
330
1E
100
AcDbEntity
  8
0
100
AcDbLine
 10
47.18399999999999
 20
90.576
 30
0.0
 11
50.0
 21
90.576
 31
0.0
  0
LINE
  5
F4
330
1E
100
AcDbEntity
  8
0
100
AcDbLine
 10
43.55199999999999
 20
90.576
 30
0.0
 11
46.672
 21
90.576
 31
0.0
  0
LINE
  5
F5
330
1E
100
AcDbEntity
  8
0
100
AcDbLine
 10
44.54399999999999
 20
90.576
 30
0.0
 11
47.18399999999999
 21
90.576
 31
0.0
  0
LINE
  5
F6
330
1E
100
AcDbEntity
  8
0
100
AcDbLine
 10
42.21199999999999
 20
90.576
 30
0.0
 11
44.54399999999999
 21
90.576
 31
0.0
  0
LINE
  5
FC
330
1E
100
AcDbEntity
  8
0
100
AcDbLine
 10
41.0
 20
91.126
 30
0.0
 11
41.0
 21
92.57600000000001
 31
0.0
  0
LINE
  5
FD
330
1E
100
AcDbEntity
  8
0
100
AcDbLine
 10
41.0
 20
91.126
 30
0.0
 11
41.0
 21
90.576
 31
0.0
  0
LINE
  5
FE
330
1E
100
AcDbEntity
  8
0
100
AcDbLine
 10
40.452
 20
90.576
 30
0.0
 11
41.0
 21
90.576
 31
0.0
  0
LINE
  5
FF
330
1E
100
AcDbEntity
  8
0
100
AcDbLine
 10
40.452
 20
90.576
 30
0.0
 11
42.21199999999999
 21
90.576
 31
0.0
  0
LINE
  5
100
330
1E
100
AcDbEntity
  8
0
100
AcDbLine
 10
39.396
 20
90.576
 30
0.0
 11
40.452
 21
90.576
 31
0.0
  0
LINE
  5
109
330
1E
100
AcDbEntity
  8
0
100
AcDbLine
 10
41.0
 20
92.57600000000001
 30
0.0
 11
41.0
 21
135.5759999999999
 31
0.0
  0
LINE
  5
10A
330
1E
100
AcDbEntity
  8
0
100
AcDbLine
 10
41.0
 20
92.57600000000001
 30
0.0
 11
41.0
 21
91.126
 31
0.0
  0
LINE
  5
10B
330
1E
100
AcDbEntity
  8
0
100
AcDbLine
 10
41.0
 20
135.5759999999999
 30
0.0
 11
41.0
 21
137.026
 31
0.0
  0
LINE
  5
10C
330
1E
100
AcDbEntity
  8
0
100
AcDbLine
 10
41.0
 20
135.5759999999999
 30
0.0
 11
41.0
 21
92.57600000000001
 31
0.0
  0
LINE
  5
111
330
1E
100
AcDbEntity
  8
0
100
AcDbLine
 10
39.0
 20
90.28399999999999
 30
0.0
 11
39.0
 21
90.576
 31
0.0
  0
LINE
  5
112
330
1E
100
AcDbEntity
  8
0
100
AcDbLine
 10
39.0
 20
90.28399999999999
 30
0.0
 11
39.264
 21
89.92399999999999
 31
0.0
  0
LINE
  5
14B
330
1E
100
AcDbEntity
  8
0
100
AcDbLine
 10
38.7197
 20
136.5759999999999
 30
0.0
 11
39.0
 21
136.5759999999999
 31
0.0
  0
LINE
  5
14D
330
1E
100
AcDbEntity
  8
0
100
AcDbLine
 10
37.4799
 20
136.5759999999999
 30
0.0
 11
38.7197
 21
136.5759999999999
 31
0.0
  0
LINE
  5
14F
330
1E
100
AcDbEntity
  8
0
100
AcDbLine
 10
36.1565
 20
136.5759999999999
 30
0.0
 11
37.4799
 21
136.5759999999999
 31
0.0
  0
LINE
  5
152
330
1E
100
AcDbEntity
  8
0
100
AcDbLine
 10
39.0
 20
137.026
 30
0.0
 11
39.0
 21
135.5759999999999
 31
0.0
  0
LINE
  5
153
330
1E
100
AcDbEntity
  8
0
100
AcDbLine
 10
39.0
 20
137.026
 30
0.0
 11
39.0
 21
137.5759999999999
 31
0.0
  0
LINE
  5
154
330
1E
100
AcDbEntity
  8
0
100
AcDbLine
 10
41.0
 20
137.026
 30
0.0
 11
41.0
 21
137.5759999999999
 31
0.0
  0
LINE
  5
155
330
1E
100
AcDbEntity
  8
0
100
AcDbLine
 10
41.0
 20
137.026
 30
0.0
 11
41.0
 21
135.5759999999999
 31
0.0
  0
LINE
  5
156
330
1E
100
AcDbEntity
  8
0
100
AcDbLine
 10
39.0
 20
137.5759999999999
 30
0.0
 11
41.0
 21
137.5759999999999
 31
0.0
  0
LINE
  5
157
330
1E
100
AcDbEntity
  8
0
100
AcDbLine
 10
39.0
 20
137.5759999999999
 30
0.0
 11
39.0
 21
137.026
 31
0.0
  0
LINE
  5
158
330
1E
100
AcDbEntity
  8
0
100
AcDbLine
 10
39.0
 20
137.5759999999999
 30
0.0
 11
39.0
 21
136.5759999999999
 31
0.0
  0
LINE
  5
159
330
1E
100
AcDbEntity
  8
0
100
AcDbLine
 10
38.716
 20
137.5759999999999
 30
0.0
 11
39.0
 21
137.5759999999999
 31
0.0
  0
LINE
  5
15A
330
1E
100
AcDbEntity
  8
0
100
AcDbLine
 10
39.0
 20
136.5759999999999
 30
0.0
 11
39.0
 21
137.5759999999999
 31
0.0
  0
LINE
  5
15B
330
1E
100
AcDbEntity
  8
0
100
AcDbLine
 10
37.468
 20
137.5759999999999
 30
0.0
 11
38.716
 21
137.5759999999999
 31
0.0
  0
LINE
  5
15C
330
1E
100
AcDbEntity
  8
0
100
AcDbLine
 10
37.0
 20
137.5759999999999
 30
0.0
 11
37.0
 21
136.5759999999999
 31
0.0
  0
LINE
  5
15D
330
1E
100
AcDbEntity
  8
0
100
AcDbLine
 10
37.0
 20
137.5759999999999
 30
0.0
 11
37.468
 21
137.5759999999999
 31
0.0
  0
LINE
  5
16D
330
1E
100
AcDbEntity
  8
0
100
AcDbLine
 10
47.18399999999999
 20
137.5759999999999
 30
0.0
 11
50.0
 21
137.5759999999999
 31
0.0
  0
LINE
  5
16E
330
1E
100
AcDbEntity
  8
0
100
AcDbLine
 10
44.54399999999999
 20
137.5759999999999
 30
0.0
 11
47.18399999999999
 21
137.5759999999999
 31
0.0
  0
LINE
  5
16F
330
1E
100
AcDbEntity
  8
0
100
AcDbLine
 10
42.21199999999999
 20
137.5759999999999
 30
0.0
 11
44.54399999999999
 21
137.5759999999999
 31
0.0
  0
LINE
  5
170
330
1E
100
AcDbEntity
  8
0
100
AcDbLine
 10
41.0
 20
137.5759999999999
 30
0.0
 11
42.21199999999999
 21
137.5759999999999
 31
0.0
  0
LINE
  5
171
330
1E
100
AcDbEntity
  8
0
100
AcDbLine
 10
41.0
 20
137.5759999999999
 30
0.0
 11
41.0
 21
137.026
 31
0.0
  0
LINE
  5
196
330
1E
100
AcDbEntity
  8
0
100
AcDbLine
 10
36.0
 20
136.5759999999999
 30
0.0
 11
36.1565
 21
136.5759999999999
 31
0.0
  0
LINE
  5
19C
330
1E
100
AcDbEntity
  8
0
100
AcDbLine
 10
0.294118
 20
70.6054
 30
0.0
 11
0.117647
 21
71.7231
 31
0.0
  0
LINE
  5
19D
330
1E
100
AcDbEntity
  8
0
100
AcDbLine
 10
35.29999999999999
 20
91.87600000000001
 30
0.0
 11
35.0
 21
92.57600000000001
 31
0.0
  0
LINE
  5
19E
330
1E
100
AcDbEntity
  8
0
100
AcDbLine
 10
61.5
 20
89.92399999999999
 30
0.0
 11
60.5
 21
59.92399999999999
 31
0.0
  0
LINE
  5
19F
330
1E
100
AcDbEntity
  8
0
100
AcDbLine
 10
100.0
 20
114.0759999999999
 30
0.0
 11
100.0
 21
72.89950000000001
 31
0.0
  0
LINE
  5
1A0
330
1E
100
AcDbEntity
  8
0
100
AcDbLine
 10
100.0
 20
114.0759999999999
 30
0.0
 11
100.0
 21
72.89950000000001
 31
0.0
  0
LINE
  5
1A1
330
1E
100
AcDbEntity
  8
0
100
AcDbLine
 10
100.0
 20
72.89950000000001
 30
0.0
 11
100.0
 21
114.0759999999999
 31
0.0
  0
LINE
  5
1A2
330
1E
100
AcDbEntity
  8
0
100
AcDbLine
 10
100.0
 20
72.89950000000001
 30
0.0
 11
100.0
 21
114.0759999999999
 31
0.0
  0
LINE
  5
1A3
330
1E
100
AcDbEntity
  8
0
100
AcDbLine
 10
91.17646999999999
 20
64.07600000000001
 30
0.0
 11
60.63839999999999
 21
64.07600000000001
 31
0.0
  0
LINE
  5
1A4
330
1E
100
AcDbEntity
  8
0
100
AcDbLine
 10
97.41177
 20
66.66419999999999
 30
0.0
 11
96.52941
 21
65.8995
 31
0.0
  0
LINE
  5
1A5
330
1E
100
AcDbEntity
  8
0
100
AcDbLine
 10
99.294118
 20
69.5466
 30
0.0
 11
98.82353000000001
 21
68.48779999999999
 31
0.0
  0
LINE
  5
1A6
330
1E
100
AcDbEntity
  8
0
100
AcDbLine
 10
98.17647
 20
67.5466
 30
0.0
 11
97.41177
 21
66.66419999999999
 31
0.0
  0
LINE
  5
1A7
330
1E
100
AcDbEntity
  8
0
100
AcDbLine
 10
98.82353000000001
 20
68.48779999999999
 30
0.0
 11
98.17647
 21
67.5466
 31
0.0
  0
LINE
  5
1A8
330
1E
100
AcDbEntity
  8
0
100
AcDbLine
 10
100.0
 20
72.89950000000001
 30
0.0
 11
99.88235299999999
 21
71.7231
 31
0.0
  0
LINE
  5
1A9
330
1E
100
AcDbEntity
  8
0
100
AcDbLine
 10
99.70588200000001
 20
70.6054
 30
0.0
 11
99.88235299999999
 21
71.7231
 31
0.0
  0
LINE
  5
1AA
330
1E
100
AcDbEntity
  8
0
100
AcDbLine
 10
99.70588200000001
 20
70.6054
 30
0.0
 11
99.294118
 21
69.5466
 31
0.0
  0
LINE
  5
1AB
330
1E
100
AcDbEntity
  8
0
100
AcDbLine
 10
93.47058999999999
 20
64.37009999999999
 30
0.0
 11
92.35294000000001
 21
64.19360000000001
 31
0.0
  0
LINE
  5
1AC
330
1E
100
AcDbEntity
  8
0
100
AcDbLine
 10
95.58823
 20
65.25249999999999
 30
0.0
 11
94.52941
 21
64.78189999999999
 31
0.0
  0
LINE
  5
1AD
330
1E
100
AcDbEntity
  8
0
100
AcDbLine
 10
96.52941
 20
65.8995
 30
0.0
 11
95.58823
 21
65.25249999999999
 31
0.0
  0
LINE
  5
1AE
330
1E
100
AcDbEntity
  8
0
100
AcDbLine
 10
94.52941
 20
64.78189999999999
 30
0.0
 11
93.47058999999999
 21
64.37009999999999
 31
0.0
  0
LINE
  5
1AF
330
1E
100
AcDbEntity
  8
0
100
AcDbLine
 10
92.35294000000001
 20
64.19360000000001
 30
0.0
 11
91.17646999999999
 21
64.07600000000001
 31
0.0
  0
LINE
  5
1B0
330
1E
100
AcDbEntity
  8
0
100
AcDbLine
 10
91.17646999999999
 20
164.076
 30
0.0
 11
50.0
 21
164.076
 31
0.0
  0
LINE
  5
1B1
330
1E
100
AcDbEntity
  8
0
100
AcDbLine
 10
100.0
 20
155.2524999999999
 30
0.0
 11
100.0
 21
114.0759999999999
 31
0.0
  0
LINE
  5
1B2
330
1E
100
AcDbEntity
  8
0
100
AcDbLine
 10
100.0
 20
155.2524999999999
 30
0.0
 11
100.0
 21
114.0759999999999
 31
0.0
  0
LINE
  5
1B3
330
1E
100
AcDbEntity
  8
0
100
AcDbLine
 10
100.0
 20
114.0759999999999
 30
0.0
 11
100.0
 21
155.2524999999999
 31
0.0
  0
LINE
  5
1B4
330
1E
100
AcDbEntity
  8
0
100
AcDbLine
 10
100.0
 20
114.0759999999999
 30
0.0
 11
100.0
 21
155.2524999999999
 31
0.0
  0
LINE
  5
1B5
330
1E
100
AcDbEntity
  8
0
100
AcDbLine
 10
97.41177
 20
161.4878
 30
0.0
 11
96.52941
 21
162.2524999999999
 31
0.0
  0
LINE
  5
1B6
330
1E
100
AcDbEntity
  8
0
100
AcDbLine
 10
99.294118
 20
158.6054
 30
0.0
 11
98.82353000000001
 21
159.6641999999999
 31
0.0
  0
LINE
  5
1B7
330
1E
100
AcDbEntity
  8
0
100
AcDbLine
 10
100.0
 20
155.2524999999999
 30
0.0
 11
99.88235299999999
 21
156.4289
 31
0.0
  0
LINE
  5
1B8
330
1E
100
AcDbEntity
  8
0
100
AcDbLine
 10
99.88235299999999
 20
156.4289
 30
0.0
 11
99.70588200000001
 21
157.5466
 31
0.0
  0
LINE
  5
1B9
330
1E
100
AcDbEntity
  8
0
100
AcDbLine
 10
99.70588200000001
 20
157.5466
 30
0.0
 11
99.294118
 21
158.6054
 31
0.0
  0
LINE
  5
1BA
330
1E
100
AcDbEntity
  8
0
100
AcDbLine
 10
98.17647
 20
160.6054
 30
0.0
 11
97.41177
 21
161.4878
 31
0.0
  0
LINE
  5
1BB
330
1E
100
AcDbEntity
  8
0
100
AcDbLine
 10
98.82353000000001
 20
159.6641999999999
 30
0.0
 11
98.17647
 21
160.6054
 31
0.0
  0
LINE
  5
1BC
330
1E
100
AcDbEntity
  8
0
100
AcDbLine
 10
93.47058999999999
 20
163.7819
 30
0.0
 11
92.35294000000001
 21
163.9584
 31
0.0
  0
LINE
  5
1BD
330
1E
100
AcDbEntity
  8
0
100
AcDbLine
 10
95.58823
 20
162.8994999999999
 30
0.0
 11
94.52941
 21
163.3701
 31
0.0
  0
LINE
  5
1BE
330
1E
100
AcDbEntity
  8
0
100
AcDbLine
 10
96.52941
 20
162.2524999999999
 30
0.0
 11
95.58823
 21
162.8994999999999
 31
0.0
  0
LINE
  5
1BF
330
1E
100
AcDbEntity
  8
0
100
AcDbLine
 10
94.52941
 20
163.3701
 30
0.0
 11
93.47058999999999
 21
163.7819
 31
0.0
  0
LINE
  5
1C0
330
1E
100
AcDbEntity
  8
0
100
AcDbLine
 10
92.35294000000001
 20
163.9584
 30
0.0
 11
91.17646999999999
 21
164.076
 31
0.0
  0
LINE
  5
1C1
330
1E
100
AcDbEntity
  8
0
100
AcDbLine
 10
59.0
 20
135.5759999999999
 30
0.0
 11
59.0
 21
92.57600000000001
 31
0.0
  0
LINE
  5
1C2
330
1E
100
AcDbEntity
  8
0
100
AcDbLine
 10
59.0
 20
92.57600000000001
 30
0.0
 11
59.0
 21
135.5759999999999
 31
0.0
  0
LINE
  5
1C3
330
1E
100
AcDbEntity
  8
0
100
AcDbLine
 10
61.0
 20
92.57600000000001
 30
0.0
 11
61.0
 21
135.5759999999999
 31
0.0
  0
LINE
  5
1C4
330
1E
100
AcDbEntity
  8
0
100
AcDbLine
 10
61.0
 20
135.5759999999999
 30
0.0
 11
61.0
 21
92.57600000000001
 31
0.0
  0
LINE
  5
1C5
330
1E
100
AcDbEntity
  8
0
100
AcDbLine
 10
65.0
 20
95.576
 30
0.0
 11
65.0
 21
135.5759999999999
 31
0.0
  0
LINE
  5
1C6
330
1E
100
AcDbEntity
  8
0
100
AcDbLine
 10
59.548
 20
90.576
 30
0.0
 11
57.788
 21
90.576
 31
0.0
  0
LINE
  5
1C7
330
1E
100
AcDbEntity
  8
0
100
AcDbLine
 10
59.204
 20
90.576
 30
0.0
 11
56.448
 21
90.576
 31
0.0
  0
LINE
  5
1C8
330
1E
100
AcDbEntity
  8
0
100
AcDbLine
 10
58.1
 20
89.92399999999999
 30
0.0
 11
55.7
 21
89.92399999999999
 31
0.0
  0
LINE
  5
1C9
330
1E
100
AcDbEntity
  8
0
100
AcDbLine
 10
65.0
 20
95.10600000000001
 30
0.0
 11
65.0
 21
94.196
 31
0.0
  0
LINE
  5
1CA
330
1E
100
AcDbEntity
  8
0
100
AcDbLine
 10
65.0
 20
94.196
 30
0.0
 11
65.0
 21
95.10600000000001
 31
0.0
  0
LINE
  5
1CB
330
1E
100
AcDbEntity
  8
0
100
AcDbLine
 10
63.337
 20
91.576
 30
0.0
 11
61.0
 21
91.576
 31
0.0
  0
LINE
  5
1CC
330
1E
100
AcDbEntity
  8
0
100
AcDbLine
 10
62.53199999999999
 20
90.576
 30
0.0
 11
61.284
 21
90.576
 31
0.0
  0
LINE
  5
1CD
330
1E
100
AcDbEntity
  8
0
100
AcDbLine
 10
63.8435
 20
91.576
 30
0.0
 11
63.337
 21
91.576
 31
0.0
  0
LINE
  5
1CE
330
1E
100
AcDbEntity
  8
0
100
AcDbLine
 10
64.0
 20
91.576
 30
0.0
 11
63.0
 21
91.576
 31
0.0
  0
LINE
  5
1CF
330
1E
100
AcDbEntity
  8
0
100
AcDbLine
 10
64.7
 20
91.87600000000001
 30
0.0
 11
64.0
 21
91.576
 31
0.0
  0
LINE
  5
1D0
330
1E
100
AcDbEntity
  8
0
100
AcDbLine
 10
64.7
 20
91.87600000000001
 30
0.0
 11
65.0
 21
92.57600000000001
 31
0.0
  0
LINE
  5
1D1
330
1E
100
AcDbEntity
  8
0
100
AcDbLine
 10
65.0
 20
94.196
 30
0.0
 11
65.0
 21
93.406
 31
0.0
  0
LINE
  5
1D2
330
1E
100
AcDbEntity
  8
0
100
AcDbLine
 10
65.0
 20
93.406
 30
0.0
 11
65.0
 21
94.196
 31
0.0
  0
LINE
  5
1D3
330
1E
100
AcDbEntity
  8
0
100
AcDbLine
 10
65.0
 20
93.406
 30
0.0
 11
65.0
 21
92.946
 31
0.0
  0
LINE
  5
1D4
330
1E
100
AcDbEntity
  8
0
100
AcDbLine
 10
65.0
 20
92.946
 30
0.0
 11
65.0
 21
93.406
 31
0.0
  0
LINE
  5
1D5
330
1E
100
AcDbEntity
  8
0
100
AcDbLine
 10
65.0
 20
92.946
 30
0.0
 11
65.0
 21
92.57600000000001
 31
0.0
  0
LINE
  5
1D6
330
1E
100
AcDbEntity
  8
0
100
AcDbLine
 10
65.0
 20
92.57600000000001
 30
0.0
 11
65.0
 21
92.946
 31
0.0
  0
LINE
  5
1D7
330
1E
100
AcDbEntity
  8
0
100
AcDbLine
 10
63.0
 20
90.576
 30
0.0
 11
62.53199999999999
 21
90.576
 31
0.0
  0
LINE
  5
1D8
330
1E
100
AcDbEntity
  8
0
100
AcDbLine
 10
63.0
 20
90.576
 30
0.0
 11
63.0
 21
91.576
 31
0.0
  0
LINE
  5
1D9
330
1E
100
AcDbEntity
  8
0
100
AcDbLine
 10
63.0
 20
91.576
 30
0.0
 11
63.0
 21
90.576
 31
0.0
  0
LINE
  5
1DA
330
1E
100
AcDbEntity
  8
0
100
AcDbLine
 10
60.604
 20
90.576
 30
0.0
 11
59.548
 21
90.576
 31
0.0
  0
LINE
  5
1DB
330
1E
100
AcDbEntity
  8
0
100
AcDbLine
 10
61.284
 20
90.576
 30
0.0
 11
59.204
 21
90.576
 31
0.0
  0
LINE
  5
1DC
330
1E
100
AcDbEntity
  8
0
100
AcDbLine
 10
60.0
 20
89.92399999999999
 30
0.0
 11
58.1
 21
89.92399999999999
 31
0.0
  0
LINE
  5
1DD
330
1E
100
AcDbEntity
  8
0
100
AcDbLine
 10
61.0
 20
91.126
 30
0.0
 11
61.0
 21
92.57600000000001
 31
0.0
  0
LINE
  5
1DE
330
1E
100
AcDbEntity
  8
0
100
AcDbLine
 10
61.0
 20
92.57600000000001
 30
0.0
 11
61.0
 21
91.126
 31
0.0
  0
LINE
  5
1DF
330
1E
100
AcDbEntity
  8
0
100
AcDbLine
 10
61.0
 20
90.28399999999999
 30
0.0
 11
60.73599999999999
 21
89.92399999999999
 31
0.0
  0
LINE
  5
1E0
330
1E
100
AcDbEntity
  8
0
100
AcDbLine
 10
61.0
 20
90.576
 30
0.0
 11
60.604
 21
90.576
 31
0.0
  0
LINE
  5
1E1
330
1E
100
AcDbEntity
  8
0
100
AcDbLine
 10
61.1
 20
89.92399999999999
 30
0.0
 11
60.0
 21
89.92399999999999
 31
0.0
  0
LINE
  5
1E2
330
1E
100
AcDbEntity
  8
0
100
AcDbLine
 10
61.0
 20
90.28399999999999
 30
0.0
 11
61.0
 21
90.576
 31
0.0
  0
LINE
  5
1E3
330
1E
100
AcDbEntity
  8
0
100
AcDbLine
 10
61.0
 20
90.576
 30
0.0
 11
61.0
 21
91.126
 31
0.0
  0
LINE
  5
1E4
330
1E
100
AcDbEntity
  8
0
100
AcDbLine
 10
61.0
 20
90.576
 30
0.0
 11
61.0
 21
91.576
 31
0.0
  0
LINE
  5
1E5
330
1E
100
AcDbEntity
  8
0
100
AcDbLine
 10
61.0
 20
90.576
 30
0.0
 11
61.0
 21
90.28399999999999
 31
0.0
  0
LINE
  5
1E6
330
1E
100
AcDbEntity
  8
0
100
AcDbLine
 10
61.0
 20
91.126
 30
0.0
 11
61.0
 21
90.576
 31
0.0
  0
LINE
  5
1E7
330
1E
100
AcDbEntity
  8
0
100
AcDbLine
 10
61.0
 20
91.576
 30
0.0
 11
61.0
 21
90.576
 31
0.0
  0
LINE
  5
1E8
330
1E
100
AcDbEntity
  8
0
100
AcDbLine
 10
61.284
 20
90.576
 30
0.0
 11
61.0
 21
90.576
 31
0.0
  0
LINE
  5
1E9
330
1E
100
AcDbEntity
  8
0
100
AcDbLine
 10
61.5
 20
89.92399999999999
 30
0.0
 11
61.1
 21
89.92399999999999
 31
0.0
  0
LINE
  5
1EA
330
1E
100
AcDbEntity
  8
0
100
AcDbLine
 10
59.0
 20
92.57600000000001
 30
0.0
 11
59.0
 21
91.126
 31
0.0
  0
LINE
  5
1EB
330
1E
100
AcDbEntity
  8
0
100
AcDbLine
 10
59.0
 20
91.126
 30
0.0
 11
59.0
 21
92.57600000000001
 31
0.0
  0
LINE
  5
1EC
330
1E
100
AcDbEntity
  8
0
100
AcDbLine
 10
59.548
 20
90.576
 30
0.0
 11
59.0
 21
90.576
 31
0.0
  0
LINE
  5
1ED
330
1E
100
AcDbEntity
  8
0
100
AcDbLine
 10
59.0
 20
91.126
 30
0.0
 11
59.0
 21
90.576
 31
0.0
  0
LINE
  5
1EE
330
1E
100
AcDbEntity
  8
0
100
AcDbLine
 10
59.0
 20
90.576
 30
0.0
 11
59.0
 21
91.126
 31
0.0
  0
LINE
  5
1EF
330
1E
100
AcDbEntity
  8
0
100
AcDbLine
 10
65.0
 20
95.576
 30
0.0
 11
65.0
 21
95.10600000000001
 31
0.0
  0
LINE
  5
1F0
330
1E
100
AcDbEntity
  8
0
100
AcDbLine
 10
65.0
 20
95.10600000000001
 30
0.0
 11
65.0
 21
95.576
 31
0.0
  0
LINE
  5
1F1
330
1E
100
AcDbEntity
  8
0
100
AcDbLine
 10
55.456
 20
90.576
 30
0.0
 11
52.816
 21
90.576
 31
0.0
  0
LINE
  5
1F2
330
1E
100
AcDbEntity
  8
0
100
AcDbLine
 10
56.448
 20
90.576
 30
0.0
 11
53.328
 21
90.576
 31
0.0
  0
LINE
  5
1F3
330
1E
100
AcDbEntity
  8
0
100
AcDbLine
 10
55.7
 20
89.92399999999999
 30
0.0
 11
53.0
 21
89.92399999999999
 31
0.0
  0
LINE
  5
1F4
330
1E
100
AcDbEntity
  8
0
100
AcDbLine
 10
57.788
 20
90.576
 30
0.0
 11
55.456
 21
90.576
 31
0.0
  0
LINE
  5
1F5
330
1E
100
AcDbEntity
  8
0
100
AcDbLine
 10
52.816
 20
90.576
 30
0.0
 11
50.0
 21
90.576
 31
0.0
  0
LINE
  5
1F6
330
1E
100
AcDbEntity
  8
0
100
AcDbLine
 10
53.328
 20
90.576
 30
0.0
 11
50.0
 21
90.576
 31
0.0
  0
LINE
  5
1F7
330
1E
100
AcDbEntity
  8
0
100
AcDbLine
 10
53.0
 20
89.92399999999999
 30
0.0
 11
50.0
 21
89.92399999999999
 31
0.0
  0
LINE
  5
1F8
330
1E
100
AcDbEntity
  8
0
100
AcDbLine
 10
59.0
 20
137.5759999999999
 30
0.0
 11
57.788
 21
137.5759999999999
 31
0.0
  0
LINE
  5
1F9
330
1E
100
AcDbEntity
  8
0
100
AcDbLine
 10
62.53199999999999
 20
137.5759999999999
 30
0.0
 11
61.284
 21
137.5759999999999
 31
0.0
  0
LINE
  5
1FA
330
1E
100
AcDbEntity
  8
0
100
AcDbLine
 10
62.5201
 20
136.5759999999999
 30
0.0
 11
61.28029999999999
 21
136.5759999999999
 31
0.0
  0
LINE
  5
1FB
330
1E
100
AcDbEntity
  8
0
100
AcDbLine
 10
63.8435
 20
136.5759999999999
 30
0.0
 11
62.5201
 21
136.5759999999999
 31
0.0
  0
LINE
  5
1FC
330
1E
100
AcDbEntity
  8
0
100
AcDbLine
 10
64.7
 20
136.276
 30
0.0
 11
64.0
 21
136.5759999999999
 31
0.0
  0
LINE
  5
1FD
330
1E
100
AcDbEntity
  8
0
100
AcDbLine
 10
65.0
 20
135.5759999999999
 30
0.0
 11
64.7
 21
136.276
 31
0.0
  0
LINE
  5
1FE
330
1E
100
AcDbEntity
  8
0
100
AcDbLine
 10
64.0
 20
136.5759999999999
 30
0.0
 11
63.8435
 21
136.5759999999999
 31
0.0
  0
LINE
  5
1FF
330
1E
100
AcDbEntity
  8
0
100
AcDbLine
 10
63.0
 20
137.5759999999999
 30
0.0
 11
62.53199999999999
 21
137.5759999999999
 31
0.0
  0
LINE
  5
200
330
1E
100
AcDbEntity
  8
0
100
AcDbLine
 10
63.0
 20
137.5759999999999
 30
0.0
 11
63.0
 21
136.5759999999999
 31
0.0
  0
LINE
  5
201
330
1E
100
AcDbEntity
  8
0
100
AcDbLine
 10
63.0
 20
136.5759999999999
 30
0.0
 11
63.0
 21
137.5759999999999
 31
0.0
  0
LINE
  5
202
330
1E
100
AcDbEntity
  8
0
100
AcDbLine
 10
61.0
 20
137.5759999999999
 30
0.0
 11
59.0
 21
137.5759999999999
 31
0.0
  0
LINE
  5
203
330
1E
100
AcDbEntity
  8
0
100
AcDbLine
 10
61.0
 20
137.026
 30
0.0
 11
61.0
 21
135.5759999999999
 31
0.0
  0
LINE
  5
204
330
1E
100
AcDbEntity
  8
0
100
AcDbLine
 10
61.0
 20
135.5759999999999
 30
0.0
 11
61.0
 21
137.026
 31
0.0
  0
LINE
  5
205
330
1E
100
AcDbEntity
  8
0
100
AcDbLine
 10
61.0
 20
136.5759999999999
 30
0.0
 11
61.0
 21
137.5759999999999
 31
0.0
  0
LINE
  5
206
330
1E
100
AcDbEntity
  8
0
100
AcDbLine
 10
61.284
 20
137.5759999999999
 30
0.0
 11
61.0
 21
137.5759999999999
 31
0.0
  0
LINE
  5
207
330
1E
100
AcDbEntity
  8
0
100
AcDbLine
 10
61.0
 20
137.5759999999999
 30
0.0
 11
61.0
 21
136.5759999999999
 31
0.0
  0
LINE
  5
208
330
1E
100
AcDbEntity
  8
0
100
AcDbLine
 10
61.0
 20
137.5759999999999
 30
0.0
 11
61.0
 21
137.026
 31
0.0
  0
LINE
  5
209
330
1E
100
AcDbEntity
  8
0
100
AcDbLine
 10
61.0
 20
137.026
 30
0.0
 11
61.0
 21
137.5759999999999
 31
0.0
  0
LINE
  5
20A
330
1E
100
AcDbEntity
  8
0
100
AcDbLine
 10
61.28029999999999
 20
136.5759999999999
 30
0.0
 11
61.0
 21
136.5759999999999
 31
0.0
  0
LINE
  5
20B
330
1E
100
AcDbEntity
  8
0
100
AcDbLine
 10
59.0
 20
137.026
 30
0.0
 11
59.0
 21
135.5759999999999
 31
0.0
  0
LINE
  5
20C
330
1E
100
AcDbEntity
  8
0
100
AcDbLine
 10
59.0
 20
135.5759999999999
 30
0.0
 11
59.0
 21
137.026
 31
0.0
  0
LINE
  5
20D
330
1E
100
AcDbEntity
  8
0
100
AcDbLine
 10
59.0
 20
137.5759999999999
 30
0.0
 11
59.0
 21
137.026
 31
0.0
  0
LINE
  5
20E
330
1E
100
AcDbEntity
  8
0
100
AcDbLine
 10
59.0
 20
137.026
 30
0.0
 11
59.0
 21
137.5759999999999
 31
0.0
  0
LINE
  5
20F
330
1E
100
AcDbEntity
  8
0
100
AcDbLine
 10
55.456
 20
137.5759999999999
 30
0.0
 11
52.816
 21
137.5759999999999
 31
0.0
  0
LINE
  5
210
330
1E
100
AcDbEntity
  8
0
100
AcDbLine
 10
57.788
 20
137.5759999999999
 30
0.0
 11
55.456
 21
137.5759999999999
 31
0.0
  0
LINE
  5
211
330
1E
100
AcDbEntity
  8
0
100
AcDbLine
 10
52.816
 20
137.5759999999999
 30
0.0
 11
50.0
 21
137.5759999999999
 31
0.0
  0
ENDSEC
  0
SECTION
  2
OBJECTS
  0
DICTIONARY
  5
C
330
0
100
AcDbDictionary
281
     1
  3
ACAD_GROUP
350
D
  3
ACAD_LAYOUT
350
19
  3
ACAD_MLINESTYLE
350
16
  3
ACAD_PLOTSETTINGS
350
18
  3
ACAD_PLOTSTYLENAME
350
E
  3
AcDbVariableDictionary
350
212
  0
DICTIONARY
  5
D
102
{ACAD_REACTORS
330
C
102
}
330
C
100
AcDbDictionary
281
     1
  0
DICTIONARY
  5
19
102
{ACAD_REACTORS
330
C
102
}
330
C
100
AcDbDictionary
281
     1
  3
Layout1
350
1D
  3
Model
350
21
  0
DICTIONARY
  5
16
102
{ACAD_REACTORS
330
C
102
}
330
C
100
AcDbDictionary
281
     1
  3
Standard
350
17
  0
DICTIONARY
  5
18
102
{ACAD_REACTORS
330
C
102
}
330
C
100
AcDbDictionary
281
     1
  0
ACDBDICTIONARYWDFLT
  5
E
102
{ACAD_REACTORS
330
C
102
}
330
C
100
AcDbDictionary
281
     1
  3
Normal
350
F
100
AcDbDictionaryWithDefault
340
F
  0
DICTIONARY
  5
212
102
{ACAD_REACTORS
330
C
102
}
330
C
100
AcDbDictionary
281
     1
  3
DIMASSOC
350
213
  0
LAYOUT
  5
1D
102
{ACAD_REACTORS
330
19
102
}
330
19
100
AcDbPlotSettings
  1

  2
hp deskjet 980c series
  4

  6

 40
0.0
 41
0.0
 42
0.0
 43
0.0
 44
0.0
 45
0.0
 46
0.0
 47
0.0
 48
0.0
 49
0.0
140
0.0
141
0.0
142
1.0
143
1.0
 70
   688
 72
     0
 73
     0
 74
     5
  7

 75
    16
147
1.0
148
0.0
149
0.0
100
AcDbLayout
  1
Layout1
 70
     1
 71
     1
 10
0.0
 20
0.0
 11
12.0
 21
9.0
 12
0.0
 22
0.0
 32
0.0
 14
1.000000000000000E+20
 24
1.000000000000000E+20
 34
1.000000000000000E+20
 15
-1.000000000000000E+20
 25
-1.000000000000000E+20
 35
-1.000000000000000E+20
146
0.0
 13
0.0
 23
0.0
 33
0.0
 16
1.0
 26
0.0
 36
0.0
 17
0.0
 27
1.0
 37
0.0
 76
     0
330
1A
  0
LAYOUT
  5
21
102
{ACAD_REACTORS
330
19
102
}
330
19
100
AcDbPlotSettings
  1

  2
hp deskjet 980c series
  4

  6

 40
0.0
 41
0.0
 42
0.0
 43
0.0
 44
0.0
 45
0.0
 46
0.0
 47
0.0
 48
0.0
 49
0.0
140
0.0
141
0.0
142
1.0
143
1.0
 70
  1712
 72
     0
 73
     0
 74
     0
  7

 75
     0
147
1.0
148
0.0
149
0.0
100
AcDbLayout
  1
Model
 70
     1
 71
     0
 10
0.0
 20
0.0
 11
12.0
 21
9.0
 12
0.0
 22
0.0
 32
0.0
 14
0.0
 24
0.0
 34
0.0
 15
0.0
 25
0.0
 35
0.0
146
0.0
 13
0.0
 23
0.0
 33
0.0
 16
1.0
 26
0.0
 36
0.0
 17
0.0
 27
1.0
 37
0.0
 76
     0
330
1E
  0
MLINESTYLE
  5
17
102
{ACAD_REACTORS
330
16
102
}
330
16
100
AcDbMlineStyle
  2
STANDARD
 70
     0
  3

 62
   256
 51
90.0
 52
90.0
 71
     2
 49
0.5
 62
   256
  6
BYLAYER
 49
-0.5
 62
   256
  6
BYLAYER
  0
ACDBPLACEHOLDER
  5
F
102
{ACAD_REACTORS
330
E
102
}
330
E
  0
DICTIONARYVAR
  5
213
102
{ACAD_REACTORS
330
212
102
}
330
212
100
DictionaryVariables
280
     0
  1
1
  0
ENDSEC
  0
EOF
