  0
SECTION
  2
HEADER
  9
$ACADVER
  1
AC1015
  9
$ACADMAINTVER
 70
    13
  9
$DWGCODEPAGE
  3
ANSI_1252
  9
$INSBASE
 10
0.0
 20
0.0
 30
0.0
  9
$EXTMIN
 10
0.0
 20
0.0000244999999898
 30
0.0
  9
$EXTMAX
 10
170.0
 20
79.9999755
 30
0.0
  9
$LIMMIN
 10
0.0
 20
0.0
  9
$LIMMAX
 10
12.0
 20
9.0
  9
$ORTHOMODE
 70
     0
  9
$REGENMODE
 70
     1
  9
$FILLMODE
 70
     1
  9
$QTEXTMODE
 70
     0
  9
$MIRRTEXT
 70
     1
  9
$LTSCALE
 40
1.0
  9
$ATTMODE
 70
     1
  9
$TEXTSIZE
 40
0.2
  9
$TRACEWID
 40
0.05
  9
$TEXTSTYLE
  7
Standard
  9
$CLAYER
  8
0
  9
$CELTYPE
  6
Continuous
  9
$CECOLOR
 62
   256
  9
$CELTSCALE
 40
1.0
  9
$DISPSILH
 70
     0
  9
$DIMSCALE
 40
1.0
  9
$DIMASZ
 40
0.18
  9
$DIMEXO
 40
0.0625
  9
$DIMDLI
 40
0.38
  9
$DIMRND
 40
0.0
  9
$DIMDLE
 40
0.0
  9
$DIMEXE
 40
0.18
  9
$DIMTP
 40
0.0
  9
$DIMTM
 40
0.0
  9
$DIMTXT
 40
0.18
  9
$DIMCEN
 40
0.09
  9
$DIMTSZ
 40
0.0
  9
$DIMTOL
 70
     0
  9
$DIMLIM
 70
     0
  9
$DIMTIH
 70
     1
  9
$DIMTOH
 70
     1
  9
$DIMSE1
 70
     0
  9
$DIMSE2
 70
     0
  9
$DIMTAD
 70
     0
  9
$DIMZIN
 70
     0
  9
$DIMBLK
  1

  9
$DIMASO
 70
     1
  9
$DIMSHO
 70
     1
  9
$DIMPOST
  1

  9
$DIMAPOST
  1

  9
$DIMALT
 70
     0
  9
$DIMALTD
 70
     2
  9
$DIMALTF
 40
25.4
  9
$DIMLFAC
 40
1.0
  9
$DIMTOFL
 70
     0
  9
$DIMTVP
 40
0.0
  9
$DIMTIX
 70
     0
  9
$DIMSOXD
 70
     0
  9
$DIMSAH
 70
     0
  9
$DIMBLK1
  1

  9
$DIMBLK2
  1

  9
$DIMSTYLE
  2
Standard
  9
$DIMCLRD
 70
     0
  9
$DIMCLRE
 70
     0
  9
$DIMCLRT
 70
     0
  9
$DIMTFAC
 40
1.0
  9
$DIMGAP
 40
0.09
  9
$DIMJUST
 70
     0
  9
$DIMSD1
 70
     0
  9
$DIMSD2
 70
     0
  9
$DIMTOLJ
 70
     1
  9
$DIMTZIN
 70
     0
  9
$DIMALTZ
 70
     0
  9
$DIMALTTZ
 70
     0
  9
$DIMUPT
 70
     0
  9
$DIMDEC
 70
     4
  9
$DIMTDEC
 70
     4
  9
$DIMALTU
 70
     2
  9
$DIMALTTD
 70
     2
  9
$DIMTXSTY
  7
Standard
  9
$DIMAUNIT
 70
     0
  9
$DIMADEC
 70
     0
  9
$DIMALTRND
 40
0.0
  9
$DIMAZIN
 70
     0
  9
$DIMDSEP
 70
    46
  9
$DIMATFIT
 70
     3
  9
$DIMFRAC
 70
     0
  9
$DIMLDRBLK
  1

  9
$DIMLUNIT
 70
     2
  9
$DIMLWD
 70
    -2
  9
$DIMLWE
 70
    -2
  9
$DIMTMOVE
 70
     0
  9
$LUNITS
 70
     2
  9
$LUPREC
 70
     4
  9
$SKETCHINC
 40
0.1
  9
$FILLETRAD
 40
0.0
  9
$AUNITS
 70
     0
  9
$AUPREC
 70
     0
  9
$MENU
  1
.
  9
$ELEVATION
 40
0.0
  9
$PELEVATION
 40
0.0
  9
$THICKNESS
 40
0.0
  9
$LIMCHECK
 70
     0
  9
$CHAMFERA
 40
0.0
  9
$CHAMFERB
 40
0.0
  9
$CHAMFERC
 40
0.0
  9
$CHAMFERD
 40
0.0
  9
$SKPOLY
 70
     0
  9
$TDCREATE
 40
2454875.814606285
  9
$TDUCREATE
 40
2454875.772939618
  9
$TDUPDATE
 40
2454875.815439803
  9
$TDUUPDATE
 40
2454875.773773136
  9
$TDINDWG
 40
0.0008335185
  9
$TDUSRTIMER
 40
0.0008335185
  9
$USRTIMER
 70
     1
  9
$ANGBASE
 50
0.0
  9
$ANGDIR
 70
     0
  9
$PDMODE
 70
     0
  9
$PDSIZE
 40
0.0
  9
$PLINEWID
 40
0.0
  9
$SPLFRAME
 70
     0
  9
$SPLINETYPE
 70
     6
  9
$SPLINESEGS
 70
     8
  9
$HANDSEED
  5
1D6
  9
$SURFTAB1
 70
     6
  9
$SURFTAB2
 70
     6
  9
$SURFTYPE
 70
     6
  9
$SURFU
 70
     6
  9
$SURFV
 70
     6
  9
$UCSBASE
  2

  9
$UCSNAME
  2

  9
$UCSORG
 10
0.0
 20
0.0
 30
0.0
  9
$UCSXDIR
 10
1.0
 20
0.0
 30
0.0
  9
$UCSYDIR
 10
0.0
 20
1.0
 30
0.0
  9
$UCSORTHOREF
  2

  9
$UCSORTHOVIEW
 70
     1
  9
$UCSORGTOP
 10
0.0
 20
0.0
 30
0.0
  9
$UCSORGBOTTOM
 10
0.0
 20
0.0
 30
0.0
  9
$UCSORGLEFT
 10
0.0
 20
0.0
 30
0.0
  9
$UCSORGRIGHT
 10
0.0
 20
0.0
 30
0.0
  9
$UCSORGFRONT
 10
0.0
 20
0.0
 30
0.0
  9
$UCSORGBACK
 10
0.0
 20
0.0
 30
0.0
  9
$PUCSBASE
  2

  9
$PUCSNAME
  2

  9
$PUCSORG
 10
0.0
 20
0.0
 30
0.0
  9
$PUCSXDIR
 10
1.0
 20
0.0
 30
0.0
  9
$PUCSYDIR
 10
0.0
 20
1.0
 30
0.0
  9
$PUCSORTHOREF
  2

  9
$PUCSORTHOVIEW
 70
     0
  9
$PUCSORGTOP
 10
0.0
 20
0.0
 30
0.0
  9
$PUCSORGBOTTOM
 10
0.0
 20
0.0
 30
0.0
  9
$PUCSORGLEFT
 10
0.0
 20
0.0
 30
0.0
  9
$PUCSORGRIGHT
 10
0.0
 20
0.0
 30
0.0
  9
$PUCSORGFRONT
 10
0.0
 20
0.0
 30
0.0
  9
$PUCSORGBACK
 10
0.0
 20
0.0
 30
0.0
  9
$USERI1
 70
     0
  9
$USERI2
 70
     0
  9
$USERI3
 70
     0
  9
$USERI4
 70
     0
  9
$USERI5
 70
     0
  9
$USERR1
 40
0.0
  9
$USERR2
 40
0.0
  9
$USERR3
 40
0.0
  9
$USERR4
 40
0.0
  9
$USERR5
 40
0.0
  9
$WORLDVIEW
 70
     1
  9
$SHADEDGE
 70
     3
  9
$SHADEDIF
 70
    70
  9
$TILEMODE
 70
     1
  9
$MAXACTVP
 70
    64
  9
$PINSBASE
 10
0.0
 20
0.0
 30
0.0
  9
$PLIMCHECK
 70
     0
  9
$PEXTMIN
 10
1.000000000000000E+20
 20
1.000000000000000E+20
 30
1.000000000000000E+20
  9
$PEXTMAX
 10
-1.000000000000000E+20
 20
-1.000000000000000E+20
 30
-1.000000000000000E+20
  9
$PLIMMIN
 10
0.0
 20
0.0
  9
$PLIMMAX
 10
12.0
 20
9.0
  9
$UNITMODE
 70
     0
  9
$VISRETAIN
 70
     1
  9
$PLINEGEN
 70
     0
  9
$PSLTSCALE
 70
     1
  9
$TREEDEPTH
 70
  3020
  9
$CMLSTYLE
  2
Standard
  9
$CMLJUST
 70
     0
  9
$CMLSCALE
 40
1.0
  9
$PROXYGRAPHICS
 70
     1
  9
$MEASUREMENT
 70
     0
  9
$CELWEIGHT
370
    -1
  9
$ENDCAPS
280
     0
  9
$JOINSTYLE
280
     0
  9
$LWDISPLAY
290
     0
  9
$INSUNITS
 70
     0
  9
$HYPERLINKBASE
  1

  9
$STYLESHEET
  1

  9
$XEDIT
290
     1
  9
$CEPSNTYPE
380
     0
  9
$PSTYLEMODE
290
     1
  9
$FINGERPRINTGUID
  2
{818B9B0D-9C80-4F95-8B22-446B5C711B00}
  9
$VERSIONGUID
  2
{556211D8-93E8-4EAD-ABCC-BD06264D7078}
  9
$EXTNAMES
290
     1
  9
$PSVPSCALE
 40
0.0
  9
$OLESTARTUP
290
     0
  0
ENDSEC
  0
SECTION
  2
CLASSES
  0
CLASS
  1
ACDBDICTIONARYWDFLT
  2
AcDbDictionaryWithDefault
  3
AutoCAD 2000
 90
        0
280
     0
281
     0
  0
CLASS
  1
ACDBPLACEHOLDER
  2
AcDbPlaceHolder
  3
AutoCAD 2000
 90
        0
280
     0
281
     0
  0
CLASS
  1
LAYOUT
  2
AcDbLayout
  3
AutoCAD 2000
 90
        0
280
     0
281
     0
  0
CLASS
  1
DICTIONARYVAR
  2
AcDbDictionaryVar
  3
AutoCAD 2000
 90
        0
280
     0
281
     0
  0
ENDSEC
  0
SECTION
  2
TABLES
  0
TABLE
  2
VPORT
  5
8
330
0
100
AcDbSymbolTable
 70
     2
  0
VPORT
  5
1D5
330
8
100
AcDbSymbolTableRecord
100
AcDbViewportTableRecord
  2
*Active
 70
     0
 10
0.0
 20
0.0
 11
1.0
 21
1.0
 12
85.0
 22
39.99999999999999
 13
0.0
 23
0.0
 14
1.0
 24
1.0
 15
0.0
 25
0.0
 16
0.0
 26
0.0
 36
1.0
 17
0.0
 27
0.0
 37
0.0
 40
86.64235188577753
 41
1.968387776606954
 42
50.0
 43
0.0
 44
0.0
 50
0.0
 51
0.0
 71
     0
 72
   100
 73
     1
 74
     3
 75
     0
 76
     0
 77
     0
 78
     0
281
     0
 65
     1
110
0.0
120
0.0
130
0.0
111
1.0
121
0.0
131
0.0
112
0.0
122
1.0
132
0.0
 79
     1
146
0.0
  0
ENDTAB
  0
TABLE
  2
LTYPE
  5
5
330
0
100
AcDbSymbolTable
 70
     1
  0
LTYPE
  5
13
330
5
100
AcDbSymbolTableRecord
100
AcDbLinetypeTableRecord
  2
ByBlock
 70
     0
  3

 72
    65
 73
     0
 40
0.0
  0
LTYPE
  5
14
330
5
100
AcDbSymbolTableRecord
100
AcDbLinetypeTableRecord
  2
ByLayer
 70
     0
  3

 72
    65
 73
     0
 40
0.0
  0
LTYPE
  5
15
330
5
100
AcDbSymbolTableRecord
100
AcDbLinetypeTableRecord
  2
Continuous
 70
     0
  3
Solid line
 72
    65
 73
     0
 40
0.0
  0
ENDTAB
  0
TABLE
  2
LAYER
  5
2
330
0
100
AcDbSymbolTable
 70
     1
  0
LAYER
  5
10
330
2
100
AcDbSymbolTableRecord
100
AcDbLayerTableRecord
  2
0
 70
     0
 62
     7
  6
Continuous
370
    -3
390
F
  0
ENDTAB
  0
TABLE
  2
STYLE
  5
3
330
0
100
AcDbSymbolTable
 70
     1
  0
STYLE
  5
11
330
3
100
AcDbSymbolTableRecord
100
AcDbTextStyleTableRecord
  2
Standard
 70
     0
 40
0.0
 41
1.0
 50
0.0
 71
     0
 42
0.2
  3
txt
  4

  0
ENDTAB
  0
TABLE
  2
VIEW
  5
6
330
0
100
AcDbSymbolTable
 70
     0
  0
ENDTAB
  0
TABLE
  2
UCS
  5
7
330
0
100
AcDbSymbolTable
 70
     0
  0
ENDTAB
  0
TABLE
  2
APPID
  5
9
330
0
100
AcDbSymbolTable
 70
     1
  0
APPID
  5
12
330
9
100
AcDbSymbolTableRecord
100
AcDbRegAppTableRecord
  2
ACAD
 70
     0
  0
ENDTAB
  0
TABLE
  2
DIMSTYLE
  5
A
330
0
100
AcDbSymbolTable
 70
     1
100
AcDbDimStyleTable
 71
     0
  0
DIMSTYLE
105
132
330
A
100
AcDbSymbolTableRecord
100
AcDbDimStyleTableRecord
  2
Standard
 70
     0
340
11
  0
ENDTAB
  0
TABLE
  2
BLOCK_RECORD
  5
1
330
0
100
AcDbSymbolTable
 70
     0
  0
BLOCK_RECORD
  5
1E
330
1
100
AcDbSymbolTableRecord
100
AcDbBlockTableRecord
  2
*Model_Space
340
21
  0
BLOCK_RECORD
  5
1A
330
1
100
AcDbSymbolTableRecord
100
AcDbBlockTableRecord
  2
*Paper_Space
340
1D
  0
ENDTAB
  0
ENDSEC
  0
SECTION
  2
BLOCKS
  0
BLOCK
  5
1F
330
1E
100
AcDbEntity
  8
0
100
AcDbBlockBegin
  2
*Model_Space
 70
     0
 10
0.0
 20
0.0
 30
0.0
  3
*Model_Space
  1

  0
ENDBLK
  5
20
330
1E
100
AcDbEntity
  8
0
100
AcDbBlockEnd
  0
BLOCK
  5
1B
330
1A
100
AcDbEntity
 67
     1
  8
0
100
AcDbBlockBegin
  2
*Paper_Space
 70
     0
 10
0.0
 20
0.0
 30
0.0
  3
*Paper_Space
  1

  0
ENDBLK
  5
1C
330
1A
100
AcDbEntity
 67
     1
  8
0
100
AcDbBlockEnd
  0
ENDSEC
  0
SECTION
  2
ENTITIES
  0
LINE
  5
22
330
1E
100
AcDbEntity
  8
0
100
AcDbLine
 10
0.0
 20
79.9999755
 30
0.0
 11
0.2
 21
79.9999755
 31
0.0
  0
LINE
  5
23
330
1E
100
AcDbEntity
  8
0
100
AcDbLine
 10
0.0
 20
79.9999755
 30
0.0
 11
0.0
 21
66.9999755
 31
0.0
  0
LINE
  5
24
330
1E
100
AcDbEntity
  8
0
100
AcDbLine
 10
0.0
 20
66.9999755
 30
0.0
 11
0.0
 21
79.9999755
 31
0.0
  0
LINE
  5
25
330
1E
100
AcDbEntity
  8
0
100
AcDbLine
 10
0.0
 20
66.9999755
 30
0.0
 11
0.3
 21
66.2999755
 31
0.0
  0
LINE
  5
26
330
1E
100
AcDbEntity
  8
0
100
AcDbLine
 10
0.3
 20
66.2999755
 30
0.0
 11
1.0
 21
65.99997550000001
 31
0.0
  0
LINE
  5
27
330
1E
100
AcDbEntity
  8
0
100
AcDbLine
 10
5.099999999999999
 20
65.99997550000001
 30
0.0
 11
6.5
 21
65.99997550000001
 31
0.0
  0
LINE
  5
28
330
1E
100
AcDbEntity
  8
0
100
AcDbLine
 10
6.5
 20
65.99997550000001
 30
0.0
 11
8.0
 21
65.99997550000001
 31
0.0
  0
LINE
  5
29
330
1E
100
AcDbEntity
  8
0
100
AcDbLine
 10
8.0
 20
65.99997550000001
 30
0.0
 11
9.699999999999999
 21
65.99997550000001
 31
0.0
  0
LINE
  5
2A
330
1E
100
AcDbEntity
  8
0
100
AcDbLine
 10
9.699999999999999
 20
65.99997550000001
 30
0.0
 11
11.4
 21
65.99997550000001
 31
0.0
  0
LINE
  5
2B
330
1E
100
AcDbEntity
  8
0
100
AcDbLine
 10
11.4
 20
65.99997550000001
 30
0.0
 11
13.2
 21
65.99997550000001
 31
0.0
  0
LINE
  5
2C
330
1E
100
AcDbEntity
  8
0
100
AcDbLine
 10
64.0
 20
1.06440549999999
 30
0.0
 11
64.0
 21
26.4286755
 31
0.0
  0
LINE
  5
2D
330
1E
100
AcDbEntity
  8
0
100
AcDbLine
 10
64.0
 20
1.119385499999989
 30
0.0
 11
64.0
 21
1.607425499999989
 31
0.0
  0
LINE
  5
2E
330
1E
100
AcDbEntity
  8
0
100
AcDbLine
 10
64.0
 20
1.119385499999989
 30
0.0
 11
64.0
 21
0.9470034999999899
 31
0.0
  0
LINE
  5
2F
330
1E
100
AcDbEntity
  8
0
100
AcDbLine
 10
64.0
 20
0.9470034999999899
 30
0.0
 11
64.0
 21
1.119385499999989
 31
0.0
  0
LINE
  5
30
330
1E
100
AcDbEntity
  8
0
100
AcDbLine
 10
64.0
 20
0.9470034999999899
 30
0.0
 11
64.29999999999999
 21
0.21909149999999
 31
0.0
  0
LINE
  5
31
330
1E
100
AcDbEntity
  8
0
100
AcDbLine
 10
64.0
 20
0.9470034999999899
 30
0.0
 11
64.29999999999999
 21
0.21909149999999
 31
0.0
  0
LINE
  5
32
330
1E
100
AcDbEntity
  8
0
100
AcDbLine
 10
64.0
 20
1.607425499999989
 30
0.0
 11
64.0
 21
2.46288549999999
 31
0.0
  0
LINE
  5
33
330
1E
100
AcDbEntity
  8
0
100
AcDbLine
 10
64.0
 20
1.607425499999989
 30
0.0
 11
64.0
 21
1.119385499999989
 31
0.0
  0
LINE
  5
34
330
1E
100
AcDbEntity
  8
0
100
AcDbLine
 10
64.0
 20
2.46288549999999
 30
0.0
 11
64.0
 21
3.49258549999999
 31
0.0
  0
LINE
  5
35
330
1E
100
AcDbEntity
  8
0
100
AcDbLine
 10
64.0
 20
2.46288549999999
 30
0.0
 11
64.0
 21
1.607425499999989
 31
0.0
  0
LINE
  5
36
330
1E
100
AcDbEntity
  8
0
100
AcDbLine
 10
64.0
 20
2.95464549999999
 30
0.0
 11
64.0
 21
2.55625549999999
 31
0.0
  0
LINE
  5
37
330
1E
100
AcDbEntity
  8
0
100
AcDbLine
 10
64.0
 20
2.95464549999999
 30
0.0
 11
64.0
 21
3.47549549999999
 31
0.0
  0
LINE
  5
38
330
1E
100
AcDbEntity
  8
0
100
AcDbLine
 10
64.0
 20
3.47549549999999
 30
0.0
 11
64.0
 21
2.95464549999999
 31
0.0
  0
LINE
  5
39
330
1E
100
AcDbEntity
  8
0
100
AcDbLine
 10
64.0
 20
3.47549549999999
 30
0.0
 11
64.0
 21
4.17059549999999
 31
0.0
  0
LINE
  5
3A
330
1E
100
AcDbEntity
  8
0
100
AcDbLine
 10
64.0
 20
14.9365755
 30
0.0
 11
64.0
 21
2.51328549999999
 31
0.0
  0
LINE
  5
3B
330
1E
100
AcDbEntity
  8
0
100
AcDbLine
 10
64.0
 20
14.9365755
 30
0.0
 11
64.0
 21
15.3627755
 31
0.0
  0
LINE
  5
3C
330
1E
100
AcDbEntity
  8
0
100
AcDbLine
 10
64.0
 20
16.6202755
 30
0.0
 11
64.0
 21
15.8595755
 31
0.0
  0
LINE
  5
3D
330
1E
100
AcDbEntity
  8
0
100
AcDbLine
 10
64.0
 20
16.6202755
 30
0.0
 11
64.0
 21
17.4517755
 31
0.0
  0
LINE
  5
3E
330
1E
100
AcDbEntity
  8
0
100
AcDbLine
 10
64.0
 20
15.8595755
 30
0.0
 11
64.0
 21
15.3627755
 31
0.0
  0
LINE
  5
3F
330
1E
100
AcDbEntity
  8
0
100
AcDbLine
 10
64.0
 20
15.8595755
 30
0.0
 11
64.0
 21
16.6202755
 31
0.0
  0
LINE
  5
40
330
1E
100
AcDbEntity
  8
0
100
AcDbLine
 10
64.0
 20
15.3627755
 30
0.0
 11
64.0
 21
14.9365755
 31
0.0
  0
LINE
  5
41
330
1E
100
AcDbEntity
  8
0
100
AcDbLine
 10
64.0
 20
15.3627755
 30
0.0
 11
64.0
 21
15.8595755
 31
0.0
  0
LINE
  5
42
330
1E
100
AcDbEntity
  8
0
100
AcDbLine
 10
64.0
 20
17.4517755
 30
0.0
 11
64.0
 21
16.6202755
 31
0.0
  0
LINE
  5
43
330
1E
100
AcDbEntity
  8
0
100
AcDbLine
 10
64.0
 20
17.4517755
 30
0.0
 11
64.0
 21
18.3020755
 31
0.0
  0
LINE
  5
44
330
1E
100
AcDbEntity
  8
0
100
AcDbLine
 10
64.0
 20
18.3020755
 30
0.0
 11
64.0
 21
17.4517755
 31
0.0
  0
LINE
  5
45
330
1E
100
AcDbEntity
  8
0
100
AcDbLine
 10
64.0
 20
18.3020755
 30
0.0
 11
64.0
 21
19.22317549999999
 31
0.0
  0
LINE
  5
46
330
1E
100
AcDbEntity
  8
0
100
AcDbLine
 10
64.0
 20
26.4286755
 30
0.0
 11
64.0
 21
1.06440549999999
 31
0.0
  0
LINE
  5
47
330
1E
100
AcDbEntity
  8
0
100
AcDbLine
 10
64.0
 20
19.22317549999999
 30
0.0
 11
64.0
 21
18.3020755
 31
0.0
  0
LINE
  5
48
330
1E
100
AcDbEntity
  8
0
100
AcDbLine
 10
64.0
 20
19.22317549999999
 30
0.0
 11
64.0
 21
42.4054755
 31
0.0
  0
LINE
  5
49
330
1E
100
AcDbEntity
  8
0
100
AcDbLine
 10
64.0
 20
4.59993549999999
 30
0.0
 11
64.0
 21
3.49258549999999
 31
0.0
  0
LINE
  5
4A
330
1E
100
AcDbEntity
  8
0
100
AcDbLine
 10
64.0
 20
4.59993549999999
 30
0.0
 11
64.0
 21
27.7821755
 31
0.0
  0
LINE
  5
4B
330
1E
100
AcDbEntity
  8
0
100
AcDbLine
 10
64.0
 20
4.17059549999999
 30
0.0
 11
64.0
 21
3.47549549999999
 31
0.0
  0
LINE
  5
4C
330
1E
100
AcDbEntity
  8
0
100
AcDbLine
 10
64.0
 20
4.17059549999999
 30
0.0
 11
64.0
 21
4.98816549999999
 31
0.0
  0
LINE
  5
4D
330
1E
100
AcDbEntity
  8
0
100
AcDbLine
 10
64.0
 20
4.98816549999999
 30
0.0
 11
64.0
 21
4.17059549999999
 31
0.0
  0
LINE
  5
4E
330
1E
100
AcDbEntity
  8
0
100
AcDbLine
 10
64.0
 20
4.98816549999999
 30
0.0
 11
64.0
 21
28.1703755
 31
0.0
  0
LINE
  5
4F
330
1E
100
AcDbEntity
  8
0
100
AcDbLine
 10
64.0
 20
3.49258549999999
 30
0.0
 11
64.0
 21
4.59993549999999
 31
0.0
  0
LINE
  5
50
330
1E
100
AcDbEntity
  8
0
100
AcDbLine
 10
64.0
 20
3.49258549999999
 30
0.0
 11
64.0
 21
2.46288549999999
 31
0.0
  0
LINE
  5
51
330
1E
100
AcDbEntity
  8
0
100
AcDbLine
 10
64.0
 20
2.55625549999999
 30
0.0
 11
64.0
 21
2.95464549999999
 31
0.0
  0
LINE
  5
52
330
1E
100
AcDbEntity
  8
0
100
AcDbLine
 10
64.0
 20
2.55625549999999
 30
0.0
 11
64.0
 21
2.47353549999999
 31
0.0
  0
LINE
  5
53
330
1E
100
AcDbEntity
  8
0
100
AcDbLine
 10
64.0
 20
2.47353549999999
 30
0.0
 11
64.0
 21
2.55625549999999
 31
0.0
  0
LINE
  5
54
330
1E
100
AcDbEntity
  8
0
100
AcDbLine
 10
64.0
 20
2.51328549999999
 30
0.0
 11
64.0
 21
14.9365755
 31
0.0
  0
LINE
  5
55
330
1E
100
AcDbEntity
  8
0
100
AcDbLine
 10
64.0
 20
28.1703755
 30
0.0
 11
64.0
 21
29.0914755
 31
0.0
  0
LINE
  5
56
330
1E
100
AcDbEntity
  8
0
100
AcDbLine
 10
64.0
 20
28.1703755
 30
0.0
 11
64.0
 21
4.98816549999999
 31
0.0
  0
LINE
  5
57
330
1E
100
AcDbEntity
  8
0
100
AcDbLine
 10
64.0
 20
28.99307549999999
 30
0.0
 11
64.0
 21
30.28157549999999
 31
0.0
  0
LINE
  5
58
330
1E
100
AcDbEntity
  8
0
100
AcDbLine
 10
64.0
 20
28.99307549999999
 30
0.0
 11
64.0
 21
27.7821755
 31
0.0
  0
LINE
  5
59
330
1E
100
AcDbEntity
  8
0
100
AcDbLine
 10
64.0
 20
30.28157549999999
 30
0.0
 11
64.0
 21
31.5510755
 31
0.0
  0
LINE
  5
5A
330
1E
100
AcDbEntity
  8
0
100
AcDbLine
 10
64.0
 20
30.28157549999999
 30
0.0
 11
64.0
 21
28.99307549999999
 31
0.0
  0
LINE
  5
5B
330
1E
100
AcDbEntity
  8
0
100
AcDbLine
 10
64.0
 20
29.9418755
 30
0.0
 11
64.0
 21
29.0914755
 31
0.0
  0
LINE
  5
5C
330
1E
100
AcDbEntity
  8
0
100
AcDbLine
 10
64.0
 20
29.9418755
 30
0.0
 11
64.0
 21
30.7732755
 31
0.0
  0
LINE
  5
5D
330
1E
100
AcDbEntity
  8
0
100
AcDbLine
 10
64.0
 20
29.0914755
 30
0.0
 11
64.0
 21
28.1703755
 31
0.0
  0
LINE
  5
5E
330
1E
100
AcDbEntity
  8
0
100
AcDbLine
 10
64.0
 20
29.0914755
 30
0.0
 11
64.0
 21
29.9418755
 31
0.0
  0
LINE
  5
5F
330
1E
100
AcDbEntity
  8
0
100
AcDbLine
 10
64.0
 20
27.7821755
 30
0.0
 11
64.0
 21
28.99307549999999
 31
0.0
  0
LINE
  5
60
330
1E
100
AcDbEntity
  8
0
100
AcDbLine
 10
64.0
 20
27.7821755
 30
0.0
 11
64.0
 21
4.59993549999999
 31
0.0
  0
LINE
  5
61
330
1E
100
AcDbEntity
  8
0
100
AcDbLine
 10
64.0
 20
31.5510755
 30
0.0
 11
64.0
 21
32.6085755
 31
0.0
  0
LINE
  5
62
330
1E
100
AcDbEntity
  8
0
100
AcDbLine
 10
64.0
 20
31.5510755
 30
0.0
 11
64.0
 21
30.28157549999999
 31
0.0
  0
LINE
  5
63
330
1E
100
AcDbEntity
  8
0
100
AcDbLine
 10
64.0
 20
30.7732755
 30
0.0
 11
64.0
 21
31.5340755
 31
0.0
  0
LINE
  5
64
330
1E
100
AcDbEntity
  8
0
100
AcDbLine
 10
64.0
 20
30.7732755
 30
0.0
 11
64.0
 21
29.9418755
 31
0.0
  0
LINE
  5
65
330
1E
100
AcDbEntity
  8
0
100
AcDbLine
 10
64.0
 20
31.5340755
 30
0.0
 11
64.0
 21
32.0308755
 31
0.0
  0
LINE
  5
66
330
1E
100
AcDbEntity
  8
0
100
AcDbLine
 10
64.0
 20
31.5340755
 30
0.0
 11
64.0
 21
30.7732755
 31
0.0
  0
LINE
  5
67
330
1E
100
AcDbEntity
  8
0
100
AcDbLine
 10
64.0
 20
32.4569755
 30
0.0
 11
64.0
 21
32.0308755
 31
0.0
  0
LINE
  5
68
330
1E
100
AcDbEntity
  8
0
100
AcDbLine
 10
64.0
 20
32.4569755
 30
0.0
 11
64.0
 21
44.8802755
 31
0.0
  0
LINE
  5
69
330
1E
100
AcDbEntity
  8
0
100
AcDbLine
 10
64.0
 20
32.0308755
 30
0.0
 11
64.0
 21
32.4569755
 31
0.0
  0
LINE
  5
6A
330
1E
100
AcDbEntity
  8
0
100
AcDbLine
 10
64.0
 20
32.0308755
 30
0.0
 11
64.0
 21
31.5340755
 31
0.0
  0
LINE
  5
6B
330
1E
100
AcDbEntity
  8
0
100
AcDbLine
 10
64.0
 20
32.6085755
 30
0.0
 11
64.0
 21
31.5510755
 31
0.0
  0
LINE
  5
6C
330
1E
100
AcDbEntity
  8
0
100
AcDbLine
 10
64.0
 20
32.6085755
 30
0.0
 11
64.0
 21
33.4020755
 31
0.0
  0
LINE
  5
6D
330
1E
100
AcDbEntity
  8
0
100
AcDbLine
 10
64.0
 20
44.83737549999999
 30
0.0
 11
64.0
 21
44.43897549999999
 31
0.0
  0
LINE
  5
6E
330
1E
100
AcDbEntity
  8
0
100
AcDbLine
 10
64.0
 20
44.83737549999999
 30
0.0
 11
64.0
 21
44.9200755
 31
0.0
  0
LINE
  5
6F
330
1E
100
AcDbEntity
  8
0
100
AcDbLine
 10
62.3382
 20
58.38457550000001
 30
0.0
 11
63.0147
 21
57.9999755
 31
0.0
  0
LINE
  5
72
330
1E
100
AcDbEntity
  8
0
100
AcDbLine
 10
63.8265
 20
57.9999755
 30
0.0
 11
65.0
 21
57.9999755
 31
0.0
  0
LINE
  5
73
330
1E
100
AcDbEntity
  8
0
100
AcDbLine
 10
63.0147
 20
57.9999755
 30
0.0
 11
63.8265
 21
57.9999755
 31
0.0
  0
LINE
  5
74
330
1E
100
AcDbEntity
  8
0
100
AcDbLine
 10
62.0
 20
59.1537755
 30
0.0
 11
62.3382
 21
58.38457550000001
 31
0.0
  0
LINE
  5
75
330
1E
100
AcDbEntity
  8
0
100
AcDbLine
 10
62.0
 20
59.1537755
 30
0.0
 11
62.0
 21
65.99997550000001
 31
0.0
  0
LINE
  5
76
330
1E
100
AcDbEntity
  8
0
100
AcDbLine
 10
64.0
 20
54.8701755
 30
0.0
 11
64.0
 21
33.9058755
 31
0.0
  0
LINE
  5
77
330
1E
100
AcDbEntity
  8
0
100
AcDbLine
 10
64.0
 20
54.8701755
 30
0.0
 11
64.29999999999999
 21
55.5463755
 31
0.0
  0
LINE
  5
78
330
1E
100
AcDbEntity
  8
0
100
AcDbLine
 10
64.0
 20
44.9200755
 30
0.0
 11
64.0
 21
44.83737549999999
 31
0.0
  0
LINE
  5
79
330
1E
100
AcDbEntity
  8
0
100
AcDbLine
 10
64.0
 20
44.8802755
 30
0.0
 11
64.0
 21
32.4569755
 31
0.0
  0
LINE
  5
7A
330
1E
100
AcDbEntity
  8
0
100
AcDbLine
 10
64.0
 20
44.43897549999999
 30
0.0
 11
64.0
 21
43.9180755
 31
0.0
  0
LINE
  5
7B
330
1E
100
AcDbEntity
  8
0
100
AcDbLine
 10
64.0
 20
44.43897549999999
 30
0.0
 11
64.0
 21
44.83737549999999
 31
0.0
  0
LINE
  5
7C
330
1E
100
AcDbEntity
  8
0
100
AcDbLine
 10
64.0
 20
43.9180755
 30
0.0
 11
64.0
 21
43.2229755
 31
0.0
  0
LINE
  5
7D
330
1E
100
AcDbEntity
  8
0
100
AcDbLine
 10
64.0
 20
43.9180755
 30
0.0
 11
64.0
 21
44.43897549999999
 31
0.0
  0
LINE
  5
7E
330
1E
100
AcDbEntity
  8
0
100
AcDbLine
 10
64.0
 20
43.2229755
 30
0.0
 11
64.0
 21
42.4054755
 31
0.0
  0
LINE
  5
7F
330
1E
100
AcDbEntity
  8
0
100
AcDbLine
 10
64.0
 20
43.2229755
 30
0.0
 11
64.0
 21
43.9180755
 31
0.0
  0
LINE
  5
80
330
1E
100
AcDbEntity
  8
0
100
AcDbLine
 10
64.0
 20
42.4054755
 30
0.0
 11
64.0
 21
19.22317549999999
 31
0.0
  0
LINE
  5
81
330
1E
100
AcDbEntity
  8
0
100
AcDbLine
 10
64.0
 20
42.4054755
 30
0.0
 11
64.0
 21
43.2229755
 31
0.0
  0
LINE
  5
82
330
1E
100
AcDbEntity
  8
0
100
AcDbLine
 10
64.0
 20
33.4020755
 30
0.0
 11
64.0
 21
32.6085755
 31
0.0
  0
LINE
  5
83
330
1E
100
AcDbEntity
  8
0
100
AcDbLine
 10
64.0
 20
33.4020755
 30
0.0
 11
64.0
 21
33.9058755
 31
0.0
  0
LINE
  5
85
330
1E
100
AcDbEntity
  8
0
100
AcDbLine
 10
64.29999999999999
 20
55.5463755
 30
0.0
 11
65.0
 21
55.8361755
 31
0.0
  0
LINE
  5
86
330
1E
100
AcDbEntity
  8
0
100
AcDbLine
 10
64.29999999999999
 20
55.5463755
 30
0.0
 11
64.29999999999999
 21
52.6498755
 31
0.0
  0
LINE
  5
87
330
1E
100
AcDbEntity
  8
0
100
AcDbLine
 10
64.29999999999999
 20
52.6498755
 30
0.0
 11
64.5
 21
52.4036755
 31
0.0
  0
LINE
  5
88
330
1E
100
AcDbEntity
  8
0
100
AcDbLine
 10
64.29999999999999
 20
52.6498755
 30
0.0
 11
64.29999999999999
 21
55.5463755
 31
0.0
  0
LINE
  5
89
330
1E
100
AcDbEntity
  8
0
100
AcDbLine
 10
64.29999999999999
 20
25.7524755
 30
0.0
 11
64.5
 21
26.1148755
 31
0.0
  0
LINE
  5
8B
330
1E
100
AcDbEntity
  8
0
100
AcDbLine
 10
65.09999999999999
 20
26.4771755
 30
0.0
 11
66.0
 21
26.7877755
 31
0.0
  0
LINE
  5
8C
330
1E
100
AcDbEntity
  8
0
100
AcDbLine
 10
64.5
 20
26.1148755
 30
0.0
 11
65.09999999999999
 21
26.4771755
 31
0.0
  0
LINE
  5
8D
330
1E
100
AcDbEntity
  8
0
100
AcDbLine
 10
66.0
 20
26.7877755
 30
0.0
 11
67.2
 21
27.0207755
 31
0.0
  0
LINE
  5
92
330
1E
100
AcDbEntity
  8
0
100
AcDbLine
 10
67.2
 20
27.0207755
 30
0.0
 11
68.59999999999999
 21
27.1759755
 31
0.0
  0
LINE
  5
96
330
1E
100
AcDbEntity
  8
0
100
AcDbLine
 10
66.0
 20
51.9289755
 30
0.0
 11
67.2
 21
51.7636755
 31
0.0
  0
LINE
  5
9C
330
1E
100
AcDbEntity
  8
0
100
AcDbLine
 10
67.2
 20
51.7636755
 30
0.0
 11
68.59999999999999
 21
51.7105755
 31
0.0
  0
LINE
  5
9D
330
1E
100
AcDbEntity
  8
0
100
AcDbLine
 10
68.59999999999999
 20
51.7105755
 30
0.0
 11
70.0
 21
51.7622755
 31
0.0
  0
LINE
  5
9E
330
1E
100
AcDbEntity
  8
0
100
AcDbLine
 10
65.09999999999999
 20
52.1483755
 30
0.0
 11
66.0
 21
51.9289755
 31
0.0
  0
LINE
  5
9F
330
1E
100
AcDbEntity
  8
0
100
AcDbLine
 10
65.1818
 20
57.9999755
 30
0.0
 11
65.7272
 21
57.9999755
 31
0.0
  0
LINE
  5
A0
330
1E
100
AcDbEntity
  8
0
100
AcDbLine
 10
65.0
 20
55.8361755
 30
0.0
 11
65.0
 21
57.9999755
 31
0.0
  0
LINE
  5
A1
330
1E
100
AcDbEntity
  8
0
100
AcDbLine
 10
65.0
 20
57.9999755
 30
0.0
 11
65.0
 21
55.8361755
 31
0.0
  0
LINE
  5
A2
330
1E
100
AcDbEntity
  8
0
100
AcDbLine
 10
65.0
 20
57.9999755
 30
0.0
 11
65.1818
 21
57.9999755
 31
0.0
  0
LINE
  5
A3
330
1E
100
AcDbEntity
  8
0
100
AcDbLine
 10
70.90899999999999
 20
57.9999755
 30
0.0
 11
72.8182
 21
57.9999755
 31
0.0
  0
LINE
  5
A4
330
1E
100
AcDbEntity
  8
0
100
AcDbLine
 10
72.8182
 20
57.9999755
 30
0.0
 11
75.0
 21
57.9999755
 31
0.0
  0
LINE
  5
A5
330
1E
100
AcDbEntity
  8
0
100
AcDbLine
 10
69.18179999999999
 20
57.9999755
 30
0.0
 11
70.90899999999999
 21
57.9999755
 31
0.0
  0
LINE
  5
A6
330
1E
100
AcDbEntity
  8
0
100
AcDbLine
 10
67.63639999999999
 20
57.9999755
 30
0.0
 11
69.18179999999999
 21
57.9999755
 31
0.0
  0
LINE
  5
A7
330
1E
100
AcDbEntity
  8
0
100
AcDbLine
 10
66.5454
 20
57.9999755
 30
0.0
 11
67.63639999999999
 21
57.9999755
 31
0.0
  0
LINE
  5
A8
330
1E
100
AcDbEntity
  8
0
100
AcDbLine
 10
65.7272
 20
57.9999755
 30
0.0
 11
66.5454
 21
57.9999755
 31
0.0
  0
LINE
  5
AB
330
1E
100
AcDbEntity
  8
0
100
AcDbLine
 10
75.0
 20
57.9999755
 30
0.0
 11
77.36360000000001
 21
57.9999755
 31
0.0
  0
LINE
  5
AC
330
1E
100
AcDbEntity
  8
0
100
AcDbLine
 10
77.36360000000001
 20
57.9999755
 30
0.0
 11
79.8181
 21
57.9999755
 31
0.0
  0
LINE
  5
B0
330
1E
100
AcDbEntity
  8
0
100
AcDbLine
 10
79.8181
 20
57.9999755
 30
0.0
 11
82.36360000000001
 21
57.9999755
 31
0.0
  0
LINE
  5
B1
330
1E
100
AcDbEntity
  8
0
100
AcDbLine
 10
82.36360000000001
 20
57.9999755
 30
0.0
 11
85.0
 21
57.9999755
 31
0.0
  0
LINE
  5
C4
330
1E
100
AcDbEntity
  8
0
100
AcDbLine
 10
64.5
 20
52.4036755
 30
0.0
 11
65.09999999999999
 21
52.1483755
 31
0.0
  0
LINE
  5
C7
330
1E
100
AcDbEntity
  8
0
100
AcDbLine
 10
68.59999999999999
 20
27.1759755
 30
0.0
 11
70.0
 21
27.22777549999999
 31
0.0
  0
LINE
  5
CB
330
1E
100
AcDbEntity
  8
0
100
AcDbLine
 10
64.29999999999999
 20
0.21909149999999
 30
0.0
 11
65.0
 21
0.0000244999999898
 31
0.0
  0
LINE
  5
CC
330
1E
100
AcDbEntity
  8
0
100
AcDbLine
 10
64.29999999999999
 20
0.21909149999999
 30
0.0
 11
65.0
 21
0.0000244999999898
 31
0.0
  0
LINE
  5
ED
330
1E
100
AcDbEntity
  8
0
100
AcDbLine
 10
64.0
 20
33.9058755
 30
0.0
 11
64.0
 21
33.4020755
 31
0.0
  0
LINE
  5
EE
330
1E
100
AcDbEntity
  8
0
100
AcDbLine
 10
64.0
 20
33.9058755
 30
0.0
 11
64.0
 21
54.8701755
 31
0.0
  0
LINE
  5
EF
330
1E
100
AcDbEntity
  8
0
100
AcDbLine
 10
15.0
 20
65.99997550000001
 30
0.0
 11
62.0
 21
65.99997550000001
 31
0.0
  0
LINE
  5
F0
330
1E
100
AcDbEntity
  8
0
100
AcDbLine
 10
13.2
 20
65.99997550000001
 30
0.0
 11
15.0
 21
65.99997550000001
 31
0.0
  0
LINE
  5
F1
330
1E
100
AcDbEntity
  8
0
100
AcDbLine
 10
15.0
 20
65.99997550000001
 30
0.0
 11
62.0
 21
65.99997550000001
 31
0.0
  0
LINE
  5
F2
330
1E
100
AcDbEntity
  8
0
100
AcDbLine
 10
3.9
 20
65.99997550000001
 30
0.0
 11
5.099999999999999
 21
65.99997550000001
 31
0.0
  0
LINE
  5
F3
330
1E
100
AcDbEntity
  8
0
100
AcDbLine
 10
2.9
 20
65.99997550000001
 30
0.0
 11
3.9
 21
65.99997550000001
 31
0.0
  0
LINE
  5
F4
330
1E
100
AcDbEntity
  8
0
100
AcDbLine
 10
2.1
 20
65.99997550000001
 30
0.0
 11
2.9
 21
65.99997550000001
 31
0.0
  0
LINE
  5
F5
330
1E
100
AcDbEntity
  8
0
100
AcDbLine
 10
1.5
 20
65.99997550000001
 30
0.0
 11
2.1
 21
65.99997550000001
 31
0.0
  0
LINE
  5
F6
330
1E
100
AcDbEntity
  8
0
100
AcDbLine
 10
1.1
 20
65.99997550000001
 30
0.0
 11
1.5
 21
65.99997550000001
 31
0.0
  0
LINE
  5
F8
330
1E
100
AcDbEntity
  8
0
100
AcDbLine
 10
62.0
 20
65.99997550000001
 30
0.0
 11
62.0
 21
59.1537755
 31
0.0
  0
LINE
  5
F9
330
1E
100
AcDbEntity
  8
0
100
AcDbLine
 10
1.0
 20
65.99997550000001
 30
0.0
 11
1.1
 21
65.99997550000001
 31
0.0
  0
LINE
  5
FA
330
1E
100
AcDbEntity
  8
0
100
AcDbLine
 10
0.2
 20
79.9999755
 30
0.0
 11
0.5
 21
79.9999755
 31
0.0
  0
LINE
  5
114
330
1E
100
AcDbEntity
  8
0
100
AcDbLine
 10
4.4
 20
79.9999755
 30
0.0
 11
5.9
 21
79.9999755
 31
0.0
  0
LINE
  5
115
330
1E
100
AcDbEntity
  8
0
100
AcDbLine
 10
5.9
 20
79.9999755
 30
0.0
 11
7.5
 21
79.9999755
 31
0.0
  0
LINE
  5
116
330
1E
100
AcDbEntity
  8
0
100
AcDbLine
 10
7.5
 20
79.9999755
 30
0.0
 11
9.3
 21
79.9999755
 31
0.0
  0
LINE
  5
117
330
1E
100
AcDbEntity
  8
0
100
AcDbLine
 10
9.3
 20
79.9999755
 30
0.0
 11
11.1
 21
79.9999755
 31
0.0
  0
LINE
  5
118
330
1E
100
AcDbEntity
  8
0
100
AcDbLine
 10
11.1
 20
79.9999755
 30
0.0
 11
13.0
 21
79.9999755
 31
0.0
  0
LINE
  5
119
330
1E
100
AcDbEntity
  8
0
100
AcDbLine
 10
13.0
 20
79.9999755
 30
0.0
 11
15.0
 21
79.9999755
 31
0.0
  0
LINE
  5
129
330
1E
100
AcDbEntity
  8
0
100
AcDbLine
 10
15.0
 20
79.9999755
 30
0.0
 11
85.0
 21
79.9999755
 31
0.0
  0
LINE
  5
12A
330
1E
100
AcDbEntity
  8
0
100
AcDbLine
 10
15.0
 20
79.9999755
 30
0.0
 11
85.0
 21
79.9999755
 31
0.0
  0
LINE
  5
12C
330
1E
100
AcDbEntity
  8
0
100
AcDbLine
 10
3.1
 20
79.9999755
 30
0.0
 11
4.4
 21
79.9999755
 31
0.0
  0
LINE
  5
12D
330
1E
100
AcDbEntity
  8
0
100
AcDbLine
 10
2.0
 20
79.9999755
 30
0.0
 11
3.1
 21
79.9999755
 31
0.0
  0
LINE
  5
12E
330
1E
100
AcDbEntity
  8
0
100
AcDbLine
 10
1.199999999999999
 20
79.9999755
 30
0.0
 11
2.0
 21
79.9999755
 31
0.0
  0
LINE
  5
12F
330
1E
100
AcDbEntity
  8
0
100
AcDbLine
 10
0.5
 20
79.9999755
 30
0.0
 11
1.199999999999999
 21
79.9999755
 31
0.0
  0
LINE
  5
131
330
1E
100
AcDbEntity
  8
0
100
AcDbLine
 10
0.3
 20
66.2999755
 30
0.0
 11
1.0
 21
65.99997550000001
 31
0.0
  0
LINE
  5
136
330
1E
100
AcDbEntity
  8
0
100
AcDbLine
 10
155.0
 20
79.9999755
 30
0.0
 11
85.0
 21
79.9999755
 31
0.0
  0
LINE
  5
137
330
1E
100
AcDbEntity
  8
0
100
AcDbLine
 10
155.0
 20
79.9999755
 30
0.0
 11
85.0
 21
79.9999755
 31
0.0
  0
LINE
  5
138
330
1E
100
AcDbEntity
  8
0
100
AcDbLine
 10
155.0
 20
65.99997550000001
 30
0.0
 11
108.0
 21
65.99997550000001
 31
0.0
  0
LINE
  5
139
330
1E
100
AcDbEntity
  8
0
100
AcDbLine
 10
155.0
 20
65.99997550000001
 30
0.0
 11
108.0
 21
65.99997550000001
 31
0.0
  0
LINE
  5
13A
330
1E
100
AcDbEntity
  8
0
100
AcDbLine
 10
168.0
 20
79.9999755
 30
0.0
 11
166.9
 21
79.9999755
 31
0.0
  0
LINE
  5
13B
330
1E
100
AcDbEntity
  8
0
100
AcDbLine
 10
167.9
 20
65.99997550000001
 30
0.0
 11
167.1
 21
65.99997550000001
 31
0.0
  0
LINE
  5
13C
330
1E
100
AcDbEntity
  8
0
100
AcDbLine
 10
170.0
 20
66.9999755
 30
0.0
 11
170.0
 21
79.9999755
 31
0.0
  0
LINE
  5
13D
330
1E
100
AcDbEntity
  8
0
100
AcDbLine
 10
170.0
 20
79.9999755
 30
0.0
 11
170.0
 21
66.9999755
 31
0.0
  0
LINE
  5
13E
330
1E
100
AcDbEntity
  8
0
100
AcDbLine
 10
169.6999999999999
 20
66.2999755
 30
0.0
 11
169.0
 21
65.99997550000001
 31
0.0
  0
LINE
  5
13F
330
1E
100
AcDbEntity
  8
0
100
AcDbLine
 10
169.6999999999999
 20
66.2999755
 30
0.0
 11
169.0
 21
65.99997550000001
 31
0.0
  0
LINE
  5
140
330
1E
100
AcDbEntity
  8
0
100
AcDbLine
 10
170.0
 20
66.9999755
 30
0.0
 11
169.6999999999999
 21
66.2999755
 31
0.0
  0
LINE
  5
141
330
1E
100
AcDbEntity
  8
0
100
AcDbLine
 10
168.5
 20
65.99997550000001
 30
0.0
 11
167.9
 21
65.99997550000001
 31
0.0
  0
LINE
  5
142
330
1E
100
AcDbEntity
  8
0
100
AcDbLine
 10
169.0
 20
65.99997550000001
 30
0.0
 11
168.9
 21
65.99997550000001
 31
0.0
  0
LINE
  5
143
330
1E
100
AcDbEntity
  8
0
100
AcDbLine
 10
168.9
 20
65.99997550000001
 30
0.0
 11
168.5
 21
65.99997550000001
 31
0.0
  0
LINE
  5
144
330
1E
100
AcDbEntity
  8
0
100
AcDbLine
 10
169.5
 20
79.9999755
 30
0.0
 11
168.8
 21
79.9999755
 31
0.0
  0
LINE
  5
145
330
1E
100
AcDbEntity
  8
0
100
AcDbLine
 10
170.0
 20
79.9999755
 30
0.0
 11
169.8
 21
79.9999755
 31
0.0
  0
LINE
  5
146
330
1E
100
AcDbEntity
  8
0
100
AcDbLine
 10
169.8
 20
79.9999755
 30
0.0
 11
169.5
 21
79.9999755
 31
0.0
  0
LINE
  5
147
330
1E
100
AcDbEntity
  8
0
100
AcDbLine
 10
168.8
 20
79.9999755
 30
0.0
 11
168.0
 21
79.9999755
 31
0.0
  0
LINE
  5
148
330
1E
100
AcDbEntity
  8
0
100
AcDbLine
 10
162.0
 20
65.99997550000001
 30
0.0
 11
160.3
 21
65.99997550000001
 31
0.0
  0
LINE
  5
149
330
1E
100
AcDbEntity
  8
0
100
AcDbLine
 10
164.9
 20
65.99997550000001
 30
0.0
 11
163.4999999999999
 21
65.99997550000001
 31
0.0
  0
LINE
  5
14A
330
1E
100
AcDbEntity
  8
0
100
AcDbLine
 10
166.1
 20
65.99997550000001
 30
0.0
 11
164.9
 21
65.99997550000001
 31
0.0
  0
LINE
  5
14B
330
1E
100
AcDbEntity
  8
0
100
AcDbLine
 10
167.1
 20
65.99997550000001
 30
0.0
 11
166.1
 21
65.99997550000001
 31
0.0
  0
LINE
  5
14C
330
1E
100
AcDbEntity
  8
0
100
AcDbLine
 10
163.4999999999999
 20
65.99997550000001
 30
0.0
 11
162.0
 21
65.99997550000001
 31
0.0
  0
LINE
  5
14D
330
1E
100
AcDbEntity
  8
0
100
AcDbLine
 10
158.6
 20
65.99997550000001
 30
0.0
 11
156.8
 21
65.99997550000001
 31
0.0
  0
LINE
  5
14E
330
1E
100
AcDbEntity
  8
0
100
AcDbLine
 10
160.3
 20
65.99997550000001
 30
0.0
 11
158.6
 21
65.99997550000001
 31
0.0
  0
LINE
  5
14F
330
1E
100
AcDbEntity
  8
0
100
AcDbLine
 10
156.8
 20
65.99997550000001
 30
0.0
 11
155.0
 21
65.99997550000001
 31
0.0
  0
LINE
  5
150
330
1E
100
AcDbEntity
  8
0
100
AcDbLine
 10
162.5
 20
79.9999755
 30
0.0
 11
160.7
 21
79.9999755
 31
0.0
  0
LINE
  5
151
330
1E
100
AcDbEntity
  8
0
100
AcDbLine
 10
164.1
 20
79.9999755
 30
0.0
 11
162.5
 21
79.9999755
 31
0.0
  0
LINE
  5
152
330
1E
100
AcDbEntity
  8
0
100
AcDbLine
 10
166.9
 20
79.9999755
 30
0.0
 11
165.5999999999999
 21
79.9999755
 31
0.0
  0
LINE
  5
153
330
1E
100
AcDbEntity
  8
0
100
AcDbLine
 10
165.5999999999999
 20
79.9999755
 30
0.0
 11
164.1
 21
79.9999755
 31
0.0
  0
LINE
  5
154
330
1E
100
AcDbEntity
  8
0
100
AcDbLine
 10
158.9
 20
79.9999755
 30
0.0
 11
157.0
 21
79.9999755
 31
0.0
  0
LINE
  5
155
330
1E
100
AcDbEntity
  8
0
100
AcDbLine
 10
160.7
 20
79.9999755
 30
0.0
 11
158.9
 21
79.9999755
 31
0.0
  0
LINE
  5
156
330
1E
100
AcDbEntity
  8
0
100
AcDbLine
 10
157.0
 20
79.9999755
 30
0.0
 11
155.0
 21
79.9999755
 31
0.0
  0
LINE
  5
157
330
1E
100
AcDbEntity
  8
0
100
AcDbLine
 10
106.0
 20
33.9058755
 30
0.0
 11
106.0
 21
54.8701755
 31
0.0
  0
LINE
  5
158
330
1E
100
AcDbEntity
  8
0
100
AcDbLine
 10
106.0
 20
42.4054755
 30
0.0
 11
106.0
 21
19.22317549999999
 31
0.0
  0
LINE
  5
159
330
1E
100
AcDbEntity
  8
0
100
AcDbLine
 10
106.0
 20
44.8802755
 30
0.0
 11
106.0
 21
32.4569755
 31
0.0
  0
LINE
  5
15A
330
1E
100
AcDbEntity
  8
0
100
AcDbLine
 10
106.0
 20
54.8701755
 30
0.0
 11
106.0
 21
33.9058755
 31
0.0
  0
LINE
  5
15B
330
1E
100
AcDbEntity
  8
0
100
AcDbLine
 10
106.0
 20
32.4569755
 30
0.0
 11
106.0
 21
44.8802755
 31
0.0
  0
LINE
  5
15C
330
1E
100
AcDbEntity
  8
0
100
AcDbLine
 10
106.0
 20
19.22317549999999
 30
0.0
 11
106.0
 21
42.4054755
 31
0.0
  0
LINE
  5
15D
330
1E
100
AcDbEntity
  8
0
100
AcDbLine
 10
101.4
 20
27.1759755
 30
0.0
 11
100.0
 21
27.22777549999999
 31
0.0
  0
LINE
  5
15E
330
1E
100
AcDbEntity
  8
0
100
AcDbLine
 10
106.0
 20
27.7821755
 30
0.0
 11
106.0
 21
4.59993549999999
 31
0.0
  0
LINE
  5
15F
330
1E
100
AcDbEntity
  8
0
100
AcDbLine
 10
106.0
 20
28.1703755
 30
0.0
 11
106.0
 21
4.98816549999999
 31
0.0
  0
LINE
  5
160
330
1E
100
AcDbEntity
  8
0
100
AcDbLine
 10
106.0
 20
4.98816549999999
 30
0.0
 11
106.0
 21
28.1703755
 31
0.0
  0
LINE
  5
161
330
1E
100
AcDbEntity
  8
0
100
AcDbLine
 10
106.0
 20
4.59993549999999
 30
0.0
 11
106.0
 21
27.7821755
 31
0.0
  0
LINE
  5
162
330
1E
100
AcDbEntity
  8
0
100
AcDbLine
 10
106.0
 20
26.4286755
 30
0.0
 11
106.0
 21
1.06440549999999
 31
0.0
  0
LINE
  5
163
330
1E
100
AcDbEntity
  8
0
100
AcDbLine
 10
106.0
 20
15.3627755
 30
0.0
 11
106.0
 21
14.9365755
 31
0.0
  0
LINE
  5
164
330
1E
100
AcDbEntity
  8
0
100
AcDbLine
 10
106.0
 20
14.9365755
 30
0.0
 11
106.0
 21
15.3627755
 31
0.0
  0
LINE
  5
165
330
1E
100
AcDbEntity
  8
0
100
AcDbLine
 10
106.0
 20
1.06440549999999
 30
0.0
 11
106.0
 21
26.4286755
 31
0.0
  0
LINE
  5
166
330
1E
100
AcDbEntity
  8
0
100
AcDbLine
 10
106.0
 20
2.47353549999999
 30
0.0
 11
106.0
 21
2.55625549999999
 31
0.0
  0
LINE
  5
167
330
1E
100
AcDbEntity
  8
0
100
AcDbLine
 10
106.0
 20
2.55625549999999
 30
0.0
 11
106.0
 21
2.47353549999999
 31
0.0
  0
LINE
  5
168
330
1E
100
AcDbEntity
  8
0
100
AcDbLine
 10
106.0
 20
3.49258549999999
 30
0.0
 11
106.0
 21
2.46288549999999
 31
0.0
  0
LINE
  5
169
330
1E
100
AcDbEntity
  8
0
100
AcDbLine
 10
106.0
 20
2.46288549999999
 30
0.0
 11
106.0
 21
3.49258549999999
 31
0.0
  0
LINE
  5
16A
330
1E
100
AcDbEntity
  8
0
100
AcDbLine
 10
106.0
 20
0.9470034999999899
 30
0.0
 11
105.6999999999999
 21
0.21909149999999
 31
0.0
  0
LINE
  5
16B
330
1E
100
AcDbEntity
  8
0
100
AcDbLine
 10
106.0
 20
0.9470034999999899
 30
0.0
 11
105.6999999999999
 21
0.21909149999999
 31
0.0
  0
LINE
  5
16C
330
1E
100
AcDbEntity
  8
0
100
AcDbLine
 10
106.0
 20
2.46288549999999
 30
0.0
 11
106.0
 21
1.607425499999989
 31
0.0
  0
LINE
  5
16D
330
1E
100
AcDbEntity
  8
0
100
AcDbLine
 10
106.0
 20
1.607425499999989
 30
0.0
 11
106.0
 21
1.119385499999989
 31
0.0
  0
LINE
  5
16E
330
1E
100
AcDbEntity
  8
0
100
AcDbLine
 10
106.0
 20
1.607425499999989
 30
0.0
 11
106.0
 21
2.46288549999999
 31
0.0
  0
LINE
  5
16F
330
1E
100
AcDbEntity
  8
0
100
AcDbLine
 10
106.0
 20
0.9470034999999899
 30
0.0
 11
106.0
 21
1.119385499999989
 31
0.0
  0
LINE
  5
170
330
1E
100
AcDbEntity
  8
0
100
AcDbLine
 10
106.0
 20
1.119385499999989
 30
0.0
 11
106.0
 21
0.9470034999999899
 31
0.0
  0
LINE
  5
171
330
1E
100
AcDbEntity
  8
0
100
AcDbLine
 10
106.0
 20
1.119385499999989
 30
0.0
 11
106.0
 21
1.607425499999989
 31
0.0
  0
LINE
  5
172
330
1E
100
AcDbEntity
  8
0
100
AcDbLine
 10
105.6999999999999
 20
0.21909149999999
 30
0.0
 11
105.0
 21
0.0000244999999898
 31
0.0
  0
LINE
  5
173
330
1E
100
AcDbEntity
  8
0
100
AcDbLine
 10
105.6999999999999
 20
0.21909149999999
 30
0.0
 11
105.0
 21
0.0000244999999898
 31
0.0
  0
LINE
  5
174
330
1E
100
AcDbEntity
  8
0
100
AcDbLine
 10
106.0
 20
2.51328549999999
 30
0.0
 11
106.0
 21
14.9365755
 31
0.0
  0
LINE
  5
175
330
1E
100
AcDbEntity
  8
0
100
AcDbLine
 10
106.0
 20
14.9365755
 30
0.0
 11
106.0
 21
2.51328549999999
 31
0.0
  0
LINE
  5
176
330
1E
100
AcDbEntity
  8
0
100
AcDbLine
 10
106.0
 20
3.49258549999999
 30
0.0
 11
106.0
 21
4.59993549999999
 31
0.0
  0
LINE
  5
177
330
1E
100
AcDbEntity
  8
0
100
AcDbLine
 10
106.0
 20
4.17059549999999
 30
0.0
 11
106.0
 21
3.47549549999999
 31
0.0
  0
LINE
  5
178
330
1E
100
AcDbEntity
  8
0
100
AcDbLine
 10
106.0
 20
4.59993549999999
 30
0.0
 11
106.0
 21
3.49258549999999
 31
0.0
  0
LINE
  5
179
330
1E
100
AcDbEntity
  8
0
100
AcDbLine
 10
106.0
 20
3.47549549999999
 30
0.0
 11
106.0
 21
4.17059549999999
 31
0.0
  0
LINE
  5
17A
330
1E
100
AcDbEntity
  8
0
100
AcDbLine
 10
106.0
 20
2.55625549999999
 30
0.0
 11
106.0
 21
2.95464549999999
 31
0.0
  0
LINE
  5
17B
330
1E
100
AcDbEntity
  8
0
100
AcDbLine
 10
106.0
 20
3.47549549999999
 30
0.0
 11
106.0
 21
2.95464549999999
 31
0.0
  0
LINE
  5
17C
330
1E
100
AcDbEntity
  8
0
100
AcDbLine
 10
106.0
 20
2.95464549999999
 30
0.0
 11
106.0
 21
3.47549549999999
 31
0.0
  0
LINE
  5
17D
330
1E
100
AcDbEntity
  8
0
100
AcDbLine
 10
106.0
 20
2.95464549999999
 30
0.0
 11
106.0
 21
2.55625549999999
 31
0.0
  0
LINE
  5
17E
330
1E
100
AcDbEntity
  8
0
100
AcDbLine
 10
106.0
 20
4.98816549999999
 30
0.0
 11
106.0
 21
4.17059549999999
 31
0.0
  0
LINE
  5
17F
330
1E
100
AcDbEntity
  8
0
100
AcDbLine
 10
106.0
 20
4.17059549999999
 30
0.0
 11
106.0
 21
4.98816549999999
 31
0.0
  0
LINE
  5
180
330
1E
100
AcDbEntity
  8
0
100
AcDbLine
 10
106.0
 20
18.3020755
 30
0.0
 11
106.0
 21
17.4517755
 31
0.0
  0
LINE
  5
181
330
1E
100
AcDbEntity
  8
0
100
AcDbLine
 10
106.0
 20
17.4517755
 30
0.0
 11
106.0
 21
18.3020755
 31
0.0
  0
LINE
  5
182
330
1E
100
AcDbEntity
  8
0
100
AcDbLine
 10
106.0
 20
15.8595755
 30
0.0
 11
106.0
 21
16.6202755
 31
0.0
  0
LINE
  5
183
330
1E
100
AcDbEntity
  8
0
100
AcDbLine
 10
106.0
 20
16.6202755
 30
0.0
 11
106.0
 21
15.8595755
 31
0.0
  0
LINE
  5
184
330
1E
100
AcDbEntity
  8
0
100
AcDbLine
 10
106.0
 20
15.3627755
 30
0.0
 11
106.0
 21
15.8595755
 31
0.0
  0
LINE
  5
185
330
1E
100
AcDbEntity
  8
0
100
AcDbLine
 10
106.0
 20
15.8595755
 30
0.0
 11
106.0
 21
15.3627755
 31
0.0
  0
LINE
  5
186
330
1E
100
AcDbEntity
  8
0
100
AcDbLine
 10
106.0
 20
17.4517755
 30
0.0
 11
106.0
 21
16.6202755
 31
0.0
  0
LINE
  5
187
330
1E
100
AcDbEntity
  8
0
100
AcDbLine
 10
106.0
 20
16.6202755
 30
0.0
 11
106.0
 21
17.4517755
 31
0.0
  0
LINE
  5
188
330
1E
100
AcDbEntity
  8
0
100
AcDbLine
 10
106.0
 20
19.22317549999999
 30
0.0
 11
106.0
 21
18.3020755
 31
0.0
  0
LINE
  5
189
330
1E
100
AcDbEntity
  8
0
100
AcDbLine
 10
106.0
 20
18.3020755
 30
0.0
 11
106.0
 21
19.22317549999999
 31
0.0
  0
LINE
  5
18A
330
1E
100
AcDbEntity
  8
0
100
AcDbLine
 10
104.9
 20
26.4771755
 30
0.0
 11
104.0
 21
26.7877755
 31
0.0
  0
LINE
  5
18B
330
1E
100
AcDbEntity
  8
0
100
AcDbLine
 10
105.6999999999999
 20
25.7524755
 30
0.0
 11
105.4999999999999
 21
26.1148755
 31
0.0
  0
LINE
  5
18C
330
1E
100
AcDbEntity
  8
0
100
AcDbLine
 10
105.4999999999999
 20
26.1148755
 30
0.0
 11
104.9
 21
26.4771755
 31
0.0
  0
LINE
  5
18D
330
1E
100
AcDbEntity
  8
0
100
AcDbLine
 10
102.8
 20
27.0207755
 30
0.0
 11
101.4
 21
27.1759755
 31
0.0
  0
LINE
  5
18E
330
1E
100
AcDbEntity
  8
0
100
AcDbLine
 10
104.0
 20
26.7877755
 30
0.0
 11
102.8
 21
27.0207755
 31
0.0
  0
LINE
  5
18F
330
1E
100
AcDbEntity
  8
0
100
AcDbLine
 10
106.0
 20
33.9058755
 30
0.0
 11
106.0
 21
33.4020755
 31
0.0
  0
LINE
  5
190
330
1E
100
AcDbEntity
  8
0
100
AcDbLine
 10
106.0
 20
33.4020755
 30
0.0
 11
106.0
 21
33.9058755
 31
0.0
  0
LINE
  5
191
330
1E
100
AcDbEntity
  8
0
100
AcDbLine
 10
106.0
 20
30.7732755
 30
0.0
 11
106.0
 21
29.9418755
 31
0.0
  0
LINE
  5
192
330
1E
100
AcDbEntity
  8
0
100
AcDbLine
 10
106.0
 20
31.5510755
 30
0.0
 11
106.0
 21
30.28157549999999
 31
0.0
  0
LINE
  5
193
330
1E
100
AcDbEntity
  8
0
100
AcDbLine
 10
106.0
 20
29.9418755
 30
0.0
 11
106.0
 21
30.7732755
 31
0.0
  0
LINE
  5
194
330
1E
100
AcDbEntity
  8
0
100
AcDbLine
 10
106.0
 20
30.28157549999999
 30
0.0
 11
106.0
 21
31.5510755
 31
0.0
  0
LINE
  5
195
330
1E
100
AcDbEntity
  8
0
100
AcDbLine
 10
106.0
 20
29.0914755
 30
0.0
 11
106.0
 21
28.1703755
 31
0.0
  0
LINE
  5
196
330
1E
100
AcDbEntity
  8
0
100
AcDbLine
 10
106.0
 20
30.28157549999999
 30
0.0
 11
106.0
 21
28.99307549999999
 31
0.0
  0
LINE
  5
197
330
1E
100
AcDbEntity
  8
0
100
AcDbLine
 10
106.0
 20
28.99307549999999
 30
0.0
 11
106.0
 21
30.28157549999999
 31
0.0
  0
LINE
  5
198
330
1E
100
AcDbEntity
  8
0
100
AcDbLine
 10
106.0
 20
28.1703755
 30
0.0
 11
106.0
 21
29.0914755
 31
0.0
  0
LINE
  5
199
330
1E
100
AcDbEntity
  8
0
100
AcDbLine
 10
106.0
 20
27.7821755
 30
0.0
 11
106.0
 21
28.99307549999999
 31
0.0
  0
LINE
  5
19A
330
1E
100
AcDbEntity
  8
0
100
AcDbLine
 10
106.0
 20
28.99307549999999
 30
0.0
 11
106.0
 21
27.7821755
 31
0.0
  0
LINE
  5
19B
330
1E
100
AcDbEntity
  8
0
100
AcDbLine
 10
106.0
 20
29.0914755
 30
0.0
 11
106.0
 21
29.9418755
 31
0.0
  0
LINE
  5
19C
330
1E
100
AcDbEntity
  8
0
100
AcDbLine
 10
106.0
 20
29.9418755
 30
0.0
 11
106.0
 21
29.0914755
 31
0.0
  0
LINE
  5
19D
330
1E
100
AcDbEntity
  8
0
100
AcDbLine
 10
106.0
 20
32.6085755
 30
0.0
 11
106.0
 21
31.5510755
 31
0.0
  0
LINE
  5
19E
330
1E
100
AcDbEntity
  8
0
100
AcDbLine
 10
106.0
 20
32.0308755
 30
0.0
 11
106.0
 21
32.4569755
 31
0.0
  0
LINE
  5
19F
330
1E
100
AcDbEntity
  8
0
100
AcDbLine
 10
106.0
 20
32.4569755
 30
0.0
 11
106.0
 21
32.0308755
 31
0.0
  0
LINE
  5
1A0
330
1E
100
AcDbEntity
  8
0
100
AcDbLine
 10
106.0
 20
31.5510755
 30
0.0
 11
106.0
 21
32.6085755
 31
0.0
  0
LINE
  5
1A1
330
1E
100
AcDbEntity
  8
0
100
AcDbLine
 10
106.0
 20
32.0308755
 30
0.0
 11
106.0
 21
31.5340755
 31
0.0
  0
LINE
  5
1A2
330
1E
100
AcDbEntity
  8
0
100
AcDbLine
 10
106.0
 20
31.5340755
 30
0.0
 11
106.0
 21
30.7732755
 31
0.0
  0
LINE
  5
1A3
330
1E
100
AcDbEntity
  8
0
100
AcDbLine
 10
106.0
 20
31.5340755
 30
0.0
 11
106.0
 21
32.0308755
 31
0.0
  0
LINE
  5
1A4
330
1E
100
AcDbEntity
  8
0
100
AcDbLine
 10
106.0
 20
30.7732755
 30
0.0
 11
106.0
 21
31.5340755
 31
0.0
  0
LINE
  5
1A5
330
1E
100
AcDbEntity
  8
0
100
AcDbLine
 10
106.0
 20
33.4020755
 30
0.0
 11
106.0
 21
32.6085755
 31
0.0
  0
LINE
  5
1A6
330
1E
100
AcDbEntity
  8
0
100
AcDbLine
 10
106.0
 20
32.6085755
 30
0.0
 11
106.0
 21
33.4020755
 31
0.0
  0
LINE
  5
1A7
330
1E
100
AcDbEntity
  8
0
100
AcDbLine
 10
102.3635999999999
 20
57.9999755
 30
0.0
 11
100.8182
 21
57.9999755
 31
0.0
  0
LINE
  5
1A8
330
1E
100
AcDbEntity
  8
0
100
AcDbLine
 10
101.4
 20
51.7105755
 30
0.0
 11
100.0
 21
51.7622755
 31
0.0
  0
LINE
  5
1A9
330
1E
100
AcDbEntity
  8
0
100
AcDbLine
 10
108.0
 20
65.99997550000001
 30
0.0
 11
108.0
 21
59.1537755
 31
0.0
  0
LINE
  5
1AA
330
1E
100
AcDbEntity
  8
0
100
AcDbLine
 10
108.0
 20
59.1537755
 30
0.0
 11
108.0
 21
65.99997550000001
 31
0.0
  0
LINE
  5
1AB
330
1E
100
AcDbEntity
  8
0
100
AcDbLine
 10
105.6999999999999
 20
52.6498755
 30
0.0
 11
105.4999999999999
 21
52.4036755
 31
0.0
  0
LINE
  5
1AC
330
1E
100
AcDbEntity
  8
0
100
AcDbLine
 10
106.0
 20
42.4054755
 30
0.0
 11
106.0
 21
43.2229755
 31
0.0
  0
LINE
  5
1AD
330
1E
100
AcDbEntity
  8
0
100
AcDbLine
 10
106.0
 20
43.2229755
 30
0.0
 11
106.0
 21
42.4054755
 31
0.0
  0
LINE
  5
1AE
330
1E
100
AcDbEntity
  8
0
100
AcDbLine
 10
106.0
 20
44.43897549999999
 30
0.0
 11
106.0
 21
44.83737549999999
 31
0.0
  0
LINE
  5
1AF
330
1E
100
AcDbEntity
  8
0
100
AcDbLine
 10
106.0
 20
44.83737549999999
 30
0.0
 11
106.0
 21
44.43897549999999
 31
0.0
  0
LINE
  5
1B0
330
1E
100
AcDbEntity
  8
0
100
AcDbLine
 10
106.0
 20
43.2229755
 30
0.0
 11
106.0
 21
43.9180755
 31
0.0
  0
LINE
  5
1B1
330
1E
100
AcDbEntity
  8
0
100
AcDbLine
 10
106.0
 20
43.9180755
 30
0.0
 11
106.0
 21
44.43897549999999
 31
0.0
  0
LINE
  5
1B2
330
1E
100
AcDbEntity
  8
0
100
AcDbLine
 10
106.0
 20
43.9180755
 30
0.0
 11
106.0
 21
43.2229755
 31
0.0
  0
LINE
  5
1B3
330
1E
100
AcDbEntity
  8
0
100
AcDbLine
 10
106.0
 20
44.43897549999999
 30
0.0
 11
106.0
 21
43.9180755
 31
0.0
  0
LINE
  5
1B4
330
1E
100
AcDbEntity
  8
0
100
AcDbLine
 10
106.0
 20
44.9200755
 30
0.0
 11
106.0
 21
44.83737549999999
 31
0.0
  0
LINE
  5
1B5
330
1E
100
AcDbEntity
  8
0
100
AcDbLine
 10
106.0
 20
44.83737549999999
 30
0.0
 11
106.0
 21
44.9200755
 31
0.0
  0
LINE
  5
1B6
330
1E
100
AcDbEntity
  8
0
100
AcDbLine
 10
104.9
 20
52.1483755
 30
0.0
 11
104.0
 21
51.9289755
 31
0.0
  0
LINE
  5
1B7
330
1E
100
AcDbEntity
  8
0
100
AcDbLine
 10
105.4999999999999
 20
52.4036755
 30
0.0
 11
104.9
 21
52.1483755
 31
0.0
  0
LINE
  5
1B8
330
1E
100
AcDbEntity
  8
0
100
AcDbLine
 10
102.8
 20
51.7636755
 30
0.0
 11
101.4
 21
51.7105755
 31
0.0
  0
LINE
  5
1B9
330
1E
100
AcDbEntity
  8
0
100
AcDbLine
 10
104.0
 20
51.9289755
 30
0.0
 11
102.8
 21
51.7636755
 31
0.0
  0
LINE
  5
1BA
330
1E
100
AcDbEntity
  8
0
100
AcDbLine
 10
107.6618
 20
58.38457550000001
 30
0.0
 11
106.9852999999999
 21
57.9999755
 31
0.0
  0
LINE
  5
1BB
330
1E
100
AcDbEntity
  8
0
100
AcDbLine
 10
108.0
 20
59.1537755
 30
0.0
 11
107.6618
 21
58.38457550000001
 31
0.0
  0
LINE
  5
1BC
330
1E
100
AcDbEntity
  8
0
100
AcDbLine
 10
104.2728
 20
57.9999755
 30
0.0
 11
103.4545999999999
 21
57.9999755
 31
0.0
  0
LINE
  5
1BD
330
1E
100
AcDbEntity
  8
0
100
AcDbLine
 10
105.6999999999999
 20
55.5463755
 30
0.0
 11
105.0
 21
55.8361755
 31
0.0
  0
LINE
  5
1BE
330
1E
100
AcDbEntity
  8
0
100
AcDbLine
 10
106.0
 20
54.8701755
 30
0.0
 11
105.6999999999999
 21
55.5463755
 31
0.0
  0
LINE
  5
1BF
330
1E
100
AcDbEntity
  8
0
100
AcDbLine
 10
105.6999999999999
 20
52.6498755
 30
0.0
 11
105.6999999999999
 21
55.5463755
 31
0.0
  0
LINE
  5
1C0
330
1E
100
AcDbEntity
  8
0
100
AcDbLine
 10
105.6999999999999
 20
55.5463755
 30
0.0
 11
105.6999999999999
 21
52.6498755
 31
0.0
  0
LINE
  5
1C1
330
1E
100
AcDbEntity
  8
0
100
AcDbLine
 10
106.1734999999999
 20
57.9999755
 30
0.0
 11
105.0
 21
57.9999755
 31
0.0
  0
LINE
  5
1C2
330
1E
100
AcDbEntity
  8
0
100
AcDbLine
 10
106.9852999999999
 20
57.9999755
 30
0.0
 11
106.1734999999999
 21
57.9999755
 31
0.0
  0
LINE
  5
1C3
330
1E
100
AcDbEntity
  8
0
100
AcDbLine
 10
105.0
 20
57.9999755
 30
0.0
 11
105.0
 21
55.8361755
 31
0.0
  0
LINE
  5
1C4
330
1E
100
AcDbEntity
  8
0
100
AcDbLine
 10
105.0
 20
55.8361755
 30
0.0
 11
105.0
 21
57.9999755
 31
0.0
  0
LINE
  5
1C5
330
1E
100
AcDbEntity
  8
0
100
AcDbLine
 10
104.8182
 20
57.9999755
 30
0.0
 11
104.2728
 21
57.9999755
 31
0.0
  0
LINE
  5
1C6
330
1E
100
AcDbEntity
  8
0
100
AcDbLine
 10
105.0
 20
57.9999755
 30
0.0
 11
104.8182
 21
57.9999755
 31
0.0
  0
LINE
  5
1C7
330
1E
100
AcDbEntity
  8
0
100
AcDbLine
 10
103.4545999999999
 20
57.9999755
 30
0.0
 11
102.3635999999999
 21
57.9999755
 31
0.0
  0
LINE
  5
1C8
330
1E
100
AcDbEntity
  8
0
100
AcDbLine
 10
90.1819
 20
57.9999755
 30
0.0
 11
87.6364
 21
57.9999755
 31
0.0
  0
LINE
  5
1C9
330
1E
100
AcDbEntity
  8
0
100
AcDbLine
 10
95.0
 20
57.9999755
 30
0.0
 11
92.6364
 21
57.9999755
 31
0.0
  0
LINE
  5
1CA
330
1E
100
AcDbEntity
  8
0
100
AcDbLine
 10
99.09100000000002
 20
57.9999755
 30
0.0
 11
97.1818
 21
57.9999755
 31
0.0
  0
LINE
  5
1CB
330
1E
100
AcDbEntity
  8
0
100
AcDbLine
 10
100.8182
 20
57.9999755
 30
0.0
 11
99.09100000000002
 21
57.9999755
 31
0.0
  0
LINE
  5
1CC
330
1E
100
AcDbEntity
  8
0
100
AcDbLine
 10
97.1818
 20
57.9999755
 30
0.0
 11
95.0
 21
57.9999755
 31
0.0
  0
LINE
  5
1CD
330
1E
100
AcDbEntity
  8
0
100
AcDbLine
 10
92.6364
 20
57.9999755
 30
0.0
 11
90.1819
 21
57.9999755
 31
0.0
  0
LINE
  5
1CE
330
1E
100
AcDbEntity
  8
0
100
AcDbLine
 10
87.6364
 20
57.9999755
 30
0.0
 11
85.0
 21
57.9999755
 31
0.0
  0
LINE
  5
1CF
330
1E
100
AcDbEntity
  8
0
100
AcDbLine
 10
65.0
 20
0.0000244999999898
 30
0.0
 11
105.0
 21
0.0000244999999898
 31
0.0
  0
LINE
  5
1D0
330
1E
100
AcDbEntity
  8
0
100
AcDbLine
 10
70.0
 20
27.22777549999999
 30
0.0
 11
100.0
 21
27.22777549999999
 31
0.0
  0
LINE
  5
1D1
330
1E
100
AcDbEntity
  8
0
100
AcDbLine
 10
70.0
 20
51.7622755
 30
0.0
 11
100.0
 21
51.7622755
 31
0.0
  0
LINE
  5
1D2
330
1E
100
AcDbEntity
  8
0
100
AcDbLine
 10
62.0
 20
65.99997550000001
 30
0.0
 11
108.0
 21
65.99997550000001
 31
0.0
  0
ENDSEC
  0
SECTION
  2
OBJECTS
  0
DICTIONARY
  5
C
330
0
100
AcDbDictionary
281
     1
  3
ACAD_GROUP
350
D
  3
ACAD_LAYOUT
350
19
  3
ACAD_MLINESTYLE
350
16
  3
ACAD_PLOTSETTINGS
350
18
  3
ACAD_PLOTSTYLENAME
350
E
  3
AcDbVariableDictionary
350
1D3
  0
DICTIONARY
  5
D
102
{ACAD_REACTORS
330
C
102
}
330
C
100
AcDbDictionary
281
     1
  0
DICTIONARY
  5
19
102
{ACAD_REACTORS
330
C
102
}
330
C
100
AcDbDictionary
281
     1
  3
Layout1
350
1D
  3
Model
350
21
  0
DICTIONARY
  5
16
102
{ACAD_REACTORS
330
C
102
}
330
C
100
AcDbDictionary
281
     1
  3
Standard
350
17
  0
DICTIONARY
  5
18
102
{ACAD_REACTORS
330
C
102
}
330
C
100
AcDbDictionary
281
     1
  0
ACDBDICTIONARYWDFLT
  5
E
102
{ACAD_REACTORS
330
C
102
}
330
C
100
AcDbDictionary
281
     1
  3
Normal
350
F
100
AcDbDictionaryWithDefault
340
F
  0
DICTIONARY
  5
1D3
102
{ACAD_REACTORS
330
C
102
}
330
C
100
AcDbDictionary
281
     1
  3
DIMASSOC
350
1D4
  0
LAYOUT
  5
1D
102
{ACAD_REACTORS
330
19
102
}
330
19
100
AcDbPlotSettings
  1

  2
hp deskjet 980c series
  4

  6

 40
0.0
 41
0.0
 42
0.0
 43
0.0
 44
0.0
 45
0.0
 46
0.0
 47
0.0
 48
0.0
 49
0.0
140
0.0
141
0.0
142
1.0
143
1.0
 70
   688
 72
     0
 73
     0
 74
     5
  7

 75
    16
147
1.0
148
0.0
149
0.0
100
AcDbLayout
  1
Layout1
 70
     1
 71
     1
 10
0.0
 20
0.0
 11
12.0
 21
9.0
 12
0.0
 22
0.0
 32
0.0
 14
1.000000000000000E+20
 24
1.000000000000000E+20
 34
1.000000000000000E+20
 15
-1.000000000000000E+20
 25
-1.000000000000000E+20
 35
-1.000000000000000E+20
146
0.0
 13
0.0
 23
0.0
 33
0.0
 16
1.0
 26
0.0
 36
0.0
 17
0.0
 27
1.0
 37
0.0
 76
     0
330
1A
  0
LAYOUT
  5
21
102
{ACAD_REACTORS
330
19
102
}
330
19
100
AcDbPlotSettings
  1

  2
hp deskjet 980c series
  4

  6

 40
0.0
 41
0.0
 42
0.0
 43
0.0
 44
0.0
 45
0.0
 46
0.0
 47
0.0
 48
0.0
 49
0.0
140
0.0
141
0.0
142
1.0
143
1.0
 70
  1712
 72
     0
 73
     0
 74
     0
  7

 75
     0
147
1.0
148
0.0
149
0.0
100
AcDbLayout
  1
Model
 70
     1
 71
     0
 10
0.0
 20
0.0
 11
12.0
 21
9.0
 12
0.0
 22
0.0
 32
0.0
 14
0.0
 24
0.0
 34
0.0
 15
0.0
 25
0.0
 35
0.0
146
0.0
 13
0.0
 23
0.0
 33
0.0
 16
1.0
 26
0.0
 36
0.0
 17
0.0
 27
1.0
 37
0.0
 76
     0
330
1E
  0
MLINESTYLE
  5
17
102
{ACAD_REACTORS
330
16
102
}
330
16
100
AcDbMlineStyle
  2
STANDARD
 70
     0
  3

 62
   256
 51
90.0
 52
90.0
 71
     2
 49
0.5
 62
   256
  6
BYLAYER
 49
-0.5
 62
   256
  6
BYLAYER
  0
ACDBPLACEHOLDER
  5
F
102
{ACAD_REACTORS
330
E
102
}
330
E
  0
DICTIONARYVAR
  5
1D4
102
{ACAD_REACTORS
330
1D3
102
}
330
1D3
100
DictionaryVariables
280
     0
  1
1
  0
ENDSEC
  0
EOF
