  0
SECTION
  2
HEADER
  9
$ACADVER
  1
AC1015
  9
$ACADMAINTVER
 70
    13
  9
$DWGCODEPAGE
  3
ANSI_1252
  9
$INSBASE
 10
0.0
 20
0.0
 30
0.0
  9
$EXTMIN
 10
0.14419999999999
 20
0.250000000000013
 30
0.0
  9
$EXTMAX
 10
235.8557999999999
 20
310.7499999999999
 30
0.0
  9
$LIMMIN
 10
0.0
 20
0.0
  9
$LIMMAX
 10
12.0
 20
9.0
  9
$ORTHOMODE
 70
     0
  9
$REGENMODE
 70
     1
  9
$FILLMODE
 70
     1
  9
$QTEXTMODE
 70
     0
  9
$MIRRTEXT
 70
     1
  9
$LTSCALE
 40
1.0
  9
$ATTMODE
 70
     1
  9
$TEXTSIZE
 40
0.2
  9
$TRACEWID
 40
0.05
  9
$TEXTSTYLE
  7
Standard
  9
$CLAYER
  8
0
  9
$CELTYPE
  6
Continuous
  9
$CECOLOR
 62
   256
  9
$CELTSCALE
 40
1.0
  9
$DISPSILH
 70
     0
  9
$DIMSCALE
 40
1.0
  9
$DIMASZ
 40
0.18
  9
$DIMEXO
 40
0.0625
  9
$DIMDLI
 40
0.38
  9
$DIMRND
 40
0.0
  9
$DIMDLE
 40
0.0
  9
$DIMEXE
 40
0.18
  9
$DIMTP
 40
0.0
  9
$DIMTM
 40
0.0
  9
$DIMTXT
 40
0.18
  9
$DIMCEN
 40
0.09
  9
$DIMTSZ
 40
0.0
  9
$DIMTOL
 70
     0
  9
$DIMLIM
 70
     0
  9
$DIMTIH
 70
     1
  9
$DIMTOH
 70
     1
  9
$DIMSE1
 70
     0
  9
$DIMSE2
 70
     0
  9
$DIMTAD
 70
     0
  9
$DIMZIN
 70
     0
  9
$DIMBLK
  1

  9
$DIMASO
 70
     1
  9
$DIMSHO
 70
     1
  9
$DIMPOST
  1

  9
$DIMAPOST
  1

  9
$DIMALT
 70
     0
  9
$DIMALTD
 70
     2
  9
$DIMALTF
 40
25.4
  9
$DIMLFAC
 40
1.0
  9
$DIMTOFL
 70
     0
  9
$DIMTVP
 40
0.0
  9
$DIMTIX
 70
     0
  9
$DIMSOXD
 70
     0
  9
$DIMSAH
 70
     0
  9
$DIMBLK1
  1

  9
$DIMBLK2
  1

  9
$DIMSTYLE
  2
Standard
  9
$DIMCLRD
 70
     0
  9
$DIMCLRE
 70
     0
  9
$DIMCLRT
 70
     0
  9
$DIMTFAC
 40
1.0
  9
$DIMGAP
 40
0.09
  9
$DIMJUST
 70
     0
  9
$DIMSD1
 70
     0
  9
$DIMSD2
 70
     0
  9
$DIMTOLJ
 70
     1
  9
$DIMTZIN
 70
     0
  9
$DIMALTZ
 70
     0
  9
$DIMALTTZ
 70
     0
  9
$DIMUPT
 70
     0
  9
$DIMDEC
 70
     4
  9
$DIMTDEC
 70
     4
  9
$DIMALTU
 70
     2
  9
$DIMALTTD
 70
     2
  9
$DIMTXSTY
  7
Standard
  9
$DIMAUNIT
 70
     0
  9
$DIMADEC
 70
     0
  9
$DIMALTRND
 40
0.0
  9
$DIMAZIN
 70
     0
  9
$DIMDSEP
 70
    46
  9
$DIMATFIT
 70
     3
  9
$DIMFRAC
 70
     0
  9
$DIMLDRBLK
  1

  9
$DIMLUNIT
 70
     2
  9
$DIMLWD
 70
    -2
  9
$DIMLWE
 70
    -2
  9
$DIMTMOVE
 70
     0
  9
$LUNITS
 70
     2
  9
$LUPREC
 70
     4
  9
$SKETCHINC
 40
0.1
  9
$FILLETRAD
 40
0.0
  9
$AUNITS
 70
     0
  9
$AUPREC
 70
     0
  9
$MENU
  1
.
  9
$ELEVATION
 40
0.0
  9
$PELEVATION
 40
0.0
  9
$THICKNESS
 40
0.0
  9
$LIMCHECK
 70
     0
  9
$CHAMFERA
 40
0.0
  9
$CHAMFERB
 40
0.0
  9
$CHAMFERC
 40
0.0
  9
$CHAMFERD
 40
0.0
  9
$SKPOLY
 70
     0
  9
$TDCREATE
 40
2454875.799448414
  9
$TDUCREATE
 40
2454875.757781747
  9
$TDUPDATE
 40
2454875.810154062
  9
$TDUUPDATE
 40
2454875.768487395
  9
$TDINDWG
 40
0.0107056481
  9
$TDUSRTIMER
 40
0.0107056481
  9
$USRTIMER
 70
     1
  9
$ANGBASE
 50
0.0
  9
$ANGDIR
 70
     0
  9
$PDMODE
 70
     0
  9
$PDSIZE
 40
0.0
  9
$PLINEWID
 40
0.0
  9
$SPLFRAME
 70
     0
  9
$SPLINETYPE
 70
     6
  9
$SPLINESEGS
 70
     8
  9
$HANDSEED
  5
4DF
  9
$SURFTAB1
 70
     6
  9
$SURFTAB2
 70
     6
  9
$SURFTYPE
 70
     6
  9
$SURFU
 70
     6
  9
$SURFV
 70
     6
  9
$UCSBASE
  2

  9
$UCSNAME
  2

  9
$UCSORG
 10
0.0
 20
0.0
 30
0.0
  9
$UCSXDIR
 10
1.0
 20
0.0
 30
0.0
  9
$UCSYDIR
 10
0.0
 20
1.0
 30
0.0
  9
$UCSORTHOREF
  2

  9
$UCSORTHOVIEW
 70
     1
  9
$UCSORGTOP
 10
0.0
 20
0.0
 30
0.0
  9
$UCSORGBOTTOM
 10
0.0
 20
0.0
 30
0.0
  9
$UCSORGLEFT
 10
0.0
 20
0.0
 30
0.0
  9
$UCSORGRIGHT
 10
0.0
 20
0.0
 30
0.0
  9
$UCSORGFRONT
 10
0.0
 20
0.0
 30
0.0
  9
$UCSORGBACK
 10
0.0
 20
0.0
 30
0.0
  9
$PUCSBASE
  2

  9
$PUCSNAME
  2

  9
$PUCSORG
 10
0.0
 20
0.0
 30
0.0
  9
$PUCSXDIR
 10
1.0
 20
0.0
 30
0.0
  9
$PUCSYDIR
 10
0.0
 20
1.0
 30
0.0
  9
$PUCSORTHOREF
  2

  9
$PUCSORTHOVIEW
 70
     0
  9
$PUCSORGTOP
 10
0.0
 20
0.0
 30
0.0
  9
$PUCSORGBOTTOM
 10
0.0
 20
0.0
 30
0.0
  9
$PUCSORGLEFT
 10
0.0
 20
0.0
 30
0.0
  9
$PUCSORGRIGHT
 10
0.0
 20
0.0
 30
0.0
  9
$PUCSORGFRONT
 10
0.0
 20
0.0
 30
0.0
  9
$PUCSORGBACK
 10
0.0
 20
0.0
 30
0.0
  9
$USERI1
 70
     0
  9
$USERI2
 70
     0
  9
$USERI3
 70
     0
  9
$USERI4
 70
     0
  9
$USERI5
 70
     0
  9
$USERR1
 40
0.0
  9
$USERR2
 40
0.0
  9
$USERR3
 40
0.0
  9
$USERR4
 40
0.0
  9
$USERR5
 40
0.0
  9
$WORLDVIEW
 70
     1
  9
$SHADEDGE
 70
     3
  9
$SHADEDIF
 70
    70
  9
$TILEMODE
 70
     1
  9
$MAXACTVP
 70
    64
  9
$PINSBASE
 10
0.0
 20
0.0
 30
0.0
  9
$PLIMCHECK
 70
     0
  9
$PEXTMIN
 10
1.000000000000000E+20
 20
1.000000000000000E+20
 30
1.000000000000000E+20
  9
$PEXTMAX
 10
-1.000000000000000E+20
 20
-1.000000000000000E+20
 30
-1.000000000000000E+20
  9
$PLIMMIN
 10
0.0
 20
0.0
  9
$PLIMMAX
 10
12.0
 20
9.0
  9
$UNITMODE
 70
     0
  9
$VISRETAIN
 70
     1
  9
$PLINEGEN
 70
     0
  9
$PSLTSCALE
 70
     1
  9
$TREEDEPTH
 70
  3020
  9
$CMLSTYLE
  2
Standard
  9
$CMLJUST
 70
     0
  9
$CMLSCALE
 40
1.0
  9
$PROXYGRAPHICS
 70
     1
  9
$MEASUREMENT
 70
     0
  9
$CELWEIGHT
370
    -1
  9
$ENDCAPS
280
     0
  9
$JOINSTYLE
280
     0
  9
$LWDISPLAY
290
     0
  9
$INSUNITS
 70
     0
  9
$HYPERLINKBASE
  1

  9
$STYLESHEET
  1

  9
$XEDIT
290
     1
  9
$CEPSNTYPE
380
     0
  9
$PSTYLEMODE
290
     1
  9
$FINGERPRINTGUID
  2
{7954EA02-C7C5-48F2-9847-7ECEC8A4191B}
  9
$VERSIONGUID
  2
{98F790EF-F681-4DD6-B978-39F4357680FA}
  9
$EXTNAMES
290
     1
  9
$PSVPSCALE
 40
0.0
  9
$OLESTARTUP
290
     0
  0
ENDSEC
  0
SECTION
  2
CLASSES
  0
CLASS
  1
ACDBDICTIONARYWDFLT
  2
AcDbDictionaryWithDefault
  3
AutoCAD 2000
 90
        0
280
     0
281
     0
  0
CLASS
  1
ACDBPLACEHOLDER
  2
AcDbPlaceHolder
  3
AutoCAD 2000
 90
        0
280
     0
281
     0
  0
CLASS
  1
LAYOUT
  2
AcDbLayout
  3
AutoCAD 2000
 90
        0
280
     0
281
     0
  0
CLASS
  1
DICTIONARYVAR
  2
AcDbDictionaryVar
  3
AutoCAD 2000
 90
        0
280
     0
281
     0
  0
ENDSEC
  0
SECTION
  2
TABLES
  0
TABLE
  2
VPORT
  5
8
330
0
100
AcDbSymbolTable
 70
     2
  0
VPORT
  5
4DE
330
8
100
AcDbSymbolTableRecord
100
AcDbViewportTableRecord
  2
*Active
 70
     0
 10
0.0
 20
0.0
 11
1.0
 21
1.0
 12
117.9999999999999
 22
155.4999999999999
 13
0.0
 23
0.0
 14
1.0
 24
1.0
 15
0.0
 25
0.0
 16
0.0
 26
0.0
 36
1.0
 17
0.0
 27
0.0
 37
0.0
 40
312.4610526315789
 41
1.968387776606954
 42
50.0
 43
0.0
 44
0.0
 50
0.0
 51
0.0
 71
     0
 72
   100
 73
     1
 74
     3
 75
     0
 76
     0
 77
     0
 78
     0
281
     0
 65
     1
110
0.0
120
0.0
130
0.0
111
1.0
121
0.0
131
0.0
112
0.0
122
1.0
132
0.0
 79
     1
146
0.0
  0
ENDTAB
  0
TABLE
  2
LTYPE
  5
5
330
0
100
AcDbSymbolTable
 70
     1
  0
LTYPE
  5
13
330
5
100
AcDbSymbolTableRecord
100
AcDbLinetypeTableRecord
  2
ByBlock
 70
     0
  3

 72
    65
 73
     0
 40
0.0
  0
LTYPE
  5
14
330
5
100
AcDbSymbolTableRecord
100
AcDbLinetypeTableRecord
  2
ByLayer
 70
     0
  3

 72
    65
 73
     0
 40
0.0
  0
LTYPE
  5
15
330
5
100
AcDbSymbolTableRecord
100
AcDbLinetypeTableRecord
  2
Continuous
 70
     0
  3
Solid line
 72
    65
 73
     0
 40
0.0
  0
ENDTAB
  0
TABLE
  2
LAYER
  5
2
330
0
100
AcDbSymbolTable
 70
     1
  0
LAYER
  5
10
330
2
100
AcDbSymbolTableRecord
100
AcDbLayerTableRecord
  2
0
 70
     0
 62
     7
  6
Continuous
370
    -3
390
F
  0
ENDTAB
  0
TABLE
  2
STYLE
  5
3
330
0
100
AcDbSymbolTable
 70
     1
  0
STYLE
  5
11
330
3
100
AcDbSymbolTableRecord
100
AcDbTextStyleTableRecord
  2
Standard
 70
     0
 40
0.0
 41
1.0
 50
0.0
 71
     0
 42
0.2
  3
txt
  4

  0
ENDTAB
  0
TABLE
  2
VIEW
  5
6
330
0
100
AcDbSymbolTable
 70
     0
  0
ENDTAB
  0
TABLE
  2
UCS
  5
7
330
0
100
AcDbSymbolTable
 70
     0
  0
ENDTAB
  0
TABLE
  2
APPID
  5
9
330
0
100
AcDbSymbolTable
 70
     1
  0
APPID
  5
12
330
9
100
AcDbSymbolTableRecord
100
AcDbRegAppTableRecord
  2
ACAD
 70
     0
  0
ENDTAB
  0
TABLE
  2
DIMSTYLE
  5
A
330
0
100
AcDbSymbolTable
 70
     1
100
AcDbDimStyleTable
 71
     0
  0
DIMSTYLE
105
4D1
330
A
100
AcDbSymbolTableRecord
100
AcDbDimStyleTableRecord
  2
Standard
 70
     0
340
11
  0
ENDTAB
  0
TABLE
  2
BLOCK_RECORD
  5
1
330
0
100
AcDbSymbolTable
 70
     0
  0
BLOCK_RECORD
  5
1E
330
1
100
AcDbSymbolTableRecord
100
AcDbBlockTableRecord
  2
*Model_Space
340
21
  0
BLOCK_RECORD
  5
1A
330
1
100
AcDbSymbolTableRecord
100
AcDbBlockTableRecord
  2
*Paper_Space
340
1D
  0
ENDTAB
  0
ENDSEC
  0
SECTION
  2
BLOCKS
  0
BLOCK
  5
1F
330
1E
100
AcDbEntity
  8
0
100
AcDbBlockBegin
  2
*Model_Space
 70
     0
 10
0.0
 20
0.0
 30
0.0
  3
*Model_Space
  1

  0
ENDBLK
  5
20
330
1E
100
AcDbEntity
  8
0
100
AcDbBlockEnd
  0
BLOCK
  5
1B
330
1A
100
AcDbEntity
 67
     1
  8
0
100
AcDbBlockBegin
  2
*Paper_Space
 70
     0
 10
0.0
 20
0.0
 30
0.0
  3
*Paper_Space
  1

  0
ENDBLK
  5
1C
330
1A
100
AcDbEntity
 67
     1
  8
0
100
AcDbBlockEnd
  0
ENDSEC
  0
SECTION
  2
ENTITIES
  0
LINE
  5
22
330
1E
100
AcDbEntity
  8
0
100
AcDbLine
 10
57.1239
 20
163.532
 30
0.0
 11
57.4063
 21
162.932
 31
0.0
  0
LINE
  5
23
330
1E
100
AcDbEntity
  8
0
100
AcDbLine
 10
56.9122
 20
164.203
 30
0.0
 11
57.1239
 21
163.532
 31
0.0
  0
LINE
  5
24
330
1E
100
AcDbEntity
  8
0
100
AcDbLine
 10
56.771
 20
164.8379999999999
 30
0.0
 11
56.9122
 21
164.203
 31
0.0
  0
LINE
  5
25
330
1E
100
AcDbEntity
  8
0
100
AcDbLine
 10
56.7357
 20
165.544
 30
0.0
 11
56.7357
 21
203.87949506736
 31
0.0
  0
LINE
  5
26
330
1E
100
AcDbEntity
  8
0
100
AcDbLine
 10
56.7357
 20
165.544
 30
0.0
 11
56.771
 21
164.8379999999999
 31
0.0
  0
LINE
  5
27
330
1E
100
AcDbEntity
  8
0
100
AcDbLine
 10
79.02210769230769
 20
160.25
 30
0.0
 11
81.82579999999999
 21
158.1059999999999
 31
0.0
  0
LINE
  5
28
330
1E
100
AcDbEntity
  8
0
100
AcDbLine
 10
75.6562
 20
160.25
 30
0.0
 11
80.91379999999999
 21
156.282
 31
0.0
  0
LINE
  5
29
330
1E
100
AcDbEntity
  8
0
100
AcDbLine
 10
81.82579999999999
 20
158.1059999999999
 30
0.0
 11
95.66790000000001
 21
152.378234482759
 31
0.0
  0
LINE
  5
2A
330
1E
100
AcDbEntity
  8
0
100
AcDbLine
 10
80.91379999999999
 20
156.282
 30
0.0
 11
95.66790000000001
 21
150.3803599999999
 31
0.0
  0
LINE
  5
2B
330
1E
100
AcDbEntity
  8
0
100
AcDbLine
 10
58.25330000000001
 20
161.874
 30
0.0
 11
58.7474
 21
161.4149999999999
 31
0.0
  0
LINE
  5
2D
330
1E
100
AcDbEntity
  8
0
100
AcDbLine
 10
58.7474
 20
161.4149999999999
 30
0.0
 11
59.31219999999999
 21
161.027
 31
0.0
  0
LINE
  5
2E
330
1E
100
AcDbEntity
  8
0
100
AcDbLine
 10
59.31219999999999
 20
161.027
 30
0.0
 11
59.9121
 21
160.7439999999999
 31
0.0
  0
LINE
  5
2F
330
1E
100
AcDbEntity
  8
0
100
AcDbLine
 10
59.9121
 20
160.7439999999999
 30
0.0
 11
60.5827
 21
160.532
 31
0.0
  0
LINE
  5
32
330
1E
100
AcDbEntity
  8
0
100
AcDbLine
 10
60.5827
 20
160.532
 30
0.0
 11
61.218
 21
160.3909999999999
 31
0.0
  0
LINE
  5
33
330
1E
100
AcDbEntity
  8
0
100
AcDbLine
 10
61.218
 20
160.3909999999999
 30
0.0
 11
61.9239
 21
160.3559999999999
 31
0.0
  0
LINE
  5
34
330
1E
100
AcDbEntity
  8
0
100
AcDbLine
 10
61.9239
 20
160.3559999999999
 30
0.0
 11
95.66790000000001
 21
160.3559999999999
 31
0.0
  0
LINE
  5
37
330
1E
100
AcDbEntity
  8
0
100
AcDbLine
 10
57.7945
 20
162.368
 30
0.0
 11
58.25330000000001
 21
161.874
 31
0.0
  0
LINE
  5
38
330
1E
100
AcDbEntity
  8
0
100
AcDbLine
 10
57.4063
 20
162.932
 30
0.0
 11
57.7945
 21
162.368
 31
0.0
  0
LINE
  5
3B
330
1E
100
AcDbEntity
  8
0
100
AcDbLine
 10
95.66790000000001
 20
24.25
 30
0.0
 11
95.6778
 21
21.94999999999999
 31
0.0
  0
LINE
  5
3C
330
1E
100
AcDbEntity
  8
0
100
AcDbLine
 10
95.66790000000001
 20
24.25
 30
0.0
 11
95.66790000000001
 21
175.2499999999999
 31
0.0
  0
LINE
  5
3D
330
1E
100
AcDbEntity
  8
0
100
AcDbLine
 10
54.4658
 20
185.4659999999999
 30
0.0
 11
56.62980000000001
 21
182.6361538461539
 31
0.0
  0
LINE
  5
3E
330
1E
100
AcDbEntity
  8
0
100
AcDbLine
 10
52.6418
 20
184.5539999999999
 30
0.0
 11
56.62980000000001
 21
179.2698999999999
 31
0.0
  0
LINE
  5
3F
330
1E
100
AcDbEntity
  8
0
100
AcDbLine
 10
95.66790000000001
 20
183.2499999999999
 30
0.0
 11
95.66790000000001
 21
188.3179999999999
 31
0.0
  0
LINE
  5
40
330
1E
100
AcDbEntity
  8
0
100
AcDbLine
 10
95.66790000000001
 20
185.25
 30
0.0
 11
95.66790000000001
 21
175.2499999999999
 31
0.0
  0
LINE
  5
41
330
1E
100
AcDbEntity
  8
0
100
AcDbLine
 10
47.1698
 20
203.098
 30
0.0
 11
54.4658
 21
185.4659999999999
 31
0.0
  0
LINE
  5
42
330
1E
100
AcDbEntity
  8
0
100
AcDbLine
 10
45.3458
 20
202.794
 30
0.0
 11
52.6418
 21
184.5539999999999
 31
0.0
  0
LINE
  5
43
330
1E
100
AcDbEntity
  8
0
100
AcDbLine
 10
66.2305
 20
203.25
 30
0.0
 11
68.0081
 21
203.25
 31
0.0
  0
LINE
  5
44
330
1E
100
AcDbEntity
  8
0
100
AcDbLine
 10
35.78194899999999
 20
205.3949999999999
 30
0.0
 11
42.49245
 21
205.3949999999999
 31
0.0
  0
LINE
  5
45
330
1E
100
AcDbEntity
  8
0
100
AcDbLine
 10
35.616302
 20
205.3659999999999
 30
0.0
 11
35.73485999999999
 21
205.308
 31
0.0
  0
LINE
  5
46
330
1E
100
AcDbEntity
  8
0
100
AcDbLine
 10
35.73485999999999
 20
205.308
 30
0.0
 11
35.8666
 21
205.2939999999999
 31
0.0
  0
LINE
  5
47
330
1E
100
AcDbEntity
  8
0
100
AcDbLine
 10
35.73485999999999
 20
205.308
 30
0.0
 11
35.93237
 21
205.279
 31
0.0
  0
LINE
  5
48
330
1E
100
AcDbEntity
  8
0
100
AcDbLine
 10
35.8666
 20
205.2939999999999
 30
0.0
 11
42.5771
 21
205.2939999999999
 31
0.0
  0
LINE
  5
49
330
1E
100
AcDbEntity
  8
0
100
AcDbLine
 10
35.93237
 20
205.279
 30
0.0
 11
36.0641
 21
205.25
 31
0.0
  0
LINE
  5
4A
330
1E
100
AcDbEntity
  8
0
100
AcDbLine
 10
36.0641
 20
205.25
 30
0.0
 11
66.2305
 21
203.25
 31
0.0
  0
LINE
  5
4B
330
1E
100
AcDbEntity
  8
0
100
AcDbLine
 10
35.432844
 20
205.555
 30
0.0
 11
35.544834
 21
205.4679999999999
 31
0.0
  0
LINE
  5
4C
330
1E
100
AcDbEntity
  8
0
100
AcDbLine
 10
35.129838
 20
205.992
 30
0.0
 11
35.222084
 21
205.817
 31
0.0
  0
LINE
  5
4D
330
1E
100
AcDbEntity
  8
0
100
AcDbLine
 10
35.222084
 20
205.817
 30
0.0
 11
35.27376199999999
 21
205.73
 31
0.0
  0
LINE
  5
4E
330
1E
100
AcDbEntity
  8
0
100
AcDbLine
 10
35.222084
 20
205.817
 30
0.0
 11
35.320852
 21
205.6719999999999
 31
0.0
  0
LINE
  5
4F
330
1E
100
AcDbEntity
  8
0
100
AcDbLine
 10
35.320852
 20
205.6719999999999
 30
0.0
 11
35.432844
 21
205.555
 31
0.0
  0
LINE
  5
50
330
1E
100
AcDbEntity
  8
0
100
AcDbLine
 10
35.27376199999999
 20
205.73
 30
0.0
 11
35.379141
 21
205.5699999999999
 31
0.0
  0
LINE
  5
51
330
1E
100
AcDbEntity
  8
0
100
AcDbLine
 10
35.379141
 20
205.5699999999999
 30
0.0
 11
35.491132
 21
205.454
 31
0.0
  0
LINE
  5
52
330
1E
100
AcDbEntity
  8
0
100
AcDbLine
 10
35.544834
 20
205.4679999999999
 30
0.0
 11
35.663392
 21
205.41
 31
0.0
  0
LINE
  5
53
330
1E
100
AcDbEntity
  8
0
100
AcDbLine
 10
35.663392
 20
205.41
 30
0.0
 11
35.78194899999999
 21
205.3949999999999
 31
0.0
  0
LINE
  5
54
330
1E
100
AcDbEntity
  8
0
100
AcDbLine
 10
35.491132
 20
205.454
 30
0.0
 11
35.616302
 21
205.3659999999999
 31
0.0
  0
LINE
  5
55
330
1E
100
AcDbEntity
  8
0
100
AcDbLine
 10
42.49245
 20
205.3949999999999
 30
0.0
 11
49.2029
 21
205.3949999999999
 31
0.0
  0
LINE
  5
56
330
1E
100
AcDbEntity
  8
0
100
AcDbLine
 10
46.96562275411539
 20
204.527240721192
 30
0.0
 11
47.1698
 21
203.098
 31
0.0
  0
LINE
  5
57
330
1E
100
AcDbEntity
  8
0
100
AcDbLine
 10
45.08452500974559
 20
204.651955486253
 30
0.0
 11
45.3458
 21
202.794
 31
0.0
  0
LINE
  5
58
330
1E
100
AcDbEntity
  8
0
100
AcDbLine
 10
49.3215
 20
205.41
 30
0.0
 11
49.4401
 21
205.4679999999999
 31
0.0
  0
LINE
  5
59
330
1E
100
AcDbEntity
  8
0
100
AcDbLine
 10
49.2029
 20
205.3949999999999
 30
0.0
 11
49.3215
 21
205.41
 31
0.0
  0
LINE
  5
5A
330
1E
100
AcDbEntity
  8
0
100
AcDbLine
 10
49.55210000000001
 20
205.555
 30
0.0
 11
49.664
 21
205.6719999999999
 31
0.0
  0
LINE
  5
5B
330
1E
100
AcDbEntity
  8
0
100
AcDbLine
 10
49.4401
 20
205.4679999999999
 30
0.0
 11
49.55210000000001
 21
205.555
 31
0.0
  0
LINE
  5
5C
330
1E
100
AcDbEntity
  8
0
100
AcDbLine
 10
49.7628
 20
205.817
 30
0.0
 11
49.8551
 21
205.992
 31
0.0
  0
LINE
  5
5D
330
1E
100
AcDbEntity
  8
0
100
AcDbLine
 10
49.664
 20
205.6719999999999
 30
0.0
 11
49.7628
 21
205.817
 31
0.0
  0
LINE
  5
5E
330
1E
100
AcDbEntity
  8
0
100
AcDbLine
 10
49.8804
 20
205.73
 30
0.0
 11
49.9726
 21
205.919
 31
0.0
  0
LINE
  5
5F
330
1E
100
AcDbEntity
  8
0
100
AcDbLine
 10
49.775
 20
205.5699999999999
 30
0.0
 11
49.8804
 21
205.73
 31
0.0
  0
LINE
  5
60
330
1E
100
AcDbEntity
  8
0
100
AcDbLine
 10
49.663
 20
205.454
 30
0.0
 11
49.775
 21
205.5699999999999
 31
0.0
  0
LINE
  5
61
330
1E
100
AcDbEntity
  8
0
100
AcDbLine
 10
49.5379
 20
205.3659999999999
 30
0.0
 11
49.663
 21
205.454
 31
0.0
  0
LINE
  5
62
330
1E
100
AcDbEntity
  8
0
100
AcDbLine
 10
49.4193
 20
205.308
 30
0.0
 11
49.5379
 21
205.3659999999999
 31
0.0
  0
LINE
  5
63
330
1E
100
AcDbEntity
  8
0
100
AcDbLine
 10
49.2876
 20
205.2939999999999
 30
0.0
 11
49.4193
 21
205.308
 31
0.0
  0
LINE
  5
64
330
1E
100
AcDbEntity
  8
0
100
AcDbLine
 10
42.5771
 20
205.2939999999999
 30
0.0
 11
49.2876
 21
205.2939999999999
 31
0.0
  0
LINE
  5
65
330
1E
100
AcDbEntity
  8
0
100
AcDbLine
 10
49.8551
 20
205.992
 30
0.0
 11
49.9341
 21
206.1949999999999
 31
0.0
  0
LINE
  5
66
330
1E
100
AcDbEntity
  8
0
100
AcDbLine
 10
49.9726
 20
205.919
 30
0.0
 11
50.0583
 21
206.123
 31
0.0
  0
LINE
  5
67
330
1E
100
AcDbEntity
  8
0
100
AcDbLine
 10
35.050814
 20
206.1949999999999
 30
0.0
 11
35.129838
 21
205.992
 31
0.0
  0
LINE
  5
68
330
1E
100
AcDbEntity
  8
0
100
AcDbLine
 10
34.98492399999999
 20
206.414
 30
0.0
 11
35.050814
 21
206.1949999999999
 31
0.0
  0
LINE
  5
69
330
1E
100
AcDbEntity
  8
0
100
AcDbLine
 10
49.9341
 20
206.1949999999999
 30
0.0
 11
50.0
 21
206.414
 31
0.0
  0
LINE
  5
6A
330
1E
100
AcDbEntity
  8
0
100
AcDbLine
 10
50.0
 20
206.414
 30
0.0
 11
50.0527
 21
206.6609999999999
 31
0.0
  0
LINE
  5
6B
330
1E
100
AcDbEntity
  8
0
100
AcDbLine
 10
50.0583
 20
206.123
 30
0.0
 11
50.13069999999999
 21
206.3549999999999
 31
0.0
  0
LINE
  5
6C
330
1E
100
AcDbEntity
  8
0
100
AcDbLine
 10
56.7357
 20
203.87949506736
 30
0.0
 11
56.7357
 21
165.544
 31
0.0
  0
LINE
  5
6E
330
1E
100
AcDbEntity
  8
0
100
AcDbLine
 10
50.13069999999999
 20
206.3549999999999
 30
0.0
 11
50.1834
 21
206.603
 31
0.0
  0
LINE
  5
6F
330
1E
100
AcDbEntity
  8
0
100
AcDbLine
 10
34.932256
 20
206.6609999999999
 30
0.0
 11
34.98492399999999
 21
206.414
 31
0.0
  0
LINE
  5
70
330
1E
100
AcDbEntity
  8
0
100
AcDbLine
 10
50.0527
 20
206.6609999999999
 30
0.0
 11
50.0922
 21
206.908
 31
0.0
  0
LINE
  5
71
330
1E
100
AcDbEntity
  8
0
100
AcDbLine
 10
50.1834
 20
206.603
 30
0.0
 11
50.2229
 21
206.879
 31
0.0
  0
LINE
  5
72
330
1E
100
AcDbEntity
  8
0
100
AcDbLine
 10
79.14799999999999
 20
201.336
 30
0.0
 11
84.0618
 21
200.583
 31
0.0
  0
LINE
  5
73
330
1E
100
AcDbEntity
  8
0
100
AcDbLine
 10
95.4287
 20
199.5149999999999
 30
0.0
 11
95.66790000000001
 21
199.507326813184
 31
0.0
  0
LINE
  5
74
330
1E
100
AcDbEntity
  8
0
100
AcDbLine
 10
90.3472
 20
199.8059999999999
 30
0.0
 11
95.4287
 21
199.5149999999999
 31
0.0
  0
LINE
  5
75
330
1E
100
AcDbEntity
  8
0
100
AcDbLine
 10
84.0618
 20
200.583
 30
0.0
 11
90.3472
 21
199.8059999999999
 31
0.0
  0
LINE
  5
77
330
1E
100
AcDbEntity
  8
0
100
AcDbLine
 10
82.74649999999999
 20
203.25
 30
0.0
 11
82.91110000000001
 21
203.2859999999999
 31
0.0
  0
LINE
  5
78
330
1E
100
AcDbEntity
  8
0
100
AcDbLine
 10
83.49569999999999
 20
203.814
 30
0.0
 11
83.61920000000001
 21
204.05
 31
0.0
  0
LINE
  5
79
330
1E
100
AcDbEntity
  8
0
100
AcDbLine
 10
83.36399999999999
 20
203.614
 30
0.0
 11
83.49569999999999
 21
203.814
 31
0.0
  0
LINE
  5
7A
330
1E
100
AcDbEntity
  8
0
100
AcDbLine
 10
83.2158
 20
203.4679999999999
 30
0.0
 11
83.36399999999999
 21
203.614
 31
0.0
  0
LINE
  5
7B
330
1E
100
AcDbEntity
  8
0
100
AcDbLine
 10
83.0676
 20
203.3409999999999
 30
0.0
 11
83.2158
 21
203.4679999999999
 31
0.0
  0
LINE
  5
7C
330
1E
100
AcDbEntity
  8
0
100
AcDbLine
 10
82.91110000000001
 20
203.2859999999999
 30
0.0
 11
83.0676
 21
203.3409999999999
 31
0.0
  0
LINE
  5
7D
330
1E
100
AcDbEntity
  8
0
100
AcDbLine
 10
68.0081
 20
203.25
 30
0.0
 11
82.74649999999999
 21
203.25
 31
0.0
  0
LINE
  5
7E
330
1E
100
AcDbEntity
  8
0
100
AcDbLine
 10
83.61920000000001
 20
204.05
 30
0.0
 11
83.72629999999999
 21
204.3229999999999
 31
0.0
  0
LINE
  5
7F
330
1E
100
AcDbEntity
  8
0
100
AcDbLine
 10
83.72629999999999
 20
204.3229999999999
 30
0.0
 11
83.81680000000001
 21
204.614
 31
0.0
  0
LINE
  5
80
330
1E
100
AcDbEntity
  8
0
100
AcDbLine
 10
83.81680000000001
 20
204.614
 30
0.0
 11
83.8827
 21
204.9409999999999
 31
0.0
  0
LINE
  5
81
330
1E
100
AcDbEntity
  8
0
100
AcDbLine
 10
83.8827
 20
204.9409999999999
 30
0.0
 11
83.94029999999998
 21
205.268
 31
0.0
  0
LINE
  5
82
330
1E
100
AcDbEntity
  8
0
100
AcDbLine
 10
83.94029999999998
 20
205.268
 30
0.0
 11
83.96500000000001
 21
205.614
 31
0.0
  0
LINE
  5
83
330
1E
100
AcDbEntity
  8
0
100
AcDbLine
 10
83.98149999999999
 20
205.9769999999999
 30
0.0
 11
83.98149999999999
 21
222.25
 31
0.0
  0
LINE
  5
84
330
1E
100
AcDbEntity
  8
0
100
AcDbLine
 10
83.96500000000001
 20
205.614
 30
0.0
 11
83.98149999999999
 21
205.9769999999999
 31
0.0
  0
LINE
  5
88
330
1E
100
AcDbEntity
  8
0
100
AcDbLine
 10
70.318
 20
203.009
 30
0.0
 11
79.14799999999999
 21
201.336
 31
0.0
  0
LINE
  5
89
330
1E
100
AcDbEntity
  8
0
100
AcDbLine
 10
68.5509
 20
203.25
 30
0.0
 11
70.318
 21
203.009
 31
0.0
  0
LINE
  5
8A
330
1E
100
AcDbEntity
  8
0
100
AcDbLine
 10
34.892722
 20
206.908
 30
0.0
 11
34.932256
 21
206.6609999999999
 31
0.0
  0
LINE
  5
8B
330
1E
100
AcDbEntity
  8
0
100
AcDbLine
 10
34.866367
 20
207.1699999999999
 30
0.0
 11
34.892722
 21
206.908
 31
0.0
  0
LINE
  5
8C
330
1E
100
AcDbEntity
  8
0
100
AcDbLine
 10
50.0922
 20
206.908
 30
0.0
 11
50.11849999999999
 21
207.1699999999999
 31
0.0
  0
LINE
  5
8D
330
1E
100
AcDbEntity
  8
0
100
AcDbLine
 10
34.8598
 20
222.25
 30
0.0
 11
34.8598
 21
207.432
 31
0.0
  0
LINE
  5
8E
330
1E
100
AcDbEntity
  8
0
100
AcDbLine
 10
34.8598
 20
222.25
 30
0.0
 11
34.8598
 21
237.0679999999999
 31
0.0
  0
LINE
  5
8F
330
1E
100
AcDbEntity
  8
0
100
AcDbLine
 10
34.8598
 20
207.432
 30
0.0
 11
34.8598
 21
222.25
 31
0.0
  0
LINE
  5
90
330
1E
100
AcDbEntity
  8
0
100
AcDbLine
 10
34.8598
 20
207.432
 30
0.0
 11
34.866367
 21
207.1699999999999
 31
0.0
  0
LINE
  5
91
330
1E
100
AcDbEntity
  8
0
100
AcDbLine
 10
50.1251
 20
207.432
 30
0.0
 11
50.1251
 21
222.25
 31
0.0
  0
LINE
  5
92
330
1E
100
AcDbEntity
  8
0
100
AcDbLine
 10
50.11849999999999
 20
207.1699999999999
 30
0.0
 11
50.1251
 21
207.432
 31
0.0
  0
LINE
  5
93
330
1E
100
AcDbEntity
  8
0
100
AcDbLine
 10
50.1251
 20
222.25
 30
0.0
 11
50.1251
 21
207.432
 31
0.0
  0
LINE
  5
94
330
1E
100
AcDbEntity
  8
0
100
AcDbLine
 10
50.1251
 20
222.25
 30
0.0
 11
50.1251
 21
237.0679999999999
 31
0.0
  0
LINE
  5
95
330
1E
100
AcDbEntity
  8
0
100
AcDbLine
 10
50.2229
 20
206.879
 30
0.0
 11
50.2493
 21
207.1409999999999
 31
0.0
  0
LINE
  5
96
330
1E
100
AcDbEntity
  8
0
100
AcDbLine
 10
50.2559
 20
207.432
 30
0.0
 11
50.2559
 21
222.25
 31
0.0
  0
LINE
  5
97
330
1E
100
AcDbEntity
  8
0
100
AcDbLine
 10
50.2493
 20
207.1409999999999
 30
0.0
 11
50.2559
 21
207.432
 31
0.0
  0
LINE
  5
98
330
1E
100
AcDbEntity
  8
0
100
AcDbLine
 10
50.2559
 20
222.25
 30
0.0
 11
50.2559
 21
207.432
 31
0.0
  0
LINE
  5
9A
330
1E
100
AcDbEntity
  8
0
100
AcDbLine
 10
83.98149999999999
 20
222.25
 30
0.0
 11
83.98149999999999
 21
205.9769999999999
 31
0.0
  0
LINE
  5
9B
330
1E
100
AcDbEntity
  8
0
100
AcDbLine
 10
83.98149999999999
 20
222.25
 30
0.0
 11
83.98149999999999
 21
238.5229999999999
 31
0.0
  0
LINE
  5
9C
330
1E
100
AcDbEntity
  8
0
100
AcDbLine
 10
95.66790000000001
 20
206.684
 30
0.0
 11
95.66790000000001
 21
210.25
 31
0.0
  0
LINE
  5
9D
330
1E
100
AcDbEntity
  8
0
100
AcDbLine
 10
95.66790000000001
 20
222.25
 30
0.0
 11
95.66790000000001
 21
220.649
 31
0.0
  0
LINE
  5
9E
330
1E
100
AcDbEntity
  8
0
100
AcDbLine
 10
95.66790000000001
 20
222.25
 30
0.0
 11
95.66790000000001
 21
224.55
 31
0.0
  0
LINE
  5
9F
330
1E
100
AcDbEntity
  8
0
100
AcDbLine
 10
34.8598
 20
237.0679999999999
 30
0.0
 11
34.866367
 21
237.3299999999999
 31
0.0
  0
LINE
  5
A0
330
1E
100
AcDbEntity
  8
0
100
AcDbLine
 10
34.8598
 20
237.0679999999999
 30
0.0
 11
34.8598
 21
222.25
 31
0.0
  0
LINE
  5
A1
330
1E
100
AcDbEntity
  8
0
100
AcDbLine
 10
50.1251
 20
237.0679999999999
 30
0.0
 11
50.1251
 21
222.25
 31
0.0
  0
LINE
  5
A2
330
1E
100
AcDbEntity
  8
0
100
AcDbLine
 10
34.892722
 20
237.592
 30
0.0
 11
34.932256
 21
237.839
 31
0.0
  0
LINE
  5
A3
330
1E
100
AcDbEntity
  8
0
100
AcDbLine
 10
34.866367
 20
237.3299999999999
 30
0.0
 11
34.892722
 21
237.592
 31
0.0
  0
LINE
  5
A4
330
1E
100
AcDbEntity
  8
0
100
AcDbLine
 10
50.0922
 20
237.592
 30
0.0
 11
50.11849999999999
 21
237.3299999999999
 31
0.0
  0
LINE
  5
A5
330
1E
100
AcDbEntity
  8
0
100
AcDbLine
 10
50.11849999999999
 20
237.3299999999999
 30
0.0
 11
50.1251
 21
237.0679999999999
 31
0.0
  0
LINE
  5
A6
330
1E
100
AcDbEntity
  8
0
100
AcDbLine
 10
34.98492399999999
 20
238.0859999999999
 30
0.0
 11
35.050814
 21
238.305
 31
0.0
  0
LINE
  5
A7
330
1E
100
AcDbEntity
  8
0
100
AcDbLine
 10
34.932256
 20
237.839
 30
0.0
 11
34.98492399999999
 21
238.0859999999999
 31
0.0
  0
LINE
  5
A8
330
1E
100
AcDbEntity
  8
0
100
AcDbLine
 10
50.0
 20
238.0859999999999
 30
0.0
 11
50.0527
 21
237.839
 31
0.0
  0
LINE
  5
A9
330
1E
100
AcDbEntity
  8
0
100
AcDbLine
 10
50.0527
 20
237.839
 30
0.0
 11
50.0922
 21
237.592
 31
0.0
  0
LINE
  5
AA
330
1E
100
AcDbEntity
  8
0
100
AcDbLine
 10
35.129838
 20
238.5079999999999
 30
0.0
 11
35.222084
 21
238.6829999999999
 31
0.0
  0
LINE
  5
AB
330
1E
100
AcDbEntity
  8
0
100
AcDbLine
 10
35.050814
 20
238.305
 30
0.0
 11
35.129838
 21
238.5079999999999
 31
0.0
  0
LINE
  5
AC
330
1E
100
AcDbEntity
  8
0
100
AcDbLine
 10
49.8551
 20
238.5079999999999
 30
0.0
 11
49.9341
 21
238.305
 31
0.0
  0
LINE
  5
AD
330
1E
100
AcDbEntity
  8
0
100
AcDbLine
 10
49.9341
 20
238.305
 30
0.0
 11
50.0
 21
238.0859999999999
 31
0.0
  0
LINE
  5
AE
330
1E
100
AcDbEntity
  8
0
100
AcDbLine
 10
35.222084
 20
238.6829999999999
 30
0.0
 11
35.320852
 21
238.8279999999999
 31
0.0
  0
LINE
  5
AF
330
1E
100
AcDbEntity
  8
0
100
AcDbLine
 10
35.222084
 20
238.6829999999999
 30
0.0
 11
35.27376199999999
 21
238.77
 31
0.0
  0
LINE
  5
B0
330
1E
100
AcDbEntity
  8
0
100
AcDbLine
 10
35.320852
 20
238.8279999999999
 30
0.0
 11
35.432844
 21
238.945
 31
0.0
  0
LINE
  5
B1
330
1E
100
AcDbEntity
  8
0
100
AcDbLine
 10
35.27376199999999
 20
238.77
 30
0.0
 11
35.379141
 21
238.9299999999999
 31
0.0
  0
LINE
  5
B2
330
1E
100
AcDbEntity
  8
0
100
AcDbLine
 10
35.432844
 20
238.945
 30
0.0
 11
35.544834
 21
239.032
 31
0.0
  0
LINE
  5
B3
330
1E
100
AcDbEntity
  8
0
100
AcDbLine
 10
35.379141
 20
238.9299999999999
 30
0.0
 11
35.491132
 21
239.046
 31
0.0
  0
LINE
  5
B4
330
1E
100
AcDbEntity
  8
0
100
AcDbLine
 10
35.544834
 20
239.032
 30
0.0
 11
35.663392
 21
239.09
 31
0.0
  0
LINE
  5
B5
330
1E
100
AcDbEntity
  8
0
100
AcDbLine
 10
35.663392
 20
239.09
 30
0.0
 11
35.78194899999999
 21
239.1049999999999
 31
0.0
  0
LINE
  5
B6
330
1E
100
AcDbEntity
  8
0
100
AcDbLine
 10
35.78194899999999
 20
239.1049999999999
 30
0.0
 11
42.49245
 21
239.1049999999999
 31
0.0
  0
LINE
  5
B7
330
1E
100
AcDbEntity
  8
0
100
AcDbLine
 10
35.491132
 20
239.046
 30
0.0
 11
35.616302
 21
239.134
 31
0.0
  0
LINE
  5
B8
330
1E
100
AcDbEntity
  8
0
100
AcDbLine
 10
35.616302
 20
239.134
 30
0.0
 11
35.73485999999999
 21
239.192
 31
0.0
  0
LINE
  5
BA
330
1E
100
AcDbEntity
  8
0
100
AcDbLine
 10
35.73485999999999
 20
239.192
 30
0.0
 11
35.93237
 21
239.2209999999999
 31
0.0
  0
LINE
  5
BC
330
1E
100
AcDbEntity
  8
0
100
AcDbLine
 10
35.93237
 20
239.2209999999999
 30
0.0
 11
36.0641
 21
239.25
 31
0.0
  0
LINE
  5
BD
330
1E
100
AcDbEntity
  8
0
100
AcDbLine
 10
36.0641
 20
239.25
 30
0.0
 11
66.2305
 21
241.25
 31
0.0
  0
LINE
  5
BE
330
1E
100
AcDbEntity
  8
0
100
AcDbLine
 10
42.49245
 20
239.1049999999999
 30
0.0
 11
49.2029
 21
239.1049999999999
 31
0.0
  0
LINE
  5
BF
330
1E
100
AcDbEntity
  8
0
100
AcDbLine
 10
49.3215
 20
239.09
 30
0.0
 11
49.4401
 21
239.032
 31
0.0
  0
LINE
  5
C0
330
1E
100
AcDbEntity
  8
0
100
AcDbLine
 10
49.2029
 20
239.1049999999999
 30
0.0
 11
49.3215
 21
239.09
 31
0.0
  0
LINE
  5
C1
330
1E
100
AcDbEntity
  8
0
100
AcDbLine
 10
49.55210000000001
 20
238.945
 30
0.0
 11
49.664
 21
238.8279999999999
 31
0.0
  0
LINE
  5
C2
330
1E
100
AcDbEntity
  8
0
100
AcDbLine
 10
49.4401
 20
239.032
 30
0.0
 11
49.55210000000001
 21
238.945
 31
0.0
  0
LINE
  5
C3
330
1E
100
AcDbEntity
  8
0
100
AcDbLine
 10
49.7628
 20
238.6829999999999
 30
0.0
 11
49.8551
 21
238.5079999999999
 31
0.0
  0
LINE
  5
C4
330
1E
100
AcDbEntity
  8
0
100
AcDbLine
 10
49.664
 20
238.8279999999999
 30
0.0
 11
49.7628
 21
238.6829999999999
 31
0.0
  0
LINE
  5
D3
330
1E
100
AcDbEntity
  8
0
100
AcDbLine
 10
46.96562275411539
 20
239.9727592788079
 30
0.0
 11
47.1698
 21
241.402
 31
0.0
  0
LINE
  5
D4
330
1E
100
AcDbEntity
  8
0
100
AcDbLine
 10
46.96562275411539
 20
239.9727592788079
 30
0.0
 11
47.1698
 21
241.402
 31
0.0
  0
LINE
  5
D5
330
1E
100
AcDbEntity
  8
0
100
AcDbLine
 10
45.08452500974559
 20
239.848044513747
 30
0.0
 11
45.3458
 21
241.7059999999999
 31
0.0
  0
LINE
  5
D7
330
1E
100
AcDbEntity
  8
0
100
AcDbLine
 10
56.62980000000001
 20
240.6134838761009
 30
0.0
 11
56.62980000000001
 21
278.9559999999999
 31
0.0
  0
LINE
  5
D8
330
1E
100
AcDbEntity
  8
0
100
AcDbLine
 10
66.2305
 20
241.25
 30
0.0
 11
73.5997
 21
241.25
 31
0.0
  0
LINE
  5
D9
330
1E
100
AcDbEntity
  8
0
100
AcDbLine
 10
47.1698
 20
241.402
 30
0.0
 11
54.4658
 21
259.0339999999999
 31
0.0
  0
LINE
  5
DA
330
1E
100
AcDbEntity
  8
0
100
AcDbLine
 10
54.4658
 20
259.0339999999999
 30
0.0
 11
56.62980000000001
 21
261.863846153846
 31
0.0
  0
LINE
  5
DB
330
1E
100
AcDbEntity
  8
0
100
AcDbLine
 10
45.3458
 20
241.7059999999999
 30
0.0
 11
52.6418
 21
259.9459999999999
 31
0.0
  0
LINE
  5
DC
330
1E
100
AcDbEntity
  8
0
100
AcDbLine
 10
52.6418
 20
259.9459999999999
 30
0.0
 11
56.62980000000001
 21
265.2301
 31
0.0
  0
LINE
  5
DD
330
1E
100
AcDbEntity
  8
0
100
AcDbLine
 10
52.6418
 20
259.9459999999999
 30
0.0
 11
56.62980000000001
 21
265.2301
 31
0.0
  0
LINE
  5
E0
330
1E
100
AcDbEntity
  8
0
100
AcDbLine
 10
9.00249999999999
 20
289.712
 30
0.0
 11
12.25019999999999
 21
289.7029999999999
 31
0.0
  0
LINE
  5
E1
330
1E
100
AcDbEntity
  8
0
100
AcDbLine
 10
12.25019999999999
 20
289.7029999999999
 30
0.0
 11
18.37709999999999
 21
289.6909999999999
 31
0.0
  0
LINE
  5
E2
330
1E
100
AcDbEntity
  8
0
100
AcDbLine
 10
18.37709999999999
 20
289.6909999999999
 30
0.0
 11
26.79107
 21
289.68
 31
0.0
  0
LINE
  5
E3
330
1E
100
AcDbEntity
  8
0
100
AcDbLine
 10
26.79107
 20
289.68
 30
0.0
 11
39.19377
 21
289.669
 31
0.0
  0
LINE
  5
E4
330
1E
100
AcDbEntity
  8
0
100
AcDbLine
 10
39.19377
 20
289.669
 30
0.0
 11
52.21591020970779
 21
289.659160481551
 31
0.0
  0
LINE
  5
E5
330
1E
100
AcDbEntity
  8
0
100
AcDbLine
 10
52.21591020970779
 20
289.659160481551
 30
0.0
 11
67.479
 21
289.5609999999999
 31
0.0
  0
LINE
  5
E9
330
1E
100
AcDbEntity
  8
0
100
AcDbLine
 10
8.141599999999989
 20
289.7219999999999
 30
0.0
 11
9.00249999999999
 21
289.712
 31
0.0
  0
LINE
  5
EA
330
1E
100
AcDbEntity
  8
0
100
AcDbLine
 10
5.03769999999999
 20
290.322
 30
0.0
 11
8.141599999999989
 21
289.7219999999999
 31
0.0
  0
LINE
  5
F1
330
1E
100
AcDbEntity
  8
0
100
AcDbLine
 10
2.44169999999999
 20
292.1229999999999
 30
0.0
 11
5.03769999999999
 21
290.322
 31
0.0
  0
LINE
  5
F2
330
1E
100
AcDbEntity
  8
0
100
AcDbLine
 10
0.7406999999999901
 20
294.6229999999999
 30
0.0
 11
2.44169999999999
 21
292.1229999999999
 31
0.0
  0
LINE
  5
F3
330
1E
100
AcDbEntity
  8
0
100
AcDbLine
 10
5.03859999999999
 20
305.122
 30
0.0
 11
8.142399999999989
 21
305.723
 31
0.0
  0
LINE
  5
F4
330
1E
100
AcDbEntity
  8
0
100
AcDbLine
 10
2.442299999999999
 20
303.3229999999999
 30
0.0
 11
5.03859999999999
 21
305.122
 31
0.0
  0
LINE
  5
F5
330
1E
100
AcDbEntity
  8
0
100
AcDbLine
 10
0.740999999999994
 20
300.8229999999999
 30
0.0
 11
2.442299999999999
 21
303.3229999999999
 31
0.0
  0
LINE
  5
F6
330
1E
100
AcDbEntity
  8
0
100
AcDbLine
 10
8.142399999999989
 20
305.723
 30
0.0
 11
9.573799999999989
 21
305.734
 31
0.0
  0
LINE
  5
F8
330
1E
100
AcDbEntity
  8
0
100
AcDbLine
 10
9.573799999999989
 20
305.734
 30
0.0
 11
13.2925
 21
305.745
 31
0.0
  0
LINE
  5
FA
330
1E
100
AcDbEntity
  8
0
100
AcDbLine
 10
13.2925
 20
305.745
 30
0.0
 11
20.97869999999999
 21
305.7559999999999
 31
0.0
  0
LINE
  5
FB
330
1E
100
AcDbEntity
  8
0
100
AcDbLine
 10
20.97869999999999
 20
305.7559999999999
 30
0.0
 11
30.02077
 21
305.7669999999999
 31
0.0
  0
LINE
  5
FE
330
1E
100
AcDbEntity
  8
0
100
AcDbLine
 10
30.02077
 20
305.7669999999999
 30
0.0
 11
43.16177
 21
305.7739999999999
 31
0.0
  0
LINE
  5
FF
330
1E
100
AcDbEntity
  8
0
100
AcDbLine
 10
43.16177
 20
305.7739999999999
 30
0.0
 11
60.3382
 21
305.783
 31
0.0
  0
LINE
  5
10A
330
1E
100
AcDbEntity
  8
0
100
AcDbLine
 10
0.14419999999999
 20
297.723
 30
0.0
 11
0.7406999999999901
 21
294.6229999999999
 31
0.0
  0
LINE
  5
10B
330
1E
100
AcDbEntity
  8
0
100
AcDbLine
 10
0.14419999999999
 20
297.723
 30
0.0
 11
0.740999999999994
 21
300.8229999999999
 31
0.0
  0
LINE
  5
10D
330
1E
100
AcDbEntity
  8
0
100
AcDbLine
 10
56.7004
 20
279.662
 30
0.0
 11
56.8063
 21
280.3319999999999
 31
0.0
  0
LINE
  5
10E
330
1E
100
AcDbEntity
  8
0
100
AcDbLine
 10
56.62980000000001
 20
278.9559999999999
 30
0.0
 11
56.62980000000001
 21
240.6134838761009
 31
0.0
  0
LINE
  5
10F
330
1E
100
AcDbEntity
  8
0
100
AcDbLine
 10
56.62980000000001
 20
278.9559999999999
 30
0.0
 11
56.7004
 21
279.662
 31
0.0
  0
LINE
  5
113
330
1E
100
AcDbEntity
  8
0
100
AcDbLine
 10
57.0533
 20
280.968
 30
0.0
 11
57.3357
 21
281.6029999999999
 31
0.0
  0
LINE
  5
116
330
1E
100
AcDbEntity
  8
0
100
AcDbLine
 10
58.1827
 20
282.697
 30
0.0
 11
58.7122
 21
283.1559999999999
 31
0.0
  0
LINE
  5
117
330
1E
100
AcDbEntity
  8
0
100
AcDbLine
 10
58.7122
 20
283.1559999999999
 30
0.0
 11
59.2769
 21
283.544
 31
0.0
  0
LINE
  5
11A
330
1E
100
AcDbEntity
  8
0
100
AcDbLine
 10
59.2769
 20
283.544
 30
0.0
 11
59.9121
 21
283.8269999999999
 31
0.0
  0
LINE
  5
11B
330
1E
100
AcDbEntity
  8
0
100
AcDbLine
 10
60.3382
 20
305.783
 30
0.0
 11
77.93949999999999
 21
305.788
 31
0.0
  0
LINE
  5
11E
330
1E
100
AcDbEntity
  8
0
100
AcDbLine
 10
60.5475
 20
284.0729999999999
 30
0.0
 11
61.218
 21
284.179
 31
0.0
  0
LINE
  5
11F
330
1E
100
AcDbEntity
  8
0
100
AcDbLine
 10
59.9121
 20
283.8269999999999
 30
0.0
 11
60.5475
 21
284.0729999999999
 31
0.0
  0
LINE
  5
122
330
1E
100
AcDbEntity
  8
0
100
AcDbLine
 10
67.479
 20
289.5609999999999
 30
0.0
 11
78.7245
 21
289.55
 31
0.0
  0
LINE
  5
123
330
1E
100
AcDbEntity
  8
0
100
AcDbLine
 10
61.9239
 20
284.25
 30
0.0
 11
103.6297999999999
 21
284.25
 31
0.0
  0
LINE
  5
124
330
1E
100
AcDbEntity
  8
0
100
AcDbLine
 10
61.218
 20
284.179
 30
0.0
 11
61.9239
 21
284.25
 31
0.0
  0
LINE
  5
126
330
1E
100
AcDbEntity
  8
0
100
AcDbLine
 10
57.7239
 20
282.168
 30
0.0
 11
58.1827
 21
282.697
 31
0.0
  0
LINE
  5
127
330
1E
100
AcDbEntity
  8
0
100
AcDbLine
 10
57.3357
 20
281.6029999999999
 30
0.0
 11
57.7239
 21
282.168
 31
0.0
  0
LINE
  5
128
330
1E
100
AcDbEntity
  8
0
100
AcDbLine
 10
56.8063
 20
280.3319999999999
 30
0.0
 11
57.0533
 21
280.968
 31
0.0
  0
LINE
  5
129
330
1E
100
AcDbEntity
  8
0
100
AcDbLine
 10
68.5509000000001
 20
241.25
 30
0.0
 11
70.318
 21
241.4909999999999
 31
0.0
  0
LINE
  5
12A
330
1E
100
AcDbEntity
  8
0
100
AcDbLine
 10
83.61920000000001
 20
240.45
 30
0.0
 11
83.72629999999999
 21
240.177
 31
0.0
  0
LINE
  5
12B
330
1E
100
AcDbEntity
  8
0
100
AcDbLine
 10
83.72629999999999
 20
240.177
 30
0.0
 11
83.81680000000001
 21
239.8859999999999
 31
0.0
  0
LINE
  5
12C
330
1E
100
AcDbEntity
  8
0
100
AcDbLine
 10
83.81680000000001
 20
239.8859999999999
 30
0.0
 11
83.8827
 21
239.559
 31
0.0
  0
LINE
  5
12D
330
1E
100
AcDbEntity
  8
0
100
AcDbLine
 10
83.8827
 20
239.559
 30
0.0
 11
83.94029999999998
 21
239.232
 31
0.0
  0
LINE
  5
12E
330
1E
100
AcDbEntity
  8
0
100
AcDbLine
 10
83.94029999999998
 20
239.232
 30
0.0
 11
83.96500000000001
 21
238.886
 31
0.0
  0
LINE
  5
12F
330
1E
100
AcDbEntity
  8
0
100
AcDbLine
 10
83.96500000000001
 20
238.886
 30
0.0
 11
83.98149999999999
 21
238.5229999999999
 31
0.0
  0
LINE
  5
130
330
1E
100
AcDbEntity
  8
0
100
AcDbLine
 10
83.98149999999999
 20
238.5229999999999
 30
0.0
 11
83.98149999999999
 21
222.25
 31
0.0
  0
LINE
  5
133
330
1E
100
AcDbEntity
  8
0
100
AcDbLine
 10
80.9689
 20
241.25
 30
0.0
 11
82.74649999999999
 21
241.25
 31
0.0
  0
LINE
  5
134
330
1E
100
AcDbEntity
  8
0
100
AcDbLine
 10
73.5997
 20
241.25
 30
0.0
 11
80.9689
 21
241.25
 31
0.0
  0
LINE
  5
135
330
1E
100
AcDbEntity
  8
0
100
AcDbLine
 10
75.6562
 20
284.25
 30
0.0
 11
80.91379999999999
 21
288.218
 31
0.0
  0
LINE
  5
136
330
1E
100
AcDbEntity
  8
0
100
AcDbLine
 10
77.93949999999999
 20
305.788
 30
0.0
 11
98.54040000000001
 21
305.79
 31
0.0
  0
LINE
  5
137
330
1E
100
AcDbEntity
  8
0
100
AcDbLine
 10
79.02210769230769
 20
284.25
 30
0.0
 11
81.82579999999999
 21
286.3939999999999
 31
0.0
  0
LINE
  5
138
330
1E
100
AcDbEntity
  8
0
100
AcDbLine
 10
81.82579999999999
 20
286.3939999999999
 30
0.0
 11
89.4257787877502
 21
289.538818808724
 31
0.0
  0
LINE
  5
139
330
1E
100
AcDbEntity
  8
0
100
AcDbLine
 10
80.91379999999999
 20
288.218
 30
0.0
 11
84.2294856527153
 21
289.5442742610859
 31
0.0
  0
LINE
  5
13B
330
1E
100
AcDbEntity
  8
0
100
AcDbLine
 10
78.7245
 20
289.55
 30
0.0
 11
89.30039999999999
 21
289.5389999999999
 31
0.0
  0
LINE
  5
13C
330
1E
100
AcDbEntity
  8
0
100
AcDbLine
 10
79.14799999999999
 20
243.164
 30
0.0
 11
84.0618
 21
243.917
 31
0.0
  0
LINE
  5
13D
330
1E
100
AcDbEntity
  8
0
100
AcDbLine
 10
83.49569999999999
 20
240.6859999999999
 30
0.0
 11
83.61920000000001
 21
240.45
 31
0.0
  0
LINE
  5
13E
330
1E
100
AcDbEntity
  8
0
100
AcDbLine
 10
83.36399999999999
 20
240.886
 30
0.0
 11
83.49569999999999
 21
240.6859999999999
 31
0.0
  0
LINE
  5
13F
330
1E
100
AcDbEntity
  8
0
100
AcDbLine
 10
83.2158
 20
241.032
 30
0.0
 11
83.36399999999999
 21
240.886
 31
0.0
  0
LINE
  5
140
330
1E
100
AcDbEntity
  8
0
100
AcDbLine
 10
83.0676
 20
241.159
 30
0.0
 11
83.2158
 21
241.032
 31
0.0
  0
LINE
  5
141
330
1E
100
AcDbEntity
  8
0
100
AcDbLine
 10
82.91110000000001
 20
241.214
 30
0.0
 11
83.0676
 21
241.159
 31
0.0
  0
LINE
  5
142
330
1E
100
AcDbEntity
  8
0
100
AcDbLine
 10
82.74649999999999
 20
241.25
 30
0.0
 11
82.91110000000001
 21
241.214
 31
0.0
  0
LINE
  5
143
330
1E
100
AcDbEntity
  8
0
100
AcDbLine
 10
84.0618
 20
243.917
 30
0.0
 11
90.3472
 21
244.694
 31
0.0
  0
LINE
  5
144
330
1E
100
AcDbEntity
  8
0
100
AcDbLine
 10
90.3472
 20
244.694
 30
0.0
 11
95.4287
 21
244.985
 31
0.0
  0
LINE
  5
146
330
1E
100
AcDbEntity
  8
0
100
AcDbLine
 10
89.30039999999999
 20
289.5389999999999
 30
0.0
 11
98.29600000000001
 21
289.526
 31
0.0
  0
LINE
  5
147
330
1E
100
AcDbEntity
  8
0
100
AcDbLine
 10
95.4287
 20
244.985
 30
0.0
 11
102.1309999999999
 21
245.1999999999999
 31
0.0
  0
LINE
  5
14A
330
1E
100
AcDbEntity
  8
0
100
AcDbLine
 10
70.318
 20
241.4909999999999
 30
0.0
 11
79.14799999999999
 21
243.164
 31
0.0
  0
LINE
  5
14B
330
1E
100
AcDbEntity
  8
0
100
AcDbLine
 10
95.66790000000001
 20
224.55
 30
0.0
 11
95.66790000000001
 21
210.25
 31
0.0
  0
LINE
  5
14D
330
1E
100
AcDbEntity
  8
0
100
AcDbLine
 10
95.66790000000001
 20
224.55
 30
0.0
 11
95.66790000000001
 21
222.25
 31
0.0
  0
LINE
  5
14E
330
1E
100
AcDbEntity
  8
0
100
AcDbLine
 10
95.66790000000001
 20
206.684
 30
0.0
 11
95.66790000000001
 21
195.317
 31
0.0
  0
LINE
  5
14F
330
1E
100
AcDbEntity
  8
0
100
AcDbLine
 10
95.66790000000001
 20
195.317
 30
0.0
 11
95.66790000000001
 21
191.289
 31
0.0
  0
LINE
  5
150
330
1E
100
AcDbEntity
  8
0
100
AcDbLine
 10
95.66790000000001
 20
195.317
 30
0.0
 11
95.66790000000001
 21
206.684
 31
0.0
  0
LINE
  5
151
330
1E
100
AcDbEntity
  8
0
100
AcDbLine
 10
95.66790000000001
 20
191.289
 30
0.0
 11
95.66790000000001
 21
188.3179999999999
 31
0.0
  0
LINE
  5
152
330
1E
100
AcDbEntity
  8
0
100
AcDbLine
 10
95.66790000000001
 20
191.289
 30
0.0
 11
95.66790000000001
 21
195.317
 31
0.0
  0
LINE
  5
153
330
1E
100
AcDbEntity
  8
0
100
AcDbLine
 10
95.66790000000001
 20
188.3179999999999
 30
0.0
 11
95.66790000000001
 21
183.2499999999999
 31
0.0
  0
LINE
  5
154
330
1E
100
AcDbEntity
  8
0
100
AcDbLine
 10
95.66790000000001
 20
188.3179999999999
 30
0.0
 11
95.66790000000001
 21
191.289
 31
0.0
  0
LINE
  5
155
330
1E
100
AcDbEntity
  8
0
100
AcDbLine
 10
95.66790000000001
 20
210.25
 30
0.0
 11
95.66790000000001
 21
224.55
 31
0.0
  0
LINE
  5
156
330
1E
100
AcDbEntity
  8
0
100
AcDbLine
 10
95.66790000000001
 20
210.25
 30
0.0
 11
95.66790000000001
 21
206.684
 31
0.0
  0
LINE
  5
157
330
1E
100
AcDbEntity
  8
0
100
AcDbLine
 10
95.66790000000001
 20
175.2499999999999
 30
0.0
 11
95.66790000000001
 21
185.25
 31
0.0
  0
LINE
  5
158
330
1E
100
AcDbEntity
  8
0
100
AcDbLine
 10
95.66790000000001
 20
175.2499999999999
 30
0.0
 11
95.66790000000001
 21
24.25
 31
0.0
  0
LINE
  5
159
330
1E
100
AcDbEntity
  8
0
100
AcDbLine
 10
95.6778
 20
21.94999999999999
 30
0.0
 11
95.71769999999999
 21
18.85
 31
0.0
  0
LINE
  5
15C
330
1E
100
AcDbEntity
  8
0
100
AcDbLine
 10
95.71769999999999
 20
18.85
 30
0.0
 11
95.81749999999999
 21
15.25
 31
0.0
  0
LINE
  5
15D
330
1E
100
AcDbEntity
  8
0
100
AcDbLine
 10
95.81749999999999
 20
15.25
 30
0.0
 11
96.01700000000001
 21
12.25
 31
0.0
  0
LINE
  5
15E
330
1E
100
AcDbEntity
  8
0
100
AcDbLine
 10
106.6402999999999
 20
1.28000000000001
 30
0.0
 11
109.5331
 21
0.8200000000000128
 31
0.0
  0
LINE
  5
160
330
1E
100
AcDbEntity
  8
0
100
AcDbLine
 10
104.2663
 20
1.74000000000001
 30
0.0
 11
106.6402999999999
 21
1.28000000000001
 31
0.0
  0
LINE
  5
161
330
1E
100
AcDbEntity
  8
0
100
AcDbLine
 10
118.6102999999999
 20
0.250000000000013
 30
0.0
 11
120.9046
 21
0.306000000000013
 31
0.0
  0
LINE
  5
162
330
1E
100
AcDbEntity
  8
0
100
AcDbLine
 10
120.9046
 20
0.306000000000013
 30
0.0
 11
124.0966
 21
0.470000000000013
 31
0.0
  0
LINE
  5
165
330
1E
100
AcDbEntity
  8
0
100
AcDbLine
 10
124.0966
 20
0.470000000000013
 30
0.0
 11
127.6876
 21
0.8200000000000128
 31
0.0
  0
LINE
  5
167
330
1E
100
AcDbEntity
  8
0
100
AcDbLine
 10
127.6876
 20
0.8200000000000128
 30
0.0
 11
130.5803
 21
1.28000000000001
 31
0.0
  0
LINE
  5
16A
330
1E
100
AcDbEntity
  8
0
100
AcDbLine
 10
116.3161
 20
0.306000000000013
 30
0.0
 11
118.6102999999999
 21
0.250000000000013
 31
0.0
  0
LINE
  5
16B
330
1E
100
AcDbEntity
  8
0
100
AcDbLine
 10
113.1240999999999
 20
0.470000000000013
 30
0.0
 11
116.3161
 21
0.306000000000013
 31
0.0
  0
LINE
  5
16F
330
1E
100
AcDbEntity
  8
0
100
AcDbLine
 10
130.5803
 20
1.28000000000001
 30
0.0
 11
132.9544
 21
1.74000000000001
 31
0.0
  0
LINE
  5
172
330
1E
100
AcDbEntity
  8
0
100
AcDbLine
 10
109.5331
 20
0.8200000000000128
 30
0.0
 11
113.1240999999999
 21
0.470000000000013
 31
0.0
  0
LINE
  5
174
330
1E
100
AcDbEntity
  8
0
100
AcDbLine
 10
138.5607999999999
 20
4.250000000000009
 30
0.0
 11
139.7577999999999
 21
5.950000000000009
 31
0.0
  0
LINE
  5
175
330
1E
100
AcDbEntity
  8
0
100
AcDbLine
 10
136.8648
 20
3.050000000000009
 30
0.0
 11
138.5607999999999
 21
4.250000000000009
 31
0.0
  0
LINE
  5
179
330
1E
100
AcDbEntity
  8
0
100
AcDbLine
 10
102.2513
 20
2.250000000000009
 30
0.0
 11
104.2663
 21
1.74000000000001
 31
0.0
  0
LINE
  5
17A
330
1E
100
AcDbEntity
  8
0
100
AcDbLine
 10
100.3560999999999
 20
3.050000000000009
 30
0.0
 11
102.2513
 21
2.250000000000009
 31
0.0
  0
LINE
  5
17E
330
1E
100
AcDbEntity
  8
0
100
AcDbLine
 10
96.01700000000001
 20
12.25
 30
0.0
 11
96.26640000000001
 21
9.950000000000009
 31
0.0
  0
LINE
  5
182
330
1E
100
AcDbEntity
  8
0
100
AcDbLine
 10
96.26640000000001
 20
9.950000000000009
 30
0.0
 11
96.66540000000001
 21
7.850000000000009
 31
0.0
  0
LINE
  5
183
330
1E
100
AcDbEntity
  8
0
100
AcDbLine
 10
96.66540000000001
 20
7.850000000000009
 30
0.0
 11
97.4634
 21
5.950000000000009
 31
0.0
  0
LINE
  5
18D
330
1E
100
AcDbEntity
  8
0
100
AcDbLine
 10
141.5028
 20
18.85
 30
0.0
 11
141.5428
 21
21.94999999999999
 31
0.0
  0
LINE
  5
18E
330
1E
100
AcDbEntity
  8
0
100
AcDbLine
 10
141.5527999999999
 20
152.378689655172
 30
0.0
 11
155.3938
 21
158.1059999999999
 31
0.0
  0
LINE
  5
18F
330
1E
100
AcDbEntity
  8
0
100
AcDbLine
 10
141.5527999999999
 20
150.3808
 30
0.0
 11
156.3058
 21
156.282
 31
0.0
  0
LINE
  5
190
330
1E
100
AcDbEntity
  8
0
100
AcDbLine
 10
141.5527999999999
 20
160.3559999999999
 30
0.0
 11
175.3358
 21
160.3559999999999
 31
0.0
  0
LINE
  5
193
330
1E
100
AcDbEntity
  8
0
100
AcDbLine
 10
141.5527999999999
 20
24.25
 30
0.0
 11
141.5527999999999
 21
187.710387479379
 31
0.0
  0
LINE
  5
199
330
1E
100
AcDbEntity
  8
0
100
AcDbLine
 10
155.3938
 20
158.1059999999999
 30
0.0
 11
158.197492307692
 21
160.25
 31
0.0
  0
LINE
  5
19A
330
1E
100
AcDbEntity
  8
0
100
AcDbLine
 10
156.3058
 20
156.282
 30
0.0
 11
161.5634
 21
160.25
 31
0.0
  0
LINE
  5
19B
330
1E
100
AcDbEntity
  8
0
100
AcDbLine
 10
178.5117999999999
 20
161.4149999999999
 30
0.0
 11
179.0057999999999
 21
161.874
 31
0.0
  0
LINE
  5
19C
330
1E
100
AcDbEntity
  8
0
100
AcDbLine
 10
177.9478
 20
161.027
 30
0.0
 11
178.5117999999999
 21
161.4149999999999
 31
0.0
  0
LINE
  5
19D
330
1E
100
AcDbEntity
  8
0
100
AcDbLine
 10
177.3478
 20
160.7439999999999
 30
0.0
 11
177.9478
 21
161.027
 31
0.0
  0
LINE
  5
19E
330
1E
100
AcDbEntity
  8
0
100
AcDbLine
 10
176.6767999999999
 20
160.532
 30
0.0
 11
177.3478
 21
160.7439999999999
 31
0.0
  0
LINE
  5
19F
330
1E
100
AcDbEntity
  8
0
100
AcDbLine
 10
176.0418
 20
160.3909999999999
 30
0.0
 11
176.6767999999999
 21
160.532
 31
0.0
  0
LINE
  5
1A0
330
1E
100
AcDbEntity
  8
0
100
AcDbLine
 10
175.3358
 20
160.3559999999999
 30
0.0
 11
176.0418
 21
160.3909999999999
 31
0.0
  0
LINE
  5
1A1
330
1E
100
AcDbEntity
  8
0
100
AcDbLine
 10
179.0057999999999
 20
161.874
 30
0.0
 11
179.4648
 21
162.368
 31
0.0
  0
LINE
  5
1A2
330
1E
100
AcDbEntity
  8
0
100
AcDbLine
 10
179.4648
 20
162.368
 30
0.0
 11
179.8538
 21
162.932
 31
0.0
  0
LINE
  5
1A3
330
1E
100
AcDbEntity
  8
0
100
AcDbLine
 10
179.8538
 20
162.932
 30
0.0
 11
180.1358
 21
163.532
 31
0.0
  0
LINE
  5
1A4
330
1E
100
AcDbEntity
  8
0
100
AcDbLine
 10
180.1358
 20
163.532
 30
0.0
 11
180.3478
 21
164.203
 31
0.0
  0
LINE
  5
1A5
330
1E
100
AcDbEntity
  8
0
100
AcDbLine
 10
180.3478
 20
164.203
 30
0.0
 11
180.4888
 21
164.8379999999999
 31
0.0
  0
LINE
  5
1A6
330
1E
100
AcDbEntity
  8
0
100
AcDbLine
 10
180.6297999999999
 20
182.6884615384609
 30
0.0
 11
182.7538
 21
185.4659999999999
 31
0.0
  0
LINE
  5
1A7
330
1E
100
AcDbEntity
  8
0
100
AcDbLine
 10
180.6297999999999
 20
179.3229
 30
0.0
 11
184.5777999999999
 21
184.5539999999999
 31
0.0
  0
LINE
  5
1A8
330
1E
100
AcDbEntity
  8
0
100
AcDbLine
 10
180.5237999999999
 20
165.544
 30
0.0
 11
180.5237999999999
 21
203.25
 31
0.0
  0
LINE
  5
1A9
330
1E
100
AcDbEntity
  8
0
100
AcDbLine
 10
180.4888
 20
164.8379999999999
 30
0.0
 11
180.5237999999999
 21
165.544
 31
0.0
  0
LINE
  5
1AB
330
1E
100
AcDbEntity
  8
0
100
AcDbLine
 10
141.5527999999999
 20
188.3179999999999
 30
0.0
 11
141.5527999999999
 21
24.25
 31
0.0
  0
LINE
  5
1AD
330
1E
100
AcDbEntity
  8
0
100
AcDbLine
 10
97.4634
 20
5.950000000000009
 30
0.0
 11
98.66039999999999
 21
4.250000000000009
 31
0.0
  0
LINE
  5
1AE
330
1E
100
AcDbEntity
  8
0
100
AcDbLine
 10
98.66039999999999
 20
4.250000000000009
 30
0.0
 11
100.3560999999999
 21
3.050000000000009
 31
0.0
  0
LINE
  5
1B2
330
1E
100
AcDbEntity
  8
0
100
AcDbLine
 10
95.6778
 20
224.55
 30
0.0
 11
95.71769999999999
 21
227.6499999999999
 31
0.0
  0
LINE
  5
1B3
330
1E
100
AcDbEntity
  8
0
100
AcDbLine
 10
95.71769999999999
 20
227.6499999999999
 30
0.0
 11
95.81749999999999
 21
231.25
 31
0.0
  0
LINE
  5
1B4
330
1E
100
AcDbEntity
  8
0
100
AcDbLine
 10
95.81749999999999
 20
231.25
 30
0.0
 11
96.01700000000001
 21
234.25
 31
0.0
  0
LINE
  5
1C6
330
1E
100
AcDbEntity
  8
0
100
AcDbLine
 10
96.01700000000001
 20
234.25
 30
0.0
 11
96.26640000000001
 21
236.55
 31
0.0
  0
LINE
  5
1C8
330
1E
100
AcDbEntity
  8
0
100
AcDbLine
 10
96.26640000000001
 20
236.55
 30
0.0
 11
96.66540000000001
 21
238.65
 31
0.0
  0
LINE
  5
1CA
330
1E
100
AcDbEntity
  8
0
100
AcDbLine
 10
96.66540000000001
 20
238.65
 30
0.0
 11
97.4634
 21
240.5499999999999
 31
0.0
  0
LINE
  5
1CD
330
1E
100
AcDbEntity
  8
0
100
AcDbLine
 10
141.5527999999999
 20
188.3179999999999
 30
0.0
 11
141.5527999999999
 21
191.289
 31
0.0
  0
LINE
  5
1D1
330
1E
100
AcDbEntity
  8
0
100
AcDbLine
 10
141.5527999999999
 20
191.289
 30
0.0
 11
141.5527999999999
 21
195.317
 31
0.0
  0
LINE
  5
1D2
330
1E
100
AcDbEntity
  8
0
100
AcDbLine
 10
141.5527999999999
 20
191.289
 30
0.0
 11
141.5527999999999
 21
188.3179999999999
 31
0.0
  0
LINE
  5
1D5
330
1E
100
AcDbEntity
  8
0
100
AcDbLine
 10
141.5527999999999
 20
195.317
 30
0.0
 11
141.5527999999999
 21
198.682
 31
0.0
  0
LINE
  5
1D6
330
1E
100
AcDbEntity
  8
0
100
AcDbLine
 10
141.5527999999999
 20
195.317
 30
0.0
 11
141.5527999999999
 21
191.289
 31
0.0
  0
LINE
  5
1D7
330
1E
100
AcDbEntity
  8
0
100
AcDbLine
 10
141.5527999999999
 20
199.5073328857059
 30
0.0
 11
141.7918
 21
199.5149999999999
 31
0.0
  0
LINE
  5
1DA
330
1E
100
AcDbEntity
  8
0
100
AcDbLine
 10
141.5527999999999
 20
198.682
 30
0.0
 11
141.5527999999999
 21
202.0979999999999
 31
0.0
  0
LINE
  5
1DB
330
1E
100
AcDbEntity
  8
0
100
AcDbLine
 10
141.5527999999999
 20
198.682
 30
0.0
 11
141.5527999999999
 21
195.317
 31
0.0
  0
LINE
  5
1DE
330
1E
100
AcDbEntity
  8
0
100
AcDbLine
 10
141.5527999999999
 20
202.0979999999999
 30
0.0
 11
141.5527999999999
 21
206.684
 31
0.0
  0
LINE
  5
1DF
330
1E
100
AcDbEntity
  8
0
100
AcDbLine
 10
141.5527999999999
 20
202.0979999999999
 30
0.0
 11
141.5527999999999
 21
198.682
 31
0.0
  0
LINE
  5
1E2
330
1E
100
AcDbEntity
  8
0
100
AcDbLine
 10
141.5527999999999
 20
206.684
 30
0.0
 11
141.5527999999999
 21
210.25
 31
0.0
  0
LINE
  5
1E3
330
1E
100
AcDbEntity
  8
0
100
AcDbLine
 10
141.5527999999999
 20
206.684
 30
0.0
 11
141.5527999999999
 21
202.0979999999999
 31
0.0
  0
LINE
  5
1E4
330
1E
100
AcDbEntity
  8
0
100
AcDbLine
 10
141.5527999999999
 20
224.55
 30
0.0
 11
141.5527999999999
 21
210.25
 31
0.0
  0
LINE
  5
1E7
330
1E
100
AcDbEntity
  8
0
100
AcDbLine
 10
141.7918
 20
199.5149999999999
 30
0.0
 11
146.8737999999999
 21
199.8059999999999
 31
0.0
  0
LINE
  5
1E9
330
1E
100
AcDbEntity
  8
0
100
AcDbLine
 10
146.8737999999999
 20
199.8059999999999
 30
0.0
 11
153.1588
 21
200.583
 31
0.0
  0
LINE
  5
1EA
330
1E
100
AcDbEntity
  8
0
100
AcDbLine
 10
153.1588
 20
200.583
 30
0.0
 11
158.0728
 21
201.336
 31
0.0
  0
LINE
  5
1EB
330
1E
100
AcDbEntity
  8
0
100
AcDbLine
 10
158.0728
 20
201.336
 30
0.0
 11
166.9028
 21
203.009
 31
0.0
  0
LINE
  5
1EC
330
1E
100
AcDbEntity
  8
0
100
AcDbLine
 10
166.9028
 20
203.009
 30
0.0
 11
168.6697999999999
 21
203.25
 31
0.0
  0
LINE
  5
1ED
330
1E
100
AcDbEntity
  8
0
100
AcDbLine
 10
155.0068
 20
203.25
 30
0.0
 11
163.1588
 21
203.25
 31
0.0
  0
LINE
  5
1EE
330
1E
100
AcDbEntity
  8
0
100
AcDbLine
 10
163.1588
 20
203.25
 30
0.0
 11
178.4198
 21
203.25
 31
0.0
  0
LINE
  5
1EF
330
1E
100
AcDbEntity
  8
0
100
AcDbLine
 10
182.7538
 20
185.4659999999999
 30
0.0
 11
190.0497999999999
 21
203.098
 31
0.0
  0
LINE
  5
1F0
330
1E
100
AcDbEntity
  8
0
100
AcDbLine
 10
180.5237999999999
 20
203.25
 30
0.0
 11
180.5237999999999
 21
165.544
 31
0.0
  0
LINE
  5
1F2
330
1E
100
AcDbEntity
  8
0
100
AcDbLine
 10
183.2778
 20
203.25
 30
0.0
 11
183.5067999999999
 21
203.25
 31
0.0
  0
LINE
  5
1F3
330
1E
100
AcDbEntity
  8
0
100
AcDbLine
 10
183.1818
 20
203.25
 30
0.0
 11
183.3977999999999
 21
203.25
 31
0.0
  0
LINE
  5
1F4
330
1E
100
AcDbEntity
  8
0
100
AcDbLine
 10
183.1818
 20
203.25
 30
0.0
 11
183.2778
 21
203.25
 31
0.0
  0
LINE
  5
1F5
330
1E
100
AcDbEntity
  8
0
100
AcDbLine
 10
183.5067999999999
 20
203.25
 30
0.0
 11
188.4888
 21
203.25
 31
0.0
  0
LINE
  5
1F6
330
1E
100
AcDbEntity
  8
0
100
AcDbLine
 10
183.3977999999999
 20
203.25
 30
0.0
 11
183.7488
 21
203.25
 31
0.0
  0
LINE
  5
1F7
330
1E
100
AcDbEntity
  8
0
100
AcDbLine
 10
183.7488
 20
203.25
 30
0.0
 11
184.3238
 21
203.25
 31
0.0
  0
LINE
  5
1F8
330
1E
100
AcDbEntity
  8
0
100
AcDbLine
 10
190.0497999999999
 20
203.098
 30
0.0
 11
190.0715142857139
 21
203.25
 31
0.0
  0
LINE
  5
1F9
330
1E
100
AcDbEntity
  8
0
100
AcDbLine
 10
191.8737999999999
 20
202.794
 30
0.0
 11
191.937925
 21
203.25
 31
0.0
  0
LINE
  5
1FA
330
1E
100
AcDbEntity
  8
0
100
AcDbLine
 10
184.5777999999999
 20
184.5539999999999
 30
0.0
 11
191.8737999999999
 21
202.794
 31
0.0
  0
LINE
  5
1FB
330
1E
100
AcDbEntity
  8
0
100
AcDbLine
 10
184.3238
 20
203.25
 30
0.0
 11
185.0328
 21
203.25
 31
0.0
  0
LINE
  5
1FC
330
1E
100
AcDbEntity
  8
0
100
AcDbLine
 10
185.0328
 20
203.25
 30
0.0
 11
210.3718
 21
203.25
 31
0.0
  0
LINE
  5
1FD
330
1E
100
AcDbEntity
  8
0
100
AcDbLine
 10
178.4198
 20
203.25
 30
0.0
 11
223.2778
 21
203.25
 31
0.0
  0
LINE
  5
1FE
330
1E
100
AcDbEntity
  8
0
100
AcDbLine
 10
188.4888
 20
203.25
 30
0.0
 11
193.4698
 21
203.25
 31
0.0
  0
LINE
  5
1FF
330
1E
100
AcDbEntity
  8
0
100
AcDbLine
 10
195.5347999999999
 20
203.25
 30
0.0
 11
196.4287999999999
 21
203.25
 31
0.0
  0
LINE
  5
200
330
1E
100
AcDbEntity
  8
0
100
AcDbLine
 10
212.1087999999999
 20
203.25
 30
0.0
 11
213.0028
 21
203.25
 31
0.0
  0
LINE
  5
201
330
1E
100
AcDbEntity
  8
0
100
AcDbLine
 10
211.2617999999999
 20
203.25
 30
0.0
 11
212.1087999999999
 21
203.25
 31
0.0
  0
LINE
  5
202
330
1E
100
AcDbEntity
  8
0
100
AcDbLine
 10
210.3718
 20
203.25
 30
0.0
 11
211.2617999999999
 21
203.25
 31
0.0
  0
LINE
  5
203
330
1E
100
AcDbEntity
  8
0
100
AcDbLine
 10
213.0028
 20
203.25
 30
0.0
 11
213.8527999999999
 21
203.25
 31
0.0
  0
LINE
  5
204
330
1E
100
AcDbEntity
  8
0
100
AcDbLine
 10
213.8527999999999
 20
203.25
 30
0.0
 11
214.4817999999999
 21
203.25
 31
0.0
  0
LINE
  5
205
330
1E
100
AcDbEntity
  8
0
100
AcDbLine
 10
214.4817999999999
 20
203.25
 30
0.0
 11
215.0678
 21
203.25
 31
0.0
  0
LINE
  5
206
330
1E
100
AcDbEntity
  8
0
100
AcDbLine
 10
215.0678
 20
203.25
 30
0.0
 11
219.5958
 21
203.25
 31
0.0
  0
LINE
  5
207
330
1E
100
AcDbEntity
  8
0
100
AcDbLine
 10
198.1657999999999
 20
203.25
 30
0.0
 11
222.5988
 21
203.25
 31
0.0
  0
LINE
  5
208
330
1E
100
AcDbEntity
  8
0
100
AcDbLine
 10
196.4287999999999
 20
203.25
 30
0.0
 11
197.2757999999999
 21
203.25
 31
0.0
  0
LINE
  5
209
330
1E
100
AcDbEntity
  8
0
100
AcDbLine
 10
197.2757999999999
 20
203.25
 30
0.0
 11
198.1657999999999
 21
203.25
 31
0.0
  0
LINE
  5
20A
330
1E
100
AcDbEntity
  8
0
100
AcDbLine
 10
194.6847999999999
 20
203.25
 30
0.0
 11
195.5347999999999
 21
203.25
 31
0.0
  0
LINE
  5
20B
330
1E
100
AcDbEntity
  8
0
100
AcDbLine
 10
194.0558
 20
203.25
 30
0.0
 11
194.6847999999999
 21
203.25
 31
0.0
  0
LINE
  5
20C
330
1E
100
AcDbEntity
  8
0
100
AcDbLine
 10
193.4698
 20
203.25
 30
0.0
 11
194.0558
 21
203.25
 31
0.0
  0
LINE
  5
215
330
1E
100
AcDbEntity
  8
0
100
AcDbLine
 10
154.0677999999999
 20
203.55
 30
0.0
 11
155.0068
 21
203.25
 31
0.0
  0
LINE
  5
216
330
1E
100
AcDbEntity
  8
0
100
AcDbLine
 10
153.6657999999999
 20
204.2499999999999
 30
0.0
 11
154.0677999999999
 21
203.55
 31
0.0
  0
LINE
  5
217
330
1E
100
AcDbEntity
  8
0
100
AcDbLine
 10
153.6657999999999
 20
204.2499999999999
 30
0.0
 11
153.6657999999999
 21
240.2499999999999
 31
0.0
  0
LINE
  5
219
330
1E
100
AcDbEntity
  8
0
100
AcDbLine
 10
219.5958
 20
203.25
 30
0.0
 11
224.1248
 21
203.25
 31
0.0
  0
LINE
  5
21A
330
1E
100
AcDbEntity
  8
0
100
AcDbLine
 10
223.2778
 20
203.25
 30
0.0
 11
224.2538
 21
203.25
 31
0.0
  0
LINE
  5
21B
330
1E
100
AcDbEntity
  8
0
100
AcDbLine
 10
224.2538
 20
203.25
 30
0.0
 11
225.0938
 21
203.25
 31
0.0
  0
LINE
  5
21C
330
1E
100
AcDbEntity
  8
0
100
AcDbLine
 10
224.2338
 20
203.25
 30
0.0
 11
224.4498
 21
203.25
 31
0.0
  0
LINE
  5
21D
330
1E
100
AcDbEntity
  8
0
100
AcDbLine
 10
225.0938
 20
203.25
 30
0.0
 11
225.7098
 21
203.25
 31
0.0
  0
LINE
  5
21E
330
1E
100
AcDbEntity
  8
0
100
AcDbLine
 10
225.9227999999999
 20
203.25
 30
0.0
 11
226.6367999999999
 21
203.55
 31
0.0
  0
LINE
  5
21F
330
1E
100
AcDbEntity
  8
0
100
AcDbLine
 10
225.7098
 20
203.25
 30
0.0
 11
225.9227999999999
 21
203.25
 31
0.0
  0
LINE
  5
220
330
1E
100
AcDbEntity
  8
0
100
AcDbLine
 10
224.3538
 20
203.25
 30
0.0
 11
224.4498
 21
203.25
 31
0.0
  0
LINE
  5
221
330
1E
100
AcDbEntity
  8
0
100
AcDbLine
 10
224.1248
 20
203.25
 30
0.0
 11
224.3538
 21
203.25
 31
0.0
  0
LINE
  5
222
330
1E
100
AcDbEntity
  8
0
100
AcDbLine
 10
223.8828
 20
203.25
 30
0.0
 11
224.2338
 21
203.25
 31
0.0
  0
LINE
  5
224
330
1E
100
AcDbEntity
  8
0
100
AcDbLine
 10
226.6367999999999
 20
203.55
 30
0.0
 11
226.8598
 21
204.2499999999999
 31
0.0
  0
LINE
  5
226
330
1E
100
AcDbEntity
  8
0
100
AcDbLine
 10
223.3077999999999
 20
203.25
 30
0.0
 11
223.8828
 21
203.25
 31
0.0
  0
LINE
  5
227
330
1E
100
AcDbEntity
  8
0
100
AcDbLine
 10
222.5988
 20
203.25
 30
0.0
 11
223.3077999999999
 21
203.25
 31
0.0
  0
LINE
  5
22C
330
1E
100
AcDbEntity
  8
0
100
AcDbLine
 10
226.8598
 20
204.2499999999999
 30
0.0
 11
226.8598
 21
240.2499999999999
 31
0.0
  0
LINE
  5
22D
330
1E
100
AcDbEntity
  8
0
100
AcDbLine
 10
141.5527999999999
 20
210.25
 30
0.0
 11
141.5527999999999
 21
224.55
 31
0.0
  0
LINE
  5
22E
330
1E
100
AcDbEntity
  8
0
100
AcDbLine
 10
141.5527999999999
 20
210.25
 30
0.0
 11
141.5527999999999
 21
206.684
 31
0.0
  0
LINE
  5
22F
330
1E
100
AcDbEntity
  8
0
100
AcDbLine
 10
141.5028
 20
227.6499999999999
 30
0.0
 11
141.5428
 21
224.55
 31
0.0
  0
LINE
  5
230
330
1E
100
AcDbEntity
  8
0
100
AcDbLine
 10
141.4028
 20
231.25
 30
0.0
 11
141.5028
 21
227.6499999999999
 31
0.0
  0
LINE
  5
233
330
1E
100
AcDbEntity
  8
0
100
AcDbLine
 10
141.2038
 20
234.25
 30
0.0
 11
141.4028
 21
231.25
 31
0.0
  0
LINE
  5
234
330
1E
100
AcDbEntity
  8
0
100
AcDbLine
 10
140.9548
 20
236.55
 30
0.0
 11
141.2038
 21
234.25
 31
0.0
  0
LINE
  5
239
330
1E
100
AcDbEntity
  8
0
100
AcDbLine
 10
153.6657999999999
 20
240.2499999999999
 30
0.0
 11
153.6657999999999
 21
204.2499999999999
 31
0.0
  0
LINE
  5
23A
330
1E
100
AcDbEntity
  8
0
100
AcDbLine
 10
153.6657999999999
 20
240.2499999999999
 30
0.0
 11
154.0677999999999
 21
240.9499999999999
 31
0.0
  0
LINE
  5
23B
330
1E
100
AcDbEntity
  8
0
100
AcDbLine
 10
226.8598
 20
240.2499999999999
 30
0.0
 11
226.8598
 21
204.2499999999999
 31
0.0
  0
LINE
  5
23C
330
1E
100
AcDbEntity
  8
0
100
AcDbLine
 10
140.5558
 20
238.65
 30
0.0
 11
140.9548
 21
236.55
 31
0.0
  0
LINE
  5
23D
330
1E
100
AcDbEntity
  8
0
100
AcDbLine
 10
139.7577999999999
 20
240.5499999999999
 30
0.0
 11
140.5558
 21
238.65
 31
0.0
  0
LINE
  5
244
330
1E
100
AcDbEntity
  8
0
100
AcDbLine
 10
98.54040000000001
 20
305.79
 30
0.0
 11
106.499292232639
 21
305.631045334121
 31
0.0
  0
LINE
  5
246
330
1E
100
AcDbEntity
  8
0
100
AcDbLine
 10
98.29600000000001
 20
289.526
 30
0.0
 11
103.6297999999999
 21
289.516720350098
 31
0.0
  0
LINE
  5
24F
330
1E
100
AcDbEntity
  8
0
100
AcDbLine
 10
180.6297999999999
 20
241.25
 30
0.0
 11
180.6297999999999
 21
273.379775776314
 31
0.0
  0
LINE
  5
250
330
1E
100
AcDbEntity
  8
0
100
AcDbLine
 10
213.4828
 20
241.25
 30
0.0
 11
214.6917999999999
 21
241.25
 31
0.0
  0
LINE
  5
251
330
1E
100
AcDbEntity
  8
0
100
AcDbLine
 10
214.6917999999999
 20
241.25
 30
0.0
 11
215.6798
 21
241.25
 31
0.0
  0
LINE
  5
252
330
1E
100
AcDbEntity
  8
0
100
AcDbLine
 10
215.6798
 20
241.25
 30
0.0
 11
216.4007999999999
 21
241.25
 31
0.0
  0
LINE
  5
253
330
1E
100
AcDbEntity
  8
0
100
AcDbLine
 10
212.1427999999999
 20
241.25
 30
0.0
 11
213.4828
 21
241.25
 31
0.0
  0
LINE
  5
254
330
1E
100
AcDbEntity
  8
0
100
AcDbLine
 10
210.8497999999999
 20
241.25
 30
0.0
 11
212.1427999999999
 21
241.25
 31
0.0
  0
LINE
  5
255
330
1E
100
AcDbEntity
  8
0
100
AcDbLine
 10
209.6928
 20
241.25
 30
0.0
 11
210.8497999999999
 21
241.25
 31
0.0
  0
LINE
  5
258
330
1E
100
AcDbEntity
  8
0
100
AcDbLine
 10
216.4007999999999
 20
241.25
 30
0.0
 11
220.9287999999999
 21
241.25
 31
0.0
  0
LINE
  5
25A
330
1E
100
AcDbEntity
  8
0
100
AcDbLine
 10
154.0677999999999
 20
240.9499999999999
 30
0.0
 11
155.0068
 21
241.25
 31
0.0
  0
LINE
  5
25B
330
1E
100
AcDbEntity
  8
0
100
AcDbLine
 10
155.0068
 20
241.25
 30
0.0
 11
209.6928
 21
241.25
 31
0.0
  0
LINE
  5
25D
330
1E
100
AcDbEntity
  8
0
100
AcDbLine
 10
220.9287999999999
 20
241.25
 30
0.0
 11
225.4577999999999
 21
241.25
 31
0.0
  0
LINE
  5
25F
330
1E
100
AcDbEntity
  8
0
100
AcDbLine
 10
226.6367999999999
 20
240.9499999999999
 30
0.0
 11
226.8598
 21
240.2499999999999
 31
0.0
  0
LINE
  5
260
330
1E
100
AcDbEntity
  8
0
100
AcDbLine
 10
225.9227999999999
 20
241.25
 30
0.0
 11
226.6367999999999
 21
240.9499999999999
 31
0.0
  0
LINE
  5
262
330
1E
100
AcDbEntity
  8
0
100
AcDbLine
 10
225.8237999999999
 20
241.25
 30
0.0
 11
225.9227999999999
 21
241.25
 31
0.0
  0
LINE
  5
263
330
1E
100
AcDbEntity
  8
0
100
AcDbLine
 10
190.0497999999999
 20
241.402
 30
0.0
 11
190.0715142857139
 21
241.25
 31
0.0
  0
LINE
  5
264
330
1E
100
AcDbEntity
  8
0
100
AcDbLine
 10
191.8737999999999
 20
241.7059999999999
 30
0.0
 11
191.937925
 21
241.25
 31
0.0
  0
LINE
  5
265
330
1E
100
AcDbEntity
  8
0
100
AcDbLine
 10
166.9028
 20
241.4909999999999
 30
0.0
 11
168.6697999999999
 21
241.25
 31
0.0
  0
LINE
  5
266
330
1E
100
AcDbEntity
  8
0
100
AcDbLine
 10
225.4577999999999
 20
241.25
 30
0.0
 11
225.8237999999999
 21
241.25
 31
0.0
  0
LINE
  5
269
330
1E
100
AcDbEntity
  8
0
100
AcDbLine
 10
138.5607999999999
 20
242.2499999999999
 30
0.0
 11
139.7577999999999
 21
240.5499999999999
 31
0.0
  0
LINE
  5
26B
330
1E
100
AcDbEntity
  8
0
100
AcDbLine
 10
102.1309999999999
 20
245.1999999999999
 30
0.0
 11
103.6297999999999
 21
245.2289945349909
 31
0.0
  0
LINE
  5
26C
330
1E
100
AcDbEntity
  8
0
100
AcDbLine
 10
158.0728
 20
243.164
 30
0.0
 11
166.9028
 21
241.4909999999999
 31
0.0
  0
LINE
  5
26D
330
1E
100
AcDbEntity
  8
0
100
AcDbLine
 10
153.1588
 20
243.917
 30
0.0
 11
158.0728
 21
243.164
 31
0.0
  0
LINE
  5
26E
330
1E
100
AcDbEntity
  8
0
100
AcDbLine
 10
136.8648
 20
243.4499999999999
 30
0.0
 11
138.5607999999999
 21
242.2499999999999
 31
0.0
  0
LINE
  5
270
330
1E
100
AcDbEntity
  8
0
100
AcDbLine
 10
103.6297999999999
 20
244.5132232193999
 30
0.0
 11
103.6297999999999
 21
250.2499999999999
 31
0.0
  0
LINE
  5
271
330
1E
100
AcDbEntity
  8
0
100
AcDbLine
 10
103.6297999999999
 20
259.25
 30
0.0
 11
103.6297999999999
 21
255.31
 31
0.0
  0
LINE
  5
272
330
1E
100
AcDbEntity
  8
0
100
AcDbLine
 10
103.6297999999999
 20
255.31
 30
0.0
 11
103.6297999999999
 21
254.11
 31
0.0
  0
LINE
  5
273
330
1E
100
AcDbEntity
  8
0
100
AcDbLine
 10
103.6297999999999
 20
255.31
 30
0.0
 11
103.6297999999999
 21
259.25
 31
0.0
  0
LINE
  5
274
330
1E
100
AcDbEntity
  8
0
100
AcDbLine
 10
103.6297999999999
 20
254.11
 30
0.0
 11
103.6297999999999
 21
252.1999999999999
 31
0.0
  0
LINE
  5
275
330
1E
100
AcDbEntity
  8
0
100
AcDbLine
 10
103.6297999999999
 20
254.11
 30
0.0
 11
103.6297999999999
 21
255.31
 31
0.0
  0
LINE
  5
276
330
1E
100
AcDbEntity
  8
0
100
AcDbLine
 10
103.6297999999999
 20
252.1999999999999
 30
0.0
 11
103.6297999999999
 21
250.2499999999999
 31
0.0
  0
LINE
  5
277
330
1E
100
AcDbEntity
  8
0
100
AcDbLine
 10
103.6297999999999
 20
252.1999999999999
 30
0.0
 11
103.6297999999999
 21
254.11
 31
0.0
  0
LINE
  5
278
330
1E
100
AcDbEntity
  8
0
100
AcDbLine
 10
103.6297999999999
 20
250.2499999999999
 30
0.0
 11
103.6297999999999
 21
244.5132232193999
 31
0.0
  0
LINE
  5
279
330
1E
100
AcDbEntity
  8
0
100
AcDbLine
 10
103.6297999999999
 20
250.2499999999999
 30
0.0
 11
103.6297999999999
 21
252.1999999999999
 31
0.0
  0
LINE
  5
27A
330
1E
100
AcDbEntity
  8
0
100
AcDbLine
 10
103.6297999999999
 20
259.25
 30
0.0
 11
103.6297999999999
 21
297.25
 31
0.0
  0
LINE
  5
27B
330
1E
100
AcDbEntity
  8
0
100
AcDbLine
 10
103.6297999999999
 20
297.25
 30
0.0
 11
103.8146
 21
299.519
 31
0.0
  0
LINE
  5
27C
330
1E
100
AcDbEntity
  8
0
100
AcDbLine
 10
103.6297999999999
 20
297.25
 30
0.0
 11
103.6297999999999
 21
259.25
 31
0.0
  0
LINE
  5
281
330
1E
100
AcDbEntity
  8
0
100
AcDbLine
 10
103.8146
 20
299.519
 30
0.0
 11
104.3681999999999
 21
301.798
 31
0.0
  0
LINE
  5
283
330
1E
100
AcDbEntity
  8
0
100
AcDbLine
 10
134.9697999999999
 20
244.2499999999999
 30
0.0
 11
136.8648
 21
243.4499999999999
 31
0.0
  0
LINE
  5
285
330
1E
100
AcDbEntity
  8
0
100
AcDbLine
 10
106.0977999999999
 20
293.922
 30
0.0
 11
107.3458
 21
290.802
 31
0.0
  0
LINE
  5
286
330
1E
100
AcDbEntity
  8
0
100
AcDbLine
 10
105.6297999999999
 20
297.25
 30
0.0
 11
106.0977999999999
 21
300.5779999999999
 31
0.0
  0
LINE
  5
287
330
1E
100
AcDbEntity
  8
0
100
AcDbLine
 10
105.6297999999999
 20
297.25
 30
0.0
 11
106.0977999999999
 21
293.922
 31
0.0
  0
LINE
  5
288
330
1E
100
AcDbEntity
  8
0
100
AcDbLine
 10
106.0977999999999
 20
300.5779999999999
 30
0.0
 11
107.3458
 21
303.6979999999999
 31
0.0
  0
LINE
  5
289
330
1E
100
AcDbEntity
  8
0
100
AcDbLine
 10
106.6297999999999
 20
298.2499999999999
 30
0.0
 11
107.0297999999999
 21
301.35
 31
0.0
  0
LINE
  5
28A
330
1E
100
AcDbEntity
  8
0
100
AcDbLine
 10
106.6297999999999
 20
298.2499999999999
 30
0.0
 11
107.0297999999999
 21
295.1499999999999
 31
0.0
  0
LINE
  5
28D
330
1E
100
AcDbEntity
  8
0
100
AcDbLine
 10
106.5648
 20
305.7139999999999
 30
0.0
 11
107.6297999999999
 21
306.679754283326
 31
0.0
  0
LINE
  5
28F
330
1E
100
AcDbEntity
  8
0
100
AcDbLine
 10
105.325
 20
304.144
 30
0.0
 11
106.5648
 21
305.7139999999999
 31
0.0
  0
LINE
  5
290
330
1E
100
AcDbEntity
  8
0
100
AcDbLine
 10
104.3681999999999
 20
301.798
 30
0.0
 11
105.325
 21
304.144
 31
0.0
  0
LINE
  5
292
330
1E
100
AcDbEntity
  8
0
100
AcDbLine
 10
107.0297999999999
 20
295.1499999999999
 30
0.0
 11
108.2297999999999
 21
292.2499999999999
 31
0.0
  0
LINE
  5
293
330
1E
100
AcDbEntity
  8
0
100
AcDbLine
 10
107.3458
 20
290.802
 30
0.0
 11
109.4257999999999
 21
288.0459999999999
 31
0.0
  0
LINE
  5
294
330
1E
100
AcDbEntity
  8
0
100
AcDbLine
 10
107.6297999999999
 20
298.2499999999999
 30
0.0
 11
108.0297999999999
 21
301.05
 31
0.0
  0
LINE
  5
295
330
1E
100
AcDbEntity
  8
0
100
AcDbLine
 10
107.6297999999999
 20
298.2499999999999
 30
0.0
 11
108.0297999999999
 21
295.4499999999999
 31
0.0
  0
LINE
  5
296
330
1E
100
AcDbEntity
  8
0
100
AcDbLine
 10
107.665514285714
 20
298.0
 30
0.0
 11
110.163890909091
 21
298.0
 31
0.0
  0
LINE
  5
297
330
1E
100
AcDbEntity
  8
0
100
AcDbLine
 10
107.665514285714
 20
298.0
 30
0.0
 11
116.3798
 21
298.0
 31
0.0
  0
LINE
  5
298
330
1E
100
AcDbEntity
  8
0
100
AcDbLine
 10
108.0297999999999
 20
295.4499999999999
 30
0.0
 11
109.1298
 21
292.75
 31
0.0
  0
LINE
  5
299
330
1E
100
AcDbEntity
  8
0
100
AcDbLine
 10
108.0297999999999
 20
295.4499999999999
 30
0.0
 11
109.029747087712
 21
292.99558442107
 31
0.0
  0
LINE
  5
29A
330
1E
100
AcDbEntity
  8
0
100
AcDbLine
 10
108.0297999999999
 20
301.05
 30
0.0
 11
109.1298
 21
303.75
 31
0.0
  0
LINE
  5
29B
330
1E
100
AcDbEntity
  8
0
100
AcDbLine
 10
107.665514285714
 20
298.4999999999999
 30
0.0
 11
116.3798
 21
298.4999999999999
 31
0.0
  0
LINE
  5
29C
330
1E
100
AcDbEntity
  8
0
100
AcDbLine
 10
107.5297999999999
 20
295.25
 30
0.0
 11
108.6297999999999
 21
292.5499999999999
 31
0.0
  0
LINE
  5
29D
330
1E
100
AcDbEntity
  8
0
100
AcDbLine
 10
109.4257999999999
 20
288.0459999999999
 30
0.0
 11
112.1817999999999
 21
285.966
 31
0.0
  0
LINE
  5
29E
330
1E
100
AcDbEntity
  8
0
100
AcDbLine
 10
109.1298
 20
292.75
 30
0.0
 11
110.8298
 21
290.45
 31
0.0
  0
LINE
  5
29F
330
1E
100
AcDbEntity
  8
0
100
AcDbLine
 10
109.271222990336
 20
292.5586630130749
 30
0.0
 11
116.8062
 21
296.9089999999999
 31
0.0
  0
LINE
  5
2A0
330
1E
100
AcDbEntity
  8
0
100
AcDbLine
 10
109.029747087712
 20
292.99558442107
 30
0.0
 11
116.5561999999999
 21
297.341
 31
0.0
  0
LINE
  5
2A1
330
1E
100
AcDbEntity
  8
0
100
AcDbLine
 10
109.029747087712
 20
292.99558442107
 30
0.0
 11
111.1596779596009
 21
294.225305100998
 31
0.0
  0
LINE
  5
2A2
330
1E
100
AcDbEntity
  8
0
100
AcDbLine
 10
108.6297999999999
 20
292.5499999999999
 30
0.0
 11
110.5297999999999
 21
290.15
 31
0.0
  0
LINE
  5
2A3
330
1E
100
AcDbEntity
  8
0
100
AcDbLine
 10
108.2297999999999
 20
292.2499999999999
 30
0.0
 11
110.1298
 21
289.7499999999999
 31
0.0
  0
LINE
  5
2A4
330
1E
100
AcDbEntity
  8
0
100
AcDbLine
 10
107.3458
 20
303.6979999999999
 30
0.0
 11
107.6297999999999
 21
305.25
 31
0.0
  0
LINE
  5
2A5
330
1E
100
AcDbEntity
  8
0
100
AcDbLine
 10
109.1298
 20
303.75
 30
0.0
 11
110.8298
 21
306.05
 31
0.0
  0
LINE
  5
2A6
330
1E
100
AcDbEntity
  8
0
100
AcDbLine
 10
109.271723783229
 20
303.942014530251
 30
0.0
 11
111.4236945352309
 21
302.699292973868
 31
0.0
  0
LINE
  5
2A7
330
1E
100
AcDbEntity
  8
0
100
AcDbLine
 10
109.271723783229
 20
303.942014530251
 30
0.0
 11
116.8062
 21
299.591
 31
0.0
  0
LINE
  5
2A8
330
1E
100
AcDbEntity
  8
0
100
AcDbLine
 10
109.271723783229
 20
303.942014530251
 30
0.0
 11
110.8298
 21
306.05
 31
0.0
  0
LINE
  5
2A9
330
1E
100
AcDbEntity
  8
0
100
AcDbLine
 10
109.029428578046
 20
303.503633782476
 30
0.0
 11
116.5561999999999
 21
299.159
 31
0.0
  0
LINE
  5
2AA
330
1E
100
AcDbEntity
  8
0
100
AcDbLine
 10
109.029428578046
 20
303.503633782476
 30
0.0
 11
111.1594529592029
 21
302.274132398007
 31
0.0
  0
LINE
  5
2AB
330
1E
100
AcDbEntity
  8
0
100
AcDbLine
 10
108.6297999999999
 20
303.9499999999999
 30
0.0
 11
110.5297999999999
 21
306.35
 31
0.0
  0
LINE
  5
2AC
330
1E
100
AcDbEntity
  8
0
100
AcDbLine
 10
107.5297999999999
 20
301.25
 30
0.0
 11
108.6297999999999
 21
303.9499999999999
 31
0.0
  0
LINE
  5
2AD
330
1E
100
AcDbEntity
  8
0
100
AcDbLine
 10
107.1298
 20
298.2499999999999
 30
0.0
 11
107.5297999999999
 21
301.25
 31
0.0
  0
LINE
  5
2AE
330
1E
100
AcDbEntity
  8
0
100
AcDbLine
 10
107.1298
 20
298.2499999999999
 30
0.0
 11
107.5297999999999
 21
295.25
 31
0.0
  0
LINE
  5
2AF
330
1E
100
AcDbEntity
  8
0
100
AcDbLine
 10
107.6297999999999
 20
305.25
 30
0.0
 11
107.6297999999999
 21
306.7
 31
0.0
  0
LINE
  5
2B0
330
1E
100
AcDbEntity
  8
0
100
AcDbLine
 10
108.2297999999999
 20
304.2499999999999
 30
0.0
 11
109.8296652243099
 21
306.3550858214609
 31
0.0
  0
LINE
  5
2B1
330
1E
100
AcDbEntity
  8
0
100
AcDbLine
 10
108.2297999999999
 20
304.2499999999999
 30
0.0
 11
110.1298
 21
306.7499999999999
 31
0.0
  0
LINE
  5
2B2
330
1E
100
AcDbEntity
  8
0
100
AcDbLine
 10
107.0297999999999
 20
301.35
 30
0.0
 11
108.2297999999999
 21
304.2499999999999
 31
0.0
  0
LINE
  5
2B3
330
1E
100
AcDbEntity
  8
0
100
AcDbLine
 10
107.6297999999999
 20
307.25
 30
0.0
 11
107.6297999999999
 21
306.7
 31
0.0
  0
LINE
  5
2B4
330
1E
100
AcDbEntity
  8
0
100
AcDbLine
 10
107.6297999999999
 20
307.25
 30
0.0
 11
109.6297999999999
 21
307.25
 31
0.0
  0
LINE
  5
2B5
330
1E
100
AcDbEntity
  8
0
100
AcDbLine
 10
109.442
 20
306.7579999999999
 30
0.0
 11
109.7528999999999
 21
307.049
 31
0.0
  0
LINE
  5
2B6
330
1E
100
AcDbEntity
  8
0
100
AcDbLine
 10
109.442
 20
306.7579999999999
 30
0.0
 11
109.8296652243099
 21
306.3550858214609
 31
0.0
  0
LINE
  5
2B7
330
1E
100
AcDbEntity
  8
0
100
AcDbLine
 10
109.6297999999999
 20
307.25
 30
0.0
 11
109.6297999999999
 21
306.933779350273
 31
0.0
  0
LINE
  5
2B8
330
1E
100
AcDbEntity
  8
0
100
AcDbLine
 10
109.6297999999999
 20
306.562812817904
 30
0.0
 11
109.6297999999999
 21
306.0921052631579
 31
0.0
  0
LINE
  5
2B9
330
1E
100
AcDbEntity
  8
0
100
AcDbLine
 10
109.6297999999999
 20
306.933779350273
 30
0.0
 11
109.6297999999999
 21
307.25
 31
0.0
  0
LINE
  5
2BA
330
1E
100
AcDbEntity
  8
0
100
AcDbLine
 10
109.6297999999999
 20
306.0921052631579
 30
0.0
 11
109.6297999999999
 21
306.562812817904
 31
0.0
  0
LINE
  5
2BB
330
1E
100
AcDbEntity
  8
0
100
AcDbLine
 10
107.6297999999999
 20
306.7
 30
0.0
 11
107.6297999999999
 21
305.25
 31
0.0
  0
LINE
  5
2BC
330
1E
100
AcDbEntity
  8
0
100
AcDbLine
 10
107.6297999999999
 20
306.7
 30
0.0
 11
109.497804893964
 21
306.7
 31
0.0
  0
LINE
  5
2BD
330
1E
100
AcDbEntity
  8
0
100
AcDbLine
 10
107.6297999999999
 20
306.7
 30
0.0
 11
107.6297999999999
 21
307.25
 31
0.0
  0
LINE
  5
2BF
330
1E
100
AcDbEntity
  8
0
100
AcDbLine
 10
133.3298
 20
244.687310676025
 30
0.0
 11
133.3298
 21
297.25
 31
0.0
  0
LINE
  5
2C0
330
1E
100
AcDbEntity
  8
0
100
AcDbLine
 10
146.8737999999999
 20
244.694
 30
0.0
 11
153.1588
 21
243.917
 31
0.0
  0
LINE
  5
2C1
330
1E
100
AcDbEntity
  8
0
100
AcDbLine
 10
132.8745999999999
 20
244.6499999999999
 30
0.0
 11
134.9697999999999
 21
244.2499999999999
 31
0.0
  0
LINE
  5
2C3
330
1E
100
AcDbEntity
  8
0
100
AcDbLine
 10
110.1298
 20
298.2499999999999
 30
0.0
 11
110.4298
 21
300.45
 31
0.0
  0
LINE
  5
2C4
330
1E
100
AcDbEntity
  8
0
100
AcDbLine
 10
110.1298
 20
298.2499999999999
 30
0.0
 11
110.4298
 21
296.05
 31
0.0
  0
LINE
  5
2C5
330
1E
100
AcDbEntity
  8
0
100
AcDbLine
 10
109.7528999999999
 20
307.049
 30
0.0
 11
110.3749
 21
307.6299999999999
 31
0.0
  0
LINE
  5
2C6
330
1E
100
AcDbEntity
  8
0
100
AcDbLine
 10
109.7528999999999
 20
307.049
 30
0.0
 11
110.090428201728
 21
306.6981950022729
 31
0.0
  0
LINE
  5
2C7
330
1E
100
AcDbEntity
  8
0
100
AcDbLine
 10
110.1298
 20
289.7499999999999
 30
0.0
 11
112.6298
 21
287.85
 31
0.0
  0
LINE
  5
2C8
330
1E
100
AcDbEntity
  8
0
100
AcDbLine
 10
110.163890909091
 20
298.0
 30
0.0
 11
110.4298
 21
296.05
 31
0.0
  0
LINE
  5
2C9
330
1E
100
AcDbEntity
  8
0
100
AcDbLine
 10
110.163890909091
 20
298.4999999999999
 30
0.0
 11
110.4298
 21
300.45
 31
0.0
  0
LINE
  5
2CA
330
1E
100
AcDbEntity
  8
0
100
AcDbLine
 10
110.4298
 20
296.05
 30
0.0
 11
111.1596779596009
 21
294.225305100998
 31
0.0
  0
LINE
  5
2CB
330
1E
100
AcDbEntity
  8
0
100
AcDbLine
 10
110.4298
 20
296.05
 30
0.0
 11
111.2298
 21
294.05
 31
0.0
  0
LINE
  5
2CC
330
1E
100
AcDbEntity
  8
0
100
AcDbLine
 10
110.4298
 20
300.45
 30
0.0
 11
111.1594529592029
 21
302.274132398007
 31
0.0
  0
LINE
  5
2CD
330
1E
100
AcDbEntity
  8
0
100
AcDbLine
 10
110.4298
 20
300.45
 30
0.0
 11
111.2298
 21
302.4499999999999
 31
0.0
  0
LINE
  5
2CE
330
1E
100
AcDbEntity
  8
0
100
AcDbLine
 10
110.3749
 20
307.6299999999999
 30
0.0
 11
110.6858
 21
307.92
 31
0.0
  0
LINE
  5
2CF
330
1E
100
AcDbEntity
  8
0
100
AcDbLine
 10
110.3749
 20
307.6299999999999
 30
0.0
 11
110.7604445807199
 21
307.229289881347
 31
0.0
  0
LINE
  5
2D0
330
1E
100
AcDbEntity
  8
0
100
AcDbLine
 10
110.5297999999999
 20
290.15
 30
0.0
 11
112.9298
 21
288.2499999999999
 31
0.0
  0
LINE
  5
2D1
330
1E
100
AcDbEntity
  8
0
100
AcDbLine
 10
112.1817999999999
 20
285.966
 30
0.0
 11
115.3018
 21
284.718
 31
0.0
  0
LINE
  5
2D2
330
1E
100
AcDbEntity
  8
0
100
AcDbLine
 10
110.6298
 20
298.2499999999999
 30
0.0
 11
110.9298
 21
300.35
 31
0.0
  0
LINE
  5
2D3
330
1E
100
AcDbEntity
  8
0
100
AcDbLine
 10
110.6298
 20
298.2499999999999
 30
0.0
 11
110.9298
 21
296.15
 31
0.0
  0
LINE
  5
2D4
330
1E
100
AcDbEntity
  8
0
100
AcDbLine
 10
110.9298
 20
296.15
 30
0.0
 11
111.7297999999999
 21
294.2499999999999
 31
0.0
  0
LINE
  5
2D5
330
1E
100
AcDbEntity
  8
0
100
AcDbLine
 10
110.9298
 20
296.15
 30
0.0
 11
111.62667327815
 21
294.494925964393
 31
0.0
  0
LINE
  5
2D6
330
1E
100
AcDbEntity
  8
0
100
AcDbLine
 10
111.2298
 20
294.05
 30
0.0
 11
112.6298
 21
292.2499999999999
 31
0.0
  0
LINE
  5
2D7
330
1E
100
AcDbEntity
  8
0
100
AcDbLine
 10
110.8298
 20
290.45
 30
0.0
 11
113.1298
 21
288.75
 31
0.0
  0
LINE
  5
2D8
330
1E
100
AcDbEntity
  8
0
100
AcDbLine
 10
110.9298
 20
300.35
 30
0.0
 11
111.7297999999999
 21
302.2499999999999
 31
0.0
  0
LINE
  5
2D9
330
1E
100
AcDbEntity
  8
0
100
AcDbLine
 10
110.9298
 20
300.35
 30
0.0
 11
111.6264590461409
 21
302.004565234586
 31
0.0
  0
LINE
  5
2DA
330
1E
100
AcDbEntity
  8
0
100
AcDbLine
 10
111.7297999999999
 20
294.2499999999999
 30
0.0
 11
113.0298
 21
292.6499999999999
 31
0.0
  0
LINE
  5
2DB
330
1E
100
AcDbEntity
  8
0
100
AcDbLine
 10
112.6298
 20
292.2499999999999
 30
0.0
 11
114.1807428900299
 21
291.0437110855319
 31
0.0
  0
LINE
  5
2DC
330
1E
100
AcDbEntity
  8
0
100
AcDbLine
 10
112.6298
 20
292.2499999999999
 30
0.0
 11
114.4298
 21
290.85
 31
0.0
  0
LINE
  5
2DD
330
1E
100
AcDbEntity
  8
0
100
AcDbLine
 10
111.62667327815
 20
294.494925964393
 30
0.0
 11
113.761533589287
 21
295.727492667854
 31
0.0
  0
LINE
  5
2DE
330
1E
100
AcDbEntity
  8
0
100
AcDbLine
 10
111.7297999999999
 20
302.2499999999999
 30
0.0
 11
113.0298
 21
303.85
 31
0.0
  0
LINE
  5
2DF
330
1E
100
AcDbEntity
  8
0
100
AcDbLine
 10
110.8298
 20
306.05
 30
0.0
 11
113.1298
 21
307.75
 31
0.0
  0
LINE
  5
2E0
330
1E
100
AcDbEntity
  8
0
100
AcDbLine
 10
111.2298
 20
302.4499999999999
 30
0.0
 11
112.6298
 21
304.2499999999999
 31
0.0
  0
LINE
  5
2E1
330
1E
100
AcDbEntity
  8
0
100
AcDbLine
 10
112.6298
 20
304.2499999999999
 30
0.0
 11
114.1807428900299
 21
305.456288914468
 31
0.0
  0
LINE
  5
2E2
330
1E
100
AcDbEntity
  8
0
100
AcDbLine
 10
112.6298
 20
304.2499999999999
 30
0.0
 11
114.4298
 21
305.6499999999999
 31
0.0
  0
LINE
  5
2E3
330
1E
100
AcDbEntity
  8
0
100
AcDbLine
 10
112.6298
 20
304.2499999999999
 30
0.0
 11
114.1807428900299
 21
305.456288914468
 31
0.0
  0
LINE
  5
2E4
330
1E
100
AcDbEntity
  8
0
100
AcDbLine
 10
111.8805109030549
 20
302.435490342222
 30
0.0
 11
114.018103792765
 21
301.2010717236869
 31
0.0
  0
LINE
  5
2E5
330
1E
100
AcDbEntity
  8
0
100
AcDbLine
 10
111.8805109030549
 20
302.435490342222
 30
0.0
 11
113.0298
 21
303.85
 31
0.0
  0
LINE
  5
2E6
330
1E
100
AcDbEntity
  8
0
100
AcDbLine
 10
111.6264590461409
 20
302.004565234586
 30
0.0
 11
113.7614207369429
 21
300.772213916052
 31
0.0
  0
LINE
  5
2E7
330
1E
100
AcDbEntity
  8
0
100
AcDbLine
 10
110.665514285714
 20
298.0
 30
0.0
 11
113.1655142857139
 21
298.0
 31
0.0
  0
LINE
  5
2E8
330
1E
100
AcDbEntity
  8
0
100
AcDbLine
 10
110.6858
 20
307.92
 30
0.0
 11
111.1011978259559
 21
307.488262347727
 31
0.0
  0
LINE
  5
2E9
330
1E
100
AcDbEntity
  8
0
100
AcDbLine
 10
113.0298
 20
292.6499999999999
 30
0.0
 11
114.6298
 21
291.35
 31
0.0
  0
LINE
  5
2EA
330
1E
100
AcDbEntity
  8
0
100
AcDbLine
 10
113.1298
 20
288.75
 30
0.0
 11
115.8298
 21
287.6499999999999
 31
0.0
  0
LINE
  5
2EB
330
1E
100
AcDbEntity
  8
0
100
AcDbLine
 10
113.1655142857139
 20
298.0
 30
0.0
 11
113.3298
 21
296.85
 31
0.0
  0
LINE
  5
2EC
330
1E
100
AcDbEntity
  8
0
100
AcDbLine
 10
113.1298
 20
298.2499999999999
 30
0.0
 11
113.3298
 21
299.6499999999999
 31
0.0
  0
LINE
  5
2ED
330
1E
100
AcDbEntity
  8
0
100
AcDbLine
 10
113.1298
 20
298.2499999999999
 30
0.0
 11
113.3298
 21
296.85
 31
0.0
  0
LINE
  5
2EE
330
1E
100
AcDbEntity
  8
0
100
AcDbLine
 10
113.0298
 20
303.85
 30
0.0
 11
114.6298
 21
305.1499999999999
 31
0.0
  0
LINE
  5
2EF
330
1E
100
AcDbEntity
  8
0
100
AcDbLine
 10
113.1655142857139
 20
298.4999999999999
 30
0.0
 11
113.3298
 21
299.6499999999999
 31
0.0
  0
LINE
  5
2F0
330
1E
100
AcDbEntity
  8
0
100
AcDbLine
 10
112.938196192554
 20
288.891620205504
 30
0.0
 11
117.2883
 21
296.4259999999999
 31
0.0
  0
LINE
  5
2F1
330
1E
100
AcDbEntity
  8
0
100
AcDbLine
 10
112.938196192554
 20
288.891620205504
 30
0.0
 11
114.1807428900299
 21
291.0437110855319
 31
0.0
  0
LINE
  5
2F2
330
1E
100
AcDbEntity
  8
0
100
AcDbLine
 10
113.1298
 20
307.75
 30
0.0
 11
115.8298
 21
308.85
 31
0.0
  0
LINE
  5
2F3
330
1E
100
AcDbEntity
  8
0
100
AcDbLine
 10
112.938196192554
 20
307.608379794496
 30
0.0
 11
117.2883
 21
300.074
 31
0.0
  0
LINE
  5
2F4
330
1E
100
AcDbEntity
  8
0
100
AcDbLine
 10
112.938196192554
 20
307.608379794496
 30
0.0
 11
114.1807428900299
 21
305.456288914468
 31
0.0
  0
LINE
  5
2F5
330
1E
100
AcDbEntity
  8
0
100
AcDbLine
 10
112.9298
 20
288.2499999999999
 30
0.0
 11
115.6298
 21
287.1499999999999
 31
0.0
  0
LINE
  5
2F6
330
1E
100
AcDbEntity
  8
0
100
AcDbLine
 10
112.6298
 20
287.85
 30
0.0
 11
115.5297999999999
 21
286.6499999999999
 31
0.0
  0
LINE
  5
2F7
330
1E
100
AcDbEntity
  8
0
100
AcDbLine
 10
110.5297999999999
 20
306.35
 30
0.0
 11
112.9298
 21
308.25
 31
0.0
  0
LINE
  5
2F8
330
1E
100
AcDbEntity
  8
0
100
AcDbLine
 10
112.9298
 20
308.25
 30
0.0
 11
115.6298
 21
309.35
 31
0.0
  0
LINE
  5
2F9
330
1E
100
AcDbEntity
  8
0
100
AcDbLine
 10
110.1298
 20
306.7499999999999
 30
0.0
 11
112.6298
 21
308.65
 31
0.0
  0
LINE
  5
2FA
330
1E
100
AcDbEntity
  8
0
100
AcDbLine
 10
112.9424999999999
 20
309.487
 30
0.0
 11
113.182429268715
 21
308.8786741801579
 31
0.0
  0
LINE
  5
2FB
330
1E
100
AcDbEntity
  8
0
100
AcDbLine
 10
112.9424999999999
 20
309.487
 30
0.0
 11
113.342
 21
309.64
 31
0.0
  0
LINE
  5
2FC
330
1E
100
AcDbEntity
  8
0
100
AcDbLine
 10
112.6298
 20
308.65
 30
0.0
 11
113.182429268715
 21
308.8786741801579
 31
0.0
  0
LINE
  5
2FD
330
1E
100
AcDbEntity
  8
0
100
AcDbLine
 10
112.6298
 20
308.65
 30
0.0
 11
115.5297999999999
 21
309.85
 31
0.0
  0
LINE
  5
2FF
330
1E
100
AcDbEntity
  8
0
100
AcDbLine
 10
115.3018
 20
284.718
 30
0.0
 11
118.6298
 21
284.25
 31
0.0
  0
LINE
  5
300
330
1E
100
AcDbEntity
  8
0
100
AcDbLine
 10
113.3298
 20
296.85
 30
0.0
 11
113.761533589287
 21
295.727492667854
 31
0.0
  0
LINE
  5
301
330
1E
100
AcDbEntity
  8
0
100
AcDbLine
 10
113.3298
 20
296.85
 30
0.0
 11
113.8298
 21
295.55
 31
0.0
  0
LINE
  5
302
330
1E
100
AcDbEntity
  8
0
100
AcDbLine
 10
113.6298
 20
298.2499999999999
 30
0.0
 11
113.8298
 21
299.55
 31
0.0
  0
LINE
  5
303
330
1E
100
AcDbEntity
  8
0
100
AcDbLine
 10
113.6298
 20
298.2499999999999
 30
0.0
 11
113.8298
 21
296.95
 31
0.0
  0
LINE
  5
304
330
1E
100
AcDbEntity
  8
0
100
AcDbLine
 10
113.3298
 20
299.6499999999999
 30
0.0
 11
113.7614207369429
 21
300.772213916052
 31
0.0
  0
LINE
  5
305
330
1E
100
AcDbEntity
  8
0
100
AcDbLine
 10
113.3298
 20
299.6499999999999
 30
0.0
 11
113.8298
 21
300.95
 31
0.0
  0
LINE
  5
306
330
1E
100
AcDbEntity
  8
0
100
AcDbLine
 10
113.375885901253
 20
288.649742780971
 30
0.0
 11
117.7213
 21
296.1759999999999
 31
0.0
  0
LINE
  5
307
330
1E
100
AcDbEntity
  8
0
100
AcDbLine
 10
113.375885901253
 20
288.649742780971
 30
0.0
 11
115.8298
 21
287.6499999999999
 31
0.0
  0
LINE
  5
308
330
1E
100
AcDbEntity
  8
0
100
AcDbLine
 10
113.8298
 20
296.95
 30
0.0
 11
114.3298
 21
295.7499999999999
 31
0.0
  0
LINE
  5
309
330
1E
100
AcDbEntity
  8
0
100
AcDbLine
 10
113.8298
 20
295.55
 30
0.0
 11
114.7297999999999
 21
294.35
 31
0.0
  0
LINE
  5
30A
330
1E
100
AcDbEntity
  8
0
100
AcDbLine
 10
114.017916575046
 20
295.299177899939
 30
0.0
 11
114.7297999999999
 21
294.35
 31
0.0
  0
LINE
  5
30B
330
1E
100
AcDbEntity
  8
0
100
AcDbLine
 10
113.8298
 20
299.55
 30
0.0
 11
114.3298
 21
300.75
 31
0.0
  0
LINE
  5
30C
330
1E
100
AcDbEntity
  8
0
100
AcDbLine
 10
114.4298
 20
290.85
 30
0.0
 11
116.4298
 21
290.05
 31
0.0
  0
LINE
  5
30D
330
1E
100
AcDbEntity
  8
0
100
AcDbLine
 10
114.6298
 20
291.35
 30
0.0
 11
116.5297999999999
 21
290.5499999999999
 31
0.0
  0
LINE
  5
30E
330
1E
100
AcDbEntity
  8
0
100
AcDbLine
 10
114.605633958724
 20
290.77966641651
 30
0.0
 11
116.4298
 21
290.05
 31
0.0
  0
LINE
  5
30F
330
1E
100
AcDbEntity
  8
0
100
AcDbLine
 10
114.3298
 20
295.7499999999999
 30
0.0
 11
115.1298
 21
294.75
 31
0.0
  0
LINE
  5
310
330
1E
100
AcDbEntity
  8
0
100
AcDbLine
 10
115.1298
 20
294.75
 30
0.0
 11
116.1298
 21
293.9499999999999
 31
0.0
  0
LINE
  5
311
330
1E
100
AcDbEntity
  8
0
100
AcDbLine
 10
114.7297999999999
 20
294.35
 30
0.0
 11
115.9297999999999
 21
293.4499999999999
 31
0.0
  0
LINE
  5
312
330
1E
100
AcDbEntity
  8
0
100
AcDbLine
 10
114.444507015131
 20
291.500550550206
 30
0.0
 11
115.678761321515
 21
293.6382790088639
 31
0.0
  0
LINE
  5
313
330
1E
100
AcDbEntity
  8
0
100
AcDbLine
 10
114.2271643028029
 20
295.996325673272
 30
0.0
 11
116.368854743819
 21
297.232835768544
 31
0.0
  0
LINE
  5
314
330
1E
100
AcDbEntity
  8
0
100
AcDbLine
 10
114.2271643028029
 20
295.996325673272
 30
0.0
 11
116.368854743819
 21
297.232835768544
 31
0.0
  0
LINE
  5
315
330
1E
100
AcDbEntity
  8
0
100
AcDbLine
 10
114.3298
 20
300.75
 30
0.0
 11
115.1298
 21
301.75
 31
0.0
  0
LINE
  5
316
330
1E
100
AcDbEntity
  8
0
100
AcDbLine
 10
113.8298
 20
300.95
 30
0.0
 11
114.7297999999999
 21
302.1499999999999
 31
0.0
  0
LINE
  5
317
330
1E
100
AcDbEntity
  8
0
100
AcDbLine
 10
114.018103792765
 20
301.2010717236869
 30
0.0
 11
114.7297999999999
 21
302.1499999999999
 31
0.0
  0
LINE
  5
318
330
1E
100
AcDbEntity
  8
0
100
AcDbLine
 10
115.1298
 20
301.75
 30
0.0
 11
116.1298
 21
302.55
 31
0.0
  0
LINE
  5
319
330
1E
100
AcDbEntity
  8
0
100
AcDbLine
 10
114.7297999999999
 20
302.1499999999999
 30
0.0
 11
115.9297999999999
 21
303.0499999999999
 31
0.0
  0
LINE
  5
31A
330
1E
100
AcDbEntity
  8
0
100
AcDbLine
 10
114.478131626152
 20
300.9354145326899
 30
0.0
 11
116.602299187886
 21
299.708748781828
 31
0.0
  0
LINE
  5
31B
330
1E
100
AcDbEntity
  8
0
100
AcDbLine
 10
114.2270639353109
 20
300.503433444746
 30
0.0
 11
116.368848024504
 21
299.267144073511
 31
0.0
  0
LINE
  5
31C
330
1E
100
AcDbEntity
  8
0
100
AcDbLine
 10
113.668261538462
 20
298.0
 30
0.0
 11
116.171466666667
 21
298.0
 31
0.0
  0
LINE
  5
31D
330
1E
100
AcDbEntity
  8
0
100
AcDbLine
 10
114.6298
 20
305.1499999999999
 30
0.0
 11
116.5297999999999
 21
305.9499999999999
 31
0.0
  0
LINE
  5
31E
330
1E
100
AcDbEntity
  8
0
100
AcDbLine
 10
114.4298
 20
305.6499999999999
 30
0.0
 11
116.4298
 21
306.4499999999999
 31
0.0
  0
LINE
  5
31F
330
1E
100
AcDbEntity
  8
0
100
AcDbLine
 10
113.375885901253
 20
307.850257219029
 30
0.0
 11
117.7213
 21
300.324
 31
0.0
  0
LINE
  5
320
330
1E
100
AcDbEntity
  8
0
100
AcDbLine
 10
113.375885901253
 20
307.850257219029
 30
0.0
 11
115.8298
 21
308.85
 31
0.0
  0
LINE
  5
321
330
1E
100
AcDbEntity
  8
0
100
AcDbLine
 10
114.444507015131
 20
304.9994494497939
 30
0.0
 11
115.678761321515
 21
302.8617209911359
 31
0.0
  0
LINE
  5
322
330
1E
100
AcDbEntity
  8
0
100
AcDbLine
 10
115.6298
 20
287.1499999999999
 30
0.0
 11
118.6298
 21
286.75
 31
0.0
  0
LINE
  5
323
330
1E
100
AcDbEntity
  8
0
100
AcDbLine
 10
115.5297999999999
 20
286.6499999999999
 30
0.0
 11
118.6298
 21
286.25
 31
0.0
  0
LINE
  5
324
330
1E
100
AcDbEntity
  8
0
100
AcDbLine
 10
115.9297999999999
 20
293.4499999999999
 30
0.0
 11
117.2298
 21
292.9499999999999
 31
0.0
  0
LINE
  5
325
330
1E
100
AcDbEntity
  8
0
100
AcDbLine
 10
115.8298
 20
287.6499999999999
 30
0.0
 11
118.6298
 21
287.25
 31
0.0
  0
LINE
  5
326
330
1E
100
AcDbEntity
  8
0
100
AcDbLine
 10
116.1298
 20
293.9499999999999
 30
0.0
 11
117.3298
 21
293.4499999999999
 31
0.0
  0
LINE
  5
327
330
1E
100
AcDbEntity
  8
0
100
AcDbLine
 10
116.2298
 20
297.6499999999999
 30
0.0
 11
116.368854743819
 21
297.232835768544
 31
0.0
  0
LINE
  5
328
330
1E
100
AcDbEntity
  8
0
100
AcDbLine
 10
116.2298
 20
297.6499999999999
 30
0.0
 11
116.4298
 21
297.05
 31
0.0
  0
LINE
  5
329
330
1E
100
AcDbEntity
  8
0
100
AcDbLine
 10
116.171466666667
 20
298.0
 30
0.0
 11
116.2298
 21
297.6499999999999
 31
0.0
  0
LINE
  5
32A
330
1E
100
AcDbEntity
  8
0
100
AcDbLine
 10
116.1298
 20
298.2499999999999
 30
0.0
 11
116.2298
 21
298.85
 31
0.0
  0
LINE
  5
32B
330
1E
100
AcDbEntity
  8
0
100
AcDbLine
 10
116.1298
 20
298.2499999999999
 30
0.0
 11
116.2298
 21
297.6499999999999
 31
0.0
  0
LINE
  5
32C
330
1E
100
AcDbEntity
  8
0
100
AcDbLine
 10
116.2298
 20
298.85
 30
0.0
 11
116.368848024504
 21
299.267144073511
 31
0.0
  0
LINE
  5
32D
330
1E
100
AcDbEntity
  8
0
100
AcDbLine
 10
116.2298
 20
298.85
 30
0.0
 11
116.4298
 21
299.45
 31
0.0
  0
LINE
  5
32E
330
1E
100
AcDbEntity
  8
0
100
AcDbLine
 10
116.171466666667
 20
298.4999999999999
 30
0.0
 11
116.2298
 21
298.85
 31
0.0
  0
LINE
  5
32F
330
1E
100
AcDbEntity
  8
0
100
AcDbLine
 10
115.9443821484989
 20
294.098334281201
 30
0.0
 11
117.170873652029
 21
296.222617565314
 31
0.0
  0
LINE
  5
330
330
1E
100
AcDbEntity
  8
0
100
AcDbLine
 10
116.1298
 20
302.55
 30
0.0
 11
117.3298
 21
303.0499999999999
 31
0.0
  0
LINE
  5
331
330
1E
100
AcDbEntity
  8
0
100
AcDbLine
 10
115.9297999999999
 20
303.0499999999999
 30
0.0
 11
117.2298
 21
303.55
 31
0.0
  0
LINE
  5
332
330
1E
100
AcDbEntity
  8
0
100
AcDbLine
 10
116.107856912342
 20
303.1184834278239
 30
0.0
 11
117.2298
 21
303.55
 31
0.0
  0
LINE
  5
333
330
1E
100
AcDbEntity
  8
0
100
AcDbLine
 10
115.8298
 20
308.85
 30
0.0
 11
118.6298
 21
309.25
 31
0.0
  0
LINE
  5
334
330
1E
100
AcDbEntity
  8
0
100
AcDbLine
 10
115.9443821484989
 20
302.4016657187989
 30
0.0
 11
117.170873652029
 21
300.277382434686
 31
0.0
  0
LINE
  5
335
330
1E
100
AcDbEntity
  8
0
100
AcDbLine
 10
115.6298
 20
309.35
 30
0.0
 11
118.6298
 21
309.75
 31
0.0
  0
LINE
  5
336
330
1E
100
AcDbEntity
  8
0
100
AcDbLine
 10
113.342
 20
309.64
 30
0.0
 11
114.141
 21
309.9459999999999
 31
0.0
  0
LINE
  5
337
330
1E
100
AcDbEntity
  8
0
100
AcDbLine
 10
113.342
 20
309.64
 30
0.0
 11
113.5777551827269
 21
309.04225731699
 31
0.0
  0
LINE
  5
338
330
1E
100
AcDbEntity
  8
0
100
AcDbLine
 10
114.5405
 20
310.0989999999999
 30
0.0
 11
114.763489338069
 21
309.532905932994
 31
0.0
  0
LINE
  5
339
330
1E
100
AcDbEntity
  8
0
100
AcDbLine
 10
114.141
 20
309.9459999999999
 30
0.0
 11
114.5405
 21
310.0989999999999
 31
0.0
  0
LINE
  5
33A
330
1E
100
AcDbEntity
  8
0
100
AcDbLine
 10
114.141
 20
309.9459999999999
 30
0.0
 11
114.3681588693899
 21
309.369320911472
 31
0.0
  0
LINE
  5
33B
330
1E
100
AcDbEntity
  8
0
100
AcDbLine
 10
115.5297999999999
 20
309.85
 30
0.0
 11
118.6298
 21
310.25
 31
0.0
  0
LINE
  5
33C
330
1E
100
AcDbEntity
  8
0
100
AcDbLine
 10
114.763489338069
 20
309.532905932994
 30
0.0
 11
115.5297999999999
 21
309.85
 31
0.0
  0
LINE
  5
33D
330
1E
100
AcDbEntity
  8
0
100
AcDbLine
 10
130.5803
 20
244.9
 30
0.0
 11
132.8745999999999
 21
244.6499999999999
 31
0.0
  0
LINE
  5
340
330
1E
100
AcDbEntity
  8
0
100
AcDbLine
 10
118.5961999999999
 20
245.25
 30
0.0
 11
118.9703140921469
 21
245.25
 31
0.0
  0
LINE
  5
341
330
1E
100
AcDbEntity
  8
0
100
AcDbLine
 10
118.6298
 20
284.25
 30
0.0
 11
121.9578
 21
284.718
 31
0.0
  0
LINE
  5
342
330
1E
100
AcDbEntity
  8
0
100
AcDbLine
 10
116.4298
 20
297.05
 30
0.0
 11
116.8298
 21
296.45
 31
0.0
  0
LINE
  5
343
330
1E
100
AcDbEntity
  8
0
100
AcDbLine
 10
116.6022865946529
 20
296.791270108021
 30
0.0
 11
116.8298
 21
296.45
 31
0.0
  0
LINE
  5
344
330
1E
100
AcDbEntity
  8
0
100
AcDbLine
 10
116.9297999999999
 20
297.25
 30
0.0
 11
117.2298
 21
296.85
 31
0.0
  0
LINE
  5
345
330
1E
100
AcDbEntity
  8
0
100
AcDbLine
 10
117.2298
 20
296.85
 30
0.0
 11
117.6298
 21
296.55
 31
0.0
  0
LINE
  5
346
330
1E
100
AcDbEntity
  8
0
100
AcDbLine
 10
116.8298
 20
296.45
 30
0.0
 11
117.170873652029
 21
296.222617565314
 31
0.0
  0
LINE
  5
347
330
1E
100
AcDbEntity
  8
0
100
AcDbLine
 10
116.8298
 20
296.45
 30
0.0
 11
117.4298
 21
296.05
 31
0.0
  0
LINE
  5
348
330
1E
100
AcDbEntity
  8
0
100
AcDbLine
 10
117.2298
 20
292.9499999999999
 30
0.0
 11
118.3798
 21
292.7857142857139
 31
0.0
  0
LINE
  5
349
330
1E
100
AcDbEntity
  8
0
100
AcDbLine
 10
117.2298
 20
292.9499999999999
 30
0.0
 11
118.6298
 21
292.75
 31
0.0
  0
LINE
  5
34A
330
1E
100
AcDbEntity
  8
0
100
AcDbLine
 10
116.5297999999999
 20
290.5499999999999
 30
0.0
 11
118.6298
 21
290.2499999999999
 31
0.0
  0
LINE
  5
34B
330
1E
100
AcDbEntity
  8
0
100
AcDbLine
 10
116.5297999999999
 20
290.5499999999999
 30
0.0
 11
118.3798
 21
290.285714285714
 31
0.0
  0
LINE
  5
34C
330
1E
100
AcDbEntity
  8
0
100
AcDbLine
 10
116.4298
 20
290.05
 30
0.0
 11
118.3798
 21
289.7840909090909
 31
0.0
  0
LINE
  5
34D
330
1E
100
AcDbEntity
  8
0
100
AcDbLine
 10
116.4298
 20
290.05
 30
0.0
 11
118.6298
 21
289.7499999999999
 31
0.0
  0
LINE
  5
34E
330
1E
100
AcDbEntity
  8
0
100
AcDbLine
 10
117.2883
 20
296.4259999999999
 30
0.0
 11
117.7213
 21
296.1759999999999
 31
0.0
  0
LINE
  5
34F
330
1E
100
AcDbEntity
  8
0
100
AcDbLine
 10
116.7297999999999
 20
297.75
 30
0.0
 11
116.9297999999999
 21
297.25
 31
0.0
  0
LINE
  5
350
330
1E
100
AcDbEntity
  8
0
100
AcDbLine
 10
116.6298
 20
298.2499999999999
 30
0.0
 11
116.7297999999999
 21
298.75
 31
0.0
  0
LINE
  5
351
330
1E
100
AcDbEntity
  8
0
100
AcDbLine
 10
116.6298
 20
298.2499999999999
 30
0.0
 11
116.7297999999999
 21
297.75
 31
0.0
  0
LINE
  5
352
330
1E
100
AcDbEntity
  8
0
100
AcDbLine
 10
116.5561999999999
 20
297.341
 30
0.0
 11
116.8062
 21
296.9089999999999
 31
0.0
  0
LINE
  5
353
330
1E
100
AcDbEntity
  8
0
100
AcDbLine
 10
116.3798
 20
298.0
 30
0.0
 11
116.3798
 21
298.4999999999999
 31
0.0
  0
LINE
  5
354
330
1E
100
AcDbEntity
  8
0
100
AcDbLine
 10
116.4298
 20
306.4499999999999
 30
0.0
 11
118.6298
 21
306.7499999999999
 31
0.0
  0
LINE
  5
355
330
1E
100
AcDbEntity
  8
0
100
AcDbLine
 10
116.5297999999999
 20
305.9499999999999
 30
0.0
 11
118.6298
 21
306.25
 31
0.0
  0
LINE
  5
356
330
1E
100
AcDbEntity
  8
0
100
AcDbLine
 10
116.5297999999999
 20
305.9499999999999
 30
0.0
 11
118.3798
 21
306.2142857142859
 31
0.0
  0
LINE
  5
357
330
1E
100
AcDbEntity
  8
0
100
AcDbLine
 10
116.4298
 20
299.45
 30
0.0
 11
116.8298
 21
300.05
 31
0.0
  0
LINE
  5
358
330
1E
100
AcDbEntity
  8
0
100
AcDbLine
 10
117.2298
 20
299.6499999999999
 30
0.0
 11
117.6298
 21
299.9499999999999
 31
0.0
  0
LINE
  5
359
330
1E
100
AcDbEntity
  8
0
100
AcDbLine
 10
116.9297999999999
 20
299.25
 30
0.0
 11
117.2298
 21
299.6499999999999
 31
0.0
  0
LINE
  5
35A
330
1E
100
AcDbEntity
  8
0
100
AcDbLine
 10
116.7297999999999
 20
298.75
 30
0.0
 11
116.9297999999999
 21
299.25
 31
0.0
  0
LINE
  5
35B
330
1E
100
AcDbEntity
  8
0
100
AcDbLine
 10
116.8298
 20
300.05
 30
0.0
 11
117.170873652029
 21
300.277382434686
 31
0.0
  0
LINE
  5
35C
330
1E
100
AcDbEntity
  8
0
100
AcDbLine
 10
116.8298
 20
300.05
 30
0.0
 11
117.4298
 21
300.45
 31
0.0
  0
LINE
  5
35D
330
1E
100
AcDbEntity
  8
0
100
AcDbLine
 10
117.2298
 20
303.55
 30
0.0
 11
118.3798
 21
303.714285714286
 31
0.0
  0
LINE
  5
35E
330
1E
100
AcDbEntity
  8
0
100
AcDbLine
 10
117.2298
 20
303.55
 30
0.0
 11
118.6298
 21
303.75
 31
0.0
  0
LINE
  5
35F
330
1E
100
AcDbEntity
  8
0
100
AcDbLine
 10
116.602299187886
 20
299.708748781828
 30
0.0
 11
116.8298
 21
300.05
 31
0.0
  0
LINE
  5
360
330
1E
100
AcDbEntity
  8
0
100
AcDbLine
 10
116.5561999999999
 20
299.159
 30
0.0
 11
116.8062
 21
299.591
 31
0.0
  0
LINE
  5
361
330
1E
100
AcDbEntity
  8
0
100
AcDbLine
 10
116.3798
 20
298.4999999999999
 30
0.0
 11
116.3798
 21
298.0
 31
0.0
  0
LINE
  5
362
330
1E
100
AcDbEntity
  8
0
100
AcDbLine
 10
117.613246417043
 20
295.988851194319
 30
0.0
 11
118.0298
 21
295.85
 31
0.0
  0
LINE
  5
363
330
1E
100
AcDbEntity
  8
0
100
AcDbLine
 10
118.0298
 20
295.85
 30
0.0
 11
118.3798
 21
295.7916666666669
 31
0.0
  0
LINE
  5
364
330
1E
100
AcDbEntity
  8
0
100
AcDbLine
 10
118.0298
 20
295.85
 30
0.0
 11
118.6298
 21
295.7499999999999
 31
0.0
  0
LINE
  5
365
330
1E
100
AcDbEntity
  8
0
100
AcDbLine
 10
117.3298
 20
293.4499999999999
 30
0.0
 11
118.6298
 21
293.25
 31
0.0
  0
LINE
  5
366
330
1E
100
AcDbEntity
  8
0
100
AcDbLine
 10
118.3798
 20
293.288461538462
 30
0.0
 11
118.3798
 21
295.7916666666669
 31
0.0
  0
LINE
  5
367
330
1E
100
AcDbEntity
  8
0
100
AcDbLine
 10
118.3798
 20
290.285714285714
 30
0.0
 11
118.3798
 21
292.7857142857139
 31
0.0
  0
LINE
  5
368
330
1E
100
AcDbEntity
  8
0
100
AcDbLine
 10
117.4298
 20
296.05
 30
0.0
 11
118.0298
 21
295.85
 31
0.0
  0
LINE
  5
369
330
1E
100
AcDbEntity
  8
0
100
AcDbLine
 10
117.4298
 20
300.45
 30
0.0
 11
118.0298
 21
300.6499999999999
 31
0.0
  0
LINE
  5
36A
330
1E
100
AcDbEntity
  8
0
100
AcDbLine
 10
117.6298
 20
296.55
 30
0.0
 11
118.1297999999999
 21
296.35
 31
0.0
  0
LINE
  5
36B
330
1E
100
AcDbEntity
  8
0
100
AcDbLine
 10
118.1297999999999
 20
296.35
 30
0.0
 11
118.6298
 21
296.25
 31
0.0
  0
LINE
  5
36C
330
1E
100
AcDbEntity
  8
0
100
AcDbLine
 10
117.6298
 20
299.9499999999999
 30
0.0
 11
118.1297999999999
 21
300.15
 31
0.0
  0
LINE
  5
36D
330
1E
100
AcDbEntity
  8
0
100
AcDbLine
 10
118.1297999999999
 20
300.15
 30
0.0
 11
118.6298
 21
300.2499999999999
 31
0.0
  0
LINE
  5
36E
330
1E
100
AcDbEntity
  8
0
100
AcDbLine
 10
118.0298
 20
300.6499999999999
 30
0.0
 11
118.6298
 21
300.75
 31
0.0
  0
LINE
  5
36F
330
1E
100
AcDbEntity
  8
0
100
AcDbLine
 10
117.613246417043
 20
300.5111488056809
 30
0.0
 11
118.0298
 21
300.6499999999999
 31
0.0
  0
LINE
  5
370
330
1E
100
AcDbEntity
  8
0
100
AcDbLine
 10
118.3798
 20
296.0
 30
0.0
 11
118.8798
 21
296.0
 31
0.0
  0
LINE
  5
371
330
1E
100
AcDbEntity
  8
0
100
AcDbLine
 10
118.3798
 20
296.0
 30
0.0
 11
118.3798
 21
287.285714285714
 31
0.0
  0
LINE
  5
372
330
1E
100
AcDbEntity
  8
0
100
AcDbLine
 10
118.3798
 20
292.7857142857139
 30
0.0
 11
118.3798
 21
290.285714285714
 31
0.0
  0
LINE
  5
373
330
1E
100
AcDbEntity
  8
0
100
AcDbLine
 10
118.3798
 20
289.7840909090909
 30
0.0
 11
118.3798
 21
287.285714285714
 31
0.0
  0
LINE
  5
374
330
1E
100
AcDbEntity
  8
0
100
AcDbLine
 10
118.3798
 20
295.7916666666669
 30
0.0
 11
118.3798
 21
293.288461538462
 31
0.0
  0
LINE
  5
375
330
1E
100
AcDbEntity
  8
0
100
AcDbLine
 10
118.3798
 20
287.285714285714
 30
0.0
 11
118.3798
 21
296.0
 31
0.0
  0
LINE
  5
376
330
1E
100
AcDbEntity
  8
0
100
AcDbLine
 10
118.3798
 20
287.285714285714
 30
0.0
 11
118.3798
 21
289.7840909090909
 31
0.0
  0
LINE
  5
377
330
1E
100
AcDbEntity
  8
0
100
AcDbLine
 10
118.6298
 20
296.25
 30
0.0
 11
119.1297999999999
 21
296.35
 31
0.0
  0
LINE
  5
378
330
1E
100
AcDbEntity
  8
0
100
AcDbLine
 10
118.6298
 20
295.7499999999999
 30
0.0
 11
119.2298
 21
295.85
 31
0.0
  0
LINE
  5
379
330
1E
100
AcDbEntity
  8
0
100
AcDbLine
 10
118.6298
 20
293.25
 30
0.0
 11
119.9297999999999
 21
293.4499999999999
 31
0.0
  0
LINE
  5
37A
330
1E
100
AcDbEntity
  8
0
100
AcDbLine
 10
118.6298
 20
292.75
 30
0.0
 11
120.0297999999999
 21
292.9499999999999
 31
0.0
  0
LINE
  5
37B
330
1E
100
AcDbEntity
  8
0
100
AcDbLine
 10
118.6298
 20
290.2499999999999
 30
0.0
 11
120.7297999999999
 21
290.5499999999999
 31
0.0
  0
LINE
  5
37C
330
1E
100
AcDbEntity
  8
0
100
AcDbLine
 10
118.6298
 20
289.7499999999999
 30
0.0
 11
120.8298
 21
290.05
 31
0.0
  0
LINE
  5
37D
330
1E
100
AcDbEntity
  8
0
100
AcDbLine
 10
118.6298
 20
287.25
 30
0.0
 11
121.4298
 21
287.6499999999999
 31
0.0
  0
LINE
  5
37E
330
1E
100
AcDbEntity
  8
0
100
AcDbLine
 10
118.6298
 20
300.2499999999999
 30
0.0
 11
119.1297999999999
 21
300.15
 31
0.0
  0
LINE
  5
37F
330
1E
100
AcDbEntity
  8
0
100
AcDbLine
 10
118.3798
 20
300.4999999999999
 30
0.0
 11
118.8798
 21
300.4999999999999
 31
0.0
  0
LINE
  5
380
330
1E
100
AcDbEntity
  8
0
100
AcDbLine
 10
118.3798
 20
300.4999999999999
 30
0.0
 11
118.3798
 21
309.214285714286
 31
0.0
  0
LINE
  5
381
330
1E
100
AcDbEntity
  8
0
100
AcDbLine
 10
117.3298
 20
303.0499999999999
 30
0.0
 11
118.6298
 21
303.25
 31
0.0
  0
LINE
  5
382
330
1E
100
AcDbEntity
  8
0
100
AcDbLine
 10
117.3298
 20
303.0499999999999
 30
0.0
 11
118.3798
 21
303.211538461539
 31
0.0
  0
LINE
  5
383
330
1E
100
AcDbEntity
  8
0
100
AcDbLine
 10
118.3798
 20
303.211538461539
 30
0.0
 11
118.3798
 21
300.708333333333
 31
0.0
  0
LINE
  5
384
330
1E
100
AcDbEntity
  8
0
100
AcDbLine
 10
118.3798
 20
306.2142857142859
 30
0.0
 11
118.3798
 21
303.714285714286
 31
0.0
  0
LINE
  5
385
330
1E
100
AcDbEntity
  8
0
100
AcDbLine
 10
118.3798
 20
309.214285714286
 30
0.0
 11
118.3798
 21
300.4999999999999
 31
0.0
  0
LINE
  5
386
330
1E
100
AcDbEntity
  8
0
100
AcDbLine
 10
118.3798
 20
309.214285714286
 30
0.0
 11
118.3798
 21
306.715909090909
 31
0.0
  0
LINE
  5
387
330
1E
100
AcDbEntity
  8
0
100
AcDbLine
 10
118.3798
 20
303.714285714286
 30
0.0
 11
118.3798
 21
306.2142857142859
 31
0.0
  0
LINE
  5
388
330
1E
100
AcDbEntity
  8
0
100
AcDbLine
 10
118.6298
 20
300.75
 30
0.0
 11
119.2298
 21
300.6499999999999
 31
0.0
  0
LINE
  5
389
330
1E
100
AcDbEntity
  8
0
100
AcDbLine
 10
118.6298
 20
303.25
 30
0.0
 11
119.9297999999999
 21
303.0499999999999
 31
0.0
  0
LINE
  5
38A
330
1E
100
AcDbEntity
  8
0
100
AcDbLine
 10
118.6298
 20
303.75
 30
0.0
 11
120.0297999999999
 21
303.55
 31
0.0
  0
LINE
  5
38B
330
1E
100
AcDbEntity
  8
0
100
AcDbLine
 10
118.6298
 20
306.25
 30
0.0
 11
120.7297999999999
 21
305.9499999999999
 31
0.0
  0
LINE
  5
38C
330
1E
100
AcDbEntity
  8
0
100
AcDbLine
 10
118.6298
 20
306.7499999999999
 30
0.0
 11
120.8298
 21
306.4499999999999
 31
0.0
  0
LINE
  5
38D
330
1E
100
AcDbEntity
  8
0
100
AcDbLine
 10
118.6298
 20
309.25
 30
0.0
 11
121.4298
 21
308.85
 31
0.0
  0
LINE
  5
38E
330
1E
100
AcDbEntity
  8
0
100
AcDbLine
 10
118.3798
 20
306.715909090909
 30
0.0
 11
118.3798
 21
309.214285714286
 31
0.0
  0
LINE
  5
38F
330
1E
100
AcDbEntity
  8
0
100
AcDbLine
 10
118.3798
 20
300.708333333333
 30
0.0
 11
118.3798
 21
303.211538461539
 31
0.0
  0
LINE
  5
390
330
1E
100
AcDbEntity
  8
0
100
AcDbLine
 10
117.2883
 20
300.074
 30
0.0
 11
117.7213
 21
300.324
 31
0.0
  0
LINE
  5
391
330
1E
100
AcDbEntity
  8
0
100
AcDbLine
 10
118.6298
 20
286.75
 30
0.0
 11
121.6298
 21
287.1499999999999
 31
0.0
  0
LINE
  5
392
330
1E
100
AcDbEntity
  8
0
100
AcDbLine
 10
118.6298
 20
286.25
 30
0.0
 11
121.7297999999999
 21
286.6499999999999
 31
0.0
  0
LINE
  5
393
330
1E
100
AcDbEntity
  8
0
100
AcDbLine
 10
117.7726999999999
 20
310.139406451613
 30
0.0
 11
117.7726999999999
 21
310.7499999999999
 31
0.0
  0
LINE
  5
394
330
1E
100
AcDbEntity
  8
0
100
AcDbLine
 10
118.2012
 20
310.1946967741939
 30
0.0
 11
118.2012
 21
310.7499999999999
 31
0.0
  0
LINE
  5
395
330
1E
100
AcDbEntity
  8
0
100
AcDbLine
 10
118.2012
 20
310.7499999999999
 30
0.0
 11
119.0584
 21
310.7499999999999
 31
0.0
  0
LINE
  5
396
330
1E
100
AcDbEntity
  8
0
100
AcDbLine
 10
118.2012
 20
310.7499999999999
 30
0.0
 11
118.2012
 21
310.1946967741939
 31
0.0
  0
LINE
  5
397
330
1E
100
AcDbEntity
  8
0
100
AcDbLine
 10
117.7726999999999
 20
310.7499999999999
 30
0.0
 11
117.7726999999999
 21
310.139406451613
 31
0.0
  0
LINE
  5
398
330
1E
100
AcDbEntity
  8
0
100
AcDbLine
 10
117.7726999999999
 20
310.7499999999999
 30
0.0
 11
118.2012
 21
310.7499999999999
 31
0.0
  0
LINE
  5
399
330
1E
100
AcDbEntity
  8
0
100
AcDbLine
 10
118.6298
 20
309.75
 30
0.0
 11
121.6298
 21
309.35
 31
0.0
  0
LINE
  5
39A
330
1E
100
AcDbEntity
  8
0
100
AcDbLine
 10
118.8798
 20
293.288461538462
 30
0.0
 11
119.9297999999999
 21
293.4499999999999
 31
0.0
  0
LINE
  5
39B
330
1E
100
AcDbEntity
  8
0
100
AcDbLine
 10
118.8798
 20
290.285714285714
 30
0.0
 11
120.7297999999999
 21
290.5499999999999
 31
0.0
  0
LINE
  5
39C
330
1E
100
AcDbEntity
  8
0
100
AcDbLine
 10
118.8798
 20
289.7840909090909
 30
0.0
 11
120.8298
 21
290.05
 31
0.0
  0
LINE
  5
39D
330
1E
100
AcDbEntity
  8
0
100
AcDbLine
 10
118.8798
 20
300.708333333333
 30
0.0
 11
119.2298
 21
300.6499999999999
 31
0.0
  0
LINE
  5
39E
330
1E
100
AcDbEntity
  8
0
100
AcDbLine
 10
118.8798
 20
303.211538461539
 30
0.0
 11
119.9297999999999
 21
303.0499999999999
 31
0.0
  0
LINE
  5
39F
330
1E
100
AcDbEntity
  8
0
100
AcDbLine
 10
118.8798
 20
306.2142857142859
 30
0.0
 11
120.7297999999999
 21
305.9499999999999
 31
0.0
  0
LINE
  5
3A0
330
1E
100
AcDbEntity
  8
0
100
AcDbLine
 10
118.8798
 20
287.285714285714
 30
0.0
 11
118.8798
 21
296.0
 31
0.0
  0
LINE
  5
3A1
330
1E
100
AcDbEntity
  8
0
100
AcDbLine
 10
118.8798
 20
287.285714285714
 30
0.0
 11
121.4298
 21
287.6499999999999
 31
0.0
  0
LINE
  5
3A2
330
1E
100
AcDbEntity
  8
0
100
AcDbLine
 10
118.8798
 20
296.0
 30
0.0
 11
118.8798
 21
287.285714285714
 31
0.0
  0
LINE
  5
3A3
330
1E
100
AcDbEntity
  8
0
100
AcDbLine
 10
118.8798
 20
309.214285714286
 30
0.0
 11
118.8798
 21
300.4999999999999
 31
0.0
  0
LINE
  5
3A4
330
1E
100
AcDbEntity
  8
0
100
AcDbLine
 10
118.8798
 20
309.214285714286
 30
0.0
 11
121.4298
 21
308.85
 31
0.0
  0
LINE
  5
3A5
330
1E
100
AcDbEntity
  8
0
100
AcDbLine
 10
119.1297999999999
 20
296.35
 30
0.0
 11
119.6298
 21
296.55
 31
0.0
  0
LINE
  5
3A6
330
1E
100
AcDbEntity
  8
0
100
AcDbLine
 10
119.2298
 20
295.85
 30
0.0
 11
119.8298
 21
296.05
 31
0.0
  0
LINE
  5
3A7
330
1E
100
AcDbEntity
  8
0
100
AcDbLine
 10
119.1297999999999
 20
300.15
 30
0.0
 11
119.6298
 21
299.9499999999999
 31
0.0
  0
LINE
  5
3A8
330
1E
100
AcDbEntity
  8
0
100
AcDbLine
 10
119.2298
 20
300.6499999999999
 30
0.0
 11
119.8298
 21
300.45
 31
0.0
  0
LINE
  5
3A9
330
1E
100
AcDbEntity
  8
0
100
AcDbLine
 10
118.8798
 20
300.4999999999999
 30
0.0
 11
118.8798
 21
309.214285714286
 31
0.0
  0
LINE
  5
3AA
330
1E
100
AcDbEntity
  8
0
100
AcDbLine
 10
119.0584
 20
310.1946967741939
 30
0.0
 11
119.0584
 21
310.7499999999999
 31
0.0
  0
LINE
  5
3AB
330
1E
100
AcDbEntity
  8
0
100
AcDbLine
 10
119.4869
 20
310.139406451613
 30
0.0
 11
119.4869
 21
310.7499999999999
 31
0.0
  0
LINE
  5
3AC
330
1E
100
AcDbEntity
  8
0
100
AcDbLine
 10
119.8298
 20
296.05
 30
0.0
 11
120.4298
 21
296.45
 31
0.0
  0
LINE
  5
3AD
330
1E
100
AcDbEntity
  8
0
100
AcDbLine
 10
119.9297999999999
 20
293.4499999999999
 30
0.0
 11
121.1297999999999
 21
293.9499999999999
 31
0.0
  0
LINE
  5
3AE
330
1E
100
AcDbEntity
  8
0
100
AcDbLine
 10
119.646353582957
 20
295.988851194319
 30
0.0
 11
120.8829129382559
 21
293.8471303909399
 31
0.0
  0
LINE
  5
3AF
330
1E
100
AcDbEntity
  8
0
100
AcDbLine
 10
119.6298
 20
296.55
 30
0.0
 11
120.0297999999999
 21
296.85
 31
0.0
  0
LINE
  5
3B0
330
1E
100
AcDbEntity
  8
0
100
AcDbLine
 10
119.5383
 20
296.1759999999999
 30
0.0
 11
119.9713
 21
296.4259999999999
 31
0.0
  0
LINE
  5
3B1
330
1E
100
AcDbEntity
  8
0
100
AcDbLine
 10
119.5383
 20
296.1759999999999
 30
0.0
 11
123.883714098747
 21
288.649742780971
 31
0.0
  0
LINE
  5
3B2
330
1E
100
AcDbEntity
  8
0
100
AcDbLine
 10
120.0297999999999
 20
292.9499999999999
 30
0.0
 11
121.3297999999999
 21
293.4499999999999
 31
0.0
  0
LINE
  5
3B3
330
1E
100
AcDbEntity
  8
0
100
AcDbLine
 10
120.0297999999999
 20
296.85
 30
0.0
 11
120.3297999999999
 21
297.25
 31
0.0
  0
LINE
  5
3B4
330
1E
100
AcDbEntity
  8
0
100
AcDbLine
 10
120.4298
 20
296.45
 30
0.0
 11
120.8298
 21
297.05
 31
0.0
  0
LINE
  5
3B5
330
1E
100
AcDbEntity
  8
0
100
AcDbLine
 10
120.3297999999999
 20
297.25
 30
0.0
 11
120.5297999999999
 21
297.75
 31
0.0
  0
LINE
  5
3B6
330
1E
100
AcDbEntity
  8
0
100
AcDbLine
 10
120.5297999999999
 20
297.75
 30
0.0
 11
120.6298
 21
298.2499999999999
 31
0.0
  0
LINE
  5
3B7
330
1E
100
AcDbEntity
  8
0
100
AcDbLine
 10
120.3297999999999
 20
299.25
 30
0.0
 11
120.5297999999999
 21
298.75
 31
0.0
  0
LINE
  5
3B8
330
1E
100
AcDbEntity
  8
0
100
AcDbLine
 10
120.5297999999999
 20
298.75
 30
0.0
 11
120.6298
 21
298.2499999999999
 31
0.0
  0
LINE
  5
3B9
330
1E
100
AcDbEntity
  8
0
100
AcDbLine
 10
120.4533999999999
 20
296.9089999999999
 30
0.0
 11
120.7033999999999
 21
297.341
 31
0.0
  0
LINE
  5
3BA
330
1E
100
AcDbEntity
  8
0
100
AcDbLine
 10
120.4533999999999
 20
296.9089999999999
 30
0.0
 11
127.988377009664
 21
292.5586630130749
 31
0.0
  0
LINE
  5
3BB
330
1E
100
AcDbEntity
  8
0
100
AcDbLine
 10
120.7033999999999
 20
297.341
 30
0.0
 11
128.229852912288
 21
292.99558442107
 31
0.0
  0
LINE
  5
3BC
330
1E
100
AcDbEntity
  8
0
100
AcDbLine
 10
120.088726347971
 20
296.222617565314
 30
0.0
 11
121.315217851501
 21
294.098334281201
 31
0.0
  0
LINE
  5
3BD
330
1E
100
AcDbEntity
  8
0
100
AcDbLine
 10
120.088726347971
 20
296.222617565314
 30
0.0
 11
120.4298
 21
296.45
 31
0.0
  0
LINE
  5
3BE
330
1E
100
AcDbEntity
  8
0
100
AcDbLine
 10
119.9713
 20
296.4259999999999
 30
0.0
 11
124.321403807446
 21
288.891620205504
 31
0.0
  0
LINE
  5
3BF
330
1E
100
AcDbEntity
  8
0
100
AcDbLine
 10
120.0297999999999
 20
299.6499999999999
 30
0.0
 11
120.3297999999999
 21
299.25
 31
0.0
  0
LINE
  5
3C0
330
1E
100
AcDbEntity
  8
0
100
AcDbLine
 10
120.4298
 20
300.05
 30
0.0
 11
120.8298
 21
299.45
 31
0.0
  0
LINE
  5
3C1
330
1E
100
AcDbEntity
  8
0
100
AcDbLine
 10
119.6298
 20
299.9499999999999
 30
0.0
 11
120.0297999999999
 21
299.6499999999999
 31
0.0
  0
LINE
  5
3C2
330
1E
100
AcDbEntity
  8
0
100
AcDbLine
 10
120.6573008121139
 20
299.708748781828
 30
0.0
 11
122.781468373848
 21
300.9354145326899
 31
0.0
  0
LINE
  5
3C3
330
1E
100
AcDbEntity
  8
0
100
AcDbLine
 10
120.4533999999999
 20
299.591
 30
0.0
 11
120.7033999999999
 21
299.159
 31
0.0
  0
LINE
  5
3C4
330
1E
100
AcDbEntity
  8
0
100
AcDbLine
 10
120.4533999999999
 20
299.591
 30
0.0
 11
127.987876216771
 21
303.942014530251
 31
0.0
  0
LINE
  5
3C5
330
1E
100
AcDbEntity
  8
0
100
AcDbLine
 10
120.8298
 20
297.05
 30
0.0
 11
121.0297999999999
 21
297.6499999999999
 31
0.0
  0
LINE
  5
3C6
330
1E
100
AcDbEntity
  8
0
100
AcDbLine
 10
120.7297999999999
 20
290.5499999999999
 30
0.0
 11
122.6298
 21
291.35
 31
0.0
  0
LINE
  5
3C7
330
1E
100
AcDbEntity
  8
0
100
AcDbLine
 10
120.7297999999999
 20
290.5499999999999
 30
0.0
 11
122.3843447834159
 21
291.2466504351229
 31
0.0
  0
LINE
  5
3C8
330
1E
100
AcDbEntity
  8
0
100
AcDbLine
 10
120.8298
 20
290.05
 30
0.0
 11
122.8298
 21
290.85
 31
0.0
  0
LINE
  5
3C9
330
1E
100
AcDbEntity
  8
0
100
AcDbLine
 10
120.8798
 20
298.0
 30
0.0
 11
129.5940857142859
 21
298.0
 31
0.0
  0
LINE
  5
3CA
330
1E
100
AcDbEntity
  8
0
100
AcDbLine
 10
120.8798
 20
298.0
 30
0.0
 11
120.8798
 21
298.4999999999999
 31
0.0
  0
LINE
  5
3CB
330
1E
100
AcDbEntity
  8
0
100
AcDbLine
 10
120.8298
 20
299.45
 30
0.0
 11
121.0297999999999
 21
298.85
 31
0.0
  0
LINE
  5
3CC
330
1E
100
AcDbEntity
  8
0
100
AcDbLine
 10
120.890751975496
 20
299.267144073511
 30
0.0
 11
121.0297999999999
 21
298.85
 31
0.0
  0
LINE
  5
3CD
330
1E
100
AcDbEntity
  8
0
100
AcDbLine
 10
120.8798
 20
298.4999999999999
 30
0.0
 11
129.5940857142859
 21
298.4999999999999
 31
0.0
  0
LINE
  5
3CE
330
1E
100
AcDbEntity
  8
0
100
AcDbLine
 10
120.8798
 20
298.4999999999999
 30
0.0
 11
120.8798
 21
298.0
 31
0.0
  0
LINE
  5
3CF
330
1E
100
AcDbEntity
  8
0
100
AcDbLine
 10
120.7033999999999
 20
299.159
 30
0.0
 11
128.230171421954
 21
303.503633782476
 31
0.0
  0
LINE
  5
3D0
330
1E
100
AcDbEntity
  8
0
100
AcDbLine
 10
119.8298
 20
300.45
 30
0.0
 11
120.4298
 21
300.05
 31
0.0
  0
LINE
  5
3D1
330
1E
100
AcDbEntity
  8
0
100
AcDbLine
 10
119.9297999999999
 20
303.0499999999999
 30
0.0
 11
121.1297999999999
 21
302.55
 31
0.0
  0
LINE
  5
3D2
330
1E
100
AcDbEntity
  8
0
100
AcDbLine
 10
120.0297999999999
 20
303.55
 30
0.0
 11
121.3297999999999
 21
303.0499999999999
 31
0.0
  0
LINE
  5
3D3
330
1E
100
AcDbEntity
  8
0
100
AcDbLine
 10
120.7297999999999
 20
305.9499999999999
 30
0.0
 11
122.6298
 21
305.1499999999999
 31
0.0
  0
LINE
  5
3D4
330
1E
100
AcDbEntity
  8
0
100
AcDbLine
 10
120.7297999999999
 20
305.9499999999999
 30
0.0
 11
122.3843447834159
 21
305.2533495648769
 31
0.0
  0
LINE
  5
3D5
330
1E
100
AcDbEntity
  8
0
100
AcDbLine
 10
120.8298
 20
306.4499999999999
 30
0.0
 11
122.8298
 21
305.6499999999999
 31
0.0
  0
LINE
  5
3D6
330
1E
100
AcDbEntity
  8
0
100
AcDbLine
 10
119.646353582957
 20
300.5111488056809
 30
0.0
 11
120.8829129382559
 21
302.65286960906
 31
0.0
  0
LINE
  5
3D7
330
1E
100
AcDbEntity
  8
0
100
AcDbLine
 10
119.5383
 20
300.324
 30
0.0
 11
119.9713
 21
300.074
 31
0.0
  0
LINE
  5
3D8
330
1E
100
AcDbEntity
  8
0
100
AcDbLine
 10
119.5383
 20
300.324
 30
0.0
 11
123.883714098747
 21
307.850257219029
 31
0.0
  0
LINE
  5
3D9
330
1E
100
AcDbEntity
  8
0
100
AcDbLine
 10
119.9713
 20
300.074
 30
0.0
 11
124.321403807446
 21
307.608379794496
 31
0.0
  0
LINE
  5
3DA
330
1E
100
AcDbEntity
  8
0
100
AcDbLine
 10
119.4869
 20
310.7499999999999
 30
0.0
 11
119.4869
 21
310.139406451613
 31
0.0
  0
LINE
  5
3DB
330
1E
100
AcDbEntity
  8
0
100
AcDbLine
 10
119.0584
 20
310.7499999999999
 30
0.0
 11
119.4869
 21
310.7499999999999
 31
0.0
  0
LINE
  5
3DC
330
1E
100
AcDbEntity
  8
0
100
AcDbLine
 10
119.0584
 20
310.7499999999999
 30
0.0
 11
119.0584
 21
310.1946967741939
 31
0.0
  0
LINE
  5
3DD
330
1E
100
AcDbEntity
  8
0
100
AcDbLine
 10
118.6298
 20
310.25
 30
0.0
 11
121.7297999999999
 21
309.85
 31
0.0
  0
LINE
  5
3DE
330
1E
100
AcDbEntity
  8
0
100
AcDbLine
 10
118.6102999999999
 20
245.25
 30
0.0
 11
120.9046
 21
245.24
 31
0.0
  0
LINE
  5
3E0
330
1E
100
AcDbEntity
  8
0
100
AcDbLine
 10
121.9578
 20
284.718
 30
0.0
 11
125.0777999999999
 21
285.966
 31
0.0
  0
LINE
  5
3E1
330
1E
100
AcDbEntity
  8
0
100
AcDbLine
 10
121.0297999999999
 20
297.6499999999999
 30
0.0
 11
121.1297999999999
 21
298.2499999999999
 31
0.0
  0
LINE
  5
3E2
330
1E
100
AcDbEntity
  8
0
100
AcDbLine
 10
121.0297999999999
 20
298.85
 30
0.0
 11
121.1297999999999
 21
298.2499999999999
 31
0.0
  0
LINE
  5
3E3
330
1E
100
AcDbEntity
  8
0
100
AcDbLine
 10
121.4298
 20
287.6499999999999
 30
0.0
 11
124.1298
 21
288.75
 31
0.0
  0
LINE
  5
3E4
330
1E
100
AcDbEntity
  8
0
100
AcDbLine
 10
121.4298
 20
287.6499999999999
 30
0.0
 11
123.883714098747
 21
288.649742780971
 31
0.0
  0
LINE
  5
3E5
330
1E
100
AcDbEntity
  8
0
100
AcDbLine
 10
121.1297999999999
 20
293.9499999999999
 30
0.0
 11
122.1297999999999
 21
294.75
 31
0.0
  0
LINE
  5
3E6
330
1E
100
AcDbEntity
  8
0
100
AcDbLine
 10
121.315217851501
 20
294.098334281201
 30
0.0
 11
122.1297999999999
 21
294.75
 31
0.0
  0
LINE
  5
3E7
330
1E
100
AcDbEntity
  8
0
100
AcDbLine
 10
121.3297999999999
 20
293.4499999999999
 30
0.0
 11
122.5297999999999
 21
294.35
 31
0.0
  0
LINE
  5
3E8
330
1E
100
AcDbEntity
  8
0
100
AcDbLine
 10
121.315217851501
 20
302.4016657187989
 30
0.0
 11
122.1297999999999
 21
301.75
 31
0.0
  0
LINE
  5
3E9
330
1E
100
AcDbEntity
  8
0
100
AcDbLine
 10
121.1297999999999
 20
302.55
 30
0.0
 11
122.1297999999999
 21
301.75
 31
0.0
  0
LINE
  5
3EA
330
1E
100
AcDbEntity
  8
0
100
AcDbLine
 10
121.3297999999999
 20
303.0499999999999
 30
0.0
 11
122.5297999999999
 21
302.1499999999999
 31
0.0
  0
LINE
  5
3EB
330
1E
100
AcDbEntity
  8
0
100
AcDbLine
 10
121.5808386784849
 20
293.6382790088639
 30
0.0
 11
122.8150929848689
 21
291.500550550206
 31
0.0
  0
LINE
  5
3EC
330
1E
100
AcDbEntity
  8
0
100
AcDbLine
 10
121.151743087658
 20
293.3815165721759
 30
0.0
 11
122.3843447834159
 21
291.2466504351229
 31
0.0
  0
LINE
  5
3ED
330
1E
100
AcDbEntity
  8
0
100
AcDbLine
 10
121.0881333333329
 20
298.0
 30
0.0
 11
123.5913384615379
 21
298.0
 31
0.0
  0
LINE
  5
3EE
330
1E
100
AcDbEntity
  8
0
100
AcDbLine
 10
121.4298
 20
308.85
 30
0.0
 11
124.1298
 21
307.75
 31
0.0
  0
LINE
  5
3EF
330
1E
100
AcDbEntity
  8
0
100
AcDbLine
 10
121.4298
 20
308.85
 30
0.0
 11
123.883714098747
 21
307.850257219029
 31
0.0
  0
LINE
  5
3F0
330
1E
100
AcDbEntity
  8
0
100
AcDbLine
 10
121.151743087658
 20
303.1184834278239
 30
0.0
 11
122.3843447834159
 21
305.2533495648769
 31
0.0
  0
LINE
  5
3F1
330
1E
100
AcDbEntity
  8
0
100
AcDbLine
 10
122.1297999999999
 20
294.75
 30
0.0
 11
122.9298
 21
295.7499999999999
 31
0.0
  0
LINE
  5
3F2
330
1E
100
AcDbEntity
  8
0
100
AcDbLine
 10
122.1297999999999
 20
294.75
 30
0.0
 11
122.781631830229
 21
295.564789787787
 31
0.0
  0
LINE
  5
3F3
330
1E
100
AcDbEntity
  8
0
100
AcDbLine
 10
122.5297999999999
 20
294.35
 30
0.0
 11
123.4298
 21
295.55
 31
0.0
  0
LINE
  5
3F4
330
1E
100
AcDbEntity
  8
0
100
AcDbLine
 10
122.6298
 20
291.35
 30
0.0
 11
124.2297999999999
 21
292.6499999999999
 31
0.0
  0
LINE
  5
3F5
330
1E
100
AcDbEntity
  8
0
100
AcDbLine
 10
122.1297999999999
 20
301.75
 30
0.0
 11
122.9298
 21
300.75
 31
0.0
  0
LINE
  5
3F6
330
1E
100
AcDbEntity
  8
0
100
AcDbLine
 10
122.1297999999999
 20
301.75
 30
0.0
 11
122.781468373848
 21
300.9354145326899
 31
0.0
  0
LINE
  5
3F7
330
1E
100
AcDbEntity
  8
0
100
AcDbLine
 10
122.5297999999999
 20
302.1499999999999
 30
0.0
 11
123.4298
 21
300.95
 31
0.0
  0
LINE
  5
3F8
330
1E
100
AcDbEntity
  8
0
100
AcDbLine
 10
122.6298
 20
305.1499999999999
 30
0.0
 11
124.2297999999999
 21
303.85
 31
0.0
  0
LINE
  5
3F9
330
1E
100
AcDbEntity
  8
0
100
AcDbLine
 10
122.6539660412759
 20
290.77966641651
 30
0.0
 11
123.883714098747
 21
288.649742780971
 31
0.0
  0
LINE
  5
3FA
330
1E
100
AcDbEntity
  8
0
100
AcDbLine
 10
122.8150929848689
 20
291.500550550206
 30
0.0
 11
124.2297999999999
 21
292.6499999999999
 31
0.0
  0
LINE
  5
3FB
330
1E
100
AcDbEntity
  8
0
100
AcDbLine
 10
122.9298
 20
295.7499999999999
 30
0.0
 11
123.4298
 21
296.95
 31
0.0
  0
LINE
  5
3FC
330
1E
100
AcDbEntity
  8
0
100
AcDbLine
 10
122.8298
 20
290.85
 30
0.0
 11
124.6298
 21
292.2499999999999
 31
0.0
  0
LINE
  5
3FD
330
1E
100
AcDbEntity
  8
0
100
AcDbLine
 10
122.9298
 20
300.75
 30
0.0
 11
123.4298
 21
299.55
 31
0.0
  0
LINE
  5
3FE
330
1E
100
AcDbEntity
  8
0
100
AcDbLine
 10
123.4298
 20
296.95
 30
0.0
 11
123.6298
 21
298.2499999999999
 31
0.0
  0
LINE
  5
3FF
330
1E
100
AcDbEntity
  8
0
100
AcDbLine
 10
123.4298
 20
296.95
 30
0.0
 11
123.5913384615379
 21
298.0
 31
0.0
  0
LINE
  5
400
330
1E
100
AcDbEntity
  8
0
100
AcDbLine
 10
123.4298
 20
295.55
 30
0.0
 11
123.9298
 21
296.85
 31
0.0
  0
LINE
  5
401
330
1E
100
AcDbEntity
  8
0
100
AcDbLine
 10
123.9298
 20
296.85
 30
0.0
 11
124.1298
 21
298.2499999999999
 31
0.0
  0
LINE
  5
402
330
1E
100
AcDbEntity
  8
0
100
AcDbLine
 10
123.4298
 20
299.55
 30
0.0
 11
123.6298
 21
298.2499999999999
 31
0.0
  0
LINE
  5
403
330
1E
100
AcDbEntity
  8
0
100
AcDbLine
 10
123.4298
 20
299.55
 30
0.0
 11
123.5913384615379
 21
298.4999999999999
 31
0.0
  0
LINE
  5
404
330
1E
100
AcDbEntity
  8
0
100
AcDbLine
 10
123.4298
 20
300.95
 30
0.0
 11
123.9298
 21
299.6499999999999
 31
0.0
  0
LINE
  5
405
330
1E
100
AcDbEntity
  8
0
100
AcDbLine
 10
123.9298
 20
299.6499999999999
 30
0.0
 11
124.1298
 21
298.2499999999999
 31
0.0
  0
LINE
  5
406
330
1E
100
AcDbEntity
  8
0
100
AcDbLine
 10
123.0788571099699
 20
291.0437110855319
 30
0.0
 11
124.321403807446
 21
288.891620205504
 31
0.0
  0
LINE
  5
407
330
1E
100
AcDbEntity
  8
0
100
AcDbLine
 10
122.8298
 20
305.6499999999999
 30
0.0
 11
124.6298
 21
304.2499999999999
 31
0.0
  0
LINE
  5
408
330
1E
100
AcDbEntity
  8
0
100
AcDbLine
 10
123.2414962072349
 20
301.2010717236869
 30
0.0
 11
125.3790890969449
 21
302.435490342222
 31
0.0
  0
LINE
  5
409
330
1E
100
AcDbEntity
  8
0
100
AcDbLine
 10
122.6539660412759
 20
305.72033358349
 30
0.0
 11
123.883714098747
 21
307.850257219029
 31
0.0
  0
LINE
  5
40A
330
1E
100
AcDbEntity
  8
0
100
AcDbLine
 10
123.681844817273
 20
309.04225731699
 30
0.0
 11
123.9176
 21
309.64
 31
0.0
  0
LINE
  5
40B
330
1E
100
AcDbEntity
  8
0
100
AcDbLine
 10
124.2297999999999
 20
292.6499999999999
 30
0.0
 11
125.5298
 21
294.2499999999999
 31
0.0
  0
LINE
  5
40C
330
1E
100
AcDbEntity
  8
0
100
AcDbLine
 10
124.2297999999999
 20
292.6499999999999
 30
0.0
 11
125.3794386135479
 21
294.0649398320589
 31
0.0
  0
LINE
  5
40D
330
1E
100
AcDbEntity
  8
0
100
AcDbLine
 10
124.321403807446
 20
288.891620205504
 30
0.0
 11
126.4297999999999
 21
290.45
 31
0.0
  0
LINE
  5
40E
330
1E
100
AcDbEntity
  8
0
100
AcDbLine
 10
124.1298
 20
288.75
 30
0.0
 11
126.4297999999999
 21
290.45
 31
0.0
  0
LINE
  5
40F
330
1E
100
AcDbEntity
  8
0
100
AcDbLine
 10
124.2297999999999
 20
303.85
 30
0.0
 11
125.5298
 21
302.2499999999999
 31
0.0
  0
LINE
  5
410
330
1E
100
AcDbEntity
  8
0
100
AcDbLine
 10
124.2297999999999
 20
303.85
 30
0.0
 11
125.3790890969449
 21
302.435490342222
 31
0.0
  0
LINE
  5
411
330
1E
100
AcDbEntity
  8
0
100
AcDbLine
 10
124.321403807446
 20
307.608379794496
 30
0.0
 11
126.4297999999999
 21
306.05
 31
0.0
  0
LINE
  5
412
330
1E
100
AcDbEntity
  8
0
100
AcDbLine
 10
124.1298
 20
307.75
 30
0.0
 11
126.4297999999999
 21
306.05
 31
0.0
  0
LINE
  5
413
330
1E
100
AcDbEntity
  8
0
100
AcDbLine
 10
124.094085714286
 20
298.0
 30
0.0
 11
126.594085714286
 21
298.0
 31
0.0
  0
LINE
  5
414
330
1E
100
AcDbEntity
  8
0
100
AcDbLine
 10
124.077151212585
 20
308.8786822568619
 30
0.0
 11
124.317
 21
309.487
 31
0.0
  0
LINE
  5
415
330
1E
100
AcDbEntity
  8
0
100
AcDbLine
 10
124.3298
 20
288.2499999999999
 30
0.0
 11
126.7298
 21
290.15
 31
0.0
  0
LINE
  5
416
330
1E
100
AcDbEntity
  8
0
100
AcDbLine
 10
121.6298
 20
287.1499999999999
 30
0.0
 11
124.3298
 21
288.2499999999999
 31
0.0
  0
LINE
  5
417
330
1E
100
AcDbEntity
  8
0
100
AcDbLine
 10
121.7297999999999
 20
286.6499999999999
 30
0.0
 11
124.6298
 21
287.85
 31
0.0
  0
LINE
  5
418
330
1E
100
AcDbEntity
  8
0
100
AcDbLine
 10
124.6298
 20
292.2499999999999
 30
0.0
 11
126.0297999999999
 21
294.05
 31
0.0
  0
LINE
  5
419
330
1E
100
AcDbEntity
  8
0
100
AcDbLine
 10
124.6298
 20
304.2499999999999
 30
0.0
 11
126.0297999999999
 21
302.4499999999999
 31
0.0
  0
LINE
  5
41A
330
1E
100
AcDbEntity
  8
0
100
AcDbLine
 10
124.6298
 20
287.85
 30
0.0
 11
127.1298
 21
289.7499999999999
 31
0.0
  0
LINE
  5
41B
330
1E
100
AcDbEntity
  8
0
100
AcDbLine
 10
124.3298
 20
308.25
 30
0.0
 11
126.7298
 21
306.35
 31
0.0
  0
LINE
  5
41C
330
1E
100
AcDbEntity
  8
0
100
AcDbLine
 10
122.89144113061
 20
309.369320911472
 30
0.0
 11
123.1186
 21
309.9459999999999
 31
0.0
  0
LINE
  5
41D
330
1E
100
AcDbEntity
  8
0
100
AcDbLine
 10
123.9176
 20
309.64
 30
0.0
 11
124.317
 21
309.487
 31
0.0
  0
LINE
  5
41E
330
1E
100
AcDbEntity
  8
0
100
AcDbLine
 10
122.496172435618
 20
309.5328803714689
 30
0.0
 11
122.7190999999999
 21
310.0989999999999
 31
0.0
  0
LINE
  5
41F
330
1E
100
AcDbEntity
  8
0
100
AcDbLine
 10
121.6298
 20
309.35
 30
0.0
 11
124.3298
 21
308.25
 31
0.0
  0
LINE
  5
420
330
1E
100
AcDbEntity
  8
0
100
AcDbLine
 10
125.0777999999999
 20
285.966
 30
0.0
 11
127.8337999999999
 21
288.0459999999999
 31
0.0
  0
LINE
  5
421
330
1E
100
AcDbEntity
  8
0
100
AcDbLine
 10
125.63292672185
 20
294.494925964393
 30
0.0
 11
126.3298
 21
296.15
 31
0.0
  0
LINE
  5
422
330
1E
100
AcDbEntity
  8
0
100
AcDbLine
 10
125.5298
 20
294.2499999999999
 30
0.0
 11
126.3298
 21
296.15
 31
0.0
  0
LINE
  5
423
330
1E
100
AcDbEntity
  8
0
100
AcDbLine
 10
125.633140953859
 20
302.004565234586
 30
0.0
 11
126.3298
 21
300.35
 31
0.0
  0
LINE
  5
424
330
1E
100
AcDbEntity
  8
0
100
AcDbLine
 10
125.5298
 20
302.2499999999999
 30
0.0
 11
126.3298
 21
300.35
 31
0.0
  0
LINE
  5
425
330
1E
100
AcDbEntity
  8
0
100
AcDbLine
 10
126.0297999999999
 20
294.05
 30
0.0
 11
126.8298
 21
296.05
 31
0.0
  0
LINE
  5
426
330
1E
100
AcDbEntity
  8
0
100
AcDbLine
 10
126.3298
 20
296.15
 30
0.0
 11
126.6298
 21
298.2499999999999
 31
0.0
  0
LINE
  5
427
330
1E
100
AcDbEntity
  8
0
100
AcDbLine
 10
126.4297999999999
 20
290.45
 30
0.0
 11
128.1297999999999
 21
292.75
 31
0.0
  0
LINE
  5
428
330
1E
100
AcDbEntity
  8
0
100
AcDbLine
 10
126.4297999999999
 20
290.45
 30
0.0
 11
127.988377009664
 21
292.5586630130749
 31
0.0
  0
LINE
  5
429
330
1E
100
AcDbEntity
  8
0
100
AcDbLine
 10
126.3298
 20
300.35
 30
0.0
 11
126.6298
 21
298.2499999999999
 31
0.0
  0
LINE
  5
42A
330
1E
100
AcDbEntity
  8
0
100
AcDbLine
 10
126.3298
 20
300.35
 30
0.0
 11
126.594085714286
 21
298.4999999999999
 31
0.0
  0
LINE
  5
42B
330
1E
100
AcDbEntity
  8
0
100
AcDbLine
 10
126.0297999999999
 20
302.4499999999999
 30
0.0
 11
126.8298
 21
300.45
 31
0.0
  0
LINE
  5
42C
330
1E
100
AcDbEntity
  8
0
100
AcDbLine
 10
126.4297999999999
 20
306.05
 30
0.0
 11
128.1297999999999
 21
303.75
 31
0.0
  0
LINE
  5
42D
330
1E
100
AcDbEntity
  8
0
100
AcDbLine
 10
126.4297999999999
 20
306.05
 30
0.0
 11
127.987876216771
 21
303.942014530251
 31
0.0
  0
LINE
  5
42E
330
1E
100
AcDbEntity
  8
0
100
AcDbLine
 10
125.8359054647689
 20
302.699292973868
 30
0.0
 11
127.987876216771
 21
303.942014530251
 31
0.0
  0
LINE
  5
42F
330
1E
100
AcDbEntity
  8
0
100
AcDbLine
 10
126.7298
 20
290.15
 30
0.0
 11
128.6297999999999
 21
292.5499999999999
 31
0.0
  0
LINE
  5
430
330
1E
100
AcDbEntity
  8
0
100
AcDbLine
 10
126.8298
 20
296.05
 30
0.0
 11
127.1298
 21
298.2499999999999
 31
0.0
  0
LINE
  5
431
330
1E
100
AcDbEntity
  8
0
100
AcDbLine
 10
126.8298
 20
300.45
 30
0.0
 11
127.1298
 21
298.2499999999999
 31
0.0
  0
LINE
  5
432
330
1E
100
AcDbEntity
  8
0
100
AcDbLine
 10
127.095709090909
 20
298.0
 30
0.0
 11
129.5940857142859
 21
298.0
 31
0.0
  0
LINE
  5
433
330
1E
100
AcDbEntity
  8
0
100
AcDbLine
 10
127.169146545682
 20
306.698228229366
 30
0.0
 11
127.5066999999999
 21
307.049
 31
0.0
  0
LINE
  5
434
330
1E
100
AcDbEntity
  8
0
100
AcDbLine
 10
127.429978906487
 20
306.355027754623
 30
0.0
 11
127.8177
 21
306.7579999999999
 31
0.0
  0
LINE
  5
435
330
1E
100
AcDbEntity
  8
0
100
AcDbLine
 10
127.1298
 20
289.7499999999999
 30
0.0
 11
129.0297999999999
 21
292.2499999999999
 31
0.0
  0
LINE
  5
436
330
1E
100
AcDbEntity
  8
0
100
AcDbLine
 10
126.7298
 20
306.35
 30
0.0
 11
128.6297999999999
 21
303.9499999999999
 31
0.0
  0
LINE
  5
437
330
1E
100
AcDbEntity
  8
0
100
AcDbLine
 10
126.4991754216429
 20
307.2292746795509
 30
0.0
 11
126.8847999999999
 21
307.6299999999999
 31
0.0
  0
LINE
  5
438
330
1E
100
AcDbEntity
  8
0
100
AcDbLine
 10
126.8847999999999
 20
307.6299999999999
 30
0.0
 11
127.5066999999999
 21
307.049
 31
0.0
  0
LINE
  5
439
330
1E
100
AcDbEntity
  8
0
100
AcDbLine
 10
126.1583614948879
 20
307.488293263886
 30
0.0
 11
126.5738
 21
307.92
 31
0.0
  0
LINE
  5
43A
330
1E
100
AcDbEntity
  8
0
100
AcDbLine
 10
126.5738
 20
307.92
 30
0.0
 11
126.8847999999999
 21
307.6299999999999
 31
0.0
  0
LINE
  5
43B
330
1E
100
AcDbEntity
  8
0
100
AcDbLine
 10
127.5066999999999
 20
307.049
 30
0.0
 11
127.8177
 21
306.7579999999999
 31
0.0
  0
LINE
  5
43C
330
1E
100
AcDbEntity
  8
0
100
AcDbLine
 10
127.1298
 20
306.7499999999999
 30
0.0
 11
129.0297999999999
 21
304.2499999999999
 31
0.0
  0
LINE
  5
43D
330
1E
100
AcDbEntity
  8
0
100
AcDbLine
 10
124.6298
 20
308.65
 30
0.0
 11
127.1298
 21
306.7499999999999
 31
0.0
  0
LINE
  5
43E
330
1E
100
AcDbEntity
  8
0
100
AcDbLine
 10
123.1186
 20
309.9459999999999
 30
0.0
 11
123.9176
 21
309.64
 31
0.0
  0
LINE
  5
43F
330
1E
100
AcDbEntity
  8
0
100
AcDbLine
 10
122.7190999999999
 20
310.0989999999999
 30
0.0
 11
123.1186
 21
309.9459999999999
 31
0.0
  0
LINE
  5
440
330
1E
100
AcDbEntity
  8
0
100
AcDbLine
 10
121.7297999999999
 20
309.85
 30
0.0
 11
124.6298
 21
308.65
 31
0.0
  0
LINE
  5
441
330
1E
100
AcDbEntity
  8
0
100
AcDbLine
 10
120.9046
 20
245.24
 30
0.0
 11
123.9967999999999
 21
245.1999999999999
 31
0.0
  0
LINE
  5
442
330
1E
100
AcDbEntity
  8
0
100
AcDbLine
 10
123.9967999999999
 20
245.1999999999999
 30
0.0
 11
127.5878
 21
245.1
 31
0.0
  0
LINE
  5
444
330
1E
100
AcDbEntity
  8
0
100
AcDbLine
 10
141.7918
 20
244.985
 30
0.0
 11
146.8737999999999
 21
244.694
 31
0.0
  0
LINE
  5
445
330
1E
100
AcDbEntity
  8
0
100
AcDbLine
 10
133.6297999999999
 20
283.758704637697
 30
0.0
 11
138.3998
 21
284.6569999999999
 31
0.0
  0
LINE
  5
446
330
1E
100
AcDbEntity
  8
0
100
AcDbLine
 10
133.6297999999999
 20
267.779303713188
 30
0.0
 11
133.7922
 21
267.817
 31
0.0
  0
LINE
  5
447
330
1E
100
AcDbEntity
  8
0
100
AcDbLine
 10
127.8337999999999
 20
288.0459999999999
 30
0.0
 11
129.9138
 21
290.802
 31
0.0
  0
LINE
  5
448
330
1E
100
AcDbEntity
  8
0
100
AcDbLine
 10
129.9138
 20
290.802
 30
0.0
 11
131.1617999999999
 21
293.922
 31
0.0
  0
LINE
  5
449
330
1E
100
AcDbEntity
  8
0
100
AcDbLine
 10
128.229852912288
 20
292.99558442107
 30
0.0
 11
129.2298
 21
295.4499999999999
 31
0.0
  0
LINE
  5
44A
330
1E
100
AcDbEntity
  8
0
100
AcDbLine
 10
128.1297999999999
 20
292.75
 30
0.0
 11
129.2298
 21
295.4499999999999
 31
0.0
  0
LINE
  5
44B
330
1E
100
AcDbEntity
  8
0
100
AcDbLine
 10
129.2298
 20
295.4499999999999
 30
0.0
 11
129.6297999999999
 21
298.2499999999999
 31
0.0
  0
LINE
  5
44C
330
1E
100
AcDbEntity
  8
0
100
AcDbLine
 10
129.2298
 20
295.4499999999999
 30
0.0
 11
129.5940857142859
 21
298.0
 31
0.0
  0
LINE
  5
44D
330
1E
100
AcDbEntity
  8
0
100
AcDbLine
 10
128.6297999999999
 20
292.5499999999999
 30
0.0
 11
129.7298
 21
295.25
 31
0.0
  0
LINE
  5
44E
330
1E
100
AcDbEntity
  8
0
100
AcDbLine
 10
129.7298
 20
295.25
 30
0.0
 11
130.1297999999999
 21
298.2499999999999
 31
0.0
  0
LINE
  5
44F
330
1E
100
AcDbEntity
  8
0
100
AcDbLine
 10
129.0297999999999
 20
292.2499999999999
 30
0.0
 11
130.2298
 21
295.1499999999999
 31
0.0
  0
LINE
  5
450
330
1E
100
AcDbEntity
  8
0
100
AcDbLine
 10
131.1617999999999
 20
293.922
 30
0.0
 11
131.6297999999999
 21
297.25
 31
0.0
  0
LINE
  5
451
330
1E
100
AcDbEntity
  8
0
100
AcDbLine
 10
130.2298
 20
295.1499999999999
 30
0.0
 11
130.6297999999999
 21
298.2499999999999
 31
0.0
  0
LINE
  5
452
330
1E
100
AcDbEntity
  8
0
100
AcDbLine
 10
129.2298
 20
301.05
 30
0.0
 11
129.6297999999999
 21
298.2499999999999
 31
0.0
  0
LINE
  5
453
330
1E
100
AcDbEntity
  8
0
100
AcDbLine
 10
129.2298
 20
301.05
 30
0.0
 11
129.5940857142859
 21
298.4999999999999
 31
0.0
  0
LINE
  5
454
330
1E
100
AcDbEntity
  8
0
100
AcDbLine
 10
131.1617999999999
 20
300.5779999999999
 30
0.0
 11
131.6297999999999
 21
297.25
 31
0.0
  0
LINE
  5
455
330
1E
100
AcDbEntity
  8
0
100
AcDbLine
 10
129.7298
 20
301.25
 30
0.0
 11
130.1297999999999
 21
298.2499999999999
 31
0.0
  0
LINE
  5
456
330
1E
100
AcDbEntity
  8
0
100
AcDbLine
 10
130.2298
 20
301.35
 30
0.0
 11
130.6297999999999
 21
298.2499999999999
 31
0.0
  0
LINE
  5
457
330
1E
100
AcDbEntity
  8
0
100
AcDbLine
 10
132.614
 20
301.684
 30
0.0
 11
133.1535
 21
299.4479999999999
 31
0.0
  0
LINE
  5
458
330
1E
100
AcDbEntity
  8
0
100
AcDbLine
 10
133.1535
 20
299.4479999999999
 30
0.0
 11
133.3298
 21
297.25
 31
0.0
  0
LINE
  5
459
330
1E
100
AcDbEntity
  8
0
100
AcDbLine
 10
133.3298
 20
297.25
 30
0.0
 11
133.3298
 21
244.687310676025
 31
0.0
  0
LINE
  5
45A
330
1E
100
AcDbEntity
  8
0
100
AcDbLine
 10
128.230171421954
 20
303.503633782476
 30
0.0
 11
129.2298
 21
301.05
 31
0.0
  0
LINE
  5
45B
330
1E
100
AcDbEntity
  8
0
100
AcDbLine
 10
128.1297999999999
 20
303.75
 30
0.0
 11
129.2298
 21
301.05
 31
0.0
  0
LINE
  5
45C
330
1E
100
AcDbEntity
  8
0
100
AcDbLine
 10
129.9138
 20
303.6979999999999
 30
0.0
 11
131.1617999999999
 21
300.5779999999999
 31
0.0
  0
LINE
  5
45D
330
1E
100
AcDbEntity
  8
0
100
AcDbLine
 10
128.6297999999999
 20
303.9499999999999
 30
0.0
 11
129.7298
 21
301.25
 31
0.0
  0
LINE
  5
45E
330
1E
100
AcDbEntity
  8
0
100
AcDbLine
 10
129.6297999999999
 20
305.25
 30
0.0
 11
129.9138
 21
303.6979999999999
 31
0.0
  0
LINE
  5
45F
330
1E
100
AcDbEntity
  8
0
100
AcDbLine
 10
129.6297999999999
 20
305.25
 30
0.0
 11
129.6297999999999
 21
306.7
 31
0.0
  0
LINE
  5
460
330
1E
100
AcDbEntity
  8
0
100
AcDbLine
 10
129.0297999999999
 20
304.2499999999999
 30
0.0
 11
130.2298
 21
301.35
 31
0.0
  0
LINE
  5
461
330
1E
100
AcDbEntity
  8
0
100
AcDbLine
 10
131.057915456354
 20
305.254174813296
 30
0.0
 11
136.9728
 21
305.189
 31
0.0
  0
LINE
  5
462
330
1E
100
AcDbEntity
  8
0
100
AcDbLine
 10
131.6991999999999
 20
303.9579999999999
 30
0.0
 11
132.614
 21
301.684
 31
0.0
  0
LINE
  5
463
330
1E
100
AcDbEntity
  8
0
100
AcDbLine
 10
130.4593999999999
 20
305.528
 30
0.0
 11
131.6991999999999
 21
303.9579999999999
 31
0.0
  0
LINE
  5
464
330
1E
100
AcDbEntity
  8
0
100
AcDbLine
 10
127.6298
 20
306.0921052631579
 30
0.0
 11
127.6298
 21
306.5627088843679
 31
0.0
  0
LINE
  5
465
330
1E
100
AcDbEntity
  8
0
100
AcDbLine
 10
127.6298
 20
306.5627088843679
 30
0.0
 11
127.6298
 21
306.0921052631579
 31
0.0
  0
LINE
  5
466
330
1E
100
AcDbEntity
  8
0
100
AcDbLine
 10
127.6298
 20
307.25
 30
0.0
 11
129.6297999999999
 21
307.25
 31
0.0
  0
LINE
  5
467
330
1E
100
AcDbEntity
  8
0
100
AcDbLine
 10
127.6298
 20
307.25
 30
0.0
 11
127.6298
 21
306.9338163987139
 31
0.0
  0
LINE
  5
468
330
1E
100
AcDbEntity
  8
0
100
AcDbLine
 10
127.7618951060359
 20
306.7
 30
0.0
 11
129.6297999999999
 21
306.7
 31
0.0
  0
LINE
  5
469
330
1E
100
AcDbEntity
  8
0
100
AcDbLine
 10
129.6297999999999
 20
307.25
 30
0.0
 11
129.6297999999999
 21
306.7
 31
0.0
  0
LINE
  5
46A
330
1E
100
AcDbEntity
  8
0
100
AcDbLine
 10
129.6297999999999
 20
306.7
 30
0.0
 11
129.6297999999999
 21
305.25
 31
0.0
  0
LINE
  5
46B
330
1E
100
AcDbEntity
  8
0
100
AcDbLine
 10
129.6297999999999
 20
306.7
 30
0.0
 11
129.6297999999999
 21
307.25
 31
0.0
  0
LINE
  5
46C
330
1E
100
AcDbEntity
  8
0
100
AcDbLine
 10
127.6298
 20
306.9338163987139
 30
0.0
 11
127.6298
 21
307.25
 31
0.0
  0
LINE
  5
46D
330
1E
100
AcDbEntity
  8
0
100
AcDbLine
 10
129.6297999999999
 20
306.265190401341
 30
0.0
 11
130.4593999999999
 21
305.528
 31
0.0
  0
LINE
  5
472
330
1E
100
AcDbEntity
  8
0
100
AcDbLine
 10
133.6297999999999
 20
289.2525735504389
 30
0.0
 11
136.9738
 21
289.216
 31
0.0
  0
LINE
  5
477
330
1E
100
AcDbEntity
  8
0
100
AcDbLine
 10
133.7631396621509
 20
267.810254514591
 30
0.0
 11
138.4008
 21
268.683
 31
0.0
  0
LINE
  5
478
330
1E
100
AcDbEntity
  8
0
100
AcDbLine
 10
138.4008
 20
268.683
 30
0.0
 11
147.3147999999999
 21
270.0819999999999
 31
0.0
  0
LINE
  5
479
330
1E
100
AcDbEntity
  8
0
100
AcDbLine
 10
147.3147999999999
 20
270.0819999999999
 30
0.0
 11
157.8178
 21
271.357
 31
0.0
  0
LINE
  5
47A
330
1E
100
AcDbEntity
  8
0
100
AcDbLine
 10
157.8178
 20
271.357
 30
0.0
 11
168.9997999999999
 21
272.4479999999999
 31
0.0
  0
LINE
  5
47B
330
1E
100
AcDbEntity
  8
0
100
AcDbLine
 10
180.6297999999999
 20
261.811538461538
 30
0.0
 11
182.7538
 21
259.0339999999999
 31
0.0
  0
LINE
  5
47C
330
1E
100
AcDbEntity
  8
0
100
AcDbLine
 10
180.6297999999999
 20
265.1771
 30
0.0
 11
184.5777999999999
 21
259.9459999999999
 31
0.0
  0
LINE
  5
47D
330
1E
100
AcDbEntity
  8
0
100
AcDbLine
 10
180.6297999999999
 20
265.1771
 30
0.0
 11
184.5777999999999
 21
259.9459999999999
 31
0.0
  0
LINE
  5
47E
330
1E
100
AcDbEntity
  8
0
100
AcDbLine
 10
168.9997999999999
 20
272.4479999999999
 30
0.0
 11
183.8777999999999
 21
273.6399999999999
 31
0.0
  0
LINE
  5
47F
330
1E
100
AcDbEntity
  8
0
100
AcDbLine
 10
136.9728
 20
305.189
 30
0.0
 11
157.6027999999999
 21
304.694
 31
0.0
  0
LINE
  5
480
330
1E
100
AcDbEntity
  8
0
100
AcDbLine
 10
138.3998
 20
284.6569999999999
 30
0.0
 11
147.3137999999999
 21
286.0559999999999
 31
0.0
  0
LINE
  5
481
330
1E
100
AcDbEntity
  8
0
100
AcDbLine
 10
147.3137999999999
 20
286.0559999999999
 30
0.0
 11
157.8167999999999
 21
287.33
 31
0.0
  0
LINE
  5
482
330
1E
100
AcDbEntity
  8
0
100
AcDbLine
 10
156.3058
 20
288.218
 30
0.0
 11
157.528703142059
 21
287.295054232408
 31
0.0
  0
LINE
  5
483
330
1E
100
AcDbEntity
  8
0
100
AcDbLine
 10
157.8167999999999
 20
287.33
 30
0.0
 11
168.9987999999999
 21
288.422
 31
0.0
  0
LINE
  5
484
330
1E
100
AcDbEntity
  8
0
100
AcDbLine
 10
168.9987999999999
 20
288.422
 30
0.0
 11
183.9778
 21
289.7569999999999
 31
0.0
  0
LINE
  5
485
330
1E
100
AcDbEntity
  8
0
100
AcDbLine
 10
149.2895497341059
 20
288.919896661749
 30
0.0
 11
154.193831451326
 21
286.8905387097959
 31
0.0
  0
LINE
  5
486
330
1E
100
AcDbEntity
  8
0
100
AcDbLine
 10
154.8875343991749
 20
288.78530624033
 30
0.0
 11
156.3058
 21
288.218
 31
0.0
  0
LINE
  5
487
330
1E
100
AcDbEntity
  8
0
100
AcDbLine
 10
175.2418
 20
304.042
 30
0.0
 11
192.4788
 21
302.993
 31
0.0
  0
LINE
  5
488
330
1E
100
AcDbEntity
  8
0
100
AcDbLine
 10
157.6027999999999
 20
304.694
 30
0.0
 11
175.2418
 21
304.042
 31
0.0
  0
LINE
  5
489
330
1E
100
AcDbEntity
  8
0
100
AcDbLine
 10
157.6038
 20
288.72
 30
0.0
 11
168.0880528282929
 21
288.333059210204
 31
0.0
  0
LINE
  5
48A
330
1E
100
AcDbEntity
  8
0
100
AcDbLine
 10
136.9738
 20
289.216
 30
0.0
 11
157.6038
 21
288.72
 31
0.0
  0
LINE
  5
48C
330
1E
100
AcDbEntity
  8
0
100
AcDbLine
 10
182.7538
 20
259.0339999999999
 30
0.0
 11
190.0497999999999
 21
241.402
 31
0.0
  0
LINE
  5
48D
330
1E
100
AcDbEntity
  8
0
100
AcDbLine
 10
184.5777999999999
 20
259.9459999999999
 30
0.0
 11
191.8737999999999
 21
241.7059999999999
 31
0.0
  0
LINE
  5
48E
330
1E
100
AcDbEntity
  8
0
100
AcDbLine
 10
183.8777999999999
 20
273.6399999999999
 30
0.0
 11
197.1508
 21
274.862
 31
0.0
  0
LINE
  5
491
330
1E
100
AcDbEntity
  8
0
100
AcDbLine
 10
197.1508
 20
274.862
 30
0.0
 11
209.4818
 21
276.092
 31
0.0
  0
LINE
  5
493
330
1E
100
AcDbEntity
  8
0
100
AcDbLine
 10
209.4818
 20
276.092
 30
0.0
 11
217.8237999999999
 21
277.3379999999999
 31
0.0
  0
LINE
  5
494
330
1E
100
AcDbEntity
  8
0
100
AcDbLine
 10
220.7578
 20
277.8909999999999
 30
0.0
 11
226.9417999999999
 21
279.1679999999999
 31
0.0
  0
LINE
  5
495
330
1E
100
AcDbEntity
  8
0
100
AcDbLine
 10
217.8237999999999
 20
277.3379999999999
 30
0.0
 11
220.7578
 21
277.8909999999999
 31
0.0
  0
LINE
  5
498
330
1E
100
AcDbEntity
  8
0
100
AcDbLine
 10
226.9417999999999
 20
279.1679999999999
 30
0.0
 11
230.1458
 21
280.294
 31
0.0
  0
LINE
  5
49B
330
1E
100
AcDbEntity
  8
0
100
AcDbLine
 10
230.1458
 20
280.294
 30
0.0
 11
232.6328
 21
282.0759999999999
 31
0.0
  0
LINE
  5
49E
330
1E
100
AcDbEntity
  8
0
100
AcDbLine
 10
232.6328
 20
282.0759999999999
 30
0.0
 11
233.5577999999999
 21
283.2219999999999
 31
0.0
  0
LINE
  5
49F
330
1E
100
AcDbEntity
  8
0
100
AcDbLine
 10
233.5577999999999
 20
283.2219999999999
 30
0.0
 11
235.2588
 21
285.714
 31
0.0
  0
LINE
  5
4A5
330
1E
100
AcDbEntity
  8
0
100
AcDbLine
 10
183.9778
 20
289.7569999999999
 30
0.0
 11
197.1498
 21
290.837
 31
0.0
  0
LINE
  5
4AA
330
1E
100
AcDbEntity
  8
0
100
AcDbLine
 10
209.4818
 20
292.0659999999999
 30
0.0
 11
217.8237999999999
 21
293.312
 31
0.0
  0
LINE
  5
4AB
330
1E
100
AcDbEntity
  8
0
100
AcDbLine
 10
197.1498
 20
290.837
 30
0.0
 11
209.4818
 21
292.0659999999999
 31
0.0
  0
LINE
  5
4AC
330
1E
100
AcDbEntity
  8
0
100
AcDbLine
 10
214.7908
 20
300.7819999999999
 30
0.0
 11
222.5547999999999
 21
299.4359999999999
 31
0.0
  0
LINE
  5
4AD
330
1E
100
AcDbEntity
  8
0
100
AcDbLine
 10
231.9227999999999
 20
295.7479999999999
 30
0.0
 11
233.5577999999999
 21
294.404
 31
0.0
  0
LINE
  5
4AE
330
1E
100
AcDbEntity
  8
0
100
AcDbLine
 10
233.5577999999999
 20
294.404
 30
0.0
 11
235.2588
 21
291.903
 31
0.0
  0
LINE
  5
4AF
330
1E
100
AcDbEntity
  8
0
100
AcDbLine
 10
235.2588
 20
291.903
 30
0.0
 11
235.8557999999999
 21
288.805
 31
0.0
  0
LINE
  5
4B0
330
1E
100
AcDbEntity
  8
0
100
AcDbLine
 10
225.4518
 20
298.884
 30
0.0
 11
229.3848
 21
297.5309999999999
 31
0.0
  0
LINE
  5
4B1
330
1E
100
AcDbEntity
  8
0
100
AcDbLine
 10
229.3848
 20
297.5309999999999
 30
0.0
 11
231.9227999999999
 21
295.7479999999999
 31
0.0
  0
LINE
  5
4B2
330
1E
100
AcDbEntity
  8
0
100
AcDbLine
 10
222.5547999999999
 20
299.4359999999999
 30
0.0
 11
225.4518
 21
298.884
 31
0.0
  0
LINE
  5
4B3
330
1E
100
AcDbEntity
  8
0
100
AcDbLine
 10
205.6788
 20
301.992
 30
0.0
 11
214.7908
 21
300.7819999999999
 31
0.0
  0
LINE
  5
4B4
330
1E
100
AcDbEntity
  8
0
100
AcDbLine
 10
192.4788
 20
302.993
 30
0.0
 11
205.6788
 21
301.992
 31
0.0
  0
LINE
  5
4B5
330
1E
100
AcDbEntity
  8
0
100
AcDbLine
 10
235.2588
 20
285.714
 30
0.0
 11
235.8557999999999
 21
288.805
 31
0.0
  0
LINE
  5
4B6
330
1E
100
AcDbEntity
  8
0
100
AcDbLine
 10
180.6297999999999
 20
273.379775776314
 30
0.0
 11
180.6297999999999
 21
241.25
 31
0.0
  0
LINE
  5
4B7
330
1E
100
AcDbEntity
  8
0
100
AcDbLine
 10
135.0897999999999
 20
245.1999999999999
 30
0.0
 11
141.7918
 21
244.985
 31
0.0
  0
LINE
  5
4B8
330
1E
100
AcDbEntity
  8
0
100
AcDbLine
 10
133.6297999999999
 20
245.2282425766519
 30
0.0
 11
135.0897999999999
 21
245.1999999999999
 31
0.0
  0
LINE
  5
4BA
330
1E
100
AcDbEntity
  8
0
100
AcDbLine
 10
127.5878
 20
245.1
 30
0.0
 11
130.5803
 21
244.9
 31
0.0
  0
LINE
  5
4BC
330
1E
100
AcDbEntity
  8
0
100
AcDbLine
 10
116.3161
 20
245.24
 30
0.0
 11
118.6102999999999
 21
245.25
 31
0.0
  0
LINE
  5
4BE
330
1E
100
AcDbEntity
  8
0
100
AcDbLine
 10
113.2238
 20
245.1999999999999
 30
0.0
 11
116.3161
 21
245.24
 31
0.0
  0
LINE
  5
4C0
330
1E
100
AcDbEntity
  8
0
100
AcDbLine
 10
109.6327999999999
 20
245.1
 30
0.0
 11
113.2238
 21
245.1999999999999
 31
0.0
  0
LINE
  5
4C2
330
1E
100
AcDbEntity
  8
0
100
AcDbLine
 10
106.6402999999999
 20
244.9
 30
0.0
 11
109.6327999999999
 21
245.1
 31
0.0
  0
LINE
  5
4C4
330
1E
100
AcDbEntity
  8
0
100
AcDbLine
 10
104.3461
 20
244.6499999999999
 30
0.0
 11
106.6402999999999
 21
244.9
 31
0.0
  0
LINE
  5
4C6
330
1E
100
AcDbEntity
  8
0
100
AcDbLine
 10
102.2513
 20
244.2499999999999
 30
0.0
 11
104.3461
 21
244.6499999999999
 31
0.0
  0
LINE
  5
4C8
330
1E
100
AcDbEntity
  8
0
100
AcDbLine
 10
100.3560999999999
 20
243.4499999999999
 30
0.0
 11
102.2513
 21
244.2499999999999
 31
0.0
  0
LINE
  5
4CA
330
1E
100
AcDbEntity
  8
0
100
AcDbLine
 10
98.66039999999999
 20
242.2499999999999
 30
0.0
 11
100.3560999999999
 21
243.4499999999999
 31
0.0
  0
LINE
  5
4CB
330
1E
100
AcDbEntity
  8
0
100
AcDbLine
 10
97.4634
 20
240.5499999999999
 30
0.0
 11
98.66039999999999
 21
242.2499999999999
 31
0.0
  0
LINE
  5
4D0
330
1E
100
AcDbEntity
  8
0
100
AcDbLine
 10
95.66790000000001
 20
220.649
 30
0.0
 11
95.66790000000001
 21
222.25
 31
0.0
  0
LINE
  5
4D5
330
1E
100
AcDbEntity
  8
0
100
AcDbLine
 10
132.9544
 20
1.74000000000001
 30
0.0
 11
134.8053401479808
 21
2.268947376925893
 31
0.0
  0
LINE
  5
4D6
330
1E
100
AcDbEntity
  8
0
100
AcDbLine
 10
134.8053401479808
 20
2.268947376925893
 30
0.0
 11
136.8648
 21
3.050000000000009
 31
0.0
  0
LINE
  5
4D7
330
1E
100
AcDbEntity
  8
0
100
AcDbLine
 10
141.5527999999999
 20
24.25
 30
0.0
 11
141.5428
 21
21.94999999999999
 31
0.0
  0
LINE
  5
4D8
330
1E
100
AcDbEntity
  8
0
100
AcDbLine
 10
139.7577999999999
 20
5.950000000000009
 30
0.0
 11
140.5181777483444
 21
7.977526241507234
 31
0.0
  0
LINE
  5
4D9
330
1E
100
AcDbEntity
  8
0
100
AcDbLine
 10
140.5181777483444
 20
7.977526241507234
 30
0.0
 11
140.8648564236534
 21
10.0693536102309
 31
0.0
  0
LINE
  5
4DA
330
1E
100
AcDbEntity
  8
0
100
AcDbLine
 10
140.8648564236534
 20
10.0693536102309
 30
0.0
 11
141.134494279551
 21
12.3151807094448
 31
0.0
  0
LINE
  5
4DB
330
1E
100
AcDbEntity
  8
0
100
AcDbLine
 10
141.134494279551
 20
12.3151807094448
 30
0.0
 11
141.5028
 21
18.85
 31
0.0
  0
ENDSEC
  0
SECTION
  2
OBJECTS
  0
DICTIONARY
  5
C
330
0
100
AcDbDictionary
281
     1
  3
ACAD_GROUP
350
D
  3
ACAD_LAYOUT
350
19
  3
ACAD_MLINESTYLE
350
16
  3
ACAD_PLOTSETTINGS
350
18
  3
ACAD_PLOTSTYLENAME
350
E
  3
AcDbVariableDictionary
350
4DC
  0
DICTIONARY
  5
D
102
{ACAD_REACTORS
330
C
102
}
330
C
100
AcDbDictionary
281
     1
  0
DICTIONARY
  5
19
102
{ACAD_REACTORS
330
C
102
}
330
C
100
AcDbDictionary
281
     1
  3
Layout1
350
1D
  3
Model
350
21
  0
DICTIONARY
  5
16
102
{ACAD_REACTORS
330
C
102
}
330
C
100
AcDbDictionary
281
     1
  3
Standard
350
17
  0
DICTIONARY
  5
18
102
{ACAD_REACTORS
330
C
102
}
330
C
100
AcDbDictionary
281
     1
  0
ACDBDICTIONARYWDFLT
  5
E
102
{ACAD_REACTORS
330
C
102
}
330
C
100
AcDbDictionary
281
     1
  3
Normal
350
F
100
AcDbDictionaryWithDefault
340
F
  0
DICTIONARY
  5
4DC
102
{ACAD_REACTORS
330
C
102
}
330
C
100
AcDbDictionary
281
     1
  3
DIMASSOC
350
4DD
  0
LAYOUT
  5
1D
102
{ACAD_REACTORS
330
19
102
}
330
19
100
AcDbPlotSettings
  1

  2
hp deskjet 980c series
  4

  6

 40
0.0
 41
0.0
 42
0.0
 43
0.0
 44
0.0
 45
0.0
 46
0.0
 47
0.0
 48
0.0
 49
0.0
140
0.0
141
0.0
142
1.0
143
1.0
 70
   688
 72
     0
 73
     0
 74
     5
  7

 75
    16
147
1.0
148
0.0
149
0.0
100
AcDbLayout
  1
Layout1
 70
     1
 71
     1
 10
0.0
 20
0.0
 11
12.0
 21
9.0
 12
0.0
 22
0.0
 32
0.0
 14
1.000000000000000E+20
 24
1.000000000000000E+20
 34
1.000000000000000E+20
 15
-1.000000000000000E+20
 25
-1.000000000000000E+20
 35
-1.000000000000000E+20
146
0.0
 13
0.0
 23
0.0
 33
0.0
 16
1.0
 26
0.0
 36
0.0
 17
0.0
 27
1.0
 37
0.0
 76
     0
330
1A
  0
LAYOUT
  5
21
102
{ACAD_REACTORS
330
19
102
}
330
19
100
AcDbPlotSettings
  1

  2
hp deskjet 980c series
  4

  6

 40
0.0
 41
0.0
 42
0.0
 43
0.0
 44
0.0
 45
0.0
 46
0.0
 47
0.0
 48
0.0
 49
0.0
140
0.0
141
0.0
142
1.0
143
1.0
 70
  1712
 72
     0
 73
     0
 74
     0
  7

 75
     0
147
1.0
148
0.0
149
0.0
100
AcDbLayout
  1
Model
 70
     1
 71
     0
 10
0.0
 20
0.0
 11
12.0
 21
9.0
 12
0.0
 22
0.0
 32
0.0
 14
0.0
 24
0.0
 34
0.0
 15
0.0
 25
0.0
 35
0.0
146
0.0
 13
0.0
 23
0.0
 33
0.0
 16
1.0
 26
0.0
 36
0.0
 17
0.0
 27
1.0
 37
0.0
 76
     0
330
1E
  0
MLINESTYLE
  5
17
102
{ACAD_REACTORS
330
16
102
}
330
16
100
AcDbMlineStyle
  2
STANDARD
 70
     0
  3

 62
   256
 51
90.0
 52
90.0
 71
     2
 49
0.5
 62
   256
  6
BYLAYER
 49
-0.5
 62
   256
  6
BYLAYER
  0
ACDBPLACEHOLDER
  5
F
102
{ACAD_REACTORS
330
E
102
}
330
E
  0
DICTIONARYVAR
  5
4DD
102
{ACAD_REACTORS
330
4DC
102
}
330
4DC
100
DictionaryVariables
280
     0
  1
1
  0
ENDSEC
  0
EOF
