  0
SECTION
  2
HEADER
  9
$ACADVER
  1
AC1015
  9
$ACADMAINTVER
 70
    13
  9
$DWGCODEPAGE
  3
ANSI_1252
  9
$INSBASE
 10
0.0
 20
0.0
 30
0.0
  9
$EXTMIN
 10
0.250000000000013
 20
-0.0000000000000182
 30
0.0
  9
$EXTMAX
 10
310.7499999999999
 20
1198.0
 30
0.0
  9
$LIMMIN
 10
0.0
 20
0.0
  9
$LIMMAX
 10
12.0
 20
9.0
  9
$ORTHOMODE
 70
     0
  9
$REGENMODE
 70
     1
  9
$FILLMODE
 70
     1
  9
$QTEXTMODE
 70
     0
  9
$MIRRTEXT
 70
     1
  9
$LTSCALE
 40
1.0
  9
$ATTMODE
 70
     1
  9
$TEXTSIZE
 40
0.2
  9
$TRACEWID
 40
0.05
  9
$TEXTSTYLE
  7
Standard
  9
$CLAYER
  8
0
  9
$CELTYPE
  6
Continuous
  9
$CECOLOR
 62
   256
  9
$CELTSCALE
 40
1.0
  9
$DISPSILH
 70
     0
  9
$DIMSCALE
 40
1.0
  9
$DIMASZ
 40
0.18
  9
$DIMEXO
 40
0.0625
  9
$DIMDLI
 40
0.38
  9
$DIMRND
 40
0.0
  9
$DIMDLE
 40
0.0
  9
$DIMEXE
 40
0.18
  9
$DIMTP
 40
0.0
  9
$DIMTM
 40
0.0
  9
$DIMTXT
 40
0.18
  9
$DIMCEN
 40
0.09
  9
$DIMTSZ
 40
0.0
  9
$DIMTOL
 70
     0
  9
$DIMLIM
 70
     0
  9
$DIMTIH
 70
     1
  9
$DIMTOH
 70
     1
  9
$DIMSE1
 70
     0
  9
$DIMSE2
 70
     0
  9
$DIMTAD
 70
     0
  9
$DIMZIN
 70
     0
  9
$DIMBLK
  1

  9
$DIMASO
 70
     1
  9
$DIMSHO
 70
     1
  9
$DIMPOST
  1

  9
$DIMAPOST
  1

  9
$DIMALT
 70
     0
  9
$DIMALTD
 70
     2
  9
$DIMALTF
 40
25.4
  9
$DIMLFAC
 40
1.0
  9
$DIMTOFL
 70
     0
  9
$DIMTVP
 40
0.0
  9
$DIMTIX
 70
     0
  9
$DIMSOXD
 70
     0
  9
$DIMSAH
 70
     0
  9
$DIMBLK1
  1

  9
$DIMBLK2
  1

  9
$DIMSTYLE
  2
Standard
  9
$DIMCLRD
 70
     0
  9
$DIMCLRE
 70
     0
  9
$DIMCLRT
 70
     0
  9
$DIMTFAC
 40
1.0
  9
$DIMGAP
 40
0.09
  9
$DIMJUST
 70
     0
  9
$DIMSD1
 70
     0
  9
$DIMSD2
 70
     0
  9
$DIMTOLJ
 70
     1
  9
$DIMTZIN
 70
     0
  9
$DIMALTZ
 70
     0
  9
$DIMALTTZ
 70
     0
  9
$DIMUPT
 70
     0
  9
$DIMDEC
 70
     4
  9
$DIMTDEC
 70
     4
  9
$DIMALTU
 70
     2
  9
$DIMALTTD
 70
     2
  9
$DIMTXSTY
  7
Standard
  9
$DIMAUNIT
 70
     0
  9
$DIMADEC
 70
     0
  9
$DIMALTRND
 40
0.0
  9
$DIMAZIN
 70
     0
  9
$DIMDSEP
 70
    46
  9
$DIMATFIT
 70
     3
  9
$DIMFRAC
 70
     0
  9
$DIMLDRBLK
  1

  9
$DIMLUNIT
 70
     2
  9
$DIMLWD
 70
    -2
  9
$DIMLWE
 70
    -2
  9
$DIMTMOVE
 70
     0
  9
$LUNITS
 70
     2
  9
$LUPREC
 70
     4
  9
$SKETCHINC
 40
0.1
  9
$FILLETRAD
 40
0.0
  9
$AUNITS
 70
     0
  9
$AUPREC
 70
     0
  9
$MENU
  1
.
  9
$ELEVATION
 40
0.0
  9
$PELEVATION
 40
0.0
  9
$THICKNESS
 40
0.0
  9
$LIMCHECK
 70
     0
  9
$CHAMFERA
 40
0.0
  9
$CHAMFERB
 40
0.0
  9
$CHAMFERC
 40
0.0
  9
$CHAMFERD
 40
0.0
  9
$SKPOLY
 70
     0
  9
$TDCREATE
 40
2454875.799454375
  9
$TDUCREATE
 40
2454875.757787708
  9
$TDUPDATE
 40
2454875.801709155
  9
$TDUUPDATE
 40
2454875.760042488
  9
$TDINDWG
 40
0.0022547801
  9
$TDUSRTIMER
 40
0.0022547801
  9
$USRTIMER
 70
     1
  9
$ANGBASE
 50
0.0
  9
$ANGDIR
 70
     0
  9
$PDMODE
 70
     0
  9
$PDSIZE
 40
0.0
  9
$PLINEWID
 40
0.0
  9
$SPLFRAME
 70
     0
  9
$SPLINETYPE
 70
     6
  9
$SPLINESEGS
 70
     8
  9
$HANDSEED
  5
66A
  9
$SURFTAB1
 70
     6
  9
$SURFTAB2
 70
     6
  9
$SURFTYPE
 70
     6
  9
$SURFU
 70
     6
  9
$SURFV
 70
     6
  9
$UCSBASE
  2

  9
$UCSNAME
  2

  9
$UCSORG
 10
0.0
 20
0.0
 30
0.0
  9
$UCSXDIR
 10
1.0
 20
0.0
 30
0.0
  9
$UCSYDIR
 10
0.0
 20
1.0
 30
0.0
  9
$UCSORTHOREF
  2

  9
$UCSORTHOVIEW
 70
     1
  9
$UCSORGTOP
 10
0.0
 20
0.0
 30
0.0
  9
$UCSORGBOTTOM
 10
0.0
 20
0.0
 30
0.0
  9
$UCSORGLEFT
 10
0.0
 20
0.0
 30
0.0
  9
$UCSORGRIGHT
 10
0.0
 20
0.0
 30
0.0
  9
$UCSORGFRONT
 10
0.0
 20
0.0
 30
0.0
  9
$UCSORGBACK
 10
0.0
 20
0.0
 30
0.0
  9
$PUCSBASE
  2

  9
$PUCSNAME
  2

  9
$PUCSORG
 10
0.0
 20
0.0
 30
0.0
  9
$PUCSXDIR
 10
1.0
 20
0.0
 30
0.0
  9
$PUCSYDIR
 10
0.0
 20
1.0
 30
0.0
  9
$PUCSORTHOREF
  2

  9
$PUCSORTHOVIEW
 70
     0
  9
$PUCSORGTOP
 10
0.0
 20
0.0
 30
0.0
  9
$PUCSORGBOTTOM
 10
0.0
 20
0.0
 30
0.0
  9
$PUCSORGLEFT
 10
0.0
 20
0.0
 30
0.0
  9
$PUCSORGRIGHT
 10
0.0
 20
0.0
 30
0.0
  9
$PUCSORGFRONT
 10
0.0
 20
0.0
 30
0.0
  9
$PUCSORGBACK
 10
0.0
 20
0.0
 30
0.0
  9
$USERI1
 70
     0
  9
$USERI2
 70
     0
  9
$USERI3
 70
     0
  9
$USERI4
 70
     0
  9
$USERI5
 70
     0
  9
$USERR1
 40
0.0
  9
$USERR2
 40
0.0
  9
$USERR3
 40
0.0
  9
$USERR4
 40
0.0
  9
$USERR5
 40
0.0
  9
$WORLDVIEW
 70
     1
  9
$SHADEDGE
 70
     3
  9
$SHADEDIF
 70
    70
  9
$TILEMODE
 70
     1
  9
$MAXACTVP
 70
    64
  9
$PINSBASE
 10
0.0
 20
0.0
 30
0.0
  9
$PLIMCHECK
 70
     0
  9
$PEXTMIN
 10
1.000000000000000E+20
 20
1.000000000000000E+20
 30
1.000000000000000E+20
  9
$PEXTMAX
 10
-1.000000000000000E+20
 20
-1.000000000000000E+20
 30
-1.000000000000000E+20
  9
$PLIMMIN
 10
0.0
 20
0.0
  9
$PLIMMAX
 10
12.0
 20
9.0
  9
$UNITMODE
 70
     0
  9
$VISRETAIN
 70
     1
  9
$PLINEGEN
 70
     0
  9
$PSLTSCALE
 70
     1
  9
$TREEDEPTH
 70
  3020
  9
$CMLSTYLE
  2
Standard
  9
$CMLJUST
 70
     0
  9
$CMLSCALE
 40
1.0
  9
$PROXYGRAPHICS
 70
     1
  9
$MEASUREMENT
 70
     0
  9
$CELWEIGHT
370
    -1
  9
$ENDCAPS
280
     0
  9
$JOINSTYLE
280
     0
  9
$LWDISPLAY
290
     0
  9
$INSUNITS
 70
     0
  9
$HYPERLINKBASE
  1

  9
$STYLESHEET
  1

  9
$XEDIT
290
     1
  9
$CEPSNTYPE
380
     0
  9
$PSTYLEMODE
290
     1
  9
$FINGERPRINTGUID
  2
{4C1A3566-73A6-4FC4-8449-2AE6A8F07898}
  9
$VERSIONGUID
  2
{1C99CB34-3BC9-49BB-B29F-0B5253349653}
  9
$EXTNAMES
290
     1
  9
$PSVPSCALE
 40
0.0
  9
$OLESTARTUP
290
     0
  0
ENDSEC
  0
SECTION
  2
CLASSES
  0
CLASS
  1
ACDBDICTIONARYWDFLT
  2
AcDbDictionaryWithDefault
  3
AutoCAD 2000
 90
        0
280
     0
281
     0
  0
CLASS
  1
ACDBPLACEHOLDER
  2
AcDbPlaceHolder
  3
AutoCAD 2000
 90
        0
280
     0
281
     0
  0
CLASS
  1
LAYOUT
  2
AcDbLayout
  3
AutoCAD 2000
 90
        0
280
     0
281
     0
  0
CLASS
  1
DICTIONARYVAR
  2
AcDbDictionaryVar
  3
AutoCAD 2000
 90
        0
280
     0
281
     0
  0
ENDSEC
  0
SECTION
  2
TABLES
  0
TABLE
  2
VPORT
  5
8
330
0
100
AcDbSymbolTable
 70
     2
  0
VPORT
  5
669
330
8
100
AcDbSymbolTableRecord
100
AcDbViewportTableRecord
  2
*Active
 70
     0
 10
0.0
 20
0.0
 11
1.0
 21
1.0
 12
155.4999999999999
 22
599.0
 13
0.0
 23
0.0
 14
1.0
 24
1.0
 15
0.0
 25
0.0
 16
0.0
 26
0.0
 36
1.0
 17
0.0
 27
0.0
 37
0.0
 40
1205.566315789473
 41
1.968387776606954
 42
50.0
 43
0.0
 44
0.0
 50
0.0
 51
0.0
 71
     0
 72
   100
 73
     1
 74
     3
 75
     0
 76
     0
 77
     0
 78
     0
281
     0
 65
     1
110
0.0
120
0.0
130
0.0
111
1.0
121
0.0
131
0.0
112
0.0
122
1.0
132
0.0
 79
     1
146
0.0
  0
ENDTAB
  0
TABLE
  2
LTYPE
  5
5
330
0
100
AcDbSymbolTable
 70
     1
  0
LTYPE
  5
13
330
5
100
AcDbSymbolTableRecord
100
AcDbLinetypeTableRecord
  2
ByBlock
 70
     0
  3

 72
    65
 73
     0
 40
0.0
  0
LTYPE
  5
14
330
5
100
AcDbSymbolTableRecord
100
AcDbLinetypeTableRecord
  2
ByLayer
 70
     0
  3

 72
    65
 73
     0
 40
0.0
  0
LTYPE
  5
15
330
5
100
AcDbSymbolTableRecord
100
AcDbLinetypeTableRecord
  2
Continuous
 70
     0
  3
Solid line
 72
    65
 73
     0
 40
0.0
  0
ENDTAB
  0
TABLE
  2
LAYER
  5
2
330
0
100
AcDbSymbolTable
 70
     1
  0
LAYER
  5
10
330
2
100
AcDbSymbolTableRecord
100
AcDbLayerTableRecord
  2
0
 70
     0
 62
     7
  6
Continuous
370
    -3
390
F
  0
ENDTAB
  0
TABLE
  2
STYLE
  5
3
330
0
100
AcDbSymbolTable
 70
     1
  0
STYLE
  5
11
330
3
100
AcDbSymbolTableRecord
100
AcDbTextStyleTableRecord
  2
Standard
 70
     0
 40
0.0
 41
1.0
 50
0.0
 71
     0
 42
0.2
  3
txt
  4

  0
ENDTAB
  0
TABLE
  2
VIEW
  5
6
330
0
100
AcDbSymbolTable
 70
     0
  0
ENDTAB
  0
TABLE
  2
UCS
  5
7
330
0
100
AcDbSymbolTable
 70
     0
  0
ENDTAB
  0
TABLE
  2
APPID
  5
9
330
0
100
AcDbSymbolTable
 70
     1
  0
APPID
  5
12
330
9
100
AcDbSymbolTableRecord
100
AcDbRegAppTableRecord
  2
ACAD
 70
     0
  0
ENDTAB
  0
TABLE
  2
DIMSTYLE
  5
A
330
0
100
AcDbSymbolTable
 70
     1
100
AcDbDimStyleTable
 71
     0
  0
DIMSTYLE
105
65D
330
A
100
AcDbSymbolTableRecord
100
AcDbDimStyleTableRecord
  2
Standard
 70
     0
340
11
  0
ENDTAB
  0
TABLE
  2
BLOCK_RECORD
  5
1
330
0
100
AcDbSymbolTable
 70
     0
  0
BLOCK_RECORD
  5
1E
330
1
100
AcDbSymbolTableRecord
100
AcDbBlockTableRecord
  2
*Model_Space
340
21
  0
BLOCK_RECORD
  5
1A
330
1
100
AcDbSymbolTableRecord
100
AcDbBlockTableRecord
  2
*Paper_Space
340
1D
  0
ENDTAB
  0
ENDSEC
  0
SECTION
  2
BLOCKS
  0
BLOCK
  5
1F
330
1E
100
AcDbEntity
  8
0
100
AcDbBlockBegin
  2
*Model_Space
 70
     0
 10
0.0
 20
0.0
 30
0.0
  3
*Model_Space
  1

  0
ENDBLK
  5
20
330
1E
100
AcDbEntity
  8
0
100
AcDbBlockEnd
  0
BLOCK
  5
1B
330
1A
100
AcDbEntity
 67
     1
  8
0
100
AcDbBlockBegin
  2
*Paper_Space
 70
     0
 10
0.0
 20
0.0
 30
0.0
  3
*Paper_Space
  1

  0
ENDBLK
  5
1C
330
1A
100
AcDbEntity
 67
     1
  8
0
100
AcDbBlockEnd
  0
ENDSEC
  0
SECTION
  2
ENTITIES
  0
LINE
  5
22
330
1E
100
AcDbEntity
  8
0
100
AcDbLine
 10
21.843
 20
1079.344999999999
 30
0.0
 11
22.863
 21
1079.071999999999
 31
0.0
  0
LINE
  5
23
330
1E
100
AcDbEntity
  8
0
100
AcDbLine
 10
22.863
 20
1079.071999999999
 30
0.0
 11
23.24549999999999
 21
1078.969
 31
0.0
  0
LINE
  5
24
330
1E
100
AcDbEntity
  8
0
100
AcDbLine
 10
18.0179
 20
1080.37
 30
0.0
 11
20.1855
 21
1079.789
 31
0.0
  0
LINE
  5
25
330
1E
100
AcDbEntity
  8
0
100
AcDbLine
 10
20.1855
 20
1079.789
 30
0.0
 11
21.843
 21
1079.344999999999
 31
0.0
  0
LINE
  5
26
330
1E
100
AcDbEntity
  8
0
100
AcDbLine
 10
12.8753
 20
1081.748
 30
0.0
 11
15.5529
 21
1081.029999999999
 31
0.0
  0
LINE
  5
27
330
1E
100
AcDbEntity
  8
0
100
AcDbLine
 10
15.5529
 20
1081.029999999999
 30
0.0
 11
18.0179
 21
1080.37
 31
0.0
  0
LINE
  5
28
330
1E
100
AcDbEntity
  8
0
100
AcDbLine
 10
5.565210000000009
 20
1083.706999999999
 30
0.0
 11
7.732750000000009
 21
1083.126
 31
0.0
  0
LINE
  5
29
330
1E
100
AcDbEntity
  8
0
100
AcDbLine
 10
10.19778999999999
 20
1082.465
 30
0.0
 11
12.8753
 21
1081.748
 31
0.0
  0
LINE
  5
2A
330
1E
100
AcDbEntity
  8
0
100
AcDbLine
 10
7.732750000000009
 20
1083.126
 30
0.0
 11
10.19778999999999
 21
1082.465
 31
0.0
  0
LINE
  5
2B
330
1E
100
AcDbEntity
  8
0
100
AcDbLine
 10
10.23293999999999
 20
1082.767
 30
0.0
 11
12.953
 21
1082.038
 31
0.0
  0
LINE
  5
2C
330
1E
100
AcDbEntity
  8
0
100
AcDbLine
 10
7.682900000000009
 20
1083.45
 30
0.0
 11
10.23293999999999
 21
1082.767
 31
0.0
  0
LINE
  5
2D
330
1E
100
AcDbEntity
  8
0
100
AcDbLine
 10
12.953
 20
1082.038
 30
0.0
 11
15.673
 21
1081.309
 31
0.0
  0
LINE
  5
2E
330
1E
100
AcDbEntity
  8
0
100
AcDbLine
 10
15.673
 20
1081.309
 30
0.0
 11
18.22309999999999
 21
1080.626
 31
0.0
  0
LINE
  5
2F
330
1E
100
AcDbEntity
  8
0
100
AcDbLine
 10
18.22309999999999
 20
1080.626
 30
0.0
 11
20.4756
 21
1080.022
 31
0.0
  0
LINE
  5
30
330
1E
100
AcDbEntity
  8
0
100
AcDbLine
 10
20.4756
 20
1080.022
 30
0.0
 11
22.1756
 21
1079.566999999999
 31
0.0
  0
LINE
  5
31
330
1E
100
AcDbEntity
  8
0
100
AcDbLine
 10
22.1756
 20
1079.566999999999
 30
0.0
 11
23.1957
 21
1079.293
 31
0.0
  0
LINE
  5
32
330
1E
100
AcDbEntity
  8
0
100
AcDbLine
 10
148.986
 20
-0.0000000000000091
 30
0.0
 11
156.282
 21
-0.0000000000000096
 31
0.0
  0
LINE
  5
33
330
1E
100
AcDbEntity
  8
0
100
AcDbLine
 10
148.986
 20
31.8686
 30
0.0
 11
156.282
 21
31.8686
 31
0.0
  0
LINE
  5
34
330
1E
100
AcDbEntity
  8
0
100
AcDbLine
 10
146.25
 20
31.8686
 30
0.0
 11
146.453777267103
 21
31.995
 31
0.0
  0
LINE
  5
35
330
1E
100
AcDbEntity
  8
0
100
AcDbLine
 10
146.25
 20
31.8686
 30
0.0
 11
146.25
 21
-0.0000000000000083
 31
0.0
  0
LINE
  5
36
330
1E
100
AcDbEntity
  8
0
100
AcDbLine
 10
146.25
 20
31.8686
 30
0.0
 11
148.986
 21
31.8686
 31
0.0
  0
LINE
  5
37
330
1E
100
AcDbEntity
  8
0
100
AcDbLine
 10
146.25
 20
-0.0000000000000089
 30
0.0
 11
148.986
 21
-0.0000000000000091
 31
0.0
  0
LINE
  5
38
330
1E
100
AcDbEntity
  8
0
100
AcDbLine
 10
146.25
 20
-0.0000000000000089
 30
0.0
 11
146.25
 21
31.8686
 31
0.0
  0
LINE
  5
39
330
1E
100
AcDbEntity
  8
0
100
AcDbLine
 10
156.282
 20
31.8686
 30
0.0
 11
168.442
 21
31.8686
 31
0.0
  0
LINE
  5
3A
330
1E
100
AcDbEntity
  8
0
100
AcDbLine
 10
156.282
 20
-0.0000000000000096
 30
0.0
 11
168.442
 21
-0.0000000000000103
 31
0.0
  0
LINE
  5
3B
330
1E
100
AcDbEntity
  8
0
100
AcDbLine
 10
156.282
 20
31.995
 30
0.0
 11
168.442
 21
31.995
 31
0.0
  0
LINE
  5
3C
330
1E
100
AcDbEntity
  8
0
100
AcDbLine
 10
148.986
 20
31.995
 30
0.0
 11
156.282
 21
31.995
 31
0.0
  0
LINE
  5
3D
330
1E
100
AcDbEntity
  8
0
100
AcDbLine
 10
156.282
 20
32.989671
 30
0.0
 11
168.442
 21
32.989671
 31
0.0
  0
LINE
  5
3E
330
1E
100
AcDbEntity
  8
0
100
AcDbLine
 10
158.1059999999999
 20
33.0
 30
0.0
 11
169.962
 21
33.0
 31
0.0
  0
LINE
  5
3F
330
1E
100
AcDbEntity
  8
0
100
AcDbLine
 10
150.8099999999999
 20
33.0
 30
0.0
 11
158.1059999999999
 21
33.0
 31
0.0
  0
LINE
  5
40
330
1E
100
AcDbEntity
  8
0
100
AcDbLine
 10
151.25
 20
33.025
 30
0.0
 11
151.25
 21
39.52
 31
0.0
  0
LINE
  5
41
330
1E
100
AcDbEntity
  8
0
100
AcDbLine
 10
148.0739999999999
 20
33.0
 30
0.0
 11
150.8099999999999
 21
33.0
 31
0.0
  0
LINE
  5
42
330
1E
100
AcDbEntity
  8
0
100
AcDbLine
 10
158.1059999999999
 20
33.025
 30
0.0
 11
169.962
 21
33.025
 31
0.0
  0
LINE
  5
43
330
1E
100
AcDbEntity
  8
0
100
AcDbLine
 10
151.37
 20
40.0
 30
0.0
 11
151.55
 21
40.0
 31
0.0
  0
LINE
  5
44
330
1E
100
AcDbEntity
  8
0
100
AcDbLine
 10
151.55
 20
40.0
 30
0.0
 11
152.0299999999999
 21
40.0
 31
0.0
  0
LINE
  5
45
330
1E
100
AcDbEntity
  8
0
100
AcDbLine
 10
152.0299999999999
 20
40.0
 30
0.0
 11
152.81
 21
40.0
 31
0.0
  0
LINE
  5
46
330
1E
100
AcDbEntity
  8
0
100
AcDbLine
 10
152.81
 20
40.0
 30
0.0
 11
153.83
 21
40.0
 31
0.0
  0
LINE
  5
47
330
1E
100
AcDbEntity
  8
0
100
AcDbLine
 10
153.83
 20
40.0
 30
0.0
 11
154.99
 21
40.0
 31
0.0
  0
LINE
  5
48
330
1E
100
AcDbEntity
  8
0
100
AcDbLine
 10
154.99
 20
40.0
 30
0.0
 11
156.25
 21
40.0
 31
0.0
  0
LINE
  5
49
330
1E
100
AcDbEntity
  8
0
100
AcDbLine
 10
151.25
 20
39.52
 30
0.0
 11
151.25
 21
33.025
 31
0.0
  0
LINE
  5
4A
330
1E
100
AcDbEntity
  8
0
100
AcDbLine
 10
151.25
 20
39.52
 30
0.0
 11
151.37
 21
40.0
 31
0.0
  0
LINE
  5
4B
330
1E
100
AcDbEntity
  8
0
100
AcDbLine
 10
159.6899999999999
 20
40.0
 30
0.0
 11
160.47
 21
40.0
 31
0.0
  0
LINE
  5
4C
330
1E
100
AcDbEntity
  8
0
100
AcDbLine
 10
158.6699999999999
 20
40.0
 30
0.0
 11
159.6899999999999
 21
40.0
 31
0.0
  0
LINE
  5
4D
330
1E
100
AcDbEntity
  8
0
100
AcDbLine
 10
157.5099999999999
 20
40.0
 30
0.0
 11
158.6699999999999
 21
40.0
 31
0.0
  0
LINE
  5
4E
330
1E
100
AcDbEntity
  8
0
100
AcDbLine
 10
156.25
 20
40.0
 30
0.0
 11
157.5099999999999
 21
40.0
 31
0.0
  0
LINE
  5
4F
330
1E
100
AcDbEntity
  8
0
100
AcDbLine
 10
150.8099999999999
 20
33.025
 30
0.0
 11
158.1059999999999
 21
33.025
 31
0.0
  0
LINE
  5
50
330
1E
100
AcDbEntity
  8
0
100
AcDbLine
 10
148.0739999999999
 20
33.025
 30
0.0
 11
150.8099999999999
 21
33.025
 31
0.0
  0
LINE
  5
51
330
1E
100
AcDbEntity
  8
0
100
AcDbLine
 10
148.986
 20
32.989671
 30
0.0
 11
156.282
 21
32.989671
 31
0.0
  0
LINE
  5
52
330
1E
100
AcDbEntity
  8
0
100
AcDbLine
 10
146.25
 20
32.989671
 30
0.0
 11
148.0739999999999
 21
33.025
 31
0.0
  0
LINE
  5
53
330
1E
100
AcDbEntity
  8
0
100
AcDbLine
 10
146.25
 20
32.989671
 30
0.0
 11
146.25
 21
31.995
 31
0.0
  0
LINE
  5
54
330
1E
100
AcDbEntity
  8
0
100
AcDbLine
 10
146.25
 20
32.989671
 30
0.0
 11
148.986
 21
32.989671
 31
0.0
  0
LINE
  5
55
330
1E
100
AcDbEntity
  8
0
100
AcDbLine
 10
146.25
 20
31.995
 30
0.0
 11
146.453777267103
 21
31.995
 31
0.0
  0
LINE
  5
56
330
1E
100
AcDbEntity
  8
0
100
AcDbLine
 10
146.25
 20
31.995
 30
0.0
 11
146.25
 21
32.989671
 31
0.0
  0
LINE
  5
57
330
1E
100
AcDbEntity
  8
0
100
AcDbLine
 10
146.25
 20
31.995
 30
0.0
 11
148.986
 21
31.995
 31
0.0
  0
LINE
  5
58
330
1E
100
AcDbEntity
  8
0
100
AcDbLine
 10
160.9499999999999
 20
40.0
 30
0.0
 11
161.1299999999999
 21
40.0
 31
0.0
  0
LINE
  5
59
330
1E
100
AcDbEntity
  8
0
100
AcDbLine
 10
160.47
 20
40.0
 30
0.0
 11
160.9499999999999
 21
40.0
 31
0.0
  0
LINE
  5
5A
330
1E
100
AcDbEntity
  8
0
100
AcDbLine
 10
161.25
 20
33.025
 30
0.0
 11
161.25
 21
39.52
 31
0.0
  0
LINE
  5
5B
330
1E
100
AcDbEntity
  8
0
100
AcDbLine
 10
161.1299999999999
 20
40.0
 30
0.0
 11
161.25
 21
39.52
 31
0.0
  0
LINE
  5
5C
330
1E
100
AcDbEntity
  8
0
100
AcDbLine
 10
161.25
 20
39.52
 30
0.0
 11
161.25
 21
33.025
 31
0.0
  0
LINE
  5
5D
330
1E
100
AcDbEntity
  8
0
100
AcDbLine
 10
161.3439999999999
 20
100.0
 30
0.0
 11
161.803
 21
100.0
 31
0.0
  0
LINE
  5
5E
330
1E
100
AcDbEntity
  8
0
100
AcDbLine
 10
160.956
 20
100.0
 30
0.0
 11
161.3439999999999
 21
100.0
 31
0.0
  0
LINE
  5
5F
330
1E
100
AcDbEntity
  8
0
100
AcDbLine
 10
160.6729999999999
 20
100.0
 30
0.0
 11
160.956
 21
100.0
 31
0.0
  0
LINE
  5
60
330
1E
100
AcDbEntity
  8
0
100
AcDbLine
 10
160.426
 20
100.0
 30
0.0
 11
160.6729999999999
 21
100.0
 31
0.0
  0
LINE
  5
61
330
1E
100
AcDbEntity
  8
0
100
AcDbLine
 10
160.3209999999999
 20
100.0
 30
0.0
 11
160.426
 21
100.0
 31
0.0
  0
LINE
  5
62
330
1E
100
AcDbEntity
  8
0
100
AcDbLine
 10
160.25
 20
100.0
 30
0.0
 11
160.3209999999999
 21
100.0
 31
0.0
  0
LINE
  5
63
330
1E
100
AcDbEntity
  8
0
100
AcDbLine
 10
160.25
 20
100.0
 30
0.0
 11
160.25
 21
113.6428999999999
 31
0.0
  0
LINE
  5
64
330
1E
100
AcDbEntity
  8
0
100
AcDbLine
 10
161.803
 20
100.0
 30
0.0
 11
162.3319999999999
 21
100.0
 31
0.0
  0
LINE
  5
65
330
1E
100
AcDbEntity
  8
0
100
AcDbLine
 10
162.3319999999999
 20
100.0
 30
0.0
 11
162.897
 21
100.0
 31
0.0
  0
LINE
  5
66
330
1E
100
AcDbEntity
  8
0
100
AcDbLine
 10
162.897
 20
100.0
 30
0.0
 11
163.532
 21
100.0
 31
0.0
  0
LINE
  5
67
330
1E
100
AcDbEntity
  8
0
100
AcDbLine
 10
163.532
 20
100.0
 30
0.0
 11
164.168
 21
100.0
 31
0.0
  0
LINE
  5
68
330
1E
100
AcDbEntity
  8
0
100
AcDbLine
 10
164.168
 20
100.0
 30
0.0
 11
164.8379999999999
 21
100.0
 31
0.0
  0
LINE
  5
69
330
1E
100
AcDbEntity
  8
0
100
AcDbLine
 10
167.25
 20
43.325
 30
0.0
 11
175.2499999999999
 21
51.05
 31
0.0
  0
LINE
  5
6A
330
1E
100
AcDbEntity
  8
0
100
AcDbLine
 10
167.25
 20
43.325
 30
0.0
 11
169.2299999999999
 21
43.325
 31
0.0
  0
LINE
  5
6B
330
1E
100
AcDbEntity
  8
0
100
AcDbLine
 10
167.25
 20
43.325
 30
0.0
 11
167.25
 21
33.025
 31
0.0
  0
LINE
  5
6C
330
1E
100
AcDbEntity
  8
0
100
AcDbLine
 10
168.442
 20
31.8686
 30
0.0
 11
184.5539999999999
 21
31.8686
 31
0.0
  0
LINE
  5
6D
330
1E
100
AcDbEntity
  8
0
100
AcDbLine
 10
168.442
 20
-0.0000000000000103
 30
0.0
 11
184.5539999999999
 21
-0.0000000000000113
 31
0.0
  0
LINE
  5
6E
330
1E
100
AcDbEntity
  8
0
100
AcDbLine
 10
170.5745999999999
 20
33.0
 30
0.0
 11
170.5745999999999
 21
39.52
 31
0.0
  0
LINE
  5
6F
330
1E
100
AcDbEntity
  8
0
100
AcDbLine
 10
169.962
 20
33.0
 30
0.0
 11
185.4659999999999
 21
33.0
 31
0.0
  0
LINE
  5
70
330
1E
100
AcDbEntity
  8
0
100
AcDbLine
 10
172.1302999999999
 20
40.0
 30
0.0
 11
173.1485
 21
40.0
 31
0.0
  0
LINE
  5
71
330
1E
100
AcDbEntity
  8
0
100
AcDbLine
 10
173.1485
 20
40.0
 30
0.0
 11
174.3082
 21
40.0
 31
0.0
  0
LINE
  5
72
330
1E
100
AcDbEntity
  8
0
100
AcDbLine
 10
174.3082
 20
40.0
 30
0.0
 11
175.5809999999999
 21
40.0
 31
0.0
  0
LINE
  5
73
330
1E
100
AcDbEntity
  8
0
100
AcDbLine
 10
171.3666
 20
40.0
 30
0.0
 11
172.1302999999999
 21
40.0
 31
0.0
  0
LINE
  5
74
330
1E
100
AcDbEntity
  8
0
100
AcDbLine
 10
170.8858
 20
40.0
 30
0.0
 11
171.3666
 21
40.0
 31
0.0
  0
LINE
  5
75
330
1E
100
AcDbEntity
  8
0
100
AcDbLine
 10
170.7161
 20
40.0
 30
0.0
 11
170.8858
 21
40.0
 31
0.0
  0
LINE
  5
76
330
1E
100
AcDbEntity
  8
0
100
AcDbLine
 10
170.5745999999999
 20
39.52
 30
0.0
 11
170.5745999999999
 21
33.0
 31
0.0
  0
LINE
  5
77
330
1E
100
AcDbEntity
  8
0
100
AcDbLine
 10
170.5745999999999
 20
39.52
 30
0.0
 11
170.7161
 21
40.0
 31
0.0
  0
LINE
  5
78
330
1E
100
AcDbEntity
  8
0
100
AcDbLine
 10
169.962
 20
33.025
 30
0.0
 11
185.4659999999999
 21
33.025
 31
0.0
  0
LINE
  5
79
330
1E
100
AcDbEntity
  8
0
100
AcDbLine
 10
168.442
 20
32.989671
 30
0.0
 11
184.5539999999999
 21
32.989671
 31
0.0
  0
LINE
  5
7A
330
1E
100
AcDbEntity
  8
0
100
AcDbLine
 10
168.442
 20
31.995
 30
0.0
 11
184.5539999999999
 21
31.995
 31
0.0
  0
LINE
  5
7B
330
1E
100
AcDbEntity
  8
0
100
AcDbLine
 10
180.5873
 20
33.025
 30
0.0
 11
180.5873
 21
39.52
 31
0.0
  0
LINE
  5
7C
330
1E
100
AcDbEntity
  8
0
100
AcDbLine
 10
175.5809999999999
 20
40.0
 30
0.0
 11
176.8537
 21
40.0
 31
0.0
  0
LINE
  5
7D
330
1E
100
AcDbEntity
  8
0
100
AcDbLine
 10
176.8537
 20
40.0
 30
0.0
 11
178.0133999999999
 21
40.0
 31
0.0
  0
LINE
  5
7E
330
1E
100
AcDbEntity
  8
0
100
AcDbLine
 10
178.0133999999999
 20
40.0
 30
0.0
 11
179.0315999999999
 21
40.0
 31
0.0
  0
LINE
  5
7F
330
1E
100
AcDbEntity
  8
0
100
AcDbLine
 10
180.2761
 20
40.0
 30
0.0
 11
180.4457999999999
 21
40.0
 31
0.0
  0
LINE
  5
80
330
1E
100
AcDbEntity
  8
0
100
AcDbLine
 10
180.4457999999999
 20
40.0
 30
0.0
 11
180.5873
 21
39.52
 31
0.0
  0
LINE
  5
81
330
1E
100
AcDbEntity
  8
0
100
AcDbLine
 10
179.7952999999999
 20
40.0
 30
0.0
 11
180.2761
 21
40.0
 31
0.0
  0
LINE
  5
82
330
1E
100
AcDbEntity
  8
0
100
AcDbLine
 10
179.0315999999999
 20
40.0
 30
0.0
 11
179.7952999999999
 21
40.0
 31
0.0
  0
LINE
  5
83
330
1E
100
AcDbEntity
  8
0
100
AcDbLine
 10
180.5873
 20
39.52
 30
0.0
 11
180.5873
 21
33.025
 31
0.0
  0
LINE
  5
84
330
1E
100
AcDbEntity
  8
0
100
AcDbLine
 10
174.5099999999999
 20
43.325
 30
0.0
 11
183.3099999999999
 21
43.325
 31
0.0
  0
LINE
  5
85
330
1E
100
AcDbEntity
  8
0
100
AcDbLine
 10
169.2299999999999
 20
43.325
 30
0.0
 11
174.5099999999999
 21
43.325
 31
0.0
  0
LINE
  5
86
330
1E
100
AcDbEntity
  8
0
100
AcDbLine
 10
181.454
 20
51.05
 30
0.0
 11
189.074
 21
51.05
 31
0.0
  0
LINE
  5
87
330
1E
100
AcDbEntity
  8
0
100
AcDbLine
 10
176.942
 20
51.05
 30
0.0
 11
181.454
 21
51.05
 31
0.0
  0
LINE
  5
88
330
1E
100
AcDbEntity
  8
0
100
AcDbLine
 10
167.25
 20
33.025
 30
0.0
 11
167.25
 21
43.325
 31
0.0
  0
LINE
  5
8B
330
1E
100
AcDbEntity
  8
0
100
AcDbLine
 10
178.9819999999999
 20
99.975
 30
0.0
 11
183.4059999999999
 21
99.975
 31
0.0
  0
LINE
  5
8C
330
1E
100
AcDbEntity
  8
0
100
AcDbLine
 10
177.324
 20
99.975
 30
0.0
 11
178.9819999999999
 21
99.975
 31
0.0
  0
LINE
  5
8D
330
1E
100
AcDbEntity
  8
0
100
AcDbLine
 10
175.9409999999999
 20
99.47957
 30
0.0
 11
177.324
 21
99.975
 31
0.0
  0
LINE
  5
8F
330
1E
100
AcDbEntity
  8
0
100
AcDbLine
 10
175.2499999999999
 20
98.489225
 30
0.0
 11
175.9409999999999
 21
99.47957
 31
0.0
  0
LINE
  5
90
330
1E
100
AcDbEntity
  8
0
100
AcDbLine
 10
175.2499999999999
 20
98.489225
 30
0.0
 11
175.2499999999999
 21
51.05
 31
0.0
  0
LINE
  5
92
330
1E
100
AcDbEntity
  8
0
100
AcDbLine
 10
175.2499999999999
 20
51.05
 30
0.0
 11
175.2499999999999
 21
98.489225
 31
0.0
  0
LINE
  5
93
330
1E
100
AcDbEntity
  8
0
100
AcDbLine
 10
175.2499999999999
 20
51.05
 30
0.0
 11
176.942
 21
51.05
 31
0.0
  0
LINE
  5
94
330
1E
100
AcDbEntity
  8
0
100
AcDbLine
 10
164.8379999999999
 20
100.0
 30
0.0
 11
165.544
 21
100.0
 31
0.0
  0
LINE
  5
95
330
1E
100
AcDbEntity
  8
0
100
AcDbLine
 10
161.4149999999999
 20
113.8929
 30
0.0
 11
161.874
 21
113.8929
 31
0.0
  0
LINE
  5
96
330
1E
100
AcDbEntity
  8
0
100
AcDbLine
 10
161.027
 20
113.8929
 30
0.0
 11
161.4149999999999
 21
113.8929
 31
0.0
  0
LINE
  5
97
330
1E
100
AcDbEntity
  8
0
100
AcDbLine
 10
160.7439999999999
 20
113.8929
 30
0.0
 11
161.027
 21
113.8929
 31
0.0
  0
LINE
  5
98
330
1E
100
AcDbEntity
  8
0
100
AcDbLine
 10
160.532
 20
113.8929
 30
0.0
 11
160.7439999999999
 21
113.8929
 31
0.0
  0
LINE
  5
99
330
1E
100
AcDbEntity
  8
0
100
AcDbLine
 10
160.3909999999999
 20
113.8929
 30
0.0
 11
160.532
 21
113.8929
 31
0.0
  0
LINE
  5
9A
330
1E
100
AcDbEntity
  8
0
100
AcDbLine
 10
160.3559999999999
 20
113.8929
 30
0.0
 11
160.6029999999999
 21
114.0
 31
0.0
  0
LINE
  5
9B
330
1E
100
AcDbEntity
  8
0
100
AcDbLine
 10
160.25
 20
113.6428999999999
 30
0.0
 11
160.25
 21
100.0
 31
0.0
  0
LINE
  5
9C
330
1E
100
AcDbEntity
  8
0
100
AcDbLine
 10
160.25
 20
113.6428999999999
 30
0.0
 11
160.3559999999999
 21
113.8929
 31
0.0
  0
LINE
  5
9D
330
1E
100
AcDbEntity
  8
0
100
AcDbLine
 10
161.874
 20
113.8929
 30
0.0
 11
162.368
 21
113.8929
 31
0.0
  0
LINE
  5
9E
330
1E
100
AcDbEntity
  8
0
100
AcDbLine
 10
162.368
 20
113.8929
 30
0.0
 11
162.932
 21
113.8929
 31
0.0
  0
LINE
  5
9F
330
1E
100
AcDbEntity
  8
0
100
AcDbLine
 10
162.932
 20
113.8929
 30
0.0
 11
163.532
 21
113.8929
 31
0.0
  0
LINE
  5
A0
330
1E
100
AcDbEntity
  8
0
100
AcDbLine
 10
163.532
 20
113.8929
 30
0.0
 11
164.203
 21
113.8929
 31
0.0
  0
LINE
  5
A1
330
1E
100
AcDbEntity
  8
0
100
AcDbLine
 10
164.203
 20
113.8929
 30
0.0
 11
164.8379999999999
 21
113.8929
 31
0.0
  0
LINE
  5
A2
330
1E
100
AcDbEntity
  8
0
100
AcDbLine
 10
161.626
 20
114.0
 30
0.0
 11
162.05
 21
114.0
 31
0.0
  0
LINE
  5
A3
330
1E
100
AcDbEntity
  8
0
100
AcDbLine
 10
161.2729999999999
 20
114.0
 30
0.0
 11
161.626
 21
114.0
 31
0.0
  0
LINE
  5
A4
330
1E
100
AcDbEntity
  8
0
100
AcDbLine
 10
160.991
 20
114.0
 30
0.0
 11
161.2729999999999
 21
114.0
 31
0.0
  0
LINE
  5
A5
330
1E
100
AcDbEntity
  8
0
100
AcDbLine
 10
160.779
 20
114.0
 30
0.0
 11
160.991
 21
114.0
 31
0.0
  0
LINE
  5
A6
330
1E
100
AcDbEntity
  8
0
100
AcDbLine
 10
160.638
 20
114.0
 30
0.0
 11
160.779
 21
114.0
 31
0.0
  0
LINE
  5
A7
330
1E
100
AcDbEntity
  8
0
100
AcDbLine
 10
162.05
 20
114.0
 30
0.0
 11
162.5439999999999
 21
114.0
 31
0.0
  0
LINE
  5
A8
330
1E
100
AcDbEntity
  8
0
100
AcDbLine
 10
162.5439999999999
 20
114.0
 30
0.0
 11
163.0739999999999
 21
114.0
 31
0.0
  0
LINE
  5
A9
330
1E
100
AcDbEntity
  8
0
100
AcDbLine
 10
163.0739999999999
 20
114.0
 30
0.0
 11
163.673
 21
114.0
 31
0.0
  0
LINE
  5
AA
330
1E
100
AcDbEntity
  8
0
100
AcDbLine
 10
163.673
 20
114.0
 30
0.0
 11
164.273
 21
114.0
 31
0.0
  0
LINE
  5
AB
330
1E
100
AcDbEntity
  8
0
100
AcDbLine
 10
164.273
 20
114.0
 30
0.0
 11
164.909
 21
114.0
 31
0.0
  0
LINE
  5
AC
330
1E
100
AcDbEntity
  8
0
100
AcDbLine
 10
164.909
 20
114.0
 30
0.0
 11
165.544
 21
114.0
 31
0.0
  0
LINE
  5
AD
330
1E
100
AcDbEntity
  8
0
100
AcDbLine
 10
165.544
 20
114.0
 30
0.0
 11
222.25
 21
114.0
 31
0.0
  0
LINE
  5
AE
330
1E
100
AcDbEntity
  8
0
100
AcDbLine
 10
164.8379999999999
 20
113.8929
 30
0.0
 11
165.544
 21
113.8929
 31
0.0
  0
LINE
  5
AF
330
1E
100
AcDbEntity
  8
0
100
AcDbLine
 10
165.544
 20
113.8929
 30
0.0
 11
222.25
 21
113.8929
 31
0.0
  0
LINE
  5
B0
330
1E
100
AcDbEntity
  8
0
100
AcDbLine
 10
165.544
 20
100.0
 30
0.0
 11
222.25
 21
100.0
 31
0.0
  0
LINE
  5
B1
330
1E
100
AcDbEntity
  8
0
100
AcDbLine
 10
23.24549999999999
 20
1078.969
 30
0.0
 11
23.57819999999999
 21
1079.191
 31
0.0
  0
LINE
  5
B2
330
1E
100
AcDbEntity
  8
0
100
AcDbLine
 10
24.8668107909062
 20
1084.0
 30
0.0
 11
175.2499999999999
 21
1084.0
 31
0.0
  0
LINE
  5
B3
330
1E
100
AcDbEntity
  8
0
100
AcDbLine
 10
23.57819999999999
 20
1079.191
 30
0.0
 11
24.8802086989006
 21
1084.05
 31
0.0
  0
LINE
  5
B4
330
1E
100
AcDbEntity
  8
0
100
AcDbLine
 10
23.1957
 20
1079.293
 30
0.0
 11
23.57819999999999
 21
1079.191
 31
0.0
  0
LINE
  5
B5
330
1E
100
AcDbEntity
  8
0
100
AcDbLine
 10
24.8668107909062
 20
1084.0
 30
0.0
 11
175.2499999999999
 21
1084.0
 31
0.0
  0
LINE
  5
B6
330
1E
100
AcDbEntity
  8
0
100
AcDbLine
 10
184.5539999999999
 20
31.8686
 30
0.0
 11
202.794
 21
31.8686
 31
0.0
  0
LINE
  5
B7
330
1E
100
AcDbEntity
  8
0
100
AcDbLine
 10
184.5539999999999
 20
-0.0000000000000113
 30
0.0
 11
202.794
 21
-0.0000000000000124
 31
0.0
  0
LINE
  5
B8
330
1E
100
AcDbEntity
  8
0
100
AcDbLine
 10
185.4659999999999
 20
33.0
 30
0.0
 11
203.098
 21
33.0
 31
0.0
  0
LINE
  5
B9
330
1E
100
AcDbEntity
  8
0
100
AcDbLine
 10
184.5539999999999
 20
32.989671
 30
0.0
 11
202.794
 21
32.989671
 31
0.0
  0
LINE
  5
BA
330
1E
100
AcDbEntity
  8
0
100
AcDbLine
 10
184.5539999999999
 20
31.995
 30
0.0
 11
202.794
 21
31.995
 31
0.0
  0
LINE
  5
BB
330
1E
100
AcDbEntity
  8
0
100
AcDbLine
 10
183.3099999999999
 20
43.325
 30
0.0
 11
194.9699999999999
 21
43.325
 31
0.0
  0
LINE
  5
BC
330
1E
100
AcDbEntity
  8
0
100
AcDbLine
 10
183.4059999999999
 20
99.975
 30
0.0
 11
190.456
 21
99.975
 31
0.0
  0
LINE
  5
BE
330
1E
100
AcDbEntity
  8
0
100
AcDbLine
 10
190.456
 20
99.975
 30
0.0
 11
199.8559
 21
99.975
 31
0.0
  0
LINE
  5
C0
330
1E
100
AcDbEntity
  8
0
100
AcDbLine
 10
189.074
 20
51.05
 30
0.0
 11
198.8882
 21
51.05
 31
0.0
  0
LINE
  5
C1
330
1E
100
AcDbEntity
  8
0
100
AcDbLine
 10
185.4659999999999
 20
33.025
 30
0.0
 11
194.9699999999999
 21
33.025
 31
0.0
  0
LINE
  5
C2
330
1E
100
AcDbEntity
  8
0
100
AcDbLine
 10
185.4659999999999
 20
33.025
 30
0.0
 11
203.098
 21
33.025
 31
0.0
  0
LINE
  5
C3
330
1E
100
AcDbEntity
  8
0
100
AcDbLine
 10
187.25
 20
1080.785
 30
0.0
 11
192.2209999999999
 21
1076.971
 31
0.0
  0
LINE
  5
C4
330
1E
100
AcDbEntity
  8
0
100
AcDbLine
 10
181.462
 20
1083.182
 30
0.0
 11
187.25
 21
1080.785
 31
0.0
  0
LINE
  5
C8
330
1E
100
AcDbEntity
  8
0
100
AcDbLine
 10
0.250000000000013
 20
1098.0
 30
0.0
 11
1.06500900000001
 21
1094.966
 31
0.0
  0
LINE
  5
C9
330
1E
100
AcDbEntity
  8
0
100
AcDbLine
 10
0.250000000000013
 20
1099.0
 30
0.0
 11
0.550000000000013
 21
1099.7
 31
0.0
  0
LINE
  5
CA
330
1E
100
AcDbEntity
  8
0
100
AcDbLine
 10
0.250000000000013
 20
1098.0
 30
0.0
 11
0.250000000000013
 21
1099.0
 31
0.0
  0
LINE
  5
CB
330
1E
100
AcDbEntity
  8
0
100
AcDbLine
 10
0.250000000000013
 20
1098.0
 30
0.0
 11
1.06500900000001
 21
1094.966
 31
0.0
  0
LINE
  5
CD
330
1E
100
AcDbEntity
  8
0
100
AcDbLine
 10
0.550000000000013
 20
1099.7
 30
0.0
 11
1.250000000000009
 21
1100.0
 31
0.0
  0
LINE
  5
D3
330
1E
100
AcDbEntity
  8
0
100
AcDbLine
 10
1.06500900000001
 20
1094.966
 30
0.0
 11
2.24455000000001
 21
1092.702999999999
 31
0.0
  0
LINE
  5
D4
330
1E
100
AcDbEntity
  8
0
100
AcDbLine
 10
2.505160000000009
 20
1084.527
 30
0.0
 11
2.887670000000009
 21
1084.424
 31
0.0
  0
LINE
  5
D5
330
1E
100
AcDbEntity
  8
0
100
AcDbLine
 10
3.907690000000009
 20
1084.151
 30
0.0
 11
5.565210000000009
 21
1083.706999999999
 31
0.0
  0
LINE
  5
D6
330
1E
100
AcDbEntity
  8
0
100
AcDbLine
 10
2.887670000000009
 20
1084.424
 30
0.0
 11
3.907690000000009
 21
1084.151
 31
0.0
  0
LINE
  5
D7
330
1E
100
AcDbEntity
  8
0
100
AcDbLine
 10
5.430360000000009
 20
1084.053
 30
0.0
 11
7.682900000000009
 21
1083.45
 31
0.0
  0
LINE
  5
D8
330
1E
100
AcDbEntity
  8
0
100
AcDbLine
 10
3.730330000000009
 20
1084.509
 30
0.0
 11
5.430360000000009
 21
1084.053
 31
0.0
  0
LINE
  5
D9
330
1E
100
AcDbEntity
  8
0
100
AcDbLine
 10
2.710310000000009
 20
1084.781999999999
 30
0.0
 11
3.730330000000009
 21
1084.509
 31
0.0
  0
LINE
  5
DA
330
1E
100
AcDbEntity
  8
0
100
AcDbLine
 10
2.327800000000009
 20
1084.885
 30
0.0
 11
2.710310000000009
 21
1084.781999999999
 31
0.0
  0
LINE
  5
DB
330
1E
100
AcDbEntity
  8
0
100
AcDbLine
 10
2.327800000000009
 20
1084.885
 30
0.0
 11
3.908512703218459
 21
1090.783985208999
 31
0.0
  0
LINE
  5
DC
330
1E
100
AcDbEntity
  8
0
100
AcDbLine
 10
2.327800000000009
 20
1084.885
 30
0.0
 11
2.505160000000009
 21
1084.527
 31
0.0
  0
LINE
  5
DD
330
1E
100
AcDbEntity
  8
0
100
AcDbLine
 10
2.327800000000009
 20
1084.885
 30
0.0
 11
3.908512703218459
 21
1090.783985208999
 31
0.0
  0
LINE
  5
EE
330
1E
100
AcDbEntity
  8
0
100
AcDbLine
 10
191.4429999999999
 20
1099.543999999999
 30
0.0
 11
195.53
 21
1098.854
 31
0.0
  0
LINE
  5
EF
330
1E
100
AcDbEntity
  8
0
100
AcDbLine
 10
2.24455000000001
 20
1092.702999999999
 30
0.0
 11
3.905740000000009
 21
1090.597999999999
 31
0.0
  0
LINE
  5
F0
330
1E
100
AcDbEntity
  8
0
100
AcDbLine
 10
5.250000000000009
 20
1100.0
 30
0.0
 11
6.950000000000009
 21
1100.0
 31
0.0
  0
LINE
  5
F1
330
1E
100
AcDbEntity
  8
0
100
AcDbLine
 10
6.950000000000009
 20
1100.0
 30
0.0
 11
8.754120000000009
 21
1100.0
 31
0.0
  0
LINE
  5
F2
330
1E
100
AcDbEntity
  8
0
100
AcDbLine
 10
8.754120000000009
 20
1100.0
 30
0.0
 11
10.739
 21
1100.0
 31
0.0
  0
LINE
  5
F3
330
1E
100
AcDbEntity
  8
0
100
AcDbLine
 10
10.739
 20
1100.0
 30
0.0
 11
12.9403
 21
1100.0
 31
0.0
  0
LINE
  5
F4
330
1E
100
AcDbEntity
  8
0
100
AcDbLine
 10
12.9403
 20
1100.0
 30
0.0
 11
15.4989
 21
1100.0
 31
0.0
  0
LINE
  5
F5
330
1E
100
AcDbEntity
  8
0
100
AcDbLine
 10
15.4989
 20
1100.0
 30
0.0
 11
18.9273
 21
1100.0
 31
0.0
  0
LINE
  5
F6
330
1E
100
AcDbEntity
  8
0
100
AcDbLine
 10
18.9273
 20
1100.0
 30
0.0
 11
21.9767
 21
1100.0
 31
0.0
  0
LINE
  5
F7
330
1E
100
AcDbEntity
  8
0
100
AcDbLine
 10
24.25
 20
1100.0
 30
0.0
 11
175.2499999999999
 21
1100.0
 31
0.0
  0
LINE
  5
F8
330
1E
100
AcDbEntity
  8
0
100
AcDbLine
 10
21.9767
 20
1100.0
 30
0.0
 11
24.25
 21
1100.0
 31
0.0
  0
LINE
  5
F9
330
1E
100
AcDbEntity
  8
0
100
AcDbLine
 10
4.050000000000009
 20
1100.0
 30
0.0
 11
5.250000000000009
 21
1100.0
 31
0.0
  0
LINE
  5
FA
330
1E
100
AcDbEntity
  8
0
100
AcDbLine
 10
3.242930000000009
 20
1100.0
 30
0.0
 11
4.050000000000009
 21
1100.0
 31
0.0
  0
LINE
  5
FB
330
1E
100
AcDbEntity
  8
0
100
AcDbLine
 10
2.694970000000009
 20
1100.0
 30
0.0
 11
3.242930000000009
 21
1100.0
 31
0.0
  0
LINE
  5
FC
330
1E
100
AcDbEntity
  8
0
100
AcDbLine
 10
2.232880000000009
 20
1100.0
 30
0.0
 11
2.694970000000009
 21
1100.0
 31
0.0
  0
LINE
  5
FD
330
1E
100
AcDbEntity
  8
0
100
AcDbLine
 10
1.85233000000001
 20
1100.0
 30
0.0
 11
2.232880000000009
 21
1100.0
 31
0.0
  0
LINE
  5
FE
330
1E
100
AcDbEntity
  8
0
100
AcDbLine
 10
1.53973000000001
 20
1100.0
 30
0.0
 11
1.85233000000001
 21
1100.0
 31
0.0
  0
LINE
  5
FF
330
1E
100
AcDbEntity
  8
0
100
AcDbLine
 10
1.335870000000009
 20
1100.0
 30
0.0
 11
1.53973000000001
 21
1100.0
 31
0.0
  0
LINE
  5
100
330
1E
100
AcDbEntity
  8
0
100
AcDbLine
 10
1.250000000000009
 20
1100.0
 30
0.0
 11
1.335870000000009
 21
1100.0
 31
0.0
  0
LINE
  5
101
330
1E
100
AcDbEntity
  8
0
100
AcDbLine
 10
24.25
 20
1100.0
 30
0.0
 11
175.2499999999999
 21
1100.0
 31
0.0
  0
LINE
  5
102
330
1E
100
AcDbEntity
  8
0
100
AcDbLine
 10
183.2499999999999
 20
1100.0
 30
0.0
 11
188.391
 21
1099.787999999999
 31
0.0
  0
LINE
  5
103
330
1E
100
AcDbEntity
  8
0
100
AcDbLine
 10
175.2499999999999
 20
1100.0
 30
0.0
 11
183.2499999999999
 21
1100.0
 31
0.0
  0
LINE
  5
104
330
1E
100
AcDbEntity
  8
0
100
AcDbLine
 10
188.391
 20
1099.787999999999
 30
0.0
 11
191.4429999999999
 21
1099.543999999999
 31
0.0
  0
LINE
  5
105
330
1E
100
AcDbEntity
  8
0
100
AcDbLine
 10
0.550000000000013
 20
1099.7
 30
0.0
 11
1.250000000000009
 21
1100.0
 31
0.0
  0
LINE
  5
107
330
1E
100
AcDbEntity
  8
0
100
AcDbLine
 10
175.2499999999999
 20
1084.0
 30
0.0
 11
181.462
 21
1083.182
 31
0.0
  0
LINE
  5
108
330
1E
100
AcDbEntity
  8
0
100
AcDbLine
 10
194.9699999999999
 20
43.325
 30
0.0
 11
208.17
 21
43.325
 31
0.0
  0
LINE
  5
10B
330
1E
100
AcDbEntity
  8
0
100
AcDbLine
 10
198.8882
 20
51.05
 30
0.0
 11
210.2234999999999
 21
51.05
 31
0.0
  0
LINE
  5
10C
330
1E
100
AcDbEntity
  8
0
100
AcDbLine
 10
199.2499999999999
 20
114.0
 30
0.0
 11
199.2499999999999
 21
824.0
 31
0.0
  0
LINE
  5
10D
330
1E
100
AcDbEntity
  8
0
100
AcDbLine
 10
199.2499999999999
 20
114.0
 30
0.0
 11
199.2499999999999
 21
824.0
 31
0.0
  0
LINE
  5
10E
330
1E
100
AcDbEntity
  8
0
100
AcDbLine
 10
199.2499999999999
 20
824.0
 30
0.0
 11
199.55
 21
824.6999999999999
 31
0.0
  0
LINE
  5
10F
330
1E
100
AcDbEntity
  8
0
100
AcDbLine
 10
199.2499999999999
 20
909.44
 30
0.0
 11
199.2499999999999
 21
902.0
 31
0.0
  0
LINE
  5
110
330
1E
100
AcDbEntity
  8
0
100
AcDbLine
 10
199.2499999999999
 20
902.0
 30
0.0
 11
199.2499999999999
 21
825.0
 31
0.0
  0
LINE
  5
111
330
1E
100
AcDbEntity
  8
0
100
AcDbLine
 10
199.2499999999999
 20
902.0
 30
0.0
 11
199.2499999999999
 21
909.44
 31
0.0
  0
LINE
  5
113
330
1E
100
AcDbEntity
  8
0
100
AcDbLine
 10
199.2499999999999
 20
825.0
 30
0.0
 11
199.2499999999999
 21
902.0
 31
0.0
  0
LINE
  5
114
330
1E
100
AcDbEntity
  8
0
100
AcDbLine
 10
199.2499999999999
 20
909.44
 30
0.0
 11
199.2499999999999
 21
986.392
 31
0.0
  0
LINE
  5
116
330
1E
100
AcDbEntity
  8
0
100
AcDbLine
 10
199.3
 20
825.0
 30
0.0
 11
199.3999999999999
 21
825.0
 31
0.0
  0
LINE
  5
117
330
1E
100
AcDbEntity
  8
0
100
AcDbLine
 10
199.55
 20
824.6999999999999
 30
0.0
 11
200.2499999999999
 21
825.0
 31
0.0
  0
LINE
  5
118
330
1E
100
AcDbEntity
  8
0
100
AcDbLine
 10
199.564
 20
824.6999999999999
 30
0.0
 11
199.6359999999999
 21
824.6999999999999
 31
0.0
  0
LINE
  5
119
330
1E
100
AcDbEntity
  8
0
100
AcDbLine
 10
199.6359999999999
 20
824.6999999999999
 30
0.0
 11
199.7259999999999
 21
824.6999999999999
 31
0.0
  0
LINE
  5
11A
330
1E
100
AcDbEntity
  8
0
100
AcDbLine
 10
199.7259999999999
 20
824.6999999999999
 30
0.0
 11
199.9
 21
824.6999999999999
 31
0.0
  0
LINE
  5
11B
330
1E
100
AcDbEntity
  8
0
100
AcDbLine
 10
199.3999999999999
 20
825.0
 30
0.0
 11
199.6
 21
825.0
 31
0.0
  0
LINE
  5
11C
330
1E
100
AcDbEntity
  8
0
100
AcDbLine
 10
199.6
 20
825.0
 30
0.0
 11
199.8499999999999
 21
825.0
 31
0.0
  0
LINE
  5
11D
330
1E
100
AcDbEntity
  8
0
100
AcDbLine
 10
199.8559
 20
99.975
 30
0.0
 11
210.6381999999999
 21
99.975
 31
0.0
  0
LINE
  5
11E
330
1E
100
AcDbEntity
  8
0
100
AcDbLine
 10
199.9
 20
824.6999999999999
 30
0.0
 11
200.15
 21
824.6999999999999
 31
0.0
  0
LINE
  5
11F
330
1E
100
AcDbEntity
  8
0
100
AcDbLine
 10
200.15
 20
824.6999999999999
 30
0.0
 11
200.55
 21
824.6999999999999
 31
0.0
  0
LINE
  5
120
330
1E
100
AcDbEntity
  8
0
100
AcDbLine
 10
200.55
 20
824.6999999999999
 30
0.0
 11
201.35
 21
824.6999999999999
 31
0.0
  0
LINE
  5
121
330
1E
100
AcDbEntity
  8
0
100
AcDbLine
 10
200.8459999999999
 20
825.0
 30
0.0
 11
201.243
 21
825.0
 31
0.0
  0
LINE
  5
122
330
1E
100
AcDbEntity
  8
0
100
AcDbLine
 10
200.5929999999999
 20
825.0
 30
0.0
 11
200.8459999999999
 21
825.0
 31
0.0
  0
LINE
  5
123
330
1E
100
AcDbEntity
  8
0
100
AcDbLine
 10
200.43
 20
825.0
 30
0.0
 11
200.5929999999999
 21
825.0
 31
0.0
  0
LINE
  5
124
330
1E
100
AcDbEntity
  8
0
100
AcDbLine
 10
200.322
 20
825.0
 30
0.0
 11
200.43
 21
825.0
 31
0.0
  0
LINE
  5
125
330
1E
100
AcDbEntity
  8
0
100
AcDbLine
 10
199.8499999999999
 20
825.0
 30
0.0
 11
200.2499999999999
 21
825.0
 31
0.0
  0
LINE
  5
126
330
1E
100
AcDbEntity
  8
0
100
AcDbLine
 10
200.2499999999999
 20
825.0
 30
0.0
 11
201.0499999999999
 21
825.0
 31
0.0
  0
LINE
  5
127
330
1E
100
AcDbEntity
  8
0
100
AcDbLine
 10
200.2499999999999
 20
825.0
 30
0.0
 11
200.322
 21
825.0
 31
0.0
  0
LINE
  5
128
330
1E
100
AcDbEntity
  8
0
100
AcDbLine
 10
201.35
 20
824.6999999999999
 30
0.0
 11
202.55
 21
824.6999999999999
 31
0.0
  0
LINE
  5
129
330
1E
100
AcDbEntity
  8
0
100
AcDbLine
 10
202.794
 20
31.8686
 30
0.0
 11
222.25
 21
31.8686
 31
0.0
  0
LINE
  5
12A
330
1E
100
AcDbEntity
  8
0
100
AcDbLine
 10
202.794
 20
-0.0000000000000124
 30
0.0
 11
222.25
 21
-0.0000000000000136
 31
0.0
  0
LINE
  5
12B
330
1E
100
AcDbEntity
  8
0
100
AcDbLine
 10
203.098
 20
33.0
 30
0.0
 11
222.25
 21
33.0
 31
0.0
  0
LINE
  5
12C
330
1E
100
AcDbEntity
  8
0
100
AcDbLine
 10
203.098
 20
33.025
 30
0.0
 11
222.25
 21
33.025
 31
0.0
  0
LINE
  5
12D
330
1E
100
AcDbEntity
  8
0
100
AcDbLine
 10
202.794
 20
32.989671
 30
0.0
 11
222.25
 21
32.989671
 31
0.0
  0
LINE
  5
12E
330
1E
100
AcDbEntity
  8
0
100
AcDbLine
 10
202.794
 20
31.995
 30
0.0
 11
222.25
 21
31.995
 31
0.0
  0
LINE
  5
12F
330
1E
100
AcDbEntity
  8
0
100
AcDbLine
 10
202.55
 20
824.6999999999999
 30
0.0
 11
204.2499999999999
 21
824.6999999999999
 31
0.0
  0
LINE
  5
130
330
1E
100
AcDbEntity
  8
0
100
AcDbLine
 10
203.25
 20
825.0
 30
0.0
 11
204.95
 21
825.0
 31
0.0
  0
LINE
  5
131
330
1E
100
AcDbEntity
  8
0
100
AcDbLine
 10
202.05
 20
825.0
 30
0.0
 11
203.25
 21
825.0
 31
0.0
  0
LINE
  5
132
330
1E
100
AcDbEntity
  8
0
100
AcDbLine
 10
201.243
 20
825.0
 30
0.0
 11
202.05
 21
825.0
 31
0.0
  0
LINE
  5
133
330
1E
100
AcDbEntity
  8
0
100
AcDbLine
 10
201.0499999999999
 20
825.0
 30
0.0
 11
202.2499999999999
 21
825.0
 31
0.0
  0
LINE
  5
134
330
1E
100
AcDbEntity
  8
0
100
AcDbLine
 10
202.2499999999999
 20
825.0
 30
0.0
 11
203.9499999999999
 21
825.0
 31
0.0
  0
LINE
  5
135
330
1E
100
AcDbEntity
  8
0
100
AcDbLine
 10
199.2499999999999
 20
986.392
 30
0.0
 11
199.2499999999999
 21
909.44
 31
0.0
  0
LINE
  5
136
330
1E
100
AcDbEntity
  8
0
100
AcDbLine
 10
199.2499999999999
 20
986.392
 30
0.0
 11
199.2499999999999
 21
1009.006999999999
 31
0.0
  0
LINE
  5
137
330
1E
100
AcDbEntity
  8
0
100
AcDbLine
 10
203.25
 20
989.919
 30
0.0
 11
203.322
 21
989.4619999999999
 31
0.0
  0
LINE
  5
138
330
1E
100
AcDbEntity
  8
0
100
AcDbLine
 10
203.25
 20
994.021
 30
0.0
 11
203.55
 21
993.079
 31
0.0
  0
LINE
  5
141
330
1E
100
AcDbEntity
  8
0
100
AcDbLine
 10
199.2499999999999
 20
1009.006999999999
 30
0.0
 11
199.2499999999999
 21
1018.591
 31
0.0
  0
LINE
  5
142
330
1E
100
AcDbEntity
  8
0
100
AcDbLine
 10
199.2499999999999
 20
1009.006999999999
 30
0.0
 11
199.2499999999999
 21
986.392
 31
0.0
  0
LINE
  5
145
330
1E
100
AcDbEntity
  8
0
100
AcDbLine
 10
203.514
 20
989.0349999999999
 30
0.0
 11
203.834
 21
988.6569999999998
 31
0.0
  0
LINE
  5
146
330
1E
100
AcDbEntity
  8
0
100
AcDbLine
 10
203.322
 20
989.4619999999999
 30
0.0
 11
203.514
 21
989.0349999999999
 31
0.0
  0
LINE
  5
147
330
1E
100
AcDbEntity
  8
0
100
AcDbLine
 10
203.55
 20
993.079
 30
0.0
 11
204.2499999999999
 21
992.6759999999999
 31
0.0
  0
LINE
  5
148
330
1E
100
AcDbEntity
  8
0
100
AcDbLine
 10
203.55
 20
993.079
 30
0.0
 11
203.55
 21
1019.678
 31
0.0
  0
LINE
  5
14F
330
1E
100
AcDbEntity
  8
0
100
AcDbLine
 10
199.2499999999999
 20
1018.591
 30
0.0
 11
199.2499999999999
 21
1009.006999999999
 31
0.0
  0
LINE
  5
150
330
1E
100
AcDbEntity
  8
0
100
AcDbLine
 10
199.2499999999999
 20
1018.591
 30
0.0
 11
199.2499999999999
 21
1026.45
 31
0.0
  0
LINE
  5
155
330
1E
100
AcDbEntity
  8
0
100
AcDbLine
 10
204.2499999999999
 20
824.6999999999999
 30
0.0
 11
206.15
 21
824.6999999999999
 31
0.0
  0
LINE
  5
156
330
1E
100
AcDbEntity
  8
0
100
AcDbLine
 10
203.9499999999999
 20
825.0
 30
0.0
 11
205.8499999999999
 21
825.0
 31
0.0
  0
LINE
  5
157
330
1E
100
AcDbEntity
  8
0
100
AcDbLine
 10
204.2499999999999
 20
990.366
 30
0.0
 11
204.2689999999999
 21
990.0949999999999
 31
0.0
  0
LINE
  5
158
330
1E
100
AcDbEntity
  8
0
100
AcDbLine
 10
204.2499999999999
 20
990.366
 30
0.0
 11
204.2499999999999
 21
992.6759999999999
 31
0.0
  0
LINE
  5
159
330
1E
100
AcDbEntity
  8
0
100
AcDbLine
 10
203.834
 20
988.6569999999998
 30
0.0
 11
204.258
 21
988.372
 31
0.0
  0
LINE
  5
15A
330
1E
100
AcDbEntity
  8
0
100
AcDbLine
 10
206.15
 20
824.6999999999999
 30
0.0
 11
208.25
 21
824.6999999999999
 31
0.0
  0
LINE
  5
15B
330
1E
100
AcDbEntity
  8
0
100
AcDbLine
 10
204.95
 20
825.0
 30
0.0
 11
206.754
 21
825.0
 31
0.0
  0
LINE
  5
15C
330
1E
100
AcDbEntity
  8
0
100
AcDbLine
 10
206.754
 20
825.0
 30
0.0
 11
208.739
 21
825.0
 31
0.0
  0
LINE
  5
15D
330
1E
100
AcDbEntity
  8
0
100
AcDbLine
 10
208.17
 20
43.325
 30
0.0
 11
222.25
 21
43.325
 31
0.0
  0
LINE
  5
15E
330
1E
100
AcDbEntity
  8
0
100
AcDbLine
 10
208.25
 20
824.6999999999999
 30
0.0
 11
210.55
 21
824.6999999999999
 31
0.0
  0
LINE
  5
160
330
1E
100
AcDbEntity
  8
0
100
AcDbLine
 10
210.6381999999999
 20
99.975
 30
0.0
 11
222.25
 21
99.975
 31
0.0
  0
LINE
  5
162
330
1E
100
AcDbEntity
  8
0
100
AcDbLine
 10
210.2234999999999
 20
51.05
 30
0.0
 11
222.25
 21
51.05
 31
0.0
  0
LINE
  5
163
330
1E
100
AcDbEntity
  8
0
100
AcDbLine
 10
210.55
 20
824.6999999999999
 30
0.0
 11
213.3179999999999
 21
824.6999999999999
 31
0.0
  0
LINE
  5
164
330
1E
100
AcDbEntity
  8
0
100
AcDbLine
 10
208.739
 20
825.0
 30
0.0
 11
210.9399999999999
 21
825.0
 31
0.0
  0
LINE
  5
165
330
1E
100
AcDbEntity
  8
0
100
AcDbLine
 10
210.9399999999999
 20
825.0
 30
0.0
 11
213.499
 21
825.0
 31
0.0
  0
LINE
  5
166
330
1E
100
AcDbEntity
  8
0
100
AcDbLine
 10
213.3179999999999
 20
824.6999999999999
 30
0.0
 11
216.873
 21
824.6999999999999
 31
0.0
  0
LINE
  5
167
330
1E
100
AcDbEntity
  8
0
100
AcDbLine
 10
217.2499999999999
 20
33.025
 30
0.0
 11
217.2499999999999
 21
39.52
 31
0.0
  0
LINE
  5
168
330
1E
100
AcDbEntity
  8
0
100
AcDbLine
 10
219.83
 20
40.0
 30
0.0
 11
220.99
 21
40.0
 31
0.0
  0
LINE
  5
169
330
1E
100
AcDbEntity
  8
0
100
AcDbLine
 10
218.8099999999999
 20
40.0
 30
0.0
 11
219.83
 21
40.0
 31
0.0
  0
LINE
  5
16A
330
1E
100
AcDbEntity
  8
0
100
AcDbLine
 10
218.0299999999999
 20
40.0
 30
0.0
 11
218.8099999999999
 21
40.0
 31
0.0
  0
LINE
  5
16B
330
1E
100
AcDbEntity
  8
0
100
AcDbLine
 10
217.5499999999999
 20
40.0
 30
0.0
 11
218.0299999999999
 21
40.0
 31
0.0
  0
LINE
  5
16C
330
1E
100
AcDbEntity
  8
0
100
AcDbLine
 10
217.37
 20
40.0
 30
0.0
 11
217.5499999999999
 21
40.0
 31
0.0
  0
LINE
  5
16D
330
1E
100
AcDbEntity
  8
0
100
AcDbLine
 10
217.2499999999999
 20
39.52
 30
0.0
 11
217.2499999999999
 21
33.025
 31
0.0
  0
LINE
  5
16E
330
1E
100
AcDbEntity
  8
0
100
AcDbLine
 10
217.2499999999999
 20
39.52
 30
0.0
 11
217.37
 21
40.0
 31
0.0
  0
LINE
  5
16F
330
1E
100
AcDbEntity
  8
0
100
AcDbLine
 10
219.95
 20
824.6999999999999
 30
0.0
 11
222.25
 21
824.6999999999999
 31
0.0
  0
LINE
  5
170
330
1E
100
AcDbEntity
  8
0
100
AcDbLine
 10
216.873
 20
824.6999999999999
 30
0.0
 11
219.95
 21
824.6999999999999
 31
0.0
  0
LINE
  5
171
330
1E
100
AcDbEntity
  8
0
100
AcDbLine
 10
213.499
 20
825.0
 30
0.0
 11
216.927
 21
825.0
 31
0.0
  0
LINE
  5
172
330
1E
100
AcDbEntity
  8
0
100
AcDbLine
 10
216.927
 20
825.0
 30
0.0
 11
219.95
 21
825.0
 31
0.0
  0
LINE
  5
173
330
1E
100
AcDbEntity
  8
0
100
AcDbLine
 10
222.25
 20
31.8686
 30
0.0
 11
241.7059999999999
 21
31.8686
 31
0.0
  0
LINE
  5
174
330
1E
100
AcDbEntity
  8
0
100
AcDbLine
 10
222.25
 20
-0.0000000000000136
 30
0.0
 11
241.7059999999999
 21
-0.0000000000000148
 31
0.0
  0
LINE
  5
175
330
1E
100
AcDbEntity
  8
0
100
AcDbLine
 10
222.25
 20
40.0
 30
0.0
 11
223.51
 21
40.0
 31
0.0
  0
LINE
  5
176
330
1E
100
AcDbEntity
  8
0
100
AcDbLine
 10
220.99
 20
40.0
 30
0.0
 11
222.25
 21
40.0
 31
0.0
  0
LINE
  5
177
330
1E
100
AcDbEntity
  8
0
100
AcDbLine
 10
222.25
 20
33.0
 30
0.0
 11
241.402
 21
33.0
 31
0.0
  0
LINE
  5
178
330
1E
100
AcDbEntity
  8
0
100
AcDbLine
 10
222.25
 20
33.025
 30
0.0
 11
241.402
 21
33.025
 31
0.0
  0
LINE
  5
179
330
1E
100
AcDbEntity
  8
0
100
AcDbLine
 10
222.25
 20
32.989671
 30
0.0
 11
241.7059999999999
 21
32.989671
 31
0.0
  0
LINE
  5
17A
330
1E
100
AcDbEntity
  8
0
100
AcDbLine
 10
222.25
 20
31.995
 30
0.0
 11
241.7059999999999
 21
31.995
 31
0.0
  0
LINE
  5
17B
330
1E
100
AcDbEntity
  8
0
100
AcDbLine
 10
222.25
 20
99.975
 30
0.0
 11
233.8617999999999
 21
99.975
 31
0.0
  0
LINE
  5
17E
330
1E
100
AcDbEntity
  8
0
100
AcDbLine
 10
222.25
 20
51.05
 30
0.0
 11
234.2764999999999
 21
51.05
 31
0.0
  0
LINE
  5
17F
330
1E
100
AcDbEntity
  8
0
100
AcDbLine
 10
222.25
 20
43.325
 30
0.0
 11
236.33
 21
43.325
 31
0.0
  0
LINE
  5
180
330
1E
100
AcDbEntity
  8
0
100
AcDbLine
 10
222.25
 20
114.0
 30
0.0
 11
278.9559999999999
 21
114.0
 31
0.0
  0
LINE
  5
181
330
1E
100
AcDbEntity
  8
0
100
AcDbLine
 10
222.25
 20
113.8929
 30
0.0
 11
278.9559999999999
 21
113.8929
 31
0.0
  0
LINE
  5
182
330
1E
100
AcDbEntity
  8
0
100
AcDbLine
 10
222.25
 20
100.0
 30
0.0
 11
278.9559999999999
 21
100.0
 31
0.0
  0
LINE
  5
183
330
1E
100
AcDbEntity
  8
0
100
AcDbLine
 10
222.25
 20
824.6999999999999
 30
0.0
 11
224.55
 21
824.6999999999999
 31
0.0
  0
LINE
  5
184
330
1E
100
AcDbEntity
  8
0
100
AcDbLine
 10
223.51
 20
40.0
 30
0.0
 11
224.67
 21
40.0
 31
0.0
  0
LINE
  5
185
330
1E
100
AcDbEntity
  8
0
100
AcDbLine
 10
224.67
 20
40.0
 30
0.0
 11
225.6899999999999
 21
40.0
 31
0.0
  0
LINE
  5
186
330
1E
100
AcDbEntity
  8
0
100
AcDbLine
 10
225.6899999999999
 20
40.0
 30
0.0
 11
226.4699999999999
 21
40.0
 31
0.0
  0
LINE
  5
187
330
1E
100
AcDbEntity
  8
0
100
AcDbLine
 10
226.4699999999999
 20
40.0
 30
0.0
 11
226.9499999999999
 21
40.0
 31
0.0
  0
LINE
  5
188
330
1E
100
AcDbEntity
  8
0
100
AcDbLine
 10
226.9499999999999
 20
40.0
 30
0.0
 11
227.13
 21
40.0
 31
0.0
  0
LINE
  5
189
330
1E
100
AcDbEntity
  8
0
100
AcDbLine
 10
227.2499999999999
 20
39.52
 30
0.0
 11
227.2499999999999
 21
33.025
 31
0.0
  0
LINE
  5
18A
330
1E
100
AcDbEntity
  8
0
100
AcDbLine
 10
227.13
 20
40.0
 30
0.0
 11
227.2499999999999
 21
39.52
 31
0.0
  0
LINE
  5
18B
330
1E
100
AcDbEntity
  8
0
100
AcDbLine
 10
227.2499999999999
 20
33.025
 30
0.0
 11
227.2499999999999
 21
39.52
 31
0.0
  0
LINE
  5
18C
330
1E
100
AcDbEntity
  8
0
100
AcDbLine
 10
224.55
 20
824.6999999999999
 30
0.0
 11
227.627
 21
824.6999999999999
 31
0.0
  0
LINE
  5
18D
330
1E
100
AcDbEntity
  8
0
100
AcDbLine
 10
227.627
 20
824.6999999999999
 30
0.0
 11
231.182
 21
824.6999999999999
 31
0.0
  0
LINE
  5
18E
330
1E
100
AcDbEntity
  8
0
100
AcDbLine
 10
227.5729999999999
 20
825.0
 30
0.0
 11
231.0009999999999
 21
825.0
 31
0.0
  0
LINE
  5
18F
330
1E
100
AcDbEntity
  8
0
100
AcDbLine
 10
222.25
 20
825.0
 30
0.0
 11
224.55
 21
825.0
 31
0.0
  0
LINE
  5
190
330
1E
100
AcDbEntity
  8
0
100
AcDbLine
 10
224.55
 20
825.0
 30
0.0
 11
227.6499999999999
 21
825.0
 31
0.0
  0
LINE
  5
191
330
1E
100
AcDbEntity
  8
0
100
AcDbLine
 10
224.55
 20
825.0
 30
0.0
 11
227.5729999999999
 21
825.0
 31
0.0
  0
LINE
  5
192
330
1E
100
AcDbEntity
  8
0
100
AcDbLine
 10
231.182
 20
824.6999999999999
 30
0.0
 11
233.95
 21
824.6999999999999
 31
0.0
  0
LINE
  5
193
330
1E
100
AcDbEntity
  8
0
100
AcDbLine
 10
233.8617999999999
 20
99.975
 30
0.0
 11
244.6441
 21
99.975
 31
0.0
  0
LINE
  5
195
330
1E
100
AcDbEntity
  8
0
100
AcDbLine
 10
233.95
 20
824.6999999999999
 30
0.0
 11
236.25
 21
824.6999999999999
 31
0.0
  0
LINE
  5
196
330
1E
100
AcDbEntity
  8
0
100
AcDbLine
 10
233.5599999999999
 20
825.0
 30
0.0
 11
235.761
 21
825.0
 31
0.0
  0
LINE
  5
197
330
1E
100
AcDbEntity
  8
0
100
AcDbLine
 10
231.0009999999999
 20
825.0
 30
0.0
 11
233.5599999999999
 21
825.0
 31
0.0
  0
LINE
  5
198
330
1E
100
AcDbEntity
  8
0
100
AcDbLine
 10
227.6499999999999
 20
825.0
 30
0.0
 11
231.25
 21
825.0
 31
0.0
  0
LINE
  5
199
330
1E
100
AcDbEntity
  8
0
100
AcDbLine
 10
231.25
 20
825.0
 30
0.0
 11
234.25
 21
825.0
 31
0.0
  0
LINE
  5
19B
330
1E
100
AcDbEntity
  8
0
100
AcDbLine
 10
234.2764999999999
 20
51.05
 30
0.0
 11
245.6118
 21
51.05
 31
0.0
  0
LINE
  5
19C
330
1E
100
AcDbEntity
  8
0
100
AcDbLine
 10
236.33
 20
43.325
 30
0.0
 11
249.5299999999999
 21
43.325
 31
0.0
  0
LINE
  5
19D
330
1E
100
AcDbEntity
  8
0
100
AcDbLine
 10
236.25
 20
824.6999999999999
 30
0.0
 11
238.35
 21
824.6999999999999
 31
0.0
  0
LINE
  5
19E
330
1E
100
AcDbEntity
  8
0
100
AcDbLine
 10
238.35
 20
824.6999999999999
 30
0.0
 11
240.2499999999999
 21
824.6999999999999
 31
0.0
  0
LINE
  5
19F
330
1E
100
AcDbEntity
  8
0
100
AcDbLine
 10
237.7459999999999
 20
825.0
 30
0.0
 11
239.55
 21
825.0
 31
0.0
  0
LINE
  5
1A0
330
1E
100
AcDbEntity
  8
0
100
AcDbLine
 10
235.761
 20
825.0
 30
0.0
 11
237.7459999999999
 21
825.0
 31
0.0
  0
LINE
  5
1A1
330
1E
100
AcDbEntity
  8
0
100
AcDbLine
 10
234.25
 20
825.0
 30
0.0
 11
236.55
 21
825.0
 31
0.0
  0
LINE
  5
1A2
330
1E
100
AcDbEntity
  8
0
100
AcDbLine
 10
236.55
 20
825.0
 30
0.0
 11
238.65
 21
825.0
 31
0.0
  0
LINE
  5
1A3
330
1E
100
AcDbEntity
  8
0
100
AcDbLine
 10
240.2499999999999
 20
824.6999999999999
 30
0.0
 11
241.9499999999999
 21
824.6999999999999
 31
0.0
  0
LINE
  5
1A4
330
1E
100
AcDbEntity
  8
0
100
AcDbLine
 10
239.55
 20
825.0
 30
0.0
 11
241.25
 21
825.0
 31
0.0
  0
LINE
  5
1A5
330
1E
100
AcDbEntity
  8
0
100
AcDbLine
 10
238.65
 20
825.0
 30
0.0
 11
240.5499999999999
 21
825.0
 31
0.0
  0
LINE
  5
1A6
330
1E
100
AcDbEntity
  8
0
100
AcDbLine
 10
240.5499999999999
 20
825.0
 30
0.0
 11
242.2499999999999
 21
825.0
 31
0.0
  0
LINE
  5
1A7
330
1E
100
AcDbEntity
  8
0
100
AcDbLine
 10
219.95
 20
825.0
 30
0.0
 11
222.25
 21
825.0
 31
0.0
  0
LINE
  5
1A8
330
1E
100
AcDbEntity
  8
0
100
AcDbLine
 10
216.8499999999999
 20
825.0
 30
0.0
 11
219.95
 21
825.0
 31
0.0
  0
LINE
  5
1A9
330
1E
100
AcDbEntity
  8
0
100
AcDbLine
 10
213.2499999999999
 20
825.0
 30
0.0
 11
216.8499999999999
 21
825.0
 31
0.0
  0
LINE
  5
1AA
330
1E
100
AcDbEntity
  8
0
100
AcDbLine
 10
210.25
 20
825.0
 30
0.0
 11
213.2499999999999
 21
825.0
 31
0.0
  0
LINE
  5
1AB
330
1E
100
AcDbEntity
  8
0
100
AcDbLine
 10
207.9499999999999
 20
825.0
 30
0.0
 11
210.25
 21
825.0
 31
0.0
  0
LINE
  5
1AC
330
1E
100
AcDbEntity
  8
0
100
AcDbLine
 10
222.25
 20
988.137
 30
0.0
 11
239.7619999999999
 21
988.2010000000001
 31
0.0
  0
LINE
  5
1AD
330
1E
100
AcDbEntity
  8
0
100
AcDbLine
 10
239.7619999999999
 20
988.2010000000001
 30
0.0
 11
240.242
 21
988.372
 31
0.0
  0
LINE
  5
1AE
330
1E
100
AcDbEntity
  8
0
100
AcDbLine
 10
240.242
 20
988.372
 30
0.0
 11
240.666
 21
988.6569999999998
 31
0.0
  0
LINE
  5
1AF
330
1E
100
AcDbEntity
  8
0
100
AcDbLine
 10
205.8499999999999
 20
825.0
 30
0.0
 11
207.9499999999999
 21
825.0
 31
0.0
  0
LINE
  5
1B0
330
1E
100
AcDbEntity
  8
0
100
AcDbLine
 10
204.7379999999999
 20
988.2010000000001
 30
0.0
 11
222.25
 21
988.137
 31
0.0
  0
LINE
  5
1B1
330
1E
100
AcDbEntity
  8
0
100
AcDbLine
 10
222.25
 20
989.475
 30
0.0
 11
239.588
 21
989.5149999999999
 31
0.0
  0
LINE
  5
1B2
330
1E
100
AcDbEntity
  8
0
100
AcDbLine
 10
239.588
 20
989.5149999999999
 30
0.0
 11
239.8159999999999
 21
989.582
 31
0.0
  0
LINE
  5
1B3
330
1E
100
AcDbEntity
  8
0
100
AcDbLine
 10
239.8159999999999
 20
989.582
 30
0.0
 11
240.0449999999999
 21
989.733
 31
0.0
  0
LINE
  5
1B4
330
1E
100
AcDbEntity
  8
0
100
AcDbLine
 10
240.666
 20
988.6569999999998
 30
0.0
 11
240.986
 21
989.0349999999999
 31
0.0
  0
LINE
  5
1B5
330
1E
100
AcDbEntity
  8
0
100
AcDbLine
 10
204.912
 20
989.5149999999999
 30
0.0
 11
222.25
 21
989.475
 31
0.0
  0
LINE
  5
1B6
330
1E
100
AcDbEntity
  8
0
100
AcDbLine
 10
240.0449999999999
 20
989.733
 30
0.0
 11
240.1459999999999
 21
989.8539999999998
 31
0.0
  0
LINE
  5
1B7
330
1E
100
AcDbEntity
  8
0
100
AcDbLine
 10
240.1459999999999
 20
989.8539999999998
 30
0.0
 11
240.2309999999999
 21
990.0949999999999
 31
0.0
  0
LINE
  5
1B8
330
1E
100
AcDbEntity
  8
0
100
AcDbLine
 10
204.684
 20
989.582
 30
0.0
 11
204.912
 21
989.5149999999999
 31
0.0
  0
LINE
  5
1B9
330
1E
100
AcDbEntity
  8
0
100
AcDbLine
 10
204.455
 20
989.733
 30
0.0
 11
204.684
 21
989.582
 31
0.0
  0
LINE
  5
1BA
330
1E
100
AcDbEntity
  8
0
100
AcDbLine
 10
205.25
 20
991.4509999999999
 30
0.0
 11
205.25
 21
992.6759999999999
 31
0.0
  0
LINE
  5
1BB
330
1E
100
AcDbEntity
  8
0
100
AcDbLine
 10
205.25
 20
991.4509999999999
 30
0.0
 11
205.25
 21
990.099
 31
0.0
  0
LINE
  5
1BC
330
1E
100
AcDbEntity
  8
0
100
AcDbLine
 10
239.25
 20
990.099
 30
0.0
 11
239.25
 21
991.4509999999999
 31
0.0
  0
LINE
  5
1BD
330
1E
100
AcDbEntity
  8
0
100
AcDbLine
 10
205.25
 20
990.099
 30
0.0
 11
205.25
 21
991.4509999999999
 31
0.0
  0
LINE
  5
1BE
330
1E
100
AcDbEntity
  8
0
100
AcDbLine
 10
205.25
 20
992.6759999999999
 30
0.0
 11
205.25
 21
991.4509999999999
 31
0.0
  0
LINE
  5
1BF
330
1E
100
AcDbEntity
  8
0
100
AcDbLine
 10
239.25
 20
992.6759999999999
 30
0.0
 11
239.25
 21
991.4509999999999
 31
0.0
  0
LINE
  5
1C0
330
1E
100
AcDbEntity
  8
0
100
AcDbLine
 10
239.25
 20
991.4509999999999
 30
0.0
 11
239.25
 21
990.099
 31
0.0
  0
LINE
  5
1C1
330
1E
100
AcDbEntity
  8
0
100
AcDbLine
 10
239.25
 20
991.4509999999999
 30
0.0
 11
239.25
 21
992.6759999999999
 31
0.0
  0
LINE
  5
1C2
330
1E
100
AcDbEntity
  8
0
100
AcDbLine
 10
240.2499999999999
 20
990.366
 30
0.0
 11
240.2499999999999
 21
992.6759999999999
 31
0.0
  0
LINE
  5
1C3
330
1E
100
AcDbEntity
  8
0
100
AcDbLine
 10
240.2309999999999
 20
990.0949999999999
 30
0.0
 11
240.2499999999999
 21
990.366
 31
0.0
  0
LINE
  5
1C4
330
1E
100
AcDbEntity
  8
0
100
AcDbLine
 10
204.354
 20
989.8539999999998
 30
0.0
 11
204.455
 21
989.733
 31
0.0
  0
LINE
  5
1C5
330
1E
100
AcDbEntity
  8
0
100
AcDbLine
 10
204.2689999999999
 20
990.0949999999999
 30
0.0
 11
204.354
 21
989.8539999999998
 31
0.0
  0
LINE
  5
1C6
330
1E
100
AcDbEntity
  8
0
100
AcDbLine
 10
204.258
 20
988.372
 30
0.0
 11
204.7379999999999
 21
988.2010000000001
 31
0.0
  0
LINE
  5
1C7
330
1E
100
AcDbEntity
  8
0
100
AcDbLine
 10
204.2499999999999
 20
992.6759999999999
 30
0.0
 11
240.2499999999999
 21
992.6759999999999
 31
0.0
  0
LINE
  5
1C8
330
1E
100
AcDbEntity
  8
0
100
AcDbLine
 10
204.2499999999999
 20
992.6759999999999
 30
0.0
 11
204.2499999999999
 21
990.366
 31
0.0
  0
LINE
  5
1C9
330
1E
100
AcDbEntity
  8
0
100
AcDbLine
 10
240.2499999999999
 20
992.6759999999999
 30
0.0
 11
240.9499999999999
 21
993.079
 31
0.0
  0
LINE
  5
1CA
330
1E
100
AcDbEntity
  8
0
100
AcDbLine
 10
240.2499999999999
 20
992.6759999999999
 30
0.0
 11
240.2499999999999
 21
990.366
 31
0.0
  0
LINE
  5
1CB
330
1E
100
AcDbEntity
  8
0
100
AcDbLine
 10
240.9499999999999
 20
993.079
 30
0.0
 11
240.9499999999999
 21
1019.678
 31
0.0
  0
LINE
  5
1CC
330
1E
100
AcDbEntity
  8
0
100
AcDbLine
 10
240.9499999999999
 20
993.079
 30
0.0
 11
241.25
 21
994.021
 31
0.0
  0
LINE
  5
1CD
330
1E
100
AcDbEntity
  8
0
100
AcDbLine
 10
203.55
 20
1019.678
 30
0.0
 11
203.55
 21
1020.491999999999
 31
0.0
  0
LINE
  5
1CE
330
1E
100
AcDbEntity
  8
0
100
AcDbLine
 10
203.55
 20
1019.678
 30
0.0
 11
203.55
 21
993.079
 31
0.0
  0
LINE
  5
1D3
330
1E
100
AcDbEntity
  8
0
100
AcDbLine
 10
203.55
 20
1021.661999999999
 30
0.0
 11
203.55
 21
1020.491999999999
 31
0.0
  0
LINE
  5
1D4
330
1E
100
AcDbEntity
  8
0
100
AcDbLine
 10
203.55
 20
1021.661999999999
 30
0.0
 11
203.55
 21
1023.008
 31
0.0
  0
LINE
  5
1D5
330
1E
100
AcDbEntity
  8
0
100
AcDbLine
 10
203.55
 20
1020.491999999999
 30
0.0
 11
203.55
 21
1019.678
 31
0.0
  0
LINE
  5
1D6
330
1E
100
AcDbEntity
  8
0
100
AcDbLine
 10
203.55
 20
1020.491999999999
 30
0.0
 11
203.55
 21
1021.661999999999
 31
0.0
  0
LINE
  5
1E1
330
1E
100
AcDbEntity
  8
0
100
AcDbLine
 10
203.55
 20
1023.008
 30
0.0
 11
203.55
 21
1024.486
 31
0.0
  0
LINE
  5
1E2
330
1E
100
AcDbEntity
  8
0
100
AcDbLine
 10
203.55
 20
1023.008
 30
0.0
 11
203.55
 21
1021.661999999999
 31
0.0
  0
LINE
  5
1E3
330
1E
100
AcDbEntity
  8
0
100
AcDbLine
 10
203.55
 20
1024.486
 30
0.0
 11
203.55
 21
1023.008
 31
0.0
  0
LINE
  5
1E4
330
1E
100
AcDbEntity
  8
0
100
AcDbLine
 10
203.55
 20
1024.486
 30
0.0
 11
203.55
 21
1026.006
 31
0.0
  0
LINE
  5
1E7
330
1E
100
AcDbEntity
  8
0
100
AcDbLine
 10
240.9499999999999
 20
1021.661999999999
 30
0.0
 11
240.9499999999999
 21
1023.008
 31
0.0
  0
LINE
  5
1E8
330
1E
100
AcDbEntity
  8
0
100
AcDbLine
 10
240.9499999999999
 20
1021.661999999999
 30
0.0
 11
240.9499999999999
 21
1020.491999999999
 31
0.0
  0
LINE
  5
1E9
330
1E
100
AcDbEntity
  8
0
100
AcDbLine
 10
240.9499999999999
 20
1020.491999999999
 30
0.0
 11
240.9499999999999
 21
1021.661999999999
 31
0.0
  0
LINE
  5
1EA
330
1E
100
AcDbEntity
  8
0
100
AcDbLine
 10
240.9499999999999
 20
1020.491999999999
 30
0.0
 11
240.9499999999999
 21
1019.678
 31
0.0
  0
LINE
  5
1EB
330
1E
100
AcDbEntity
  8
0
100
AcDbLine
 10
240.9499999999999
 20
1019.678
 30
0.0
 11
240.9499999999999
 21
1020.491999999999
 31
0.0
  0
LINE
  5
1EC
330
1E
100
AcDbEntity
  8
0
100
AcDbLine
 10
240.9499999999999
 20
1019.678
 30
0.0
 11
240.9499999999999
 21
993.079
 31
0.0
  0
LINE
  5
1ED
330
1E
100
AcDbEntity
  8
0
100
AcDbLine
 10
241.25
 20
825.0
 30
0.0
 11
242.45
 21
825.0
 31
0.0
  0
LINE
  5
1EE
330
1E
100
AcDbEntity
  8
0
100
AcDbLine
 10
240.986
 20
989.0349999999999
 30
0.0
 11
241.1779999999999
 21
989.4619999999999
 31
0.0
  0
LINE
  5
1F0
330
1E
100
AcDbEntity
  8
0
100
AcDbLine
 10
241.1779999999999
 20
989.4619999999999
 30
0.0
 11
241.25
 21
989.919
 31
0.0
  0
LINE
  5
1F8
330
1E
100
AcDbEntity
  8
0
100
AcDbLine
 10
240.9499999999999
 20
1023.008
 30
0.0
 11
240.9499999999999
 21
1024.486
 31
0.0
  0
LINE
  5
1F9
330
1E
100
AcDbEntity
  8
0
100
AcDbLine
 10
240.9499999999999
 20
1023.008
 30
0.0
 11
240.9499999999999
 21
1021.661999999999
 31
0.0
  0
LINE
  5
202
330
1E
100
AcDbEntity
  8
0
100
AcDbLine
 10
240.9499999999999
 20
1024.486
 30
0.0
 11
240.9499999999999
 21
1026.006
 31
0.0
  0
LINE
  5
203
330
1E
100
AcDbEntity
  8
0
100
AcDbLine
 10
240.9499999999999
 20
1024.486
 30
0.0
 11
240.9499999999999
 21
1023.008
 31
0.0
  0
LINE
  5
206
330
1E
100
AcDbEntity
  8
0
100
AcDbLine
 10
199.2499999999999
 20
1026.45
 30
0.0
 11
199.2499999999999
 21
1018.591
 31
0.0
  0
LINE
  5
207
330
1E
100
AcDbEntity
  8
0
100
AcDbLine
 10
199.2499999999999
 20
1026.45
 30
0.0
 11
199.2499999999999
 21
1060.0
 31
0.0
  0
LINE
  5
20A
330
1E
100
AcDbEntity
  8
0
100
AcDbLine
 10
203.55
 20
1026.006
 30
0.0
 11
203.55
 21
1024.486
 31
0.0
  0
LINE
  5
20B
330
1E
100
AcDbEntity
  8
0
100
AcDbLine
 10
203.55
 20
1026.006
 30
0.0
 11
203.55
 21
1027.344
 31
0.0
  0
LINE
  5
20C
330
1E
100
AcDbEntity
  8
0
100
AcDbLine
 10
203.55
 20
1027.344
 30
0.0
 11
203.55
 21
1026.006
 31
0.0
  0
LINE
  5
20D
330
1E
100
AcDbEntity
  8
0
100
AcDbLine
 10
203.55
 20
1027.344
 30
0.0
 11
203.55
 21
1036.254
 31
0.0
  0
LINE
  5
22C
330
1E
100
AcDbEntity
  8
0
100
AcDbLine
 10
199.2499999999999
 20
1060.0
 30
0.0
 11
199.2499999999999
 21
1026.45
 31
0.0
  0
LINE
  5
237
330
1E
100
AcDbEntity
  8
0
100
AcDbLine
 10
203.55
 20
1047.296
 30
0.0
 11
203.55
 21
1046.321
 31
0.0
  0
LINE
  5
238
330
1E
100
AcDbEntity
  8
0
100
AcDbLine
 10
203.55
 20
1047.296
 30
0.0
 11
203.55
 21
1047.957
 31
0.0
  0
LINE
  5
239
330
1E
100
AcDbEntity
  8
0
100
AcDbLine
 10
203.55
 20
1046.321
 30
0.0
 11
203.55
 21
1045.163999999999
 31
0.0
  0
LINE
  5
23A
330
1E
100
AcDbEntity
  8
0
100
AcDbLine
 10
203.55
 20
1046.321
 30
0.0
 11
203.55
 21
1047.296
 31
0.0
  0
LINE
  5
23B
330
1E
100
AcDbEntity
  8
0
100
AcDbLine
 10
203.55
 20
1047.957
 30
0.0
 11
203.55
 21
1048.213999999999
 31
0.0
  0
LINE
  5
23C
330
1E
100
AcDbEntity
  8
0
100
AcDbLine
 10
203.55
 20
1047.957
 30
0.0
 11
203.55
 21
1047.296
 31
0.0
  0
LINE
  5
23D
330
1E
100
AcDbEntity
  8
0
100
AcDbLine
 10
203.55
 20
1048.213999999999
 30
0.0
 11
204.2499999999999
 21
1048.436999999999
 31
0.0
  0
LINE
  5
23E
330
1E
100
AcDbEntity
  8
0
100
AcDbLine
 10
203.55
 20
1048.213999999999
 30
0.0
 11
203.55
 21
1047.957
 31
0.0
  0
LINE
  5
23F
330
1E
100
AcDbEntity
  8
0
100
AcDbLine
 10
240.9499999999999
 20
1047.296
 30
0.0
 11
240.9499999999999
 21
1047.957
 31
0.0
  0
LINE
  5
240
330
1E
100
AcDbEntity
  8
0
100
AcDbLine
 10
240.9499999999999
 20
1047.296
 30
0.0
 11
240.9499999999999
 21
1046.321
 31
0.0
  0
LINE
  5
241
330
1E
100
AcDbEntity
  8
0
100
AcDbLine
 10
240.9499999999999
 20
1046.321
 30
0.0
 11
240.9499999999999
 21
1047.296
 31
0.0
  0
LINE
  5
242
330
1E
100
AcDbEntity
  8
0
100
AcDbLine
 10
240.9499999999999
 20
1046.321
 30
0.0
 11
240.9499999999999
 21
1045.163999999999
 31
0.0
  0
LINE
  5
244
330
1E
100
AcDbEntity
  8
0
100
AcDbLine
 10
240.9499999999999
 20
1048.213999999999
 30
0.0
 11
240.9499999999999
 21
1047.957
 31
0.0
  0
LINE
  5
245
330
1E
100
AcDbEntity
  8
0
100
AcDbLine
 10
240.9499999999999
 20
1047.957
 30
0.0
 11
240.9499999999999
 21
1048.213999999999
 31
0.0
  0
LINE
  5
246
330
1E
100
AcDbEntity
  8
0
100
AcDbLine
 10
240.9499999999999
 20
1047.957
 30
0.0
 11
240.9499999999999
 21
1047.296
 31
0.0
  0
LINE
  5
248
330
1E
100
AcDbEntity
  8
0
100
AcDbLine
 10
240.2499999999999
 20
1048.436999999999
 30
0.0
 11
240.9499999999999
 21
1048.213999999999
 31
0.0
  0
LINE
  5
249
330
1E
100
AcDbEntity
  8
0
100
AcDbLine
 10
204.2499999999999
 20
1048.436999999999
 30
0.0
 11
240.2499999999999
 21
1048.436999999999
 31
0.0
  0
LINE
  5
24A
330
1E
100
AcDbEntity
  8
0
100
AcDbLine
 10
240.9499999999999
 20
1045.163999999999
 30
0.0
 11
240.9499999999999
 21
1036.254
 31
0.0
  0
LINE
  5
24B
330
1E
100
AcDbEntity
  8
0
100
AcDbLine
 10
240.9499999999999
 20
1045.163999999999
 30
0.0
 11
240.9499999999999
 21
1046.321
 31
0.0
  0
LINE
  5
24C
330
1E
100
AcDbEntity
  8
0
100
AcDbLine
 10
203.55
 20
1045.163999999999
 30
0.0
 11
203.55
 21
1036.254
 31
0.0
  0
LINE
  5
24D
330
1E
100
AcDbEntity
  8
0
100
AcDbLine
 10
203.55
 20
1045.163999999999
 30
0.0
 11
203.55
 21
1046.321
 31
0.0
  0
LINE
  5
24E
330
1E
100
AcDbEntity
  8
0
100
AcDbLine
 10
203.55
 20
1036.254
 30
0.0
 11
203.55
 21
1027.344
 31
0.0
  0
LINE
  5
24F
330
1E
100
AcDbEntity
  8
0
100
AcDbLine
 10
203.55
 20
1036.254
 30
0.0
 11
203.55
 21
1045.163999999999
 31
0.0
  0
LINE
  5
254
330
1E
100
AcDbEntity
  8
0
100
AcDbLine
 10
240.9499999999999
 20
1036.254
 30
0.0
 11
240.9499999999999
 21
1027.344
 31
0.0
  0
LINE
  5
255
330
1E
100
AcDbEntity
  8
0
100
AcDbLine
 10
240.9499999999999
 20
1036.254
 30
0.0
 11
240.9499999999999
 21
1045.163999999999
 31
0.0
  0
LINE
  5
256
330
1E
100
AcDbEntity
  8
0
100
AcDbLine
 10
240.9499999999999
 20
1027.344
 30
0.0
 11
240.9499999999999
 21
1026.006
 31
0.0
  0
LINE
  5
257
330
1E
100
AcDbEntity
  8
0
100
AcDbLine
 10
240.9499999999999
 20
1027.344
 30
0.0
 11
240.9499999999999
 21
1036.254
 31
0.0
  0
LINE
  5
263
330
1E
100
AcDbEntity
  8
0
100
AcDbLine
 10
240.9499999999999
 20
1026.006
 30
0.0
 11
240.9499999999999
 21
1027.344
 31
0.0
  0
LINE
  5
264
330
1E
100
AcDbEntity
  8
0
100
AcDbLine
 10
240.9499999999999
 20
1026.006
 30
0.0
 11
240.9499999999999
 21
1024.486
 31
0.0
  0
LINE
  5
267
330
1E
100
AcDbEntity
  8
0
100
AcDbLine
 10
241.7059999999999
 20
31.8686
 30
0.0
 11
259.9459999999999
 21
31.8686
 31
0.0
  0
LINE
  5
268
330
1E
100
AcDbEntity
  8
0
100
AcDbLine
 10
241.7059999999999
 20
-0.0000000000000148
 30
0.0
 11
259.9459999999999
 21
-0.0000000000000159
 31
0.0
  0
LINE
  5
269
330
1E
100
AcDbEntity
  8
0
100
AcDbLine
 10
241.402
 20
33.0
 30
0.0
 11
259.0339999999999
 21
33.0
 31
0.0
  0
LINE
  5
26A
330
1E
100
AcDbEntity
  8
0
100
AcDbLine
 10
241.402
 20
33.025
 30
0.0
 11
259.0339999999999
 21
33.025
 31
0.0
  0
LINE
  5
26B
330
1E
100
AcDbEntity
  8
0
100
AcDbLine
 10
241.7059999999999
 20
32.989671
 30
0.0
 11
259.9459999999999
 21
32.989671
 31
0.0
  0
LINE
  5
26C
330
1E
100
AcDbEntity
  8
0
100
AcDbLine
 10
241.7059999999999
 20
31.995
 30
0.0
 11
259.9459999999999
 21
31.995
 31
0.0
  0
LINE
  5
26D
330
1E
100
AcDbEntity
  8
0
100
AcDbLine
 10
241.9499999999999
 20
824.6999999999999
 30
0.0
 11
243.15
 21
824.6999999999999
 31
0.0
  0
LINE
  5
26E
330
1E
100
AcDbEntity
  8
0
100
AcDbLine
 10
243.15
 20
824.6999999999999
 30
0.0
 11
243.9499999999999
 21
824.6999999999999
 31
0.0
  0
LINE
  5
26F
330
1E
100
AcDbEntity
  8
0
100
AcDbLine
 10
242.45
 20
825.0
 30
0.0
 11
243.257
 21
825.0
 31
0.0
  0
LINE
  5
270
330
1E
100
AcDbEntity
  8
0
100
AcDbLine
 10
243.257
 20
825.0
 30
0.0
 11
243.654
 21
825.0
 31
0.0
  0
LINE
  5
271
330
1E
100
AcDbEntity
  8
0
100
AcDbLine
 10
243.654
 20
825.0
 30
0.0
 11
243.907
 21
825.0
 31
0.0
  0
LINE
  5
272
330
1E
100
AcDbEntity
  8
0
100
AcDbLine
 10
243.9499999999999
 20
824.6999999999999
 30
0.0
 11
244.3499999999999
 21
824.6999999999999
 31
0.0
  0
LINE
  5
273
330
1E
100
AcDbEntity
  8
0
100
AcDbLine
 10
243.907
 20
825.0
 30
0.0
 11
244.07
 21
825.0
 31
0.0
  0
LINE
  5
274
330
1E
100
AcDbEntity
  8
0
100
AcDbLine
 10
244.07
 20
825.0
 30
0.0
 11
244.178
 21
825.0
 31
0.0
  0
LINE
  5
275
330
1E
100
AcDbEntity
  8
0
100
AcDbLine
 10
244.178
 20
825.0
 30
0.0
 11
244.2499999999999
 21
825.0
 31
0.0
  0
LINE
  5
276
330
1E
100
AcDbEntity
  8
0
100
AcDbLine
 10
244.6441
 20
99.975
 30
0.0
 11
254.044
 21
99.975
 31
0.0
  0
LINE
  5
277
330
1E
100
AcDbEntity
  8
0
100
AcDbLine
 10
244.864
 20
824.6999999999999
 30
0.0
 11
244.9359999999999
 21
824.6999999999999
 31
0.0
  0
LINE
  5
278
330
1E
100
AcDbEntity
  8
0
100
AcDbLine
 10
244.774
 20
824.6999999999999
 30
0.0
 11
244.864
 21
824.6999999999999
 31
0.0
  0
LINE
  5
279
330
1E
100
AcDbEntity
  8
0
100
AcDbLine
 10
244.6
 20
824.6999999999999
 30
0.0
 11
244.774
 21
824.6999999999999
 31
0.0
  0
LINE
  5
27A
330
1E
100
AcDbEntity
  8
0
100
AcDbLine
 10
244.3499999999999
 20
824.6999999999999
 30
0.0
 11
244.6
 21
824.6999999999999
 31
0.0
  0
LINE
  5
27B
330
1E
100
AcDbEntity
  8
0
100
AcDbLine
 10
244.95
 20
824.6999999999999
 30
0.0
 11
245.25
 21
824.0
 31
0.0
  0
LINE
  5
27C
330
1E
100
AcDbEntity
  8
0
100
AcDbLine
 10
259.9459999999999
 20
31.8686
 30
0.0
 11
276.058
 21
31.8686
 31
0.0
  0
LINE
  5
27D
330
1E
100
AcDbEntity
  8
0
100
AcDbLine
 10
259.9459999999999
 20
-0.0000000000000159
 30
0.0
 11
276.058
 21
-0.0000000000000169
 31
0.0
  0
LINE
  5
27E
330
1E
100
AcDbEntity
  8
0
100
AcDbLine
 10
259.0339999999999
 20
33.0
 30
0.0
 11
274.538
 21
33.0
 31
0.0
  0
LINE
  5
27F
330
1E
100
AcDbEntity
  8
0
100
AcDbLine
 10
259.0339999999999
 20
33.025
 30
0.0
 11
274.538
 21
33.025
 31
0.0
  0
LINE
  5
280
330
1E
100
AcDbEntity
  8
0
100
AcDbLine
 10
264.054
 20
40.0
 30
0.0
 11
264.224
 21
40.0
 31
0.0
  0
LINE
  5
281
330
1E
100
AcDbEntity
  8
0
100
AcDbLine
 10
268.919
 20
40.0
 30
0.0
 11
270.192
 21
40.0
 31
0.0
  0
LINE
  5
282
330
1E
100
AcDbEntity
  8
0
100
AcDbLine
 10
267.6459999999999
 20
40.0
 30
0.0
 11
268.919
 21
40.0
 31
0.0
  0
LINE
  5
283
330
1E
100
AcDbEntity
  8
0
100
AcDbLine
 10
266.487
 20
40.0
 30
0.0
 11
267.6459999999999
 21
40.0
 31
0.0
  0
LINE
  5
284
330
1E
100
AcDbEntity
  8
0
100
AcDbLine
 10
265.468
 20
40.0
 30
0.0
 11
266.487
 21
40.0
 31
0.0
  0
LINE
  5
285
330
1E
100
AcDbEntity
  8
0
100
AcDbLine
 10
264.224
 20
40.0
 30
0.0
 11
264.7049999999999
 21
40.0
 31
0.0
  0
LINE
  5
286
330
1E
100
AcDbEntity
  8
0
100
AcDbLine
 10
264.7049999999999
 20
40.0
 30
0.0
 11
265.468
 21
40.0
 31
0.0
  0
LINE
  5
287
330
1E
100
AcDbEntity
  8
0
100
AcDbLine
 10
263.913
 20
39.52
 30
0.0
 11
263.913
 21
33.025
 31
0.0
  0
LINE
  5
288
330
1E
100
AcDbEntity
  8
0
100
AcDbLine
 10
263.913
 20
39.52
 30
0.0
 11
264.054
 21
40.0
 31
0.0
  0
LINE
  5
289
330
1E
100
AcDbEntity
  8
0
100
AcDbLine
 10
263.913
 20
33.025
 30
0.0
 11
263.913
 21
39.52
 31
0.0
  0
LINE
  5
28A
330
1E
100
AcDbEntity
  8
0
100
AcDbLine
 10
259.9459999999999
 20
32.989671
 30
0.0
 11
276.058
 21
32.989671
 31
0.0
  0
LINE
  5
28B
330
1E
100
AcDbEntity
  8
0
100
AcDbLine
 10
259.9459999999999
 20
31.995
 30
0.0
 11
276.058
 21
31.995
 31
0.0
  0
LINE
  5
28C
330
1E
100
AcDbEntity
  8
0
100
AcDbLine
 10
249.5299999999999
 20
43.325
 30
0.0
 11
261.1899999999999
 21
43.325
 31
0.0
  0
LINE
  5
28D
330
1E
100
AcDbEntity
  8
0
100
AcDbLine
 10
255.4259999999999
 20
51.05
 30
0.0
 11
263.0459999999999
 21
51.05
 31
0.0
  0
LINE
  5
293
330
1E
100
AcDbEntity
  8
0
100
AcDbLine
 10
245.6118
 20
51.05
 30
0.0
 11
255.4259999999999
 21
51.05
 31
0.0
  0
LINE
  5
294
330
1E
100
AcDbEntity
  8
0
100
AcDbLine
 10
263.0459999999999
 20
51.05
 30
0.0
 11
267.558
 21
51.05
 31
0.0
  0
LINE
  5
296
330
1E
100
AcDbEntity
  8
0
100
AcDbLine
 10
267.558
 20
51.05
 30
0.0
 11
269.2499999999999
 21
51.05
 31
0.0
  0
LINE
  5
297
330
1E
100
AcDbEntity
  8
0
100
AcDbLine
 10
261.1899999999999
 20
43.325
 30
0.0
 11
269.9899999999999
 21
43.325
 31
0.0
  0
LINE
  5
298
330
1E
100
AcDbEntity
  8
0
100
AcDbLine
 10
269.2499999999999
 20
51.05
 30
0.0
 11
277.2499999999999
 21
43.325
 31
0.0
  0
LINE
  5
299
330
1E
100
AcDbEntity
  8
0
100
AcDbLine
 10
269.2499999999999
 20
51.05
 30
0.0
 11
269.2499999999999
 21
98.489225
 31
0.0
  0
LINE
  5
29A
330
1E
100
AcDbEntity
  8
0
100
AcDbLine
 10
254.044
 20
99.975
 30
0.0
 11
261.0939999999999
 21
99.975
 31
0.0
  0
LINE
  5
29B
330
1E
100
AcDbEntity
  8
0
100
AcDbLine
 10
261.0939999999999
 20
99.975
 30
0.0
 11
265.5179999999999
 21
99.975
 31
0.0
  0
LINE
  5
29C
330
1E
100
AcDbEntity
  8
0
100
AcDbLine
 10
265.5179999999999
 20
99.975
 30
0.0
 11
267.1759999999999
 21
99.975
 31
0.0
  0
LINE
  5
29D
330
1E
100
AcDbEntity
  8
0
100
AcDbLine
 10
267.1759999999999
 20
99.975
 30
0.0
 11
268.559
 21
99.47957
 31
0.0
  0
LINE
  5
29E
330
1E
100
AcDbEntity
  8
0
100
AcDbLine
 10
268.559
 20
99.47957
 30
0.0
 11
269.2499999999999
 21
98.489225
 31
0.0
  0
LINE
  5
29F
330
1E
100
AcDbEntity
  8
0
100
AcDbLine
 10
276.058
 20
31.8686
 30
0.0
 11
288.218
 21
31.8686
 31
0.0
  0
LINE
  5
2A0
330
1E
100
AcDbEntity
  8
0
100
AcDbLine
 10
276.058
 20
-0.0000000000000169
 30
0.0
 11
288.218
 21
-0.0000000000000176
 31
0.0
  0
LINE
  5
2A1
330
1E
100
AcDbEntity
  8
0
100
AcDbLine
 10
273.925
 20
33.0
 30
0.0
 11
273.925
 21
39.52
 31
0.0
  0
LINE
  5
2A2
330
1E
100
AcDbEntity
  8
0
100
AcDbLine
 10
274.538
 20
33.0
 30
0.0
 11
286.3939999999999
 21
33.0
 31
0.0
  0
LINE
  5
2A3
330
1E
100
AcDbEntity
  8
0
100
AcDbLine
 10
272.37
 20
40.0
 30
0.0
 11
273.1329999999999
 21
40.0
 31
0.0
  0
LINE
  5
2A4
330
1E
100
AcDbEntity
  8
0
100
AcDbLine
 10
273.1329999999999
 20
40.0
 30
0.0
 11
273.614
 21
40.0
 31
0.0
  0
LINE
  5
2A5
330
1E
100
AcDbEntity
  8
0
100
AcDbLine
 10
273.614
 20
40.0
 30
0.0
 11
273.7839999999999
 21
40.0
 31
0.0
  0
LINE
  5
2A6
330
1E
100
AcDbEntity
  8
0
100
AcDbLine
 10
273.7839999999999
 20
40.0
 30
0.0
 11
273.925
 21
39.52
 31
0.0
  0
LINE
  5
2A7
330
1E
100
AcDbEntity
  8
0
100
AcDbLine
 10
273.925
 20
39.52
 30
0.0
 11
273.925
 21
33.0
 31
0.0
  0
LINE
  5
2A8
330
1E
100
AcDbEntity
  8
0
100
AcDbLine
 10
271.3509999999999
 20
40.0
 30
0.0
 11
272.37
 21
40.0
 31
0.0
  0
LINE
  5
2A9
330
1E
100
AcDbEntity
  8
0
100
AcDbLine
 10
270.192
 20
40.0
 30
0.0
 11
271.3509999999999
 21
40.0
 31
0.0
  0
LINE
  5
2AA
330
1E
100
AcDbEntity
  8
0
100
AcDbLine
 10
274.538
 20
33.025
 30
0.0
 11
286.3939999999999
 21
33.025
 31
0.0
  0
LINE
  5
2AB
330
1E
100
AcDbEntity
  8
0
100
AcDbLine
 10
276.058
 20
32.989671
 30
0.0
 11
288.218
 21
32.989671
 31
0.0
  0
LINE
  5
2AC
330
1E
100
AcDbEntity
  8
0
100
AcDbLine
 10
276.058
 20
31.995
 30
0.0
 11
288.218
 21
31.995
 31
0.0
  0
LINE
  5
2AD
330
1E
100
AcDbEntity
  8
0
100
AcDbLine
 10
269.9899999999999
 20
43.325
 30
0.0
 11
275.2699999999999
 21
43.325
 31
0.0
  0
LINE
  5
2AE
330
1E
100
AcDbEntity
  8
0
100
AcDbLine
 10
275.2699999999999
 20
43.325
 30
0.0
 11
277.2499999999999
 21
43.325
 31
0.0
  0
LINE
  5
2AF
330
1E
100
AcDbEntity
  8
0
100
AcDbLine
 10
277.2499999999999
 20
33.025
 30
0.0
 11
277.2499999999999
 21
43.325
 31
0.0
  0
LINE
  5
2B0
330
1E
100
AcDbEntity
  8
0
100
AcDbLine
 10
277.2499999999999
 20
43.325
 30
0.0
 11
277.2499999999999
 21
33.025
 31
0.0
  0
LINE
  5
2B1
330
1E
100
AcDbEntity
  8
0
100
AcDbLine
 10
269.2499999999999
 20
98.489225
 30
0.0
 11
269.2499999999999
 21
51.05
 31
0.0
  0
LINE
  5
2B2
330
1E
100
AcDbEntity
  8
0
100
AcDbLine
 10
278.9559999999999
 20
113.8929
 30
0.0
 11
279.662
 21
113.8929
 31
0.0
  0
LINE
  5
2B3
330
1E
100
AcDbEntity
  8
0
100
AcDbLine
 10
283.2499999999999
 20
33.025
 30
0.0
 11
283.2499999999999
 21
39.52
 31
0.0
  0
LINE
  5
2B4
330
1E
100
AcDbEntity
  8
0
100
AcDbLine
 10
283.3699999999999
 20
40.0
 30
0.0
 11
283.55
 21
40.0
 31
0.0
  0
LINE
  5
2B5
330
1E
100
AcDbEntity
  8
0
100
AcDbLine
 10
283.2499999999999
 20
39.52
 30
0.0
 11
283.2499999999999
 21
33.025
 31
0.0
  0
LINE
  5
2B6
330
1E
100
AcDbEntity
  8
0
100
AcDbLine
 10
283.2499999999999
 20
39.52
 30
0.0
 11
283.3699999999999
 21
40.0
 31
0.0
  0
LINE
  5
2B7
330
1E
100
AcDbEntity
  8
0
100
AcDbLine
 10
282.697
 20
100.0
 30
0.0
 11
283.1559999999999
 21
100.0
 31
0.0
  0
LINE
  5
2B8
330
1E
100
AcDbEntity
  8
0
100
AcDbLine
 10
283.1559999999999
 20
100.0
 30
0.0
 11
283.544
 21
100.0
 31
0.0
  0
LINE
  5
2B9
330
1E
100
AcDbEntity
  8
0
100
AcDbLine
 10
283.55
 20
40.0
 30
0.0
 11
284.0299999999999
 21
40.0
 31
0.0
  0
LINE
  5
2BA
330
1E
100
AcDbEntity
  8
0
100
AcDbLine
 10
284.0299999999999
 20
40.0
 30
0.0
 11
284.81
 21
40.0
 31
0.0
  0
LINE
  5
2BB
330
1E
100
AcDbEntity
  8
0
100
AcDbLine
 10
283.544
 20
100.0
 30
0.0
 11
283.8269999999999
 21
100.0
 31
0.0
  0
LINE
  5
2BC
330
1E
100
AcDbEntity
  8
0
100
AcDbLine
 10
283.8269999999999
 20
100.0
 30
0.0
 11
284.0729999999999
 21
100.0
 31
0.0
  0
LINE
  5
2BD
330
1E
100
AcDbEntity
  8
0
100
AcDbLine
 10
284.0729999999999
 20
100.0
 30
0.0
 11
284.179
 21
100.0
 31
0.0
  0
LINE
  5
2BE
330
1E
100
AcDbEntity
  8
0
100
AcDbLine
 10
284.179
 20
100.0
 30
0.0
 11
284.25
 21
100.0
 31
0.0
  0
LINE
  5
2BF
330
1E
100
AcDbEntity
  8
0
100
AcDbLine
 10
288.218
 20
31.8686
 30
0.0
 11
295.514
 21
31.8686
 31
0.0
  0
LINE
  5
2C0
330
1E
100
AcDbEntity
  8
0
100
AcDbLine
 10
295.514
 20
31.8686
 30
0.0
 11
298.2499999999999
 21
31.8686
 31
0.0
  0
LINE
  5
2C1
330
1E
100
AcDbEntity
  8
0
100
AcDbLine
 10
288.218
 20
-0.0000000000000176
 30
0.0
 11
295.514
 21
-0.0000000000000181
 31
0.0
  0
LINE
  5
2C2
330
1E
100
AcDbEntity
  8
0
100
AcDbLine
 10
295.514
 20
-0.0000000000000181
 30
0.0
 11
298.2499999999999
 21
-0.0000000000000182
 31
0.0
  0
LINE
  5
2C3
330
1E
100
AcDbEntity
  8
0
100
AcDbLine
 10
288.218
 20
31.995
 30
0.0
 11
295.514
 21
31.995
 31
0.0
  0
LINE
  5
2C4
330
1E
100
AcDbEntity
  8
0
100
AcDbLine
 10
298.2499999999999
 20
-0.0000000000000182
 30
0.0
 11
298.2499999999999
 21
31.8686
 31
0.0
  0
LINE
  5
2C5
330
1E
100
AcDbEntity
  8
0
100
AcDbLine
 10
298.2499999999999
 20
31.8686
 30
0.0
 11
298.2499999999999
 21
-0.0000000000000166
 31
0.0
  0
LINE
  5
2C6
330
1E
100
AcDbEntity
  8
0
100
AcDbLine
 10
298.2499999999999
 20
31.995
 30
0.0
 11
298.2499999999999
 21
32.989671
 31
0.0
  0
LINE
  5
2C7
330
1E
100
AcDbEntity
  8
0
100
AcDbLine
 10
295.514
 20
31.995
 30
0.0
 11
298.2499999999999
 21
31.995
 31
0.0
  0
LINE
  5
2C8
330
1E
100
AcDbEntity
  8
0
100
AcDbLine
 10
293.25
 20
33.025
 30
0.0
 11
293.25
 21
39.52
 31
0.0
  0
LINE
  5
2C9
330
1E
100
AcDbEntity
  8
0
100
AcDbLine
 10
286.3939999999999
 20
33.0
 30
0.0
 11
293.6899999999999
 21
33.0
 31
0.0
  0
LINE
  5
2CA
330
1E
100
AcDbEntity
  8
0
100
AcDbLine
 10
293.6899999999999
 20
33.0
 30
0.0
 11
296.4259999999999
 21
33.0
 31
0.0
  0
LINE
  5
2CB
330
1E
100
AcDbEntity
  8
0
100
AcDbLine
 10
286.3939999999999
 20
33.025
 30
0.0
 11
293.6899999999999
 21
33.025
 31
0.0
  0
LINE
  5
2CC
330
1E
100
AcDbEntity
  8
0
100
AcDbLine
 10
293.6899999999999
 20
33.025
 30
0.0
 11
296.4259999999999
 21
33.025
 31
0.0
  0
LINE
  5
2CD
330
1E
100
AcDbEntity
  8
0
100
AcDbLine
 10
288.218
 20
32.989671
 30
0.0
 11
295.514
 21
32.989671
 31
0.0
  0
LINE
  5
2CE
330
1E
100
AcDbEntity
  8
0
100
AcDbLine
 10
295.514
 20
32.989671
 30
0.0
 11
298.2499999999999
 21
32.989671
 31
0.0
  0
LINE
  5
2CF
330
1E
100
AcDbEntity
  8
0
100
AcDbLine
 10
284.81
 20
40.0
 30
0.0
 11
285.8299999999999
 21
40.0
 31
0.0
  0
LINE
  5
2D0
330
1E
100
AcDbEntity
  8
0
100
AcDbLine
 10
285.8299999999999
 20
40.0
 30
0.0
 11
286.99
 21
40.0
 31
0.0
  0
LINE
  5
2D1
330
1E
100
AcDbEntity
  8
0
100
AcDbLine
 10
292.9499999999999
 20
40.0
 30
0.0
 11
293.1299999999999
 21
40.0
 31
0.0
  0
LINE
  5
2D2
330
1E
100
AcDbEntity
  8
0
100
AcDbLine
 10
292.47
 20
40.0
 30
0.0
 11
292.9499999999999
 21
40.0
 31
0.0
  0
LINE
  5
2D3
330
1E
100
AcDbEntity
  8
0
100
AcDbLine
 10
291.69
 20
40.0
 30
0.0
 11
292.47
 21
40.0
 31
0.0
  0
LINE
  5
2D4
330
1E
100
AcDbEntity
  8
0
100
AcDbLine
 10
290.67
 20
40.0
 30
0.0
 11
291.69
 21
40.0
 31
0.0
  0
LINE
  5
2D5
330
1E
100
AcDbEntity
  8
0
100
AcDbLine
 10
289.5099999999999
 20
40.0
 30
0.0
 11
290.67
 21
40.0
 31
0.0
  0
LINE
  5
2D6
330
1E
100
AcDbEntity
  8
0
100
AcDbLine
 10
288.2499999999999
 20
40.0
 30
0.0
 11
289.5099999999999
 21
40.0
 31
0.0
  0
LINE
  5
2D7
330
1E
100
AcDbEntity
  8
0
100
AcDbLine
 10
293.1299999999999
 20
40.0
 30
0.0
 11
293.25
 21
39.52
 31
0.0
  0
LINE
  5
2D8
330
1E
100
AcDbEntity
  8
0
100
AcDbLine
 10
293.25
 20
39.52
 30
0.0
 11
293.25
 21
33.025
 31
0.0
  0
LINE
  5
2D9
330
1E
100
AcDbEntity
  8
0
100
AcDbLine
 10
286.99
 20
40.0
 30
0.0
 11
288.2499999999999
 21
40.0
 31
0.0
  0
LINE
  5
2DA
330
1E
100
AcDbEntity
  8
0
100
AcDbLine
 10
296.4259999999999
 20
33.025
 30
0.0
 11
298.2499999999999
 21
32.989671
 31
0.0
  0
LINE
  5
2DB
330
1E
100
AcDbEntity
  8
0
100
AcDbLine
 10
298.2499999999999
 20
32.989671
 30
0.0
 11
298.2499999999999
 21
31.995
 31
0.0
  0
LINE
  5
2DC
330
1E
100
AcDbEntity
  8
0
100
AcDbLine
 10
298.046222732897
 20
31.995
 30
0.0
 11
298.2499999999999
 21
31.995
 31
0.0
  0
LINE
  5
2DD
330
1E
100
AcDbEntity
  8
0
100
AcDbLine
 10
298.046222732897
 20
31.995
 30
0.0
 11
298.2499999999999
 21
31.8686
 31
0.0
  0
LINE
  5
2DE
330
1E
100
AcDbEntity
  8
0
100
AcDbLine
 10
284.25
 20
100.0
 30
0.0
 11
284.25
 21
113.6428999999999
 31
0.0
  0
LINE
  5
2DF
330
1E
100
AcDbEntity
  8
0
100
AcDbLine
 10
282.168
 20
100.0
 30
0.0
 11
282.697
 21
100.0
 31
0.0
  0
LINE
  5
2E0
330
1E
100
AcDbEntity
  8
0
100
AcDbLine
 10
281.6029999999999
 20
100.0
 30
0.0
 11
282.168
 21
100.0
 31
0.0
  0
LINE
  5
2E1
330
1E
100
AcDbEntity
  8
0
100
AcDbLine
 10
280.968
 20
100.0
 30
0.0
 11
281.6029999999999
 21
100.0
 31
0.0
  0
LINE
  5
2E2
330
1E
100
AcDbEntity
  8
0
100
AcDbLine
 10
280.3319999999999
 20
100.0
 30
0.0
 11
280.968
 21
100.0
 31
0.0
  0
LINE
  5
2E3
330
1E
100
AcDbEntity
  8
0
100
AcDbLine
 10
282.6259999999999
 20
113.8929
 30
0.0
 11
283.0849999999999
 21
113.8929
 31
0.0
  0
LINE
  5
2E4
330
1E
100
AcDbEntity
  8
0
100
AcDbLine
 10
283.0849999999999
 20
113.8929
 30
0.0
 11
283.474
 21
113.8929
 31
0.0
  0
LINE
  5
2E5
330
1E
100
AcDbEntity
  8
0
100
AcDbLine
 10
283.474
 20
113.8929
 30
0.0
 11
283.7559999999999
 21
113.8929
 31
0.0
  0
LINE
  5
2E6
330
1E
100
AcDbEntity
  8
0
100
AcDbLine
 10
283.7559999999999
 20
113.8929
 30
0.0
 11
283.968
 21
113.8929
 31
0.0
  0
LINE
  5
2E7
330
1E
100
AcDbEntity
  8
0
100
AcDbLine
 10
283.968
 20
113.8929
 30
0.0
 11
284.109
 21
113.8929
 31
0.0
  0
LINE
  5
2E8
330
1E
100
AcDbEntity
  8
0
100
AcDbLine
 10
284.144
 20
113.8929
 30
0.0
 11
284.25
 21
113.6428999999999
 31
0.0
  0
LINE
  5
2E9
330
1E
100
AcDbEntity
  8
0
100
AcDbLine
 10
284.25
 20
113.6428999999999
 30
0.0
 11
284.25
 21
100.0
 31
0.0
  0
LINE
  5
2EA
330
1E
100
AcDbEntity
  8
0
100
AcDbLine
 10
282.132
 20
113.8929
 30
0.0
 11
282.6259999999999
 21
113.8929
 31
0.0
  0
LINE
  5
2EB
330
1E
100
AcDbEntity
  8
0
100
AcDbLine
 10
281.568
 20
113.8929
 30
0.0
 11
282.132
 21
113.8929
 31
0.0
  0
LINE
  5
2EC
330
1E
100
AcDbEntity
  8
0
100
AcDbLine
 10
280.968
 20
113.8929
 30
0.0
 11
281.568
 21
113.8929
 31
0.0
  0
LINE
  5
2ED
330
1E
100
AcDbEntity
  8
0
100
AcDbLine
 10
280.297
 20
113.8929
 30
0.0
 11
280.968
 21
113.8929
 31
0.0
  0
LINE
  5
2EE
330
1E
100
AcDbEntity
  8
0
100
AcDbLine
 10
279.662
 20
113.8929
 30
0.0
 11
280.297
 21
113.8929
 31
0.0
  0
LINE
  5
2EF
330
1E
100
AcDbEntity
  8
0
100
AcDbLine
 10
279.662
 20
100.0
 30
0.0
 11
280.3319999999999
 21
100.0
 31
0.0
  0
LINE
  5
2F0
330
1E
100
AcDbEntity
  8
0
100
AcDbLine
 10
278.9559999999999
 20
100.0
 30
0.0
 11
279.662
 21
100.0
 31
0.0
  0
LINE
  5
2F1
330
1E
100
AcDbEntity
  8
0
100
AcDbLine
 10
282.45
 20
114.0
 30
0.0
 11
282.874
 21
114.0
 31
0.0
  0
LINE
  5
2F2
330
1E
100
AcDbEntity
  8
0
100
AcDbLine
 10
282.874
 20
114.0
 30
0.0
 11
283.227
 21
114.0
 31
0.0
  0
LINE
  5
2F3
330
1E
100
AcDbEntity
  8
0
100
AcDbLine
 10
283.227
 20
114.0
 30
0.0
 11
283.509
 21
114.0
 31
0.0
  0
LINE
  5
2F4
330
1E
100
AcDbEntity
  8
0
100
AcDbLine
 10
283.509
 20
114.0
 30
0.0
 11
283.721
 21
114.0
 31
0.0
  0
LINE
  5
2F5
330
1E
100
AcDbEntity
  8
0
100
AcDbLine
 10
283.721
 20
114.0
 30
0.0
 11
283.862
 21
114.0
 31
0.0
  0
LINE
  5
2F6
330
1E
100
AcDbEntity
  8
0
100
AcDbLine
 10
283.8969999999999
 20
114.0
 30
0.0
 11
284.144
 21
113.8929
 31
0.0
  0
LINE
  5
2F7
330
1E
100
AcDbEntity
  8
0
100
AcDbLine
 10
281.9559999999999
 20
114.0
 30
0.0
 11
282.45
 21
114.0
 31
0.0
  0
LINE
  5
2F8
330
1E
100
AcDbEntity
  8
0
100
AcDbLine
 10
281.427
 20
114.0
 30
0.0
 11
281.9559999999999
 21
114.0
 31
0.0
  0
LINE
  5
2F9
330
1E
100
AcDbEntity
  8
0
100
AcDbLine
 10
280.8269999999999
 20
114.0
 30
0.0
 11
281.427
 21
114.0
 31
0.0
  0
LINE
  5
2FA
330
1E
100
AcDbEntity
  8
0
100
AcDbLine
 10
280.227
 20
114.0
 30
0.0
 11
280.8269999999999
 21
114.0
 31
0.0
  0
LINE
  5
2FB
330
1E
100
AcDbEntity
  8
0
100
AcDbLine
 10
279.591
 20
114.0
 30
0.0
 11
280.227
 21
114.0
 31
0.0
  0
LINE
  5
2FC
330
1E
100
AcDbEntity
  8
0
100
AcDbLine
 10
273.6399999999999
 20
654.815
 30
0.0
 11
274.862
 21
635.102
 31
0.0
  0
LINE
  5
300
330
1E
100
AcDbEntity
  8
0
100
AcDbLine
 10
277.3379999999999
 20
592.1499999999999
 30
0.0
 11
278.5989999999999
 21
570.2869999999998
 31
0.0
  0
LINE
  5
301
330
1E
100
AcDbEntity
  8
0
100
AcDbLine
 10
276.092
 20
613.778
 30
0.0
 11
277.3379999999999
 21
592.1499999999999
 31
0.0
  0
LINE
  5
302
330
1E
100
AcDbEntity
  8
0
100
AcDbLine
 10
274.862
 20
635.102
 30
0.0
 11
276.092
 21
613.778
 31
0.0
  0
LINE
  5
306
330
1E
100
AcDbEntity
  8
0
100
AcDbLine
 10
264.1179999999999
 20
820.0269999999999
 30
0.0
 11
265.995
 21
787.4439999999999
 31
0.0
  0
LINE
  5
307
330
1E
100
AcDbEntity
  8
0
100
AcDbLine
 10
264.1179999999999
 20
820.0269999999999
 30
0.0
 11
264.1289312676319
 21
946.348
 31
0.0
  0
LINE
  5
308
330
1E
100
AcDbEntity
  8
0
100
AcDbLine
 10
265.995
 20
787.4439999999999
 30
0.0
 11
267.292
 21
764.936
 31
0.0
  0
LINE
  5
309
330
1E
100
AcDbEntity
  8
0
100
AcDbLine
 10
267.292
 20
764.936
 30
0.0
 11
268.683
 21
740.801
 31
0.0
  0
LINE
  5
30A
330
1E
100
AcDbEntity
  8
0
100
AcDbLine
 10
268.683
 20
740.801
 30
0.0
 11
270.0819999999999
 21
716.5199999999999
 31
0.0
  0
LINE
  5
30B
330
1E
100
AcDbEntity
  8
0
100
AcDbLine
 10
270.0819999999999
 20
716.5199999999999
 30
0.0
 11
271.357
 21
694.408
 31
0.0
  0
LINE
  5
30C
330
1E
100
AcDbEntity
  8
0
100
AcDbLine
 10
271.357
 20
694.408
 30
0.0
 11
272.4479999999999
 21
675.4769999999999
 31
0.0
  0
LINE
  5
30D
330
1E
100
AcDbEntity
  8
0
100
AcDbLine
 10
272.4479999999999
 20
675.4769999999999
 30
0.0
 11
273.6399999999999
 21
654.815
 31
0.0
  0
LINE
  5
30F
330
1E
100
AcDbEntity
  8
0
100
AcDbLine
 10
278.5989999999999
 20
570.2869999999998
 30
0.0
 11
279.7129999999999
 21
550.941
 31
0.0
  0
LINE
  5
311
330
1E
100
AcDbEntity
  8
0
100
AcDbLine
 10
280.091
 20
820.9469999999999
 30
0.0
 11
281.9689999999999
 21
788.365
 31
0.0
  0
LINE
  5
314
330
1E
100
AcDbEntity
  8
0
100
AcDbLine
 10
279.7129999999999
 20
550.941
 30
0.0
 11
280.841
 21
531.354
 31
0.0
  0
LINE
  5
315
330
1E
100
AcDbEntity
  8
0
100
AcDbLine
 10
281.9689999999999
 20
788.365
 30
0.0
 11
283.265
 21
765.8560000000001
 31
0.0
  0
LINE
  5
316
330
1E
100
AcDbEntity
  8
0
100
AcDbLine
 10
283.265
 20
765.8560000000001
 30
0.0
 11
284.6569999999999
 21
741.7209999999999
 31
0.0
  0
LINE
  5
319
330
1E
100
AcDbEntity
  8
0
100
AcDbLine
 10
280.841
 20
531.354
 30
0.0
 11
282.145
 21
508.7209999999999
 31
0.0
  0
LINE
  5
31A
330
1E
100
AcDbEntity
  8
0
100
AcDbLine
 10
282.145
 20
508.7209999999999
 30
0.0
 11
283.4629999999999
 21
485.855
 31
0.0
  0
LINE
  5
31B
330
1E
100
AcDbEntity
  8
0
100
AcDbLine
 10
284.6569999999999
 20
741.7209999999999
 30
0.0
 11
286.0559999999999
 21
717.441
 31
0.0
  0
LINE
  5
31E
330
1E
100
AcDbEntity
  8
0
100
AcDbLine
 10
283.4629999999999
 20
485.855
 30
0.0
 11
284.809
 21
462.4859999999999
 31
0.0
  0
LINE
  5
31F
330
1E
100
AcDbEntity
  8
0
100
AcDbLine
 10
284.809
 20
462.4859999999999
 30
0.0
 11
286.017
 21
441.4869999999999
 31
0.0
  0
LINE
  5
320
330
1E
100
AcDbEntity
  8
0
100
AcDbLine
 10
286.0559999999999
 20
717.441
 30
0.0
 11
287.33
 21
695.3289999999999
 31
0.0
  0
LINE
  5
321
330
1E
100
AcDbEntity
  8
0
100
AcDbLine
 10
287.33
 20
695.3289999999999
 30
0.0
 11
288.422
 21
676.398
 31
0.0
  0
LINE
  5
324
330
1E
100
AcDbEntity
  8
0
100
AcDbLine
 10
286.017
 20
441.4869999999999
 30
0.0
 11
287.02
 21
424.086
 31
0.0
  0
LINE
  5
325
330
1E
100
AcDbEntity
  8
0
100
AcDbLine
 10
287.02
 20
424.086
 30
0.0
 11
288.069
 21
405.8719999999999
 31
0.0
  0
LINE
  5
326
330
1E
100
AcDbEntity
  8
0
100
AcDbLine
 10
288.422
 20
676.398
 30
0.0
 11
289.6129999999999
 21
655.735
 31
0.0
  0
LINE
  5
329
330
1E
100
AcDbEntity
  8
0
100
AcDbLine
 10
288.069
 20
405.8719999999999
 30
0.0
 11
288.72
 21
394.5429999999999
 31
0.0
  0
LINE
  5
32A
330
1E
100
AcDbEntity
  8
0
100
AcDbLine
 10
288.72
 20
394.5429999999999
 30
0.0
 11
289.216
 21
385.918
 31
0.0
  0
LINE
  5
32C
330
1E
100
AcDbEntity
  8
0
100
AcDbLine
 10
289.4859999999999
 20
821.7970000000001
 30
0.0
 11
289.502
 21
789.1779999999999
 31
0.0
  0
LINE
  5
32D
330
1E
100
AcDbEntity
  8
0
100
AcDbLine
 10
289.4859999999999
 20
821.7970000000001
 30
0.0
 11
289.512963437451
 21
976.0
 31
0.0
  0
LINE
  5
32E
330
1E
100
AcDbEntity
  8
0
100
AcDbLine
 10
289.502
 20
789.1779999999999
 30
0.0
 11
289.5129999999999
 21
766.651
 31
0.0
  0
LINE
  5
32F
330
1E
100
AcDbEntity
  8
0
100
AcDbLine
 10
289.5129999999999
 20
766.651
 30
0.0
 11
289.526
 21
742.5010000000001
 31
0.0
  0
LINE
  5
330
330
1E
100
AcDbEntity
  8
0
100
AcDbLine
 10
289.526
 20
742.5010000000001
 30
0.0
 11
289.5389999999999
 21
718.2089999999999
 31
0.0
  0
LINE
  5
331
330
1E
100
AcDbEntity
  8
0
100
AcDbLine
 10
289.5389999999999
 20
718.2089999999999
 30
0.0
 11
289.55
 21
696.096
 31
0.0
  0
LINE
  5
336
330
1E
100
AcDbEntity
  8
0
100
AcDbLine
 10
289.55
 20
696.096
 30
0.0
 11
289.5609999999999
 21
677.17
 31
0.0
  0
LINE
  5
337
330
1E
100
AcDbEntity
  8
0
100
AcDbLine
 10
289.5609999999999
 20
677.17
 30
0.0
 11
289.572
 21
656.5239999999999
 31
0.0
  0
LINE
  5
339
330
1E
100
AcDbEntity
  8
0
100
AcDbLine
 10
289.6129999999999
 20
655.735
 30
0.0
 11
290.837
 21
636.0219999999999
 31
0.0
  0
LINE
  5
33A
330
1E
100
AcDbEntity
  8
0
100
AcDbLine
 10
289.216
 20
385.918
 30
0.0
 11
289.421
 21
385.1109999999999
 31
0.0
  0
LINE
  5
33B
330
1E
100
AcDbEntity
  8
0
100
AcDbLine
 10
289.421
 20
385.1109999999999
 30
0.0
 11
290.197
 21
381.6869999999999
 31
0.0
  0
LINE
  5
33C
330
1E
100
AcDbEntity
  8
0
100
AcDbLine
 10
294.572
 20
571.2069999999999
 30
0.0
 11
295.687
 21
551.8619999999999
 31
0.0
  0
LINE
  5
33D
330
1E
100
AcDbEntity
  8
0
100
AcDbLine
 10
293.312
 20
593.0689999999999
 30
0.0
 11
294.572
 21
571.2069999999999
 31
0.0
  0
LINE
  5
33E
330
1E
100
AcDbEntity
  8
0
100
AcDbLine
 10
292.0659999999999
 20
614.699
 30
0.0
 11
293.312
 21
593.0689999999999
 31
0.0
  0
LINE
  5
344
330
1E
100
AcDbEntity
  8
0
100
AcDbLine
 10
290.837
 20
636.0219999999999
 30
0.0
 11
292.0659999999999
 21
614.699
 31
0.0
  0
LINE
  5
345
330
1E
100
AcDbEntity
  8
0
100
AcDbLine
 10
290.197
 20
381.6869999999999
 30
0.0
 11
292.1369999999999
 21
378.865
 31
0.0
  0
LINE
  5
346
330
1E
100
AcDbEntity
  8
0
100
AcDbLine
 10
292.1369999999999
 20
378.865
 30
0.0
 11
294.7359999999999
 21
376.829
 31
0.0
  0
LINE
  5
347
330
1E
100
AcDbEntity
  8
0
100
AcDbLine
 10
295.687
 20
551.8619999999999
 30
0.0
 11
296.8159999999999
 21
532.274
 31
0.0
  0
LINE
  5
34A
330
1E
100
AcDbEntity
  8
0
100
AcDbLine
 10
296.8159999999999
 20
532.274
 30
0.0
 11
298.119
 21
509.642
 31
0.0
  0
LINE
  5
34B
330
1E
100
AcDbEntity
  8
0
100
AcDbLine
 10
298.119
 20
509.642
 30
0.0
 11
299.4359999999999
 21
486.776
 31
0.0
  0
LINE
  5
34E
330
1E
100
AcDbEntity
  8
0
100
AcDbLine
 10
299.4359999999999
 20
486.776
 30
0.0
 11
300.7819999999999
 21
463.4059999999999
 31
0.0
  0
LINE
  5
34F
330
1E
100
AcDbEntity
  8
0
100
AcDbLine
 10
300.7819999999999
 20
463.4059999999999
 30
0.0
 11
301.992
 21
442.408
 31
0.0
  0
LINE
  5
352
330
1E
100
AcDbEntity
  8
0
100
AcDbLine
 10
301.992
 20
442.408
 30
0.0
 11
302.993
 21
425.0069999999999
 31
0.0
  0
LINE
  5
353
330
1E
100
AcDbEntity
  8
0
100
AcDbLine
 10
302.993
 20
425.0069999999999
 30
0.0
 11
304.042
 21
406.793
 31
0.0
  0
LINE
  5
354
330
1E
100
AcDbEntity
  8
0
100
AcDbLine
 10
304.042
 20
406.793
 30
0.0
 11
304.694
 21
395.4619999999999
 31
0.0
  0
LINE
  5
355
330
1E
100
AcDbEntity
  8
0
100
AcDbLine
 10
304.694
 20
395.4619999999999
 30
0.0
 11
305.189
 21
386.838
 31
0.0
  0
LINE
  5
356
330
1E
100
AcDbEntity
  8
0
100
AcDbLine
 10
305.394
 20
385.203
 30
0.0
 11
305.79
 21
387.029
 31
0.0
  0
LINE
  5
359
330
1E
100
AcDbEntity
  8
0
100
AcDbLine
 10
305.485
 20
821.8049999999999
 30
0.0
 11
305.502
 21
789.186
 31
0.0
  0
LINE
  5
35A
330
1E
100
AcDbEntity
  8
0
100
AcDbLine
 10
305.502
 20
789.186
 30
0.0
 11
305.5129999999999
 21
766.658
 31
0.0
  0
LINE
  5
35B
330
1E
100
AcDbEntity
  8
0
100
AcDbLine
 10
305.5129999999999
 20
766.658
 30
0.0
 11
305.526
 21
742.508
 31
0.0
  0
LINE
  5
35C
330
1E
100
AcDbEntity
  8
0
100
AcDbLine
 10
305.526
 20
742.508
 30
0.0
 11
305.5379999999999
 21
718.218
 31
0.0
  0
LINE
  5
35D
330
1E
100
AcDbEntity
  8
0
100
AcDbLine
 10
305.5379999999999
 20
718.218
 30
0.0
 11
305.55
 21
696.105
 31
0.0
  0
LINE
  5
35E
330
1E
100
AcDbEntity
  8
0
100
AcDbLine
 10
305.55
 20
696.105
 30
0.0
 11
305.56
 21
677.179
 31
0.0
  0
LINE
  5
35F
330
1E
100
AcDbEntity
  8
0
100
AcDbLine
 10
305.56
 20
677.179
 30
0.0
 11
305.5719999999999
 21
656.5319999999999
 31
0.0
  0
LINE
  5
361
330
1E
100
AcDbEntity
  8
0
100
AcDbLine
 10
305.7129999999999
 20
552.6259999999999
 30
0.0
 11
305.723
 21
533.0069999999999
 31
0.0
  0
LINE
  5
362
330
1E
100
AcDbEntity
  8
0
100
AcDbLine
 10
305.723
 20
533.0069999999999
 30
0.0
 11
305.734
 21
510.333
 31
0.0
  0
LINE
  5
363
330
1E
100
AcDbEntity
  8
0
100
AcDbLine
 10
305.734
 20
510.333
 30
0.0
 11
305.745
 21
487.4169999999999
 31
0.0
  0
LINE
  5
364
330
1E
100
AcDbEntity
  8
0
100
AcDbLine
 10
305.745
 20
487.4169999999999
 30
0.0
 11
305.7559999999999
 21
463.9829999999999
 31
0.0
  0
LINE
  5
365
330
1E
100
AcDbEntity
  8
0
100
AcDbLine
 10
305.7559999999999
 20
463.9829999999999
 30
0.0
 11
305.7669999999999
 21
442.919
 31
0.0
  0
LINE
  5
366
330
1E
100
AcDbEntity
  8
0
100
AcDbLine
 10
305.7669999999999
 20
442.919
 30
0.0
 11
305.7739999999999
 21
425.4459999999999
 31
0.0
  0
LINE
  5
367
330
1E
100
AcDbEntity
  8
0
100
AcDbLine
 10
305.7739999999999
 20
425.4459999999999
 30
0.0
 11
305.783
 21
407.1439999999999
 31
0.0
  0
LINE
  5
368
330
1E
100
AcDbEntity
  8
0
100
AcDbLine
 10
305.783
 20
407.1439999999999
 30
0.0
 11
305.788
 21
395.7359999999999
 31
0.0
  0
LINE
  5
369
330
1E
100
AcDbEntity
  8
0
100
AcDbLine
 10
305.788
 20
395.7359999999999
 30
0.0
 11
305.79
 21
387.029
 31
0.0
  0
LINE
  5
36A
330
1E
100
AcDbEntity
  8
0
100
AcDbLine
 10
305.7029999999999
 20
571.992
 30
0.0
 11
305.7129999999999
 21
552.6259999999999
 31
0.0
  0
LINE
  5
36B
330
1E
100
AcDbEntity
  8
0
100
AcDbLine
 10
305.6909999999999
 20
593.8699999999999
 30
0.0
 11
305.7029999999999
 21
571.992
 31
0.0
  0
LINE
  5
36C
330
1E
100
AcDbEntity
  8
0
100
AcDbLine
 10
305.681
 20
615.508
 30
0.0
 11
305.6909999999999
 21
593.8699999999999
 31
0.0
  0
LINE
  5
36D
330
1E
100
AcDbEntity
  8
0
100
AcDbLine
 10
305.67
 20
636.825
 30
0.0
 11
305.681
 21
615.508
 31
0.0
  0
LINE
  5
36E
330
1E
100
AcDbEntity
  8
0
100
AcDbLine
 10
305.5719999999999
 20
656.5319999999999
 30
0.0
 11
305.67
 21
636.825
 31
0.0
  0
LINE
  5
36F
330
1E
100
AcDbEntity
  8
0
100
AcDbLine
 10
305.189
 20
386.838
 30
0.0
 11
305.394
 21
385.203
 31
0.0
  0
LINE
  5
370
330
1E
100
AcDbEntity
  8
0
100
AcDbLine
 10
304.9719999999999
 20
381.8259999999999
 30
0.0
 11
305.394
 21
385.203
 31
0.0
  0
LINE
  5
371
330
1E
100
AcDbEntity
  8
0
100
AcDbLine
 10
303.319
 20
378.9109999999999
 30
0.0
 11
304.9719999999999
 21
381.8259999999999
 31
0.0
  0
LINE
  5
372
330
1E
100
AcDbEntity
  8
0
100
AcDbLine
 10
300.9259999999999
 20
376.875
 30
0.0
 11
303.319
 21
378.9109999999999
 31
0.0
  0
LINE
  5
373
330
1E
100
AcDbEntity
  8
0
100
AcDbLine
 10
297.865
 20
376.3659999999999
 30
0.0
 11
300.9259999999999
 21
376.875
 31
0.0
  0
LINE
  5
374
330
1E
100
AcDbEntity
  8
0
100
AcDbLine
 10
294.7359999999999
 20
376.829
 30
0.0
 11
297.865
 21
376.3659999999999
 31
0.0
  0
LINE
  5
375
330
1E
100
AcDbEntity
  8
0
100
AcDbLine
 10
278.9559999999999
 20
114.0
 30
0.0
 11
279.591
 21
114.0
 31
0.0
  0
LINE
  5
376
330
1E
100
AcDbEntity
  8
0
100
AcDbLine
 10
245.25
 20
114.0
 30
0.0
 11
245.25
 21
824.0
 31
0.0
  0
LINE
  5
377
330
1E
100
AcDbEntity
  8
0
100
AcDbLine
 10
245.25
 20
114.0
 30
0.0
 11
245.25
 21
824.0
 31
0.0
  0
LINE
  5
378
330
1E
100
AcDbEntity
  8
0
100
AcDbLine
 10
245.25
 20
825.0
 30
0.0
 11
245.25
 21
902.0
 31
0.0
  0
LINE
  5
379
330
1E
100
AcDbEntity
  8
0
100
AcDbLine
 10
245.1
 20
825.0
 30
0.0
 11
245.1999999999999
 21
825.0
 31
0.0
  0
LINE
  5
37A
330
1E
100
AcDbEntity
  8
0
100
AcDbLine
 10
244.9
 20
825.0
 30
0.0
 11
245.1
 21
825.0
 31
0.0
  0
LINE
  5
37B
330
1E
100
AcDbEntity
  8
0
100
AcDbLine
 10
244.6499999999999
 20
825.0
 30
0.0
 11
244.9
 21
825.0
 31
0.0
  0
LINE
  5
37C
330
1E
100
AcDbEntity
  8
0
100
AcDbLine
 10
244.2499999999999
 20
825.0
 30
0.0
 11
244.6499999999999
 21
825.0
 31
0.0
  0
LINE
  5
37D
330
1E
100
AcDbEntity
  8
0
100
AcDbLine
 10
244.2499999999999
 20
825.0
 30
0.0
 11
244.95
 21
824.6999999999999
 31
0.0
  0
LINE
  5
37E
330
1E
100
AcDbEntity
  8
0
100
AcDbLine
 10
245.25
 20
902.0
 30
0.0
 11
245.25
 21
825.0
 31
0.0
  0
LINE
  5
37F
330
1E
100
AcDbEntity
  8
0
100
AcDbLine
 10
245.25
 20
902.0
 30
0.0
 11
245.25
 21
957.0
 31
0.0
  0
LINE
  5
381
330
1E
100
AcDbEntity
  8
0
100
AcDbLine
 10
245.25
 20
957.0
 30
0.0
 11
245.25
 21
902.0
 31
0.0
  0
LINE
  5
383
330
1E
100
AcDbEntity
  8
0
100
AcDbLine
 10
245.25
 20
964.44
 30
0.0
 11
244.6499999999999
 21
1021.7
 31
0.0
  0
LINE
  5
384
330
1E
100
AcDbEntity
  8
0
100
AcDbLine
 10
245.25
 20
964.44
 30
0.0
 11
245.25
 21
957.0
 31
0.0
  0
LINE
  5
385
330
1E
100
AcDbEntity
  8
0
100
AcDbLine
 10
261.8219999999999
 20
946.348
 30
0.0
 11
262.2219999999999
 21
946.348
 31
0.0
  0
LINE
  5
386
330
1E
100
AcDbEntity
  8
0
100
AcDbLine
 10
264.922
 20
946.348
 30
0.0
 11
267.122
 21
946.348
 31
0.0
  0
LINE
  5
387
330
1E
100
AcDbEntity
  8
0
100
AcDbLine
 10
277.522
 20
946.348
 30
0.0
 11
279.7219999999999
 21
946.348
 31
0.0
  0
LINE
  5
388
330
1E
100
AcDbEntity
  8
0
100
AcDbLine
 10
275.022
 20
946.348
 30
0.0
 11
277.522
 21
946.348
 31
0.0
  0
LINE
  5
389
330
1E
100
AcDbEntity
  8
0
100
AcDbLine
 10
272.3219999999999
 20
946.348
 30
0.0
 11
275.022
 21
946.348
 31
0.0
  0
LINE
  5
38A
330
1E
100
AcDbEntity
  8
0
100
AcDbLine
 10
267.122
 20
946.348
 30
0.0
 11
269.622
 21
946.348
 31
0.0
  0
LINE
  5
38B
330
1E
100
AcDbEntity
  8
0
100
AcDbLine
 10
269.622
 20
946.348
 30
0.0
 11
272.3219999999999
 21
946.348
 31
0.0
  0
LINE
  5
38C
330
1E
100
AcDbEntity
  8
0
100
AcDbLine
 10
262.2219999999999
 20
946.348
 30
0.0
 11
263.2219999999999
 21
946.348
 31
0.0
  0
LINE
  5
38D
330
1E
100
AcDbEntity
  8
0
100
AcDbLine
 10
263.2219999999999
 20
946.348
 30
0.0
 11
263.831600788051
 21
946.348
 31
0.0
  0
LINE
  5
38E
330
1E
100
AcDbEntity
  8
0
100
AcDbLine
 10
263.2219999999999
 20
946.348
 30
0.0
 11
264.922
 21
946.348
 31
0.0
  0
LINE
  5
38F
330
1E
100
AcDbEntity
  8
0
100
AcDbLine
 10
282.8219999999999
 20
946.348
 30
0.0
 11
283.822
 21
976.3480000000001
 31
0.0
  0
LINE
  5
390
330
1E
100
AcDbEntity
  8
0
100
AcDbLine
 10
282.422
 20
946.348
 30
0.0
 11
282.8219999999999
 21
946.348
 31
0.0
  0
LINE
  5
391
330
1E
100
AcDbEntity
  8
0
100
AcDbLine
 10
281.422
 20
946.348
 30
0.0
 11
282.422
 21
946.348
 31
0.0
  0
LINE
  5
392
330
1E
100
AcDbEntity
  8
0
100
AcDbLine
 10
279.7219999999999
 20
946.348
 30
0.0
 11
281.422
 21
946.348
 31
0.0
  0
LINE
  5
39C
330
1E
100
AcDbEntity
  8
0
100
AcDbLine
 10
291.794
 20
976.0
 30
0.0
 11
294.434
 21
976.0
 31
0.0
  0
LINE
  5
39D
330
1E
100
AcDbEntity
  8
0
100
AcDbLine
 10
290.802
 20
976.0
 30
0.0
 11
293.922
 21
976.0
 31
0.0
  0
LINE
  5
39E
330
1E
100
AcDbEntity
  8
0
100
AcDbLine
 10
300.5779999999999
 20
976.0
 30
0.0
 11
303.6979999999999
 21
976.0
 31
0.0
  0
LINE
  5
39F
330
1E
100
AcDbEntity
  8
0
100
AcDbLine
 10
303.6979999999999
 20
976.0
 30
0.0
 11
305.25
 21
976.0
 31
0.0
  0
LINE
  5
3A0
330
1E
100
AcDbEntity
  8
0
100
AcDbLine
 10
302.7059999999999
 20
976.0
 30
0.0
 11
305.25
 21
976.0
 31
0.0
  0
LINE
  5
3A1
330
1E
100
AcDbEntity
  8
0
100
AcDbLine
 10
300.0659999999999
 20
976.0
 30
0.0
 11
302.7059999999999
 21
976.0
 31
0.0
  0
LINE
  5
3A2
330
1E
100
AcDbEntity
  8
0
100
AcDbLine
 10
297.25
 20
976.0
 30
0.0
 11
300.0659999999999
 21
976.0
 31
0.0
  0
LINE
  5
3A3
330
1E
100
AcDbEntity
  8
0
100
AcDbLine
 10
297.25
 20
976.0
 30
0.0
 11
300.5779999999999
 21
976.0
 31
0.0
  0
LINE
  5
3A4
330
1E
100
AcDbEntity
  8
0
100
AcDbLine
 10
305.25
 20
976.0
 30
0.0
 11
306.7
 21
976.5499999999999
 31
0.0
  0
LINE
  5
3A5
330
1E
100
AcDbEntity
  8
0
100
AcDbLine
 10
294.434
 20
976.0
 30
0.0
 11
297.25
 21
976.0
 31
0.0
  0
LINE
  5
3A6
330
1E
100
AcDbEntity
  8
0
100
AcDbLine
 10
293.922
 20
976.0
 30
0.0
 11
297.25
 21
976.0
 31
0.0
  0
LINE
  5
3A7
330
1E
100
AcDbEntity
  8
0
100
AcDbLine
 10
289.4619999999999
 20
976.0
 30
0.0
 11
289.512963437451
 21
976.0
 31
0.0
  0
LINE
  5
3A8
330
1E
100
AcDbEntity
  8
0
100
AcDbLine
 10
289.4619999999999
 20
976.0
 30
0.0
 11
291.794
 21
976.0
 31
0.0
  0
LINE
  5
3A9
330
1E
100
AcDbEntity
  8
0
100
AcDbLine
 10
279.47618058081
 20
946.348
 30
0.0
 11
279.7219999999999
 21
946.348
 31
0.0
  0
LINE
  5
3AA
330
1E
100
AcDbEntity
  8
0
100
AcDbLine
 10
279.47618058081
 20
946.348
 30
0.0
 11
280.091
 21
820.9469999999999
 31
0.0
  0
LINE
  5
3AB
330
1E
100
AcDbEntity
  8
0
100
AcDbLine
 10
279.47618058081
 20
946.348
 30
0.0
 11
280.091
 21
820.9469999999999
 31
0.0
  0
LINE
  5
3AC
330
1E
100
AcDbEntity
  8
0
100
AcDbLine
 10
305.4679140918719
 20
976.0826570693311
 30
0.0
 11
305.485
 21
821.8049999999999
 31
0.0
  0
LINE
  5
3AD
330
1E
100
AcDbEntity
  8
0
100
AcDbLine
 10
261.2219999999999
 20
976.3480000000001
 30
0.0
 11
262.3219999999999
 21
976.3480000000001
 31
0.0
  0
LINE
  5
3AE
330
1E
100
AcDbEntity
  8
0
100
AcDbLine
 10
262.3219999999999
 20
976.3480000000001
 30
0.0
 11
264.222
 21
976.3480000000001
 31
0.0
  0
LINE
  5
3AF
330
1E
100
AcDbEntity
  8
0
100
AcDbLine
 10
260.822
 20
976.3480000000001
 30
0.0
 11
261.8219999999999
 21
946.348
 31
0.0
  0
LINE
  5
3B0
330
1E
100
AcDbEntity
  8
0
100
AcDbLine
 10
260.822
 20
976.3480000000001
 30
0.0
 11
261.2219999999999
 21
976.3480000000001
 31
0.0
  0
LINE
  5
3B1
330
1E
100
AcDbEntity
  8
0
100
AcDbLine
 10
264.222
 20
976.3480000000001
 30
0.0
 11
266.622
 21
976.3480000000001
 31
0.0
  0
LINE
  5
3B2
330
1E
100
AcDbEntity
  8
0
100
AcDbLine
 10
266.622
 20
976.3480000000001
 30
0.0
 11
269.322
 21
976.3480000000001
 31
0.0
  0
LINE
  5
3B3
330
1E
100
AcDbEntity
  8
0
100
AcDbLine
 10
283.422
 20
976.3480000000001
 30
0.0
 11
283.822
 21
976.3480000000001
 31
0.0
  0
LINE
  5
3B4
330
1E
100
AcDbEntity
  8
0
100
AcDbLine
 10
282.322
 20
976.3480000000001
 30
0.0
 11
283.422
 21
976.3480000000001
 31
0.0
  0
LINE
  5
3B5
330
1E
100
AcDbEntity
  8
0
100
AcDbLine
 10
280.422
 20
976.3480000000001
 30
0.0
 11
282.322
 21
976.3480000000001
 31
0.0
  0
LINE
  5
3B6
330
1E
100
AcDbEntity
  8
0
100
AcDbLine
 10
278.0219999999999
 20
976.3480000000001
 30
0.0
 11
280.422
 21
976.3480000000001
 31
0.0
  0
LINE
  5
3B7
330
1E
100
AcDbEntity
  8
0
100
AcDbLine
 10
275.322
 20
976.3480000000001
 30
0.0
 11
278.0219999999999
 21
976.3480000000001
 31
0.0
  0
LINE
  5
3B8
330
1E
100
AcDbEntity
  8
0
100
AcDbLine
 10
272.3219999999999
 20
976.3480000000001
 30
0.0
 11
275.322
 21
976.3480000000001
 31
0.0
  0
LINE
  5
3B9
330
1E
100
AcDbEntity
  8
0
100
AcDbLine
 10
269.322
 20
976.3480000000001
 30
0.0
 11
272.3219999999999
 21
976.3480000000001
 31
0.0
  0
LINE
  5
3BA
330
1E
100
AcDbEntity
  8
0
100
AcDbLine
 10
306.7
 20
976.5499999999999
 30
0.0
 11
307.25
 21
978.0
 31
0.0
  0
LINE
  5
3BD
330
1E
100
AcDbEntity
  8
0
100
AcDbLine
 10
305.4679140918719
 20
976.0826570693311
 30
0.0
 11
305.485
 21
821.8049999999999
 31
0.0
  0
LINE
  5
3BE
330
1E
100
AcDbEntity
  8
0
100
AcDbLine
 10
245.25
 20
957.0
 30
0.0
 11
245.25
 21
964.44
 31
0.0
  0
LINE
  5
3BF
330
1E
100
AcDbEntity
  8
0
100
AcDbLine
 10
243.4499999999999
 20
825.0
 30
0.0
 11
244.2499999999999
 21
825.0
 31
0.0
  0
LINE
  5
3C0
330
1E
100
AcDbEntity
  8
0
100
AcDbLine
 10
242.2499999999999
 20
825.0
 30
0.0
 11
243.4499999999999
 21
825.0
 31
0.0
  0
LINE
  5
3C1
330
1E
100
AcDbEntity
  8
0
100
AcDbLine
 10
245.1999999999999
 20
980.2999999999999
 30
0.0
 11
250.2499999999999
 21
980.2999999999999
 31
0.0
  0
LINE
  5
3C6
330
1E
100
AcDbEntity
  8
0
100
AcDbLine
 10
244.6499999999999
 20
1021.7
 30
0.0
 11
297.25
 21
1021.7
 31
0.0
  0
LINE
  5
3C7
330
1E
100
AcDbEntity
  8
0
100
AcDbLine
 10
245.25
 20
1026.45
 30
0.0
 11
245.25
 21
1022.0
 31
0.0
  0
LINE
  5
3C8
330
1E
100
AcDbEntity
  8
0
100
AcDbLine
 10
245.25
 20
1060.0
 30
0.0
 11
245.25
 21
1096.0
 31
0.0
  0
LINE
  5
3C9
330
1E
100
AcDbEntity
  8
0
100
AcDbLine
 10
245.25
 20
1060.0
 30
0.0
 11
245.25
 21
1026.456
 31
0.0
  0
LINE
  5
3CA
330
1E
100
AcDbEntity
  8
0
100
AcDbLine
 10
245.25
 20
1026.456
 30
0.0
 11
245.25
 21
1060.0
 31
0.0
  0
LINE
  5
3CE
330
1E
100
AcDbEntity
  8
0
100
AcDbLine
 10
250.2499999999999
 20
980.2999999999999
 30
0.0
 11
252.0
 21
979.9099999999999
 31
0.0
  0
LINE
  5
3CF
330
1E
100
AcDbEntity
  8
0
100
AcDbLine
 10
253.8199999999999
 20
979.08
 30
0.0
 11
254.9799999999999
 21
978.1699999999998
 31
0.0
  0
LINE
  5
3D0
330
1E
100
AcDbEntity
  8
0
100
AcDbLine
 10
301.684
 20
977.2999999999999
 30
0.0
 11
303.9579999999999
 21
977.2999999999999
 31
0.0
  0
LINE
  5
3D1
330
1E
100
AcDbEntity
  8
0
100
AcDbLine
 10
299.4479999999999
 20
977.2999999999999
 30
0.0
 11
301.684
 21
977.2999999999999
 31
0.0
  0
LINE
  5
3D2
330
1E
100
AcDbEntity
  8
0
100
AcDbLine
 10
297.25
 20
977.2999999999999
 30
0.0
 11
299.4479999999999
 21
977.2999999999999
 31
0.0
  0
LINE
  5
3D3
330
1E
100
AcDbEntity
  8
0
100
AcDbLine
 10
303.9579999999999
 20
977.2999999999999
 30
0.0
 11
305.528
 21
977.2999999999999
 31
0.0
  0
LINE
  5
3D4
330
1E
100
AcDbEntity
  8
0
100
AcDbLine
 10
305.528
 20
977.2999999999999
 30
0.0
 11
306.3759999999999
 21
977.2999999999999
 31
0.0
  0
LINE
  5
3D5
330
1E
100
AcDbEntity
  8
0
100
AcDbLine
 10
259.25
 20
977.2999999999999
 30
0.0
 11
297.25
 21
977.2999999999999
 31
0.0
  0
LINE
  5
3D6
330
1E
100
AcDbEntity
  8
0
100
AcDbLine
 10
307.25
 20
978.0
 30
0.0
 11
307.25
 21
1021.0
 31
0.0
  0
LINE
  5
3D7
330
1E
100
AcDbEntity
  8
0
100
AcDbLine
 10
256.8
 20
977.63
 30
0.0
 11
259.25
 21
977.2999999999999
 31
0.0
  0
LINE
  5
3D8
330
1E
100
AcDbEntity
  8
0
100
AcDbLine
 10
254.9799999999999
 20
978.1699999999998
 30
0.0
 11
256.8
 21
977.63
 31
0.0
  0
LINE
  5
3DB
330
1E
100
AcDbEntity
  8
0
100
AcDbLine
 10
252.0
 20
979.9099999999999
 30
0.0
 11
253.8199999999999
 21
979.08
 31
0.0
  0
LINE
  5
3DC
330
1E
100
AcDbEntity
  8
0
100
AcDbLine
 10
301.684
 20
1021.7
 30
0.0
 11
303.9579999999999
 21
1021.7
 31
0.0
  0
LINE
  5
3DD
330
1E
100
AcDbEntity
  8
0
100
AcDbLine
 10
299.4479999999999
 20
1021.7
 30
0.0
 11
301.684
 21
1021.7
 31
0.0
  0
LINE
  5
3DE
330
1E
100
AcDbEntity
  8
0
100
AcDbLine
 10
297.25
 20
1021.7
 30
0.0
 11
299.4479999999999
 21
1021.7
 31
0.0
  0
LINE
  5
3DF
330
1E
100
AcDbEntity
  8
0
100
AcDbLine
 10
284.25
 20
1023.0
 30
0.0
 11
284.718
 21
1023.0
 31
0.0
  0
LINE
  5
3E0
330
1E
100
AcDbEntity
  8
0
100
AcDbLine
 10
284.25
 20
1023.0
 30
0.0
 11
284.25
 21
1022.0
 31
0.0
  0
LINE
  5
3E1
330
1E
100
AcDbEntity
  8
0
100
AcDbLine
 10
284.718
 20
1023.0
 30
0.0
 11
285.966
 21
1023.0
 31
0.0
  0
LINE
  5
3E2
330
1E
100
AcDbEntity
  8
0
100
AcDbLine
 10
285.966
 20
1023.0
 30
0.0
 11
288.0459999999999
 21
1023.0
 31
0.0
  0
LINE
  5
3E3
330
1E
100
AcDbEntity
  8
0
100
AcDbLine
 10
288.0459999999999
 20
1023.0
 30
0.0
 11
290.802
 21
1023.0
 31
0.0
  0
LINE
  5
3E4
330
1E
100
AcDbEntity
  8
0
100
AcDbLine
 10
303.6979999999999
 20
1023.0
 30
0.0
 11
305.25
 21
1023.0
 31
0.0
  0
LINE
  5
3E5
330
1E
100
AcDbEntity
  8
0
100
AcDbLine
 10
300.5779999999999
 20
1023.0
 30
0.0
 11
303.6979999999999
 21
1023.0
 31
0.0
  0
LINE
  5
3E6
330
1E
100
AcDbEntity
  8
0
100
AcDbLine
 10
297.25
 20
1023.0
 30
0.0
 11
300.5779999999999
 21
1023.0
 31
0.0
  0
LINE
  5
3E7
330
1E
100
AcDbEntity
  8
0
100
AcDbLine
 10
290.802
 20
1023.0
 30
0.0
 11
293.922
 21
1023.0
 31
0.0
  0
LINE
  5
3E8
330
1E
100
AcDbEntity
  8
0
100
AcDbLine
 10
293.922
 20
1023.0
 30
0.0
 11
297.25
 21
1023.0
 31
0.0
  0
LINE
  5
3E9
330
1E
100
AcDbEntity
  8
0
100
AcDbLine
 10
284.25
 20
1022.0
 30
0.0
 11
284.25
 21
1023.0
 31
0.0
  0
LINE
  5
3EA
330
1E
100
AcDbEntity
  8
0
100
AcDbLine
 10
287.85
 20
1024.0
 30
0.0
 11
289.7499999999999
 21
1024.0
 31
0.0
  0
LINE
  5
3EB
330
1E
100
AcDbEntity
  8
0
100
AcDbLine
 10
286.6499999999999
 20
1024.0
 30
0.0
 11
287.85
 21
1024.0
 31
0.0
  0
LINE
  5
3EC
330
1E
100
AcDbEntity
  8
0
100
AcDbLine
 10
286.25
 20
1024.0
 30
0.0
 11
286.6499999999999
 21
1024.0
 31
0.0
  0
LINE
  5
3ED
330
1E
100
AcDbEntity
  8
0
100
AcDbLine
 10
286.25
 20
1024.0
 30
0.0
 11
287.25
 21
1023.0
 31
0.0
  0
LINE
  5
3EE
330
1E
100
AcDbEntity
  8
0
100
AcDbLine
 10
286.25
 20
1024.0
 30
0.0
 11
286.25
 21
1177.499999999999
 31
0.0
  0
LINE
  5
3EF
330
1E
100
AcDbEntity
  8
0
100
AcDbLine
 10
289.7499999999999
 20
1024.0
 30
0.0
 11
292.2499999999999
 21
1024.0
 31
0.0
  0
LINE
  5
3F0
330
1E
100
AcDbEntity
  8
0
100
AcDbLine
 10
292.2499999999999
 20
1024.0
 30
0.0
 11
295.1499999999999
 21
1024.0
 31
0.0
  0
LINE
  5
3F1
330
1E
100
AcDbEntity
  8
0
100
AcDbLine
 10
295.1499999999999
 20
1024.0
 30
0.0
 11
298.2499999999999
 21
1024.0
 31
0.0
  0
LINE
  5
3F2
330
1E
100
AcDbEntity
  8
0
100
AcDbLine
 10
304.2499999999999
 20
1024.0
 30
0.0
 11
306.7499999999999
 21
1024.0
 31
0.0
  0
LINE
  5
3F3
330
1E
100
AcDbEntity
  8
0
100
AcDbLine
 10
301.35
 20
1024.0
 30
0.0
 11
304.2499999999999
 21
1024.0
 31
0.0
  0
LINE
  5
3F4
330
1E
100
AcDbEntity
  8
0
100
AcDbLine
 10
298.2499999999999
 20
1024.0
 30
0.0
 11
301.35
 21
1024.0
 31
0.0
  0
LINE
  5
3F5
330
1E
100
AcDbEntity
  8
0
100
AcDbLine
 10
305.25
 20
1023.0
 30
0.0
 11
305.35
 21
1023.0
 31
0.0
  0
LINE
  5
3F6
330
1E
100
AcDbEntity
  8
0
100
AcDbLine
 10
305.25
 20
1023.0
 30
0.0
 11
306.05
 21
1023.0
 31
0.0
  0
LINE
  5
3F7
330
1E
100
AcDbEntity
  8
0
100
AcDbLine
 10
305.25
 20
1023.0
 30
0.0
 11
306.7
 21
1022.45
 31
0.0
  0
LINE
  5
3F8
330
1E
100
AcDbEntity
  8
0
100
AcDbLine
 10
305.35
 20
1023.0
 30
0.0
 11
306.95
 21
1023.0
 31
0.0
  0
LINE
  5
3F9
330
1E
100
AcDbEntity
  8
0
100
AcDbLine
 10
303.9579999999999
 20
1021.7
 30
0.0
 11
305.528
 21
1021.7
 31
0.0
  0
LINE
  5
3FA
330
1E
100
AcDbEntity
  8
0
100
AcDbLine
 10
307.25
 20
1021.0
 30
0.0
 11
307.25
 21
978.0
 31
0.0
  0
LINE
  5
3FB
330
1E
100
AcDbEntity
  8
0
100
AcDbLine
 10
306.7386896551719
 20
1022.348
 30
0.0
 11
308.322
 21
1022.348
 31
0.0
  0
LINE
  5
3FC
330
1E
100
AcDbEntity
  8
0
100
AcDbLine
 10
308.822
 20
992.3480000000001
 30
0.0
 11
309.8219999999999
 21
1022.348
 31
0.0
  0
LINE
  5
3FD
330
1E
100
AcDbEntity
  8
0
100
AcDbLine
 10
308.422
 20
992.3480000000001
 30
0.0
 11
308.822
 21
992.3480000000001
 31
0.0
  0
LINE
  5
3FE
330
1E
100
AcDbEntity
  8
0
100
AcDbLine
 10
309.422
 20
1022.348
 30
0.0
 11
309.8219999999999
 21
1022.348
 31
0.0
  0
LINE
  5
3FF
330
1E
100
AcDbEntity
  8
0
100
AcDbLine
 10
308.322
 20
1022.348
 30
0.0
 11
309.422
 21
1022.348
 31
0.0
  0
LINE
  5
400
330
1E
100
AcDbEntity
  8
0
100
AcDbLine
 10
307.422
 20
992.3480000000001
 30
0.0
 11
308.422
 21
992.3480000000001
 31
0.0
  0
LINE
  5
401
330
1E
100
AcDbEntity
  8
0
100
AcDbLine
 10
307.25
 20
992.3480000000001
 30
0.0
 11
307.422
 21
992.3480000000001
 31
0.0
  0
LINE
  5
402
330
1E
100
AcDbEntity
  8
0
100
AcDbLine
 10
306.7
 20
1022.45
 30
0.0
 11
307.25
 21
1021.0
 31
0.0
  0
LINE
  5
403
330
1E
100
AcDbEntity
  8
0
100
AcDbLine
 10
306.05
 20
1023.0
 30
0.0
 11
307.75
 21
1023.0
 31
0.0
  0
LINE
  5
404
330
1E
100
AcDbEntity
  8
0
100
AcDbLine
 10
307.75
 20
1023.0
 30
0.0
 11
308.85
 21
1023.0
 31
0.0
  0
LINE
  5
405
330
1E
100
AcDbEntity
  8
0
100
AcDbLine
 10
306.95
 20
1023.0
 30
0.0
 11
307.85
 21
1023.0
 31
0.0
  0
LINE
  5
406
330
1E
100
AcDbEntity
  8
0
100
AcDbLine
 10
307.85
 20
1023.0
 30
0.0
 11
308.25
 21
1023.0
 31
0.0
  0
LINE
  5
407
330
1E
100
AcDbEntity
  8
0
100
AcDbLine
 10
306.7499999999999
 20
1024.0
 30
0.0
 11
308.65
 21
1024.0
 31
0.0
  0
LINE
  5
408
330
1E
100
AcDbEntity
  8
0
100
AcDbLine
 10
308.65
 20
1024.0
 30
0.0
 11
309.85
 21
1024.0
 31
0.0
  0
LINE
  5
409
330
1E
100
AcDbEntity
  8
0
100
AcDbLine
 10
308.25
 20
1023.0
 30
0.0
 11
308.85
 21
1023.0
 31
0.0
  0
LINE
  5
40A
330
1E
100
AcDbEntity
  8
0
100
AcDbLine
 10
308.25
 20
1023.0
 30
0.0
 11
308.25
 21
1022.348
 31
0.0
  0
LINE
  5
40B
330
1E
100
AcDbEntity
  8
0
100
AcDbLine
 10
309.85
 20
1024.0
 30
0.0
 11
310.25
 21
1024.0
 31
0.0
  0
LINE
  5
40C
330
1E
100
AcDbEntity
  8
0
100
AcDbLine
 10
310.25
 20
1024.0
 30
0.0
 11
310.25
 21
1106.0
 31
0.0
  0
LINE
  5
40D
330
1E
100
AcDbEntity
  8
0
100
AcDbLine
 10
309.25
 20
1023.0
 30
0.0
 11
310.25
 21
1024.0
 31
0.0
  0
LINE
  5
40E
330
1E
100
AcDbEntity
  8
0
100
AcDbLine
 10
308.85
 20
1023.0
 30
0.0
 11
309.25
 21
1023.0
 31
0.0
  0
LINE
  5
40F
330
1E
100
AcDbEntity
  8
0
100
AcDbLine
 10
308.25
 20
1022.348
 30
0.0
 11
308.25
 21
1023.0
 31
0.0
  0
LINE
  5
410
330
1E
100
AcDbEntity
  8
0
100
AcDbLine
 10
305.528
 20
1021.7
 30
0.0
 11
306.3759999999999
 21
1021.7
 31
0.0
  0
LINE
  5
414
330
1E
100
AcDbEntity
  8
0
100
AcDbLine
 10
245.25
 20
1022.0
 30
0.0
 11
245.25
 21
1026.456
 31
0.0
  0
LINE
  5
419
330
1E
100
AcDbEntity
  8
0
100
AcDbLine
 10
195.53
 20
1098.854
 30
0.0
 11
198.832
 21
1098.105
 31
0.0
  0
LINE
  5
42D
330
1E
100
AcDbEntity
  8
0
100
AcDbLine
 10
245.25
 20
1096.0
 30
0.0
 11
245.25
 21
1060.0
 31
0.0
  0
LINE
  5
42F
330
1E
100
AcDbEntity
  8
0
100
AcDbLine
 10
210.25
 20
1097.0
 30
0.0
 11
224.55
 21
1097.0
 31
0.0
  0
LINE
  5
430
330
1E
100
AcDbEntity
  8
0
100
AcDbLine
 10
239.55
 20
1097.0
 30
0.0
 11
241.25
 21
1097.0
 31
0.0
  0
LINE
  5
431
330
1E
100
AcDbEntity
  8
0
100
AcDbLine
 10
237.7459999999999
 20
1097.0
 30
0.0
 11
239.55
 21
1097.0
 31
0.0
  0
LINE
  5
432
330
1E
100
AcDbEntity
  8
0
100
AcDbLine
 10
235.761
 20
1097.0
 30
0.0
 11
237.7459999999999
 21
1097.0
 31
0.0
  0
LINE
  5
433
330
1E
100
AcDbEntity
  8
0
100
AcDbLine
 10
233.5599999999999
 20
1097.0
 30
0.0
 11
235.761
 21
1097.0
 31
0.0
  0
LINE
  5
434
330
1E
100
AcDbEntity
  8
0
100
AcDbLine
 10
231.0009999999999
 20
1097.0
 30
0.0
 11
233.5599999999999
 21
1097.0
 31
0.0
  0
LINE
  5
435
330
1E
100
AcDbEntity
  8
0
100
AcDbLine
 10
227.5729999999999
 20
1097.0
 30
0.0
 11
231.0009999999999
 21
1097.0
 31
0.0
  0
LINE
  5
436
330
1E
100
AcDbEntity
  8
0
100
AcDbLine
 10
224.55
 20
1097.0
 30
0.0
 11
227.5729999999999
 21
1097.0
 31
0.0
  0
LINE
  5
437
330
1E
100
AcDbEntity
  8
0
100
AcDbLine
 10
244.07
 20
1097.0
 30
0.0
 11
244.2499999999999
 21
1097.0
 31
0.0
  0
LINE
  5
438
330
1E
100
AcDbEntity
  8
0
100
AcDbLine
 10
243.907
 20
1097.0
 30
0.0
 11
244.07
 21
1097.0
 31
0.0
  0
LINE
  5
439
330
1E
100
AcDbEntity
  8
0
100
AcDbLine
 10
243.654
 20
1097.0
 30
0.0
 11
243.907
 21
1097.0
 31
0.0
  0
LINE
  5
43A
330
1E
100
AcDbEntity
  8
0
100
AcDbLine
 10
243.257
 20
1097.0
 30
0.0
 11
243.654
 21
1097.0
 31
0.0
  0
LINE
  5
43B
330
1E
100
AcDbEntity
  8
0
100
AcDbLine
 10
242.45
 20
1097.0
 30
0.0
 11
243.257
 21
1097.0
 31
0.0
  0
LINE
  5
43E
330
1E
100
AcDbEntity
  8
0
100
AcDbLine
 10
198.832
 20
1098.105
 30
0.0
 11
202.229
 21
1097.56
 31
0.0
  0
LINE
  5
43F
330
1E
100
AcDbEntity
  8
0
100
AcDbLine
 10
202.229
 20
1097.56
 30
0.0
 11
206.7429999999999
 21
1097.104
 31
0.0
  0
LINE
  5
440
330
1E
100
AcDbEntity
  8
0
100
AcDbLine
 10
206.7429999999999
 20
1097.104
 30
0.0
 11
210.25
 21
1097.0
 31
0.0
  0
LINE
  5
441
330
1E
100
AcDbEntity
  8
0
100
AcDbLine
 10
241.25
 20
1097.0
 30
0.0
 11
242.45
 21
1097.0
 31
0.0
  0
LINE
  5
442
330
1E
100
AcDbEntity
  8
0
100
AcDbLine
 10
306.7499999999999
 20
1106.0
 30
0.0
 11
307.0479999999999
 21
1106.0
 31
0.0
  0
LINE
  5
443
330
1E
100
AcDbEntity
  8
0
100
AcDbLine
 10
307.017
 20
1106.0
 30
0.0
 11
307.6299999999999
 21
1106.0
 31
0.0
  0
LINE
  5
444
330
1E
100
AcDbEntity
  8
0
100
AcDbLine
 10
307.0479999999999
 20
1106.0
 30
0.0
 11
307.6299999999999
 21
1106.0
 31
0.0
  0
LINE
  5
445
330
1E
100
AcDbEntity
  8
0
100
AcDbLine
 10
307.6299999999999
 20
1106.0
 30
0.0
 11
307.92
 21
1106.5
 31
0.0
  0
LINE
  5
447
330
1E
100
AcDbEntity
  8
0
100
AcDbLine
 10
309.208957654723
 20
1106.0
 30
0.0
 11
309.9459999999999
 21
1106.0
 31
0.0
  0
LINE
  5
449
330
1E
100
AcDbEntity
  8
0
100
AcDbLine
 10
307.92
 20
1106.5
 30
0.0
 11
307.92
 21
1107.5
 31
0.0
  0
LINE
  5
44A
330
1E
100
AcDbEntity
  8
0
100
AcDbLine
 10
306.7579999999999
 20
1106.5
 30
0.0
 11
307.0479999999999
 21
1106.0
 31
0.0
  0
LINE
  5
44B
330
1E
100
AcDbEntity
  8
0
100
AcDbLine
 10
306.7579999999999
 20
1106.5
 30
0.0
 11
306.7579999999999
 21
1107.5
 31
0.0
  0
LINE
  5
44D
330
1E
100
AcDbEntity
  8
0
100
AcDbLine
 10
309.487
 20
1106.5
 30
0.0
 11
309.64
 21
1106.0
 31
0.0
  0
LINE
  5
44E
330
1E
100
AcDbEntity
  8
0
100
AcDbLine
 10
309.487
 20
1106.5
 30
0.0
 11
309.487
 21
1107.5
 31
0.0
  0
LINE
  5
44F
330
1E
100
AcDbEntity
  8
0
100
AcDbLine
 10
309.64
 20
1106.0
 30
0.0
 11
309.9459999999999
 21
1106.0
 31
0.0
  0
LINE
  5
450
330
1E
100
AcDbEntity
  8
0
100
AcDbLine
 10
309.9459999999999
 20
1106.0
 30
0.0
 11
310.0989999999999
 21
1106.5
 31
0.0
  0
LINE
  5
452
330
1E
100
AcDbEntity
  8
0
100
AcDbLine
 10
307.92
 20
1107.5
 30
0.0
 11
307.92
 21
1106.5
 31
0.0
  0
LINE
  5
453
330
1E
100
AcDbEntity
  8
0
100
AcDbLine
 10
306.7579999999999
 20
1107.5
 30
0.0
 11
307.049
 21
1108.0
 31
0.0
  0
LINE
  5
454
330
1E
100
AcDbEntity
  8
0
100
AcDbLine
 10
306.7579999999999
 20
1107.5
 30
0.0
 11
306.7579999999999
 21
1106.5
 31
0.0
  0
LINE
  5
456
330
1E
100
AcDbEntity
  8
0
100
AcDbLine
 10
306.7499999999999
 20
1108.0
 30
0.0
 11
307.049
 21
1108.0
 31
0.0
  0
LINE
  5
457
330
1E
100
AcDbEntity
  8
0
100
AcDbLine
 10
307.6299999999999
 20
1108.0
 30
0.0
 11
307.92
 21
1107.5
 31
0.0
  0
LINE
  5
458
330
1E
100
AcDbEntity
  8
0
100
AcDbLine
 10
307.049
 20
1108.0
 30
0.0
 11
307.6299999999999
 21
1108.0
 31
0.0
  0
LINE
  5
45A
330
1E
100
AcDbEntity
  8
0
100
AcDbLine
 10
309.9459999999999
 20
1108.0
 30
0.0
 11
310.0989999999999
 21
1107.5
 31
0.0
  0
LINE
  5
45B
330
1E
100
AcDbEntity
  8
0
100
AcDbLine
 10
309.64
 20
1108.0
 30
0.0
 11
309.9459999999999
 21
1108.0
 31
0.0
  0
LINE
  5
45C
330
1E
100
AcDbEntity
  8
0
100
AcDbLine
 10
309.487
 20
1107.5
 30
0.0
 11
309.64
 21
1108.0
 31
0.0
  0
LINE
  5
45D
330
1E
100
AcDbEntity
  8
0
100
AcDbLine
 10
309.487
 20
1107.5
 30
0.0
 11
309.487
 21
1106.5
 31
0.0
  0
LINE
  5
45E
330
1E
100
AcDbEntity
  8
0
100
AcDbLine
 10
310.0989999999999
 20
1107.5
 30
0.0
 11
310.7499999999999
 21
1107.5
 31
0.0
  0
LINE
  5
45F
330
1E
100
AcDbEntity
  8
0
100
AcDbLine
 10
310.0989999999999
 20
1107.5
 30
0.0
 11
310.0989999999999
 21
1106.5
 31
0.0
  0
LINE
  5
460
330
1E
100
AcDbEntity
  8
0
100
AcDbLine
 10
310.0989999999999
 20
1106.5
 30
0.0
 11
310.7499999999999
 21
1106.5
 31
0.0
  0
LINE
  5
461
330
1E
100
AcDbEntity
  8
0
100
AcDbLine
 10
310.0989999999999
 20
1106.5
 30
0.0
 11
310.0989999999999
 21
1107.5
 31
0.0
  0
LINE
  5
462
330
1E
100
AcDbEntity
  8
0
100
AcDbLine
 10
310.7499999999999
 20
1108.0
 30
0.0
 11
310.7499999999999
 21
1107.5
 31
0.0
  0
LINE
  5
463
330
1E
100
AcDbEntity
  8
0
100
AcDbLine
 10
310.7499999999999
 20
1107.5
 30
0.0
 11
310.7499999999999
 21
1108.0
 31
0.0
  0
LINE
  5
464
330
1E
100
AcDbEntity
  8
0
100
AcDbLine
 10
310.7499999999999
 20
1107.5
 30
0.0
 11
310.7499999999999
 21
1106.5
 31
0.0
  0
LINE
  5
465
330
1E
100
AcDbEntity
  8
0
100
AcDbLine
 10
310.7499999999999
 20
1106.5
 30
0.0
 11
310.7499999999999
 21
1107.5
 31
0.0
  0
LINE
  5
466
330
1E
100
AcDbEntity
  8
0
100
AcDbLine
 10
310.7499999999999
 20
1106.5
 30
0.0
 11
310.7499999999999
 21
1106.0
 31
0.0
  0
LINE
  5
467
330
1E
100
AcDbEntity
  8
0
100
AcDbLine
 10
310.7499999999999
 20
1106.0
 30
0.0
 11
310.7499999999999
 21
1106.5
 31
0.0
  0
LINE
  5
468
330
1E
100
AcDbEntity
  8
0
100
AcDbLine
 10
310.25
 20
1106.0
 30
0.0
 11
310.25
 21
1024.0
 31
0.0
  0
LINE
  5
469
330
1E
100
AcDbEntity
  8
0
100
AcDbLine
 10
310.25
 20
1106.0
 30
0.0
 11
310.7499999999999
 21
1106.0
 31
0.0
  0
LINE
  5
46B
330
1E
100
AcDbEntity
  8
0
100
AcDbLine
 10
309.9459999999999
 20
1112.8
 30
0.0
 11
310.0989999999999
 21
1113.299999999999
 31
0.0
  0
LINE
  5
46C
330
1E
100
AcDbEntity
  8
0
100
AcDbLine
 10
309.158
 20
1112.8
 30
0.0
 11
309.9459999999999
 21
1112.8
 31
0.0
  0
LINE
  5
46D
330
1E
100
AcDbEntity
  8
0
100
AcDbLine
 10
309.64
 20
1112.8
 30
0.0
 11
309.9459999999999
 21
1112.8
 31
0.0
  0
LINE
  5
46E
330
1E
100
AcDbEntity
  8
0
100
AcDbLine
 10
309.155798045603
 20
1112.8
 30
0.0
 11
309.64
 21
1112.8
 31
0.0
  0
LINE
  5
46F
330
1E
100
AcDbEntity
  8
0
100
AcDbLine
 10
307.6299999999999
 20
1112.8
 30
0.0
 11
307.92
 21
1113.299999999999
 31
0.0
  0
LINE
  5
470
330
1E
100
AcDbEntity
  8
0
100
AcDbLine
 10
307.017
 20
1112.8
 30
0.0
 11
307.6299999999999
 21
1112.8
 31
0.0
  0
LINE
  5
471
330
1E
100
AcDbEntity
  8
0
100
AcDbLine
 10
307.92
 20
1113.299999999999
 30
0.0
 11
307.92
 21
1114.299999999999
 31
0.0
  0
LINE
  5
472
330
1E
100
AcDbEntity
  8
0
100
AcDbLine
 10
309.487
 20
1113.299999999999
 30
0.0
 11
309.64
 21
1112.8
 31
0.0
  0
LINE
  5
473
330
1E
100
AcDbEntity
  8
0
100
AcDbLine
 10
309.487
 20
1113.299999999999
 30
0.0
 11
309.487
 21
1114.299999999999
 31
0.0
  0
LINE
  5
475
330
1E
100
AcDbEntity
  8
0
100
AcDbLine
 10
306.7579999999999
 20
1113.299999999999
 30
0.0
 11
307.0479999999999
 21
1112.8
 31
0.0
  0
LINE
  5
476
330
1E
100
AcDbEntity
  8
0
100
AcDbLine
 10
306.7579999999999
 20
1113.299999999999
 30
0.0
 11
306.7579999999999
 21
1114.299999999999
 31
0.0
  0
LINE
  5
477
330
1E
100
AcDbEntity
  8
0
100
AcDbLine
 10
307.0479999999999
 20
1112.8
 30
0.0
 11
307.6299999999999
 21
1112.8
 31
0.0
  0
LINE
  5
478
330
1E
100
AcDbEntity
  8
0
100
AcDbLine
 10
306.7499999999999
 20
1112.8
 30
0.0
 11
307.0479999999999
 21
1112.8
 31
0.0
  0
LINE
  5
47A
330
1E
100
AcDbEntity
  8
0
100
AcDbLine
 10
306.7579999999999
 20
1114.299999999999
 30
0.0
 11
307.049
 21
1114.8
 31
0.0
  0
LINE
  5
47B
330
1E
100
AcDbEntity
  8
0
100
AcDbLine
 10
306.7579999999999
 20
1114.299999999999
 30
0.0
 11
306.7579999999999
 21
1113.299999999999
 31
0.0
  0
LINE
  5
47C
330
1E
100
AcDbEntity
  8
0
100
AcDbLine
 10
306.7499999999999
 20
1114.8
 30
0.0
 11
307.049
 21
1114.8
 31
0.0
  0
LINE
  5
47D
330
1E
100
AcDbEntity
  8
0
100
AcDbLine
 10
307.6299999999999
 20
1119.599999999999
 30
0.0
 11
307.92
 21
1120.099999999999
 31
0.0
  0
LINE
  5
47E
330
1E
100
AcDbEntity
  8
0
100
AcDbLine
 10
307.017
 20
1119.599999999999
 30
0.0
 11
307.6299999999999
 21
1119.599999999999
 31
0.0
  0
LINE
  5
47F
330
1E
100
AcDbEntity
  8
0
100
AcDbLine
 10
307.0479999999999
 20
1119.599999999999
 30
0.0
 11
307.6299999999999
 21
1119.599999999999
 31
0.0
  0
LINE
  5
480
330
1E
100
AcDbEntity
  8
0
100
AcDbLine
 10
306.7499999999999
 20
1119.599999999999
 30
0.0
 11
307.0479999999999
 21
1119.599999999999
 31
0.0
  0
LINE
  5
481
330
1E
100
AcDbEntity
  8
0
100
AcDbLine
 10
307.049
 20
1114.8
 30
0.0
 11
307.6299999999999
 21
1114.8
 31
0.0
  0
LINE
  5
482
330
1E
100
AcDbEntity
  8
0
100
AcDbLine
 10
307.92
 20
1114.299999999999
 30
0.0
 11
307.92
 21
1113.299999999999
 31
0.0
  0
LINE
  5
484
330
1E
100
AcDbEntity
  8
0
100
AcDbLine
 10
309.9459999999999
 20
1114.8
 30
0.0
 11
310.0989999999999
 21
1114.299999999999
 31
0.0
  0
LINE
  5
485
330
1E
100
AcDbEntity
  8
0
100
AcDbLine
 10
309.487
 20
1114.299999999999
 30
0.0
 11
309.64
 21
1114.8
 31
0.0
  0
LINE
  5
486
330
1E
100
AcDbEntity
  8
0
100
AcDbLine
 10
309.487
 20
1114.299999999999
 30
0.0
 11
309.487
 21
1113.299999999999
 31
0.0
  0
LINE
  5
487
330
1E
100
AcDbEntity
  8
0
100
AcDbLine
 10
309.1401628664499
 20
1114.8
 30
0.0
 11
309.64
 21
1114.8
 31
0.0
  0
LINE
  5
488
330
1E
100
AcDbEntity
  8
0
100
AcDbLine
 10
309.9459999999999
 20
1119.599999999999
 30
0.0
 11
310.0989999999999
 21
1120.099999999999
 31
0.0
  0
LINE
  5
489
330
1E
100
AcDbEntity
  8
0
100
AcDbLine
 10
309.158
 20
1119.599999999999
 30
0.0
 11
309.9459999999999
 21
1119.599999999999
 31
0.0
  0
LINE
  5
48A
330
1E
100
AcDbEntity
  8
0
100
AcDbLine
 10
309.64
 20
1119.599999999999
 30
0.0
 11
309.9459999999999
 21
1119.599999999999
 31
0.0
  0
LINE
  5
48C
330
1E
100
AcDbEntity
  8
0
100
AcDbLine
 10
309.64
 20
1114.8
 30
0.0
 11
309.9459999999999
 21
1114.8
 31
0.0
  0
LINE
  5
48D
330
1E
100
AcDbEntity
  8
0
100
AcDbLine
 10
307.6299999999999
 20
1114.8
 30
0.0
 11
307.92
 21
1114.299999999999
 31
0.0
  0
LINE
  5
48E
330
1E
100
AcDbEntity
  8
0
100
AcDbLine
 10
310.0989999999999
 20
1113.299999999999
 30
0.0
 11
310.7499999999999
 21
1113.299999999999
 31
0.0
  0
LINE
  5
48F
330
1E
100
AcDbEntity
  8
0
100
AcDbLine
 10
310.0989999999999
 20
1113.299999999999
 30
0.0
 11
310.0989999999999
 21
1114.299999999999
 31
0.0
  0
LINE
  5
490
330
1E
100
AcDbEntity
  8
0
100
AcDbLine
 10
310.0989999999999
 20
1114.299999999999
 30
0.0
 11
310.7499999999999
 21
1114.299999999999
 31
0.0
  0
LINE
  5
491
330
1E
100
AcDbEntity
  8
0
100
AcDbLine
 10
310.0989999999999
 20
1114.299999999999
 30
0.0
 11
310.0989999999999
 21
1113.299999999999
 31
0.0
  0
LINE
  5
493
330
1E
100
AcDbEntity
  8
0
100
AcDbLine
 10
307.92
 20
1120.099999999999
 30
0.0
 11
307.92
 21
1121.099999999999
 31
0.0
  0
LINE
  5
494
330
1E
100
AcDbEntity
  8
0
100
AcDbLine
 10
309.487
 20
1120.099999999999
 30
0.0
 11
309.64
 21
1119.599999999999
 31
0.0
  0
LINE
  5
495
330
1E
100
AcDbEntity
  8
0
100
AcDbLine
 10
309.487
 20
1120.099999999999
 30
0.0
 11
309.487
 21
1121.099999999999
 31
0.0
  0
LINE
  5
497
330
1E
100
AcDbEntity
  8
0
100
AcDbLine
 10
306.7579999999999
 20
1120.099999999999
 30
0.0
 11
307.0479999999999
 21
1119.599999999999
 31
0.0
  0
LINE
  5
498
330
1E
100
AcDbEntity
  8
0
100
AcDbLine
 10
306.7579999999999
 20
1120.099999999999
 30
0.0
 11
306.7579999999999
 21
1121.099999999999
 31
0.0
  0
LINE
  5
49A
330
1E
100
AcDbEntity
  8
0
100
AcDbLine
 10
306.7579999999999
 20
1121.099999999999
 30
0.0
 11
307.049
 21
1121.599999999999
 31
0.0
  0
LINE
  5
49B
330
1E
100
AcDbEntity
  8
0
100
AcDbLine
 10
306.7579999999999
 20
1121.099999999999
 30
0.0
 11
306.7579999999999
 21
1120.099999999999
 31
0.0
  0
LINE
  5
49C
330
1E
100
AcDbEntity
  8
0
100
AcDbLine
 10
306.7499999999999
 20
1121.599999999999
 30
0.0
 11
307.049
 21
1121.599999999999
 31
0.0
  0
LINE
  5
49D
330
1E
100
AcDbEntity
  8
0
100
AcDbLine
 10
307.049
 20
1121.599999999999
 30
0.0
 11
307.6299999999999
 21
1121.599999999999
 31
0.0
  0
LINE
  5
49E
330
1E
100
AcDbEntity
  8
0
100
AcDbLine
 10
307.92
 20
1121.099999999999
 30
0.0
 11
307.92
 21
1120.099999999999
 31
0.0
  0
LINE
  5
4A0
330
1E
100
AcDbEntity
  8
0
100
AcDbLine
 10
309.9459999999999
 20
1121.599999999999
 30
0.0
 11
310.0989999999999
 21
1121.099999999999
 31
0.0
  0
LINE
  5
4A1
330
1E
100
AcDbEntity
  8
0
100
AcDbLine
 10
309.487
 20
1121.099999999999
 30
0.0
 11
309.64
 21
1121.599999999999
 31
0.0
  0
LINE
  5
4A2
330
1E
100
AcDbEntity
  8
0
100
AcDbLine
 10
309.487
 20
1121.099999999999
 30
0.0
 11
309.487
 21
1120.099999999999
 31
0.0
  0
LINE
  5
4A4
330
1E
100
AcDbEntity
  8
0
100
AcDbLine
 10
309.64
 20
1121.599999999999
 30
0.0
 11
309.9459999999999
 21
1121.599999999999
 31
0.0
  0
LINE
  5
4A5
330
1E
100
AcDbEntity
  8
0
100
AcDbLine
 10
307.6299999999999
 20
1121.599999999999
 30
0.0
 11
307.92
 21
1121.099999999999
 31
0.0
  0
LINE
  5
4A6
330
1E
100
AcDbEntity
  8
0
100
AcDbLine
 10
310.0989999999999
 20
1120.099999999999
 30
0.0
 11
310.7499999999999
 21
1120.099999999999
 31
0.0
  0
LINE
  5
4A7
330
1E
100
AcDbEntity
  8
0
100
AcDbLine
 10
310.0989999999999
 20
1120.099999999999
 30
0.0
 11
310.0989999999999
 21
1121.099999999999
 31
0.0
  0
LINE
  5
4A8
330
1E
100
AcDbEntity
  8
0
100
AcDbLine
 10
310.0989999999999
 20
1121.099999999999
 30
0.0
 11
310.7499999999999
 21
1121.099999999999
 31
0.0
  0
LINE
  5
4A9
330
1E
100
AcDbEntity
  8
0
100
AcDbLine
 10
310.0989999999999
 20
1121.099999999999
 30
0.0
 11
310.0989999999999
 21
1120.099999999999
 31
0.0
  0
LINE
  5
4AA
330
1E
100
AcDbEntity
  8
0
100
AcDbLine
 10
310.25
 20
1119.599999999999
 30
0.0
 11
310.25
 21
1114.8
 31
0.0
  0
LINE
  5
4AB
330
1E
100
AcDbEntity
  8
0
100
AcDbLine
 10
310.25
 20
1119.599999999999
 30
0.0
 11
310.7499999999999
 21
1119.599999999999
 31
0.0
  0
LINE
  5
4AC
330
1E
100
AcDbEntity
  8
0
100
AcDbLine
 10
310.25
 20
1112.8
 30
0.0
 11
310.25
 21
1108.0
 31
0.0
  0
LINE
  5
4AD
330
1E
100
AcDbEntity
  8
0
100
AcDbLine
 10
310.25
 20
1112.8
 30
0.0
 11
310.7499999999999
 21
1112.8
 31
0.0
  0
LINE
  5
4AF
330
1E
100
AcDbEntity
  8
0
100
AcDbLine
 10
306.7499999999999
 20
1126.4
 30
0.0
 11
307.0479999999999
 21
1126.4
 31
0.0
  0
LINE
  5
4B1
330
1E
100
AcDbEntity
  8
0
100
AcDbLine
 10
306.7579999999999
 20
1127.9
 30
0.0
 11
307.049
 21
1128.4
 31
0.0
  0
LINE
  5
4B2
330
1E
100
AcDbEntity
  8
0
100
AcDbLine
 10
306.7579999999999
 20
1127.9
 30
0.0
 11
306.7579999999999
 21
1126.9
 31
0.0
  0
LINE
  5
4B3
330
1E
100
AcDbEntity
  8
0
100
AcDbLine
 10
306.7579999999999
 20
1126.9
 30
0.0
 11
307.0479999999999
 21
1126.4
 31
0.0
  0
LINE
  5
4B4
330
1E
100
AcDbEntity
  8
0
100
AcDbLine
 10
306.7579999999999
 20
1126.9
 30
0.0
 11
306.7579999999999
 21
1127.9
 31
0.0
  0
LINE
  5
4B5
330
1E
100
AcDbEntity
  8
0
100
AcDbLine
 10
309.9459999999999
 20
1126.4
 30
0.0
 11
310.0989999999999
 21
1126.9
 31
0.0
  0
LINE
  5
4B6
330
1E
100
AcDbEntity
  8
0
100
AcDbLine
 10
309.158
 20
1126.4
 30
0.0
 11
309.9459999999999
 21
1126.4
 31
0.0
  0
LINE
  5
4B8
330
1E
100
AcDbEntity
  8
0
100
AcDbLine
 10
309.64
 20
1126.4
 30
0.0
 11
309.9459999999999
 21
1126.4
 31
0.0
  0
LINE
  5
4B9
330
1E
100
AcDbEntity
  8
0
100
AcDbLine
 10
307.382508143322
 20
1126.4
 30
0.0
 11
307.6299999999999
 21
1126.4
 31
0.0
  0
LINE
  5
4BA
330
1E
100
AcDbEntity
  8
0
100
AcDbLine
 10
307.92
 20
1126.9
 30
0.0
 11
307.92
 21
1127.9
 31
0.0
  0
LINE
  5
4BC
330
1E
100
AcDbEntity
  8
0
100
AcDbLine
 10
307.92
 20
1127.9
 30
0.0
 11
307.92
 21
1126.9
 31
0.0
  0
LINE
  5
4BE
330
1E
100
AcDbEntity
  8
0
100
AcDbLine
 10
309.487
 20
1126.9
 30
0.0
 11
309.64
 21
1126.4
 31
0.0
  0
LINE
  5
4BF
330
1E
100
AcDbEntity
  8
0
100
AcDbLine
 10
309.487
 20
1126.9
 30
0.0
 11
309.487
 21
1127.9
 31
0.0
  0
LINE
  5
4C0
330
1E
100
AcDbEntity
  8
0
100
AcDbLine
 10
309.487
 20
1127.9
 30
0.0
 11
309.487
 21
1126.9
 31
0.0
  0
LINE
  5
4C1
330
1E
100
AcDbEntity
  8
0
100
AcDbLine
 10
309.487
 20
1127.9
 30
0.0
 11
309.64
 21
1128.4
 31
0.0
  0
LINE
  5
4C2
330
1E
100
AcDbEntity
  8
0
100
AcDbLine
 10
307.6299999999999
 20
1126.4
 30
0.0
 11
307.92
 21
1126.9
 31
0.0
  0
LINE
  5
4C3
330
1E
100
AcDbEntity
  8
0
100
AcDbLine
 10
307.0479999999999
 20
1126.4
 30
0.0
 11
307.6299999999999
 21
1126.4
 31
0.0
  0
LINE
  5
4C4
330
1E
100
AcDbEntity
  8
0
100
AcDbLine
 10
307.0479999999999
 20
1133.2
 30
0.0
 11
307.6299999999999
 21
1133.2
 31
0.0
  0
LINE
  5
4C5
330
1E
100
AcDbEntity
  8
0
100
AcDbLine
 10
306.7499999999999
 20
1133.2
 30
0.0
 11
307.0479999999999
 21
1133.2
 31
0.0
  0
LINE
  5
4C6
330
1E
100
AcDbEntity
  8
0
100
AcDbLine
 10
306.7499999999999
 20
1128.4
 30
0.0
 11
307.049
 21
1128.4
 31
0.0
  0
LINE
  5
4C8
330
1E
100
AcDbEntity
  8
0
100
AcDbLine
 10
309.9459999999999
 20
1128.4
 30
0.0
 11
310.0989999999999
 21
1127.9
 31
0.0
  0
LINE
  5
4C9
330
1E
100
AcDbEntity
  8
0
100
AcDbLine
 10
309.64
 20
1128.4
 30
0.0
 11
309.9459999999999
 21
1128.4
 31
0.0
  0
LINE
  5
4CA
330
1E
100
AcDbEntity
  8
0
100
AcDbLine
 10
309.9459999999999
 20
1133.2
 30
0.0
 11
310.0989999999999
 21
1133.7
 31
0.0
  0
LINE
  5
4CB
330
1E
100
AcDbEntity
  8
0
100
AcDbLine
 10
309.158
 20
1133.2
 30
0.0
 11
309.9459999999999
 21
1133.2
 31
0.0
  0
LINE
  5
4CC
330
1E
100
AcDbEntity
  8
0
100
AcDbLine
 10
309.64
 20
1133.2
 30
0.0
 11
309.9459999999999
 21
1133.2
 31
0.0
  0
LINE
  5
4CE
330
1E
100
AcDbEntity
  8
0
100
AcDbLine
 10
307.6299999999999
 20
1133.2
 30
0.0
 11
307.92
 21
1133.7
 31
0.0
  0
LINE
  5
4CF
330
1E
100
AcDbEntity
  8
0
100
AcDbLine
 10
307.298338762215
 20
1133.2
 30
0.0
 11
307.6299999999999
 21
1133.2
 31
0.0
  0
LINE
  5
4D0
330
1E
100
AcDbEntity
  8
0
100
AcDbLine
 10
307.6299999999999
 20
1128.4
 30
0.0
 11
307.92
 21
1127.9
 31
0.0
  0
LINE
  5
4D1
330
1E
100
AcDbEntity
  8
0
100
AcDbLine
 10
307.049
 20
1128.4
 30
0.0
 11
307.6299999999999
 21
1128.4
 31
0.0
  0
LINE
  5
4D2
330
1E
100
AcDbEntity
  8
0
100
AcDbLine
 10
310.0989999999999
 20
1127.9
 30
0.0
 11
310.7499999999999
 21
1127.9
 31
0.0
  0
LINE
  5
4D3
330
1E
100
AcDbEntity
  8
0
100
AcDbLine
 10
310.0989999999999
 20
1127.9
 30
0.0
 11
310.0989999999999
 21
1126.9
 31
0.0
  0
LINE
  5
4D4
330
1E
100
AcDbEntity
  8
0
100
AcDbLine
 10
310.0989999999999
 20
1126.9
 30
0.0
 11
310.7499999999999
 21
1126.9
 31
0.0
  0
LINE
  5
4D5
330
1E
100
AcDbEntity
  8
0
100
AcDbLine
 10
310.0989999999999
 20
1126.9
 30
0.0
 11
310.0989999999999
 21
1127.9
 31
0.0
  0
LINE
  5
4D7
330
1E
100
AcDbEntity
  8
0
100
AcDbLine
 10
307.92
 20
1133.7
 30
0.0
 11
307.92
 21
1134.7
 31
0.0
  0
LINE
  5
4D8
330
1E
100
AcDbEntity
  8
0
100
AcDbLine
 10
310.0989999999999
 20
1133.7
 30
0.0
 11
310.0989999999999
 21
1134.7
 31
0.0
  0
LINE
  5
4D9
330
1E
100
AcDbEntity
  8
0
100
AcDbLine
 10
309.487
 20
1133.7
 30
0.0
 11
309.64
 21
1133.2
 31
0.0
  0
LINE
  5
4DA
330
1E
100
AcDbEntity
  8
0
100
AcDbLine
 10
309.487
 20
1133.7
 30
0.0
 11
309.487
 21
1134.7
 31
0.0
  0
LINE
  5
4DC
330
1E
100
AcDbEntity
  8
0
100
AcDbLine
 10
306.7579999999999
 20
1133.7
 30
0.0
 11
307.0479999999999
 21
1133.2
 31
0.0
  0
LINE
  5
4DD
330
1E
100
AcDbEntity
  8
0
100
AcDbLine
 10
306.7579999999999
 20
1133.7
 30
0.0
 11
306.7579999999999
 21
1134.7
 31
0.0
  0
LINE
  5
4DF
330
1E
100
AcDbEntity
  8
0
100
AcDbLine
 10
306.7579999999999
 20
1134.7
 30
0.0
 11
307.049
 21
1135.199999999999
 31
0.0
  0
LINE
  5
4E0
330
1E
100
AcDbEntity
  8
0
100
AcDbLine
 10
306.7579999999999
 20
1134.7
 30
0.0
 11
306.7579999999999
 21
1133.7
 31
0.0
  0
LINE
  5
4E1
330
1E
100
AcDbEntity
  8
0
100
AcDbLine
 10
306.7499999999999
 20
1135.199999999999
 30
0.0
 11
307.049
 21
1135.199999999999
 31
0.0
  0
LINE
  5
4E2
330
1E
100
AcDbEntity
  8
0
100
AcDbLine
 10
307.049
 20
1135.199999999999
 30
0.0
 11
307.6299999999999
 21
1135.199999999999
 31
0.0
  0
LINE
  5
4E3
330
1E
100
AcDbEntity
  8
0
100
AcDbLine
 10
307.92
 20
1134.7
 30
0.0
 11
307.92
 21
1133.7
 31
0.0
  0
LINE
  5
4E4
330
1E
100
AcDbEntity
  8
0
100
AcDbLine
 10
310.0989999999999
 20
1134.7
 30
0.0
 11
310.0989999999999
 21
1133.7
 31
0.0
  0
LINE
  5
4E6
330
1E
100
AcDbEntity
  8
0
100
AcDbLine
 10
309.9459999999999
 20
1135.199999999999
 30
0.0
 11
310.0989999999999
 21
1134.7
 31
0.0
  0
LINE
  5
4E7
330
1E
100
AcDbEntity
  8
0
100
AcDbLine
 10
309.487
 20
1134.7
 30
0.0
 11
309.64
 21
1135.199999999999
 31
0.0
  0
LINE
  5
4E8
330
1E
100
AcDbEntity
  8
0
100
AcDbLine
 10
309.487
 20
1134.7
 30
0.0
 11
309.487
 21
1133.7
 31
0.0
  0
LINE
  5
4EA
330
1E
100
AcDbEntity
  8
0
100
AcDbLine
 10
309.64
 20
1135.199999999999
 30
0.0
 11
309.9459999999999
 21
1135.199999999999
 31
0.0
  0
LINE
  5
4EB
330
1E
100
AcDbEntity
  8
0
100
AcDbLine
 10
307.6299999999999
 20
1135.199999999999
 30
0.0
 11
307.92
 21
1134.7
 31
0.0
  0
LINE
  5
4EC
330
1E
100
AcDbEntity
  8
0
100
AcDbLine
 10
310.25
 20
1133.7
 30
0.0
 11
310.7499999999999
 21
1133.7
 31
0.0
  0
LINE
  5
4ED
330
1E
100
AcDbEntity
  8
0
100
AcDbLine
 10
310.25
 20
1134.7
 30
0.0
 11
310.7499999999999
 21
1134.7
 31
0.0
  0
LINE
  5
4EE
330
1E
100
AcDbEntity
  8
0
100
AcDbLine
 10
310.25
 20
1133.2
 30
0.0
 11
310.25
 21
1128.4
 31
0.0
  0
LINE
  5
4EF
330
1E
100
AcDbEntity
  8
0
100
AcDbLine
 10
310.25
 20
1133.2
 30
0.0
 11
310.7499999999999
 21
1133.2
 31
0.0
  0
LINE
  5
4F0
330
1E
100
AcDbEntity
  8
0
100
AcDbLine
 10
310.25
 20
1126.4
 30
0.0
 11
310.25
 21
1121.599999999999
 31
0.0
  0
LINE
  5
4F1
330
1E
100
AcDbEntity
  8
0
100
AcDbLine
 10
310.25
 20
1126.4
 30
0.0
 11
310.7499999999999
 21
1126.4
 31
0.0
  0
LINE
  5
4F3
330
1E
100
AcDbEntity
  8
0
100
AcDbLine
 10
306.7499999999999
 20
1140.0
 30
0.0
 11
307.0479999999999
 21
1140.0
 31
0.0
  0
LINE
  5
4F4
330
1E
100
AcDbEntity
  8
0
100
AcDbLine
 10
306.7579999999999
 20
1140.5
 30
0.0
 11
307.0479999999999
 21
1140.0
 31
0.0
  0
LINE
  5
4F5
330
1E
100
AcDbEntity
  8
0
100
AcDbLine
 10
306.7579999999999
 20
1140.5
 30
0.0
 11
306.7579999999999
 21
1141.5
 31
0.0
  0
LINE
  5
4F6
330
1E
100
AcDbEntity
  8
0
100
AcDbLine
 10
309.9459999999999
 20
1140.0
 30
0.0
 11
310.0989999999999
 21
1140.5
 31
0.0
  0
LINE
  5
4F7
330
1E
100
AcDbEntity
  8
0
100
AcDbLine
 10
309.158
 20
1140.0
 30
0.0
 11
309.9459999999999
 21
1140.0
 31
0.0
  0
LINE
  5
4F9
330
1E
100
AcDbEntity
  8
0
100
AcDbLine
 10
309.64
 20
1140.0
 30
0.0
 11
309.9459999999999
 21
1140.0
 31
0.0
  0
LINE
  5
4FA
330
1E
100
AcDbEntity
  8
0
100
AcDbLine
 10
307.214169381108
 20
1140.0
 30
0.0
 11
307.6299999999999
 21
1140.0
 31
0.0
  0
LINE
  5
4FB
330
1E
100
AcDbEntity
  8
0
100
AcDbLine
 10
307.92
 20
1140.5
 30
0.0
 11
307.92
 21
1141.5
 31
0.0
  0
LINE
  5
4FD
330
1E
100
AcDbEntity
  8
0
100
AcDbLine
 10
310.0989999999999
 20
1140.5
 30
0.0
 11
310.0989999999999
 21
1141.5
 31
0.0
  0
LINE
  5
4FE
330
1E
100
AcDbEntity
  8
0
100
AcDbLine
 10
309.487
 20
1140.5
 30
0.0
 11
309.64
 21
1140.0
 31
0.0
  0
LINE
  5
4FF
330
1E
100
AcDbEntity
  8
0
100
AcDbLine
 10
309.487
 20
1140.5
 30
0.0
 11
309.487
 21
1141.5
 31
0.0
  0
LINE
  5
500
330
1E
100
AcDbEntity
  8
0
100
AcDbLine
 10
307.6299999999999
 20
1140.0
 30
0.0
 11
307.92
 21
1140.5
 31
0.0
  0
LINE
  5
501
330
1E
100
AcDbEntity
  8
0
100
AcDbLine
 10
307.0479999999999
 20
1140.0
 30
0.0
 11
307.6299999999999
 21
1140.0
 31
0.0
  0
LINE
  5
503
330
1E
100
AcDbEntity
  8
0
100
AcDbLine
 10
307.92
 20
1141.5
 30
0.0
 11
307.92
 21
1140.5
 31
0.0
  0
LINE
  5
505
330
1E
100
AcDbEntity
  8
0
100
AcDbLine
 10
310.0989999999999
 20
1141.5
 30
0.0
 11
310.0989999999999
 21
1140.5
 31
0.0
  0
LINE
  5
506
330
1E
100
AcDbEntity
  8
0
100
AcDbLine
 10
309.487
 20
1141.5
 30
0.0
 11
309.487
 21
1140.5
 31
0.0
  0
LINE
  5
507
330
1E
100
AcDbEntity
  8
0
100
AcDbLine
 10
309.487
 20
1141.5
 30
0.0
 11
309.64
 21
1142.0
 31
0.0
  0
LINE
  5
508
330
1E
100
AcDbEntity
  8
0
100
AcDbLine
 10
306.7499999999999
 20
1146.8
 30
0.0
 11
307.0479999999999
 21
1146.8
 31
0.0
  0
LINE
  5
509
330
1E
100
AcDbEntity
  8
0
100
AcDbLine
 10
307.0479999999999
 20
1146.8
 30
0.0
 11
307.6299999999999
 21
1146.8
 31
0.0
  0
LINE
  5
50A
330
1E
100
AcDbEntity
  8
0
100
AcDbLine
 10
306.7499999999999
 20
1142.0
 30
0.0
 11
307.049
 21
1142.0
 31
0.0
  0
LINE
  5
50C
330
1E
100
AcDbEntity
  8
0
100
AcDbLine
 10
309.9459999999999
 20
1142.0
 30
0.0
 11
310.0989999999999
 21
1141.5
 31
0.0
  0
LINE
  5
50D
330
1E
100
AcDbEntity
  8
0
100
AcDbLine
 10
309.64
 20
1142.0
 30
0.0
 11
309.9459999999999
 21
1142.0
 31
0.0
  0
LINE
  5
50E
330
1E
100
AcDbEntity
  8
0
100
AcDbLine
 10
307.1299999999999
 20
1146.8
 30
0.0
 11
307.6299999999999
 21
1146.8
 31
0.0
  0
LINE
  5
50F
330
1E
100
AcDbEntity
  8
0
100
AcDbLine
 10
309.9459999999999
 20
1146.8
 30
0.0
 11
310.0989999999999
 21
1147.299999999999
 31
0.0
  0
LINE
  5
510
330
1E
100
AcDbEntity
  8
0
100
AcDbLine
 10
309.158
 20
1146.8
 30
0.0
 11
309.9459999999999
 21
1146.8
 31
0.0
  0
LINE
  5
512
330
1E
100
AcDbEntity
  8
0
100
AcDbLine
 10
309.64
 20
1146.8
 30
0.0
 11
309.9459999999999
 21
1146.8
 31
0.0
  0
LINE
  5
513
330
1E
100
AcDbEntity
  8
0
100
AcDbLine
 10
307.6299999999999
 20
1146.8
 30
0.0
 11
307.92
 21
1147.299999999999
 31
0.0
  0
LINE
  5
514
330
1E
100
AcDbEntity
  8
0
100
AcDbLine
 10
307.6299999999999
 20
1142.0
 30
0.0
 11
307.92
 21
1141.5
 31
0.0
  0
LINE
  5
515
330
1E
100
AcDbEntity
  8
0
100
AcDbLine
 10
307.049
 20
1142.0
 30
0.0
 11
307.6299999999999
 21
1142.0
 31
0.0
  0
LINE
  5
516
330
1E
100
AcDbEntity
  8
0
100
AcDbLine
 10
306.7579999999999
 20
1141.5
 30
0.0
 11
307.049
 21
1142.0
 31
0.0
  0
LINE
  5
517
330
1E
100
AcDbEntity
  8
0
100
AcDbLine
 10
306.7579999999999
 20
1141.5
 30
0.0
 11
306.7579999999999
 21
1140.5
 31
0.0
  0
LINE
  5
518
330
1E
100
AcDbEntity
  8
0
100
AcDbLine
 10
310.25
 20
1141.5
 30
0.0
 11
310.7499999999999
 21
1141.5
 31
0.0
  0
LINE
  5
519
330
1E
100
AcDbEntity
  8
0
100
AcDbLine
 10
310.25
 20
1140.5
 30
0.0
 11
310.7499999999999
 21
1140.5
 31
0.0
  0
LINE
  5
51B
330
1E
100
AcDbEntity
  8
0
100
AcDbLine
 10
307.92
 20
1147.299999999999
 30
0.0
 11
307.92
 21
1148.3
 31
0.0
  0
LINE
  5
51C
330
1E
100
AcDbEntity
  8
0
100
AcDbLine
 10
310.0989999999999
 20
1147.299999999999
 30
0.0
 11
310.0989999999999
 21
1148.3
 31
0.0
  0
LINE
  5
51E
330
1E
100
AcDbEntity
  8
0
100
AcDbLine
 10
309.487
 20
1147.299999999999
 30
0.0
 11
309.64
 21
1146.8
 31
0.0
  0
LINE
  5
51F
330
1E
100
AcDbEntity
  8
0
100
AcDbLine
 10
309.487
 20
1147.299999999999
 30
0.0
 11
309.487
 21
1148.3
 31
0.0
  0
LINE
  5
520
330
1E
100
AcDbEntity
  8
0
100
AcDbLine
 10
306.7579999999999
 20
1147.299999999999
 30
0.0
 11
307.0479999999999
 21
1146.8
 31
0.0
  0
LINE
  5
521
330
1E
100
AcDbEntity
  8
0
100
AcDbLine
 10
306.7579999999999
 20
1147.299999999999
 30
0.0
 11
306.7579999999999
 21
1148.3
 31
0.0
  0
LINE
  5
523
330
1E
100
AcDbEntity
  8
0
100
AcDbLine
 10
307.92
 20
1148.3
 30
0.0
 11
307.92
 21
1147.299999999999
 31
0.0
  0
LINE
  5
525
330
1E
100
AcDbEntity
  8
0
100
AcDbLine
 10
310.0989999999999
 20
1148.3
 30
0.0
 11
310.0989999999999
 21
1147.299999999999
 31
0.0
  0
LINE
  5
526
330
1E
100
AcDbEntity
  8
0
100
AcDbLine
 10
309.487
 20
1148.3
 30
0.0
 11
309.487
 21
1147.299999999999
 31
0.0
  0
LINE
  5
527
330
1E
100
AcDbEntity
  8
0
100
AcDbLine
 10
309.487
 20
1148.3
 30
0.0
 11
309.64
 21
1148.8
 31
0.0
  0
LINE
  5
528
330
1E
100
AcDbEntity
  8
0
100
AcDbLine
 10
306.7499999999999
 20
1148.8
 30
0.0
 11
307.049
 21
1148.8
 31
0.0
  0
LINE
  5
52A
330
1E
100
AcDbEntity
  8
0
100
AcDbLine
 10
309.9459999999999
 20
1148.8
 30
0.0
 11
310.0989999999999
 21
1148.3
 31
0.0
  0
LINE
  5
52B
330
1E
100
AcDbEntity
  8
0
100
AcDbLine
 10
309.64
 20
1148.8
 30
0.0
 11
309.9459999999999
 21
1148.8
 31
0.0
  0
LINE
  5
52C
330
1E
100
AcDbEntity
  8
0
100
AcDbLine
 10
307.6299999999999
 20
1148.8
 30
0.0
 11
307.92
 21
1148.3
 31
0.0
  0
LINE
  5
52D
330
1E
100
AcDbEntity
  8
0
100
AcDbLine
 10
307.049
 20
1148.8
 30
0.0
 11
307.6299999999999
 21
1148.8
 31
0.0
  0
LINE
  5
52E
330
1E
100
AcDbEntity
  8
0
100
AcDbLine
 10
306.7579999999999
 20
1148.3
 30
0.0
 11
307.049
 21
1148.8
 31
0.0
  0
LINE
  5
52F
330
1E
100
AcDbEntity
  8
0
100
AcDbLine
 10
306.7579999999999
 20
1148.3
 30
0.0
 11
306.7579999999999
 21
1147.299999999999
 31
0.0
  0
LINE
  5
530
330
1E
100
AcDbEntity
  8
0
100
AcDbLine
 10
310.25
 20
1148.3
 30
0.0
 11
310.7499999999999
 21
1148.3
 31
0.0
  0
LINE
  5
531
330
1E
100
AcDbEntity
  8
0
100
AcDbLine
 10
310.25
 20
1147.299999999999
 30
0.0
 11
310.7499999999999
 21
1147.299999999999
 31
0.0
  0
LINE
  5
532
330
1E
100
AcDbEntity
  8
0
100
AcDbLine
 10
310.25
 20
1146.8
 30
0.0
 11
310.25
 21
1142.0
 31
0.0
  0
LINE
  5
533
330
1E
100
AcDbEntity
  8
0
100
AcDbLine
 10
310.25
 20
1146.8
 30
0.0
 11
310.7499999999999
 21
1146.8
 31
0.0
  0
LINE
  5
534
330
1E
100
AcDbEntity
  8
0
100
AcDbLine
 10
310.25
 20
1140.0
 30
0.0
 11
310.25
 21
1135.199999999999
 31
0.0
  0
LINE
  5
535
330
1E
100
AcDbEntity
  8
0
100
AcDbLine
 10
310.25
 20
1140.0
 30
0.0
 11
310.7499999999999
 21
1140.0
 31
0.0
  0
LINE
  5
536
330
1E
100
AcDbEntity
  8
0
100
AcDbLine
 10
309.9459999999999
 20
1153.599999999999
 30
0.0
 11
310.0989999999999
 21
1154.099999999999
 31
0.0
  0
LINE
  5
537
330
1E
100
AcDbEntity
  8
0
100
AcDbLine
 10
309.158
 20
1153.599999999999
 30
0.0
 11
309.9459999999999
 21
1153.599999999999
 31
0.0
  0
LINE
  5
538
330
1E
100
AcDbEntity
  8
0
100
AcDbLine
 10
309.64
 20
1153.599999999999
 30
0.0
 11
309.9459999999999
 21
1153.599999999999
 31
0.0
  0
LINE
  5
53A
330
1E
100
AcDbEntity
  8
0
100
AcDbLine
 10
307.6299999999999
 20
1153.599999999999
 30
0.0
 11
307.92
 21
1154.099999999999
 31
0.0
  0
LINE
  5
53B
330
1E
100
AcDbEntity
  8
0
100
AcDbLine
 10
307.045830618893
 20
1153.599999999999
 30
0.0
 11
307.6299999999999
 21
1153.599999999999
 31
0.0
  0
LINE
  5
53C
330
1E
100
AcDbEntity
  8
0
100
AcDbLine
 10
307.0479999999999
 20
1153.599999999999
 30
0.0
 11
307.6299999999999
 21
1153.599999999999
 31
0.0
  0
LINE
  5
53D
330
1E
100
AcDbEntity
  8
0
100
AcDbLine
 10
306.7499999999999
 20
1153.599999999999
 30
0.0
 11
307.0479999999999
 21
1153.599999999999
 31
0.0
  0
LINE
  5
53F
330
1E
100
AcDbEntity
  8
0
100
AcDbLine
 10
307.92
 20
1154.099999999999
 30
0.0
 11
307.92
 21
1155.1
 31
0.0
  0
LINE
  5
540
330
1E
100
AcDbEntity
  8
0
100
AcDbLine
 10
310.0989999999999
 20
1154.099999999999
 30
0.0
 11
310.0989999999999
 21
1155.1
 31
0.0
  0
LINE
  5
541
330
1E
100
AcDbEntity
  8
0
100
AcDbLine
 10
309.487
 20
1154.099999999999
 30
0.0
 11
309.64
 21
1153.599999999999
 31
0.0
  0
LINE
  5
542
330
1E
100
AcDbEntity
  8
0
100
AcDbLine
 10
309.487
 20
1154.099999999999
 30
0.0
 11
309.487
 21
1155.1
 31
0.0
  0
LINE
  5
544
330
1E
100
AcDbEntity
  8
0
100
AcDbLine
 10
306.7579999999999
 20
1154.099999999999
 30
0.0
 11
307.0479999999999
 21
1153.599999999999
 31
0.0
  0
LINE
  5
545
330
1E
100
AcDbEntity
  8
0
100
AcDbLine
 10
306.7579999999999
 20
1154.099999999999
 30
0.0
 11
306.7579999999999
 21
1155.1
 31
0.0
  0
LINE
  5
547
330
1E
100
AcDbEntity
  8
0
100
AcDbLine
 10
306.7579999999999
 20
1155.1
 30
0.0
 11
307.049
 21
1155.599999999999
 31
0.0
  0
LINE
  5
548
330
1E
100
AcDbEntity
  8
0
100
AcDbLine
 10
306.7579999999999
 20
1155.1
 30
0.0
 11
306.7579999999999
 21
1154.099999999999
 31
0.0
  0
LINE
  5
549
330
1E
100
AcDbEntity
  8
0
100
AcDbLine
 10
306.7499999999999
 20
1155.599999999999
 30
0.0
 11
307.049
 21
1155.599999999999
 31
0.0
  0
LINE
  5
54A
330
1E
100
AcDbEntity
  8
0
100
AcDbLine
 10
307.017
 20
1160.4
 30
0.0
 11
307.6299999999999
 21
1160.4
 31
0.0
  0
LINE
  5
54B
330
1E
100
AcDbEntity
  8
0
100
AcDbLine
 10
307.0479999999999
 20
1160.4
 30
0.0
 11
307.6299999999999
 21
1160.4
 31
0.0
  0
LINE
  5
54C
330
1E
100
AcDbEntity
  8
0
100
AcDbLine
 10
307.6299999999999
 20
1160.4
 30
0.0
 11
307.92
 21
1160.9
 31
0.0
  0
LINE
  5
54D
330
1E
100
AcDbEntity
  8
0
100
AcDbLine
 10
306.7499999999999
 20
1160.4
 30
0.0
 11
307.0479999999999
 21
1160.4
 31
0.0
  0
LINE
  5
54F
330
1E
100
AcDbEntity
  8
0
100
AcDbLine
 10
306.7499999999999
 20
1162.4
 30
0.0
 11
307.049
 21
1162.4
 31
0.0
  0
LINE
  5
550
330
1E
100
AcDbEntity
  8
0
100
AcDbLine
 10
307.6299999999999
 20
1162.4
 30
0.0
 11
307.92
 21
1161.9
 31
0.0
  0
LINE
  5
551
330
1E
100
AcDbEntity
  8
0
100
AcDbLine
 10
307.049
 20
1162.4
 30
0.0
 11
307.6299999999999
 21
1162.4
 31
0.0
  0
LINE
  5
552
330
1E
100
AcDbEntity
  8
0
100
AcDbLine
 10
306.7579999999999
 20
1161.9
 30
0.0
 11
306.7579999999999
 21
1160.9
 31
0.0
  0
LINE
  5
553
330
1E
100
AcDbEntity
  8
0
100
AcDbLine
 10
306.7579999999999
 20
1161.9
 30
0.0
 11
307.049
 21
1162.4
 31
0.0
  0
LINE
  5
554
330
1E
100
AcDbEntity
  8
0
100
AcDbLine
 10
307.017
 20
1167.2
 30
0.0
 11
307.6299999999999
 21
1167.2
 31
0.0
  0
LINE
  5
555
330
1E
100
AcDbEntity
  8
0
100
AcDbLine
 10
306.7499999999999
 20
1167.2
 30
0.0
 11
307.0479999999999
 21
1167.2
 31
0.0
  0
LINE
  5
556
330
1E
100
AcDbEntity
  8
0
100
AcDbLine
 10
307.0479999999999
 20
1167.2
 30
0.0
 11
307.6299999999999
 21
1167.2
 31
0.0
  0
LINE
  5
557
330
1E
100
AcDbEntity
  8
0
100
AcDbLine
 10
307.6299999999999
 20
1167.2
 30
0.0
 11
307.92
 21
1167.7
 31
0.0
  0
LINE
  5
558
330
1E
100
AcDbEntity
  8
0
100
AcDbLine
 10
306.7579999999999
 20
1160.9
 30
0.0
 11
307.0479999999999
 21
1160.4
 31
0.0
  0
LINE
  5
559
330
1E
100
AcDbEntity
  8
0
100
AcDbLine
 10
306.7579999999999
 20
1160.9
 30
0.0
 11
306.7579999999999
 21
1161.9
 31
0.0
  0
LINE
  5
55B
330
1E
100
AcDbEntity
  8
0
100
AcDbLine
 10
307.049
 20
1155.599999999999
 30
0.0
 11
307.6299999999999
 21
1155.599999999999
 31
0.0
  0
LINE
  5
55C
330
1E
100
AcDbEntity
  8
0
100
AcDbLine
 10
307.92
 20
1155.1
 30
0.0
 11
307.92
 21
1154.099999999999
 31
0.0
  0
LINE
  5
55E
330
1E
100
AcDbEntity
  8
0
100
AcDbLine
 10
310.0989999999999
 20
1155.1
 30
0.0
 11
310.0989999999999
 21
1154.099999999999
 31
0.0
  0
LINE
  5
55F
330
1E
100
AcDbEntity
  8
0
100
AcDbLine
 10
309.9459999999999
 20
1155.599999999999
 30
0.0
 11
310.0989999999999
 21
1155.1
 31
0.0
  0
LINE
  5
560
330
1E
100
AcDbEntity
  8
0
100
AcDbLine
 10
309.487
 20
1155.1
 30
0.0
 11
309.64
 21
1155.599999999999
 31
0.0
  0
LINE
  5
561
330
1E
100
AcDbEntity
  8
0
100
AcDbLine
 10
309.487
 20
1155.1
 30
0.0
 11
309.487
 21
1154.099999999999
 31
0.0
  0
LINE
  5
564
330
1E
100
AcDbEntity
  8
0
100
AcDbLine
 10
309.64
 20
1160.4
 30
0.0
 11
309.9459999999999
 21
1160.4
 31
0.0
  0
LINE
  5
565
330
1E
100
AcDbEntity
  8
0
100
AcDbLine
 10
309.158
 20
1160.4
 30
0.0
 11
309.9459999999999
 21
1160.4
 31
0.0
  0
LINE
  5
566
330
1E
100
AcDbEntity
  8
0
100
AcDbLine
 10
307.92
 20
1160.9
 30
0.0
 11
307.92
 21
1161.9
 31
0.0
  0
LINE
  5
567
330
1E
100
AcDbEntity
  8
0
100
AcDbLine
 10
307.92
 20
1161.9
 30
0.0
 11
307.92
 21
1160.9
 31
0.0
  0
LINE
  5
569
330
1E
100
AcDbEntity
  8
0
100
AcDbLine
 10
309.487
 20
1161.9
 30
0.0
 11
309.64
 21
1162.4
 31
0.0
  0
LINE
  5
56A
330
1E
100
AcDbEntity
  8
0
100
AcDbLine
 10
309.487
 20
1161.9
 30
0.0
 11
309.487
 21
1160.9
 31
0.0
  0
LINE
  5
56C
330
1E
100
AcDbEntity
  8
0
100
AcDbLine
 10
310.0989999999999
 20
1160.9
 30
0.0
 11
310.0989999999999
 21
1161.9
 31
0.0
  0
LINE
  5
56D
330
1E
100
AcDbEntity
  8
0
100
AcDbLine
 10
310.0989999999999
 20
1161.9
 30
0.0
 11
310.0989999999999
 21
1160.9
 31
0.0
  0
LINE
  5
56E
330
1E
100
AcDbEntity
  8
0
100
AcDbLine
 10
309.487
 20
1160.9
 30
0.0
 11
309.64
 21
1160.4
 31
0.0
  0
LINE
  5
56F
330
1E
100
AcDbEntity
  8
0
100
AcDbLine
 10
309.487
 20
1160.9
 30
0.0
 11
309.487
 21
1161.9
 31
0.0
  0
LINE
  5
570
330
1E
100
AcDbEntity
  8
0
100
AcDbLine
 10
309.9459999999999
 20
1160.4
 30
0.0
 11
310.0989999999999
 21
1160.9
 31
0.0
  0
LINE
  5
571
330
1E
100
AcDbEntity
  8
0
100
AcDbLine
 10
310.25
 20
1161.9
 30
0.0
 11
310.7499999999999
 21
1161.9
 31
0.0
  0
LINE
  5
572
330
1E
100
AcDbEntity
  8
0
100
AcDbLine
 10
309.158
 20
1167.2
 30
0.0
 11
309.9459999999999
 21
1167.2
 31
0.0
  0
LINE
  5
575
330
1E
100
AcDbEntity
  8
0
100
AcDbLine
 10
309.9459999999999
 20
1162.4
 30
0.0
 11
310.0989999999999
 21
1161.9
 31
0.0
  0
LINE
  5
576
330
1E
100
AcDbEntity
  8
0
100
AcDbLine
 10
309.64
 20
1162.4
 30
0.0
 11
309.9459999999999
 21
1162.4
 31
0.0
  0
LINE
  5
577
330
1E
100
AcDbEntity
  8
0
100
AcDbLine
 10
309.64
 20
1167.2
 30
0.0
 11
309.9459999999999
 21
1167.2
 31
0.0
  0
LINE
  5
578
330
1E
100
AcDbEntity
  8
0
100
AcDbLine
 10
309.9459999999999
 20
1167.2
 30
0.0
 11
310.0989999999999
 21
1167.7
 31
0.0
  0
LINE
  5
579
330
1E
100
AcDbEntity
  8
0
100
AcDbLine
 10
310.25
 20
1160.9
 30
0.0
 11
310.7499999999999
 21
1160.9
 31
0.0
  0
LINE
  5
57A
330
1E
100
AcDbEntity
  8
0
100
AcDbLine
 10
309.64
 20
1155.599999999999
 30
0.0
 11
309.9459999999999
 21
1155.599999999999
 31
0.0
  0
LINE
  5
57B
330
1E
100
AcDbEntity
  8
0
100
AcDbLine
 10
307.6299999999999
 20
1155.599999999999
 30
0.0
 11
307.92
 21
1155.1
 31
0.0
  0
LINE
  5
57C
330
1E
100
AcDbEntity
  8
0
100
AcDbLine
 10
310.25
 20
1154.099999999999
 30
0.0
 11
310.7499999999999
 21
1154.099999999999
 31
0.0
  0
LINE
  5
57D
330
1E
100
AcDbEntity
  8
0
100
AcDbLine
 10
310.25
 20
1155.1
 30
0.0
 11
310.7499999999999
 21
1155.1
 31
0.0
  0
LINE
  5
57F
330
1E
100
AcDbEntity
  8
0
100
AcDbLine
 10
307.92
 20
1167.7
 30
0.0
 11
307.92
 21
1168.7
 31
0.0
  0
LINE
  5
581
330
1E
100
AcDbEntity
  8
0
100
AcDbLine
 10
306.7579999999999
 20
1168.7
 30
0.0
 11
306.7579999999999
 21
1167.7
 31
0.0
  0
LINE
  5
582
330
1E
100
AcDbEntity
  8
0
100
AcDbLine
 10
306.7579999999999
 20
1168.7
 30
0.0
 11
307.049
 21
1169.2
 31
0.0
  0
LINE
  5
584
330
1E
100
AcDbEntity
  8
0
100
AcDbLine
 10
307.92
 20
1168.7
 30
0.0
 11
307.92
 21
1167.7
 31
0.0
  0
LINE
  5
586
330
1E
100
AcDbEntity
  8
0
100
AcDbLine
 10
306.7579999999999
 20
1167.7
 30
0.0
 11
306.7579999999999
 21
1168.7
 31
0.0
  0
LINE
  5
587
330
1E
100
AcDbEntity
  8
0
100
AcDbLine
 10
306.7579999999999
 20
1167.7
 30
0.0
 11
307.0479999999999
 21
1167.2
 31
0.0
  0
LINE
  5
588
330
1E
100
AcDbEntity
  8
0
100
AcDbLine
 10
310.0989999999999
 20
1167.7
 30
0.0
 11
310.0989999999999
 21
1168.7
 31
0.0
  0
LINE
  5
589
330
1E
100
AcDbEntity
  8
0
100
AcDbLine
 10
309.487
 20
1168.7
 30
0.0
 11
309.487
 21
1167.7
 31
0.0
  0
LINE
  5
58A
330
1E
100
AcDbEntity
  8
0
100
AcDbLine
 10
309.487
 20
1168.7
 30
0.0
 11
309.64
 21
1169.2
 31
0.0
  0
LINE
  5
58B
330
1E
100
AcDbEntity
  8
0
100
AcDbLine
 10
310.0989999999999
 20
1168.7
 30
0.0
 11
310.0989999999999
 21
1167.7
 31
0.0
  0
LINE
  5
58C
330
1E
100
AcDbEntity
  8
0
100
AcDbLine
 10
309.487
 20
1167.7
 30
0.0
 11
309.487
 21
1168.7
 31
0.0
  0
LINE
  5
58D
330
1E
100
AcDbEntity
  8
0
100
AcDbLine
 10
309.487
 20
1167.7
 30
0.0
 11
309.64
 21
1167.2
 31
0.0
  0
LINE
  5
58E
330
1E
100
AcDbEntity
  8
0
100
AcDbLine
 10
306.614820846906
 20
1169.2
 30
0.0
 11
307.049
 21
1169.2
 31
0.0
  0
LINE
  5
58F
330
1E
100
AcDbEntity
  8
0
100
AcDbLine
 10
307.049
 20
1169.2
 30
0.0
 11
307.6299999999999
 21
1169.2
 31
0.0
  0
LINE
  5
590
330
1E
100
AcDbEntity
  8
0
100
AcDbLine
 10
309.9459999999999
 20
1169.2
 30
0.0
 11
310.0989999999999
 21
1168.7
 31
0.0
  0
LINE
  5
592
330
1E
100
AcDbEntity
  8
0
100
AcDbLine
 10
309.64
 20
1169.2
 30
0.0
 11
309.9459999999999
 21
1169.2
 31
0.0
  0
LINE
  5
593
330
1E
100
AcDbEntity
  8
0
100
AcDbLine
 10
307.6299999999999
 20
1169.2
 30
0.0
 11
307.92
 21
1168.7
 31
0.0
  0
LINE
  5
594
330
1E
100
AcDbEntity
  8
0
100
AcDbLine
 10
310.25
 20
1168.7
 30
0.0
 11
310.7499999999999
 21
1168.7
 31
0.0
  0
LINE
  5
595
330
1E
100
AcDbEntity
  8
0
100
AcDbLine
 10
310.25
 20
1167.7
 30
0.0
 11
310.7499999999999
 21
1167.7
 31
0.0
  0
LINE
  5
596
330
1E
100
AcDbEntity
  8
0
100
AcDbLine
 10
310.25
 20
1167.2
 30
0.0
 11
310.25
 21
1162.4
 31
0.0
  0
LINE
  5
597
330
1E
100
AcDbEntity
  8
0
100
AcDbLine
 10
310.25
 20
1167.2
 30
0.0
 11
310.7499999999999
 21
1167.2
 31
0.0
  0
LINE
  5
598
330
1E
100
AcDbEntity
  8
0
100
AcDbLine
 10
310.25
 20
1160.4
 30
0.0
 11
310.25
 21
1155.599999999999
 31
0.0
  0
LINE
  5
599
330
1E
100
AcDbEntity
  8
0
100
AcDbLine
 10
310.25
 20
1160.4
 30
0.0
 11
310.7499999999999
 21
1160.4
 31
0.0
  0
LINE
  5
59A
330
1E
100
AcDbEntity
  8
0
100
AcDbLine
 10
310.25
 20
1153.599999999999
 30
0.0
 11
310.25
 21
1148.8
 31
0.0
  0
LINE
  5
59B
330
1E
100
AcDbEntity
  8
0
100
AcDbLine
 10
310.25
 20
1153.599999999999
 30
0.0
 11
310.7499999999999
 21
1153.599999999999
 31
0.0
  0
LINE
  5
59C
330
1E
100
AcDbEntity
  8
0
100
AcDbLine
 10
310.25
 20
1162.4
 30
0.0
 11
310.25
 21
1167.2
 31
0.0
  0
LINE
  5
59D
330
1E
100
AcDbEntity
  8
0
100
AcDbLine
 10
310.25
 20
1162.4
 30
0.0
 11
310.7499999999999
 21
1162.4
 31
0.0
  0
LINE
  5
59E
330
1E
100
AcDbEntity
  8
0
100
AcDbLine
 10
306.692996742671
 20
1174.0
 30
0.0
 11
307.0479999999999
 21
1174.0
 31
0.0
  0
LINE
  5
59F
330
1E
100
AcDbEntity
  8
0
100
AcDbLine
 10
309.158
 20
1174.0
 30
0.0
 11
309.9459999999999
 21
1174.0
 31
0.0
  0
LINE
  5
5A1
330
1E
100
AcDbEntity
  8
0
100
AcDbLine
 10
309.9459999999999
 20
1174.0
 30
0.0
 11
310.0989999999999
 21
1174.5
 31
0.0
  0
LINE
  5
5A2
330
1E
100
AcDbEntity
  8
0
100
AcDbLine
 10
309.64
 20
1174.0
 30
0.0
 11
309.9459999999999
 21
1174.0
 31
0.0
  0
LINE
  5
5A3
330
1E
100
AcDbEntity
  8
0
100
AcDbLine
 10
307.6299999999999
 20
1174.0
 30
0.0
 11
307.92
 21
1174.5
 31
0.0
  0
LINE
  5
5A4
330
1E
100
AcDbEntity
  8
0
100
AcDbLine
 10
307.017
 20
1174.0
 30
0.0
 11
307.6299999999999
 21
1174.0
 31
0.0
  0
LINE
  5
5A5
330
1E
100
AcDbEntity
  8
0
100
AcDbLine
 10
307.0479999999999
 20
1174.0
 30
0.0
 11
307.6299999999999
 21
1174.0
 31
0.0
  0
LINE
  5
5A6
330
1E
100
AcDbEntity
  8
0
100
AcDbLine
 10
287.85
 20
1177.499999999999
 30
0.0
 11
289.7499999999999
 21
1177.499999999999
 31
0.0
  0
LINE
  5
5A7
330
1E
100
AcDbEntity
  8
0
100
AcDbLine
 10
286.6499999999999
 20
1177.499999999999
 30
0.0
 11
287.85
 21
1177.499999999999
 31
0.0
  0
LINE
  5
5A8
330
1E
100
AcDbEntity
  8
0
100
AcDbLine
 10
286.25
 20
1177.499999999999
 30
0.0
 11
286.6499999999999
 21
1177.499999999999
 31
0.0
  0
LINE
  5
5A9
330
1E
100
AcDbEntity
  8
0
100
AcDbLine
 10
286.25
 20
1177.499999999999
 30
0.0
 11
287.25
 21
1178.0
 31
0.0
  0
LINE
  5
5AA
330
1E
100
AcDbEntity
  8
0
100
AcDbLine
 10
286.25
 20
1177.499999999999
 30
0.0
 11
286.25
 21
1024.0
 31
0.0
  0
LINE
  5
5AB
330
1E
100
AcDbEntity
  8
0
100
AcDbLine
 10
289.7499999999999
 20
1177.499999999999
 30
0.0
 11
292.2499999999999
 21
1177.499999999999
 31
0.0
  0
LINE
  5
5AC
330
1E
100
AcDbEntity
  8
0
100
AcDbLine
 10
292.2499999999999
 20
1177.499999999999
 30
0.0
 11
295.1499999999999
 21
1177.499999999999
 31
0.0
  0
LINE
  5
5AD
330
1E
100
AcDbEntity
  8
0
100
AcDbLine
 10
295.1499999999999
 20
1177.499999999999
 30
0.0
 11
298.2499999999999
 21
1177.499999999999
 31
0.0
  0
LINE
  5
5AF
330
1E
100
AcDbEntity
  8
0
100
AcDbLine
 10
306.725570032573
 20
1176.0
 30
0.0
 11
307.049
 21
1176.0
 31
0.0
  0
LINE
  5
5B1
330
1E
100
AcDbEntity
  8
0
100
AcDbLine
 10
304.2499999999999
 20
1177.499999999999
 30
0.0
 11
306.7499999999999
 21
1177.499999999999
 31
0.0
  0
LINE
  5
5B2
330
1E
100
AcDbEntity
  8
0
100
AcDbLine
 10
301.35
 20
1177.499999999999
 30
0.0
 11
304.2499999999999
 21
1177.499999999999
 31
0.0
  0
LINE
  5
5B3
330
1E
100
AcDbEntity
  8
0
100
AcDbLine
 10
298.2499999999999
 20
1177.499999999999
 30
0.0
 11
301.35
 21
1177.499999999999
 31
0.0
  0
LINE
  5
5B4
330
1E
100
AcDbEntity
  8
0
100
AcDbLine
 10
307.92
 20
1174.5
 30
0.0
 11
307.92
 21
1175.5
 31
0.0
  0
LINE
  5
5B5
330
1E
100
AcDbEntity
  8
0
100
AcDbLine
 10
309.487
 20
1174.5
 30
0.0
 11
309.487
 21
1175.5
 31
0.0
  0
LINE
  5
5B6
330
1E
100
AcDbEntity
  8
0
100
AcDbLine
 10
309.487
 20
1174.5
 30
0.0
 11
309.64
 21
1174.0
 31
0.0
  0
LINE
  5
5B8
330
1E
100
AcDbEntity
  8
0
100
AcDbLine
 10
307.049
 20
1176.0
 30
0.0
 11
307.6299999999999
 21
1176.0
 31
0.0
  0
LINE
  5
5B9
330
1E
100
AcDbEntity
  8
0
100
AcDbLine
 10
306.7579999999999
 20
1175.5
 30
0.0
 11
306.7579999999999
 21
1174.5
 31
0.0
  0
LINE
  5
5BA
330
1E
100
AcDbEntity
  8
0
100
AcDbLine
 10
306.7579999999999
 20
1175.5
 30
0.0
 11
307.049
 21
1176.0
 31
0.0
  0
LINE
  5
5BB
330
1E
100
AcDbEntity
  8
0
100
AcDbLine
 10
307.92
 20
1175.5
 30
0.0
 11
307.92
 21
1174.5
 31
0.0
  0
LINE
  5
5BC
330
1E
100
AcDbEntity
  8
0
100
AcDbLine
 10
307.6299999999999
 20
1176.0
 30
0.0
 11
307.92
 21
1175.5
 31
0.0
  0
LINE
  5
5BE
330
1E
100
AcDbEntity
  8
0
100
AcDbLine
 10
309.64
 20
1176.0
 30
0.0
 11
309.9459999999999
 21
1176.0
 31
0.0
  0
LINE
  5
5BF
330
1E
100
AcDbEntity
  8
0
100
AcDbLine
 10
309.487
 20
1175.5
 30
0.0
 11
309.487
 21
1174.5
 31
0.0
  0
LINE
  5
5C0
330
1E
100
AcDbEntity
  8
0
100
AcDbLine
 10
309.487
 20
1175.5
 30
0.0
 11
309.64
 21
1176.0
 31
0.0
  0
LINE
  5
5C2
330
1E
100
AcDbEntity
  8
0
100
AcDbLine
 10
306.7579999999999
 20
1174.5
 30
0.0
 11
306.7579999999999
 21
1175.5
 31
0.0
  0
LINE
  5
5C3
330
1E
100
AcDbEntity
  8
0
100
AcDbLine
 10
306.7579999999999
 20
1174.5
 30
0.0
 11
307.0479999999999
 21
1174.0
 31
0.0
  0
LINE
  5
5C4
330
1E
100
AcDbEntity
  8
0
100
AcDbLine
 10
306.7499999999999
 20
1177.499999999999
 30
0.0
 11
308.65
 21
1177.499999999999
 31
0.0
  0
LINE
  5
5C5
330
1E
100
AcDbEntity
  8
0
100
AcDbLine
 10
288.75
 20
1178.0
 30
0.0
 11
290.45
 21
1178.0
 31
0.0
  0
LINE
  5
5C6
330
1E
100
AcDbEntity
  8
0
100
AcDbLine
 10
287.6499999999999
 20
1178.0
 30
0.0
 11
288.75
 21
1178.0
 31
0.0
  0
LINE
  5
5C7
330
1E
100
AcDbEntity
  8
0
100
AcDbLine
 10
287.25
 20
1178.0
 30
0.0
 11
287.6499999999999
 21
1178.0
 31
0.0
  0
LINE
  5
5C8
330
1E
100
AcDbEntity
  8
0
100
AcDbLine
 10
290.45
 20
1178.0
 30
0.0
 11
292.75
 21
1178.0
 31
0.0
  0
LINE
  5
5C9
330
1E
100
AcDbEntity
  8
0
100
AcDbLine
 10
292.75
 20
1178.0
 30
0.0
 11
295.4499999999999
 21
1178.0
 31
0.0
  0
LINE
  5
5CA
330
1E
100
AcDbEntity
  8
0
100
AcDbLine
 10
295.4499999999999
 20
1178.0
 30
0.0
 11
298.2499999999999
 21
1178.0
 31
0.0
  0
LINE
  5
5CB
330
1E
100
AcDbEntity
  8
0
100
AcDbLine
 10
303.75
 20
1178.0
 30
0.0
 11
306.05
 21
1178.0
 31
0.0
  0
LINE
  5
5CC
330
1E
100
AcDbEntity
  8
0
100
AcDbLine
 10
301.05
 20
1178.0
 30
0.0
 11
303.75
 21
1178.0
 31
0.0
  0
LINE
  5
5CD
330
1E
100
AcDbEntity
  8
0
100
AcDbLine
 10
298.2499999999999
 20
1178.0
 30
0.0
 11
301.05
 21
1178.0
 31
0.0
  0
LINE
  5
5CE
330
1E
100
AcDbEntity
  8
0
100
AcDbLine
 10
306.05
 20
1178.0
 30
0.0
 11
307.75
 21
1178.0
 31
0.0
  0
LINE
  5
5CF
330
1E
100
AcDbEntity
  8
0
100
AcDbLine
 10
307.75
 20
1178.0
 30
0.0
 11
308.85
 21
1178.0
 31
0.0
  0
LINE
  5
5D0
330
1E
100
AcDbEntity
  8
0
100
AcDbLine
 10
308.85
 20
1178.0
 30
0.0
 11
309.25
 21
1178.0
 31
0.0
  0
LINE
  5
5D1
330
1E
100
AcDbEntity
  8
0
100
AcDbLine
 10
308.65
 20
1177.499999999999
 30
0.0
 11
309.85
 21
1177.499999999999
 31
0.0
  0
LINE
  5
5D2
330
1E
100
AcDbEntity
  8
0
100
AcDbLine
 10
310.0989999999999
 20
1174.5
 30
0.0
 11
310.0989999999999
 21
1175.5
 31
0.0
  0
LINE
  5
5D3
330
1E
100
AcDbEntity
  8
0
100
AcDbLine
 10
310.0989999999999
 20
1175.5
 30
0.0
 11
310.0989999999999
 21
1174.5
 31
0.0
  0
LINE
  5
5D4
330
1E
100
AcDbEntity
  8
0
100
AcDbLine
 10
309.9459999999999
 20
1176.0
 30
0.0
 11
310.0989999999999
 21
1175.5
 31
0.0
  0
LINE
  5
5D5
330
1E
100
AcDbEntity
  8
0
100
AcDbLine
 10
310.25
 20
1175.5
 30
0.0
 11
310.7499999999999
 21
1175.5
 31
0.0
  0
LINE
  5
5D6
330
1E
100
AcDbEntity
  8
0
100
AcDbLine
 10
310.25
 20
1174.5
 30
0.0
 11
310.7499999999999
 21
1174.5
 31
0.0
  0
LINE
  5
5D7
330
1E
100
AcDbEntity
  8
0
100
AcDbLine
 10
309.85
 20
1177.499999999999
 30
0.0
 11
310.25
 21
1177.499999999999
 31
0.0
  0
LINE
  5
5D8
330
1E
100
AcDbEntity
  8
0
100
AcDbLine
 10
310.25
 20
1174.0
 30
0.0
 11
310.25
 21
1169.2
 31
0.0
  0
LINE
  5
5D9
330
1E
100
AcDbEntity
  8
0
100
AcDbLine
 10
310.25
 20
1174.0
 30
0.0
 11
310.7499999999999
 21
1174.0
 31
0.0
  0
LINE
  5
5DA
330
1E
100
AcDbEntity
  8
0
100
AcDbLine
 10
310.25
 20
1177.499999999999
 30
0.0
 11
310.25
 21
1176.0
 31
0.0
  0
LINE
  5
5DB
330
1E
100
AcDbEntity
  8
0
100
AcDbLine
 10
287.85
 20
1178.5
 30
0.0
 11
289.7499999999999
 21
1178.5
 31
0.0
  0
LINE
  5
5DC
330
1E
100
AcDbEntity
  8
0
100
AcDbLine
 10
286.6499999999999
 20
1178.5
 30
0.0
 11
287.85
 21
1178.5
 31
0.0
  0
LINE
  5
5DD
330
1E
100
AcDbEntity
  8
0
100
AcDbLine
 10
286.25
 20
1178.5
 30
0.0
 11
286.6499999999999
 21
1178.5
 31
0.0
  0
LINE
  5
5DE
330
1E
100
AcDbEntity
  8
0
100
AcDbLine
 10
286.25
 20
1178.5
 30
0.0
 11
287.25
 21
1178.0
 31
0.0
  0
LINE
  5
5DF
330
1E
100
AcDbEntity
  8
0
100
AcDbLine
 10
286.25
 20
1178.5
 30
0.0
 11
286.25
 21
1197.5
 31
0.0
  0
LINE
  5
5E0
330
1E
100
AcDbEntity
  8
0
100
AcDbLine
 10
289.7499999999999
 20
1178.5
 30
0.0
 11
292.2499999999999
 21
1178.5
 31
0.0
  0
LINE
  5
5E1
330
1E
100
AcDbEntity
  8
0
100
AcDbLine
 10
292.2499999999999
 20
1178.5
 30
0.0
 11
295.1499999999999
 21
1178.5
 31
0.0
  0
LINE
  5
5E2
330
1E
100
AcDbEntity
  8
0
100
AcDbLine
 10
295.1499999999999
 20
1178.5
 30
0.0
 11
298.2499999999999
 21
1178.5
 31
0.0
  0
LINE
  5
5E3
330
1E
100
AcDbEntity
  8
0
100
AcDbLine
 10
304.2499999999999
 20
1178.5
 30
0.0
 11
306.7499999999999
 21
1178.5
 31
0.0
  0
LINE
  5
5E4
330
1E
100
AcDbEntity
  8
0
100
AcDbLine
 10
301.35
 20
1178.5
 30
0.0
 11
304.2499999999999
 21
1178.5
 31
0.0
  0
LINE
  5
5E5
330
1E
100
AcDbEntity
  8
0
100
AcDbLine
 10
298.2499999999999
 20
1178.5
 30
0.0
 11
301.35
 21
1178.5
 31
0.0
  0
LINE
  5
5E6
330
1E
100
AcDbEntity
  8
0
100
AcDbLine
 10
306.7499999999999
 20
1178.5
 30
0.0
 11
308.65
 21
1178.5
 31
0.0
  0
LINE
  5
5E7
330
1E
100
AcDbEntity
  8
0
100
AcDbLine
 10
287.85
 20
1197.5
 30
0.0
 11
289.7499999999999
 21
1197.5
 31
0.0
  0
LINE
  5
5E8
330
1E
100
AcDbEntity
  8
0
100
AcDbLine
 10
286.6499999999999
 20
1197.5
 30
0.0
 11
287.85
 21
1197.5
 31
0.0
  0
LINE
  5
5E9
330
1E
100
AcDbEntity
  8
0
100
AcDbLine
 10
286.25
 20
1197.5
 30
0.0
 11
286.6499999999999
 21
1197.5
 31
0.0
  0
LINE
  5
5EA
330
1E
100
AcDbEntity
  8
0
100
AcDbLine
 10
286.25
 20
1197.5
 30
0.0
 11
286.75
 21
1198.0
 31
0.0
  0
LINE
  5
5EB
330
1E
100
AcDbEntity
  8
0
100
AcDbLine
 10
286.25
 20
1197.5
 30
0.0
 11
286.25
 21
1178.5
 31
0.0
  0
LINE
  5
5EC
330
1E
100
AcDbEntity
  8
0
100
AcDbLine
 10
289.7499999999999
 20
1197.5
 30
0.0
 11
292.2499999999999
 21
1197.5
 31
0.0
  0
LINE
  5
5ED
330
1E
100
AcDbEntity
  8
0
100
AcDbLine
 10
292.2499999999999
 20
1197.5
 30
0.0
 11
295.1499999999999
 21
1197.5
 31
0.0
  0
LINE
  5
5EE
330
1E
100
AcDbEntity
  8
0
100
AcDbLine
 10
295.1499999999999
 20
1197.5
 30
0.0
 11
298.2499999999999
 21
1197.5
 31
0.0
  0
LINE
  5
5EF
330
1E
100
AcDbEntity
  8
0
100
AcDbLine
 10
304.2499999999999
 20
1197.5
 30
0.0
 11
306.7499999999999
 21
1197.5
 31
0.0
  0
LINE
  5
5F0
330
1E
100
AcDbEntity
  8
0
100
AcDbLine
 10
301.35
 20
1197.5
 30
0.0
 11
304.2499999999999
 21
1197.5
 31
0.0
  0
LINE
  5
5F1
330
1E
100
AcDbEntity
  8
0
100
AcDbLine
 10
298.2499999999999
 20
1197.5
 30
0.0
 11
301.35
 21
1197.5
 31
0.0
  0
LINE
  5
5F2
330
1E
100
AcDbEntity
  8
0
100
AcDbLine
 10
306.7499999999999
 20
1197.5
 30
0.0
 11
308.65
 21
1197.5
 31
0.0
  0
LINE
  5
5F3
330
1E
100
AcDbEntity
  8
0
100
AcDbLine
 10
288.2499999999999
 20
1198.0
 30
0.0
 11
290.15
 21
1198.0
 31
0.0
  0
LINE
  5
5F4
330
1E
100
AcDbEntity
  8
0
100
AcDbLine
 10
287.1499999999999
 20
1198.0
 30
0.0
 11
288.2499999999999
 21
1198.0
 31
0.0
  0
LINE
  5
5F5
330
1E
100
AcDbEntity
  8
0
100
AcDbLine
 10
286.75
 20
1198.0
 30
0.0
 11
287.1499999999999
 21
1198.0
 31
0.0
  0
LINE
  5
5F6
330
1E
100
AcDbEntity
  8
0
100
AcDbLine
 10
290.15
 20
1198.0
 30
0.0
 11
292.5499999999999
 21
1198.0
 31
0.0
  0
LINE
  5
5F7
330
1E
100
AcDbEntity
  8
0
100
AcDbLine
 10
292.5499999999999
 20
1198.0
 30
0.0
 11
295.25
 21
1198.0
 31
0.0
  0
LINE
  5
5F8
330
1E
100
AcDbEntity
  8
0
100
AcDbLine
 10
295.25
 20
1198.0
 30
0.0
 11
298.2499999999999
 21
1198.0
 31
0.0
  0
LINE
  5
5F9
330
1E
100
AcDbEntity
  8
0
100
AcDbLine
 10
303.9499999999999
 20
1198.0
 30
0.0
 11
306.35
 21
1198.0
 31
0.0
  0
LINE
  5
5FA
330
1E
100
AcDbEntity
  8
0
100
AcDbLine
 10
301.25
 20
1198.0
 30
0.0
 11
303.9499999999999
 21
1198.0
 31
0.0
  0
LINE
  5
5FB
330
1E
100
AcDbEntity
  8
0
100
AcDbLine
 10
298.2499999999999
 20
1198.0
 30
0.0
 11
301.25
 21
1198.0
 31
0.0
  0
LINE
  5
5FC
330
1E
100
AcDbEntity
  8
0
100
AcDbLine
 10
306.35
 20
1198.0
 30
0.0
 11
308.25
 21
1198.0
 31
0.0
  0
LINE
  5
5FD
330
1E
100
AcDbEntity
  8
0
100
AcDbLine
 10
308.25
 20
1198.0
 30
0.0
 11
309.35
 21
1198.0
 31
0.0
  0
LINE
  5
5FE
330
1E
100
AcDbEntity
  8
0
100
AcDbLine
 10
309.35
 20
1198.0
 30
0.0
 11
309.75
 21
1198.0
 31
0.0
  0
LINE
  5
5FF
330
1E
100
AcDbEntity
  8
0
100
AcDbLine
 10
308.65
 20
1197.5
 30
0.0
 11
309.85
 21
1197.5
 31
0.0
  0
LINE
  5
600
330
1E
100
AcDbEntity
  8
0
100
AcDbLine
 10
309.85
 20
1197.5
 30
0.0
 11
310.25
 21
1197.5
 31
0.0
  0
LINE
  5
601
330
1E
100
AcDbEntity
  8
0
100
AcDbLine
 10
308.65
 20
1178.5
 30
0.0
 11
309.85
 21
1178.5
 31
0.0
  0
LINE
  5
602
330
1E
100
AcDbEntity
  8
0
100
AcDbLine
 10
310.25
 20
1197.5
 30
0.0
 11
310.25
 21
1178.5
 31
0.0
  0
LINE
  5
603
330
1E
100
AcDbEntity
  8
0
100
AcDbLine
 10
309.85
 20
1178.5
 30
0.0
 11
310.25
 21
1178.5
 31
0.0
  0
LINE
  5
604
330
1E
100
AcDbEntity
  8
0
100
AcDbLine
 10
309.75
 20
1198.0
 30
0.0
 11
310.25
 21
1197.5
 31
0.0
  0
LINE
  5
605
330
1E
100
AcDbEntity
  8
0
100
AcDbLine
 10
310.25
 20
1178.5
 30
0.0
 11
310.25
 21
1197.5
 31
0.0
  0
LINE
  5
606
330
1E
100
AcDbEntity
  8
0
100
AcDbLine
 10
309.25
 20
1178.0
 30
0.0
 11
310.25
 21
1177.499999999999
 31
0.0
  0
LINE
  5
607
330
1E
100
AcDbEntity
  8
0
100
AcDbLine
 10
309.25
 20
1178.0
 30
0.0
 11
310.25
 21
1178.5
 31
0.0
  0
LINE
  5
608
330
1E
100
AcDbEntity
  8
0
100
AcDbLine
 10
310.25
 20
1176.0
 30
0.0
 11
310.25
 21
1177.499999999999
 31
0.0
  0
LINE
  5
609
330
1E
100
AcDbEntity
  8
0
100
AcDbLine
 10
310.25
 20
1176.0
 30
0.0
 11
310.7499999999999
 21
1176.0
 31
0.0
  0
LINE
  5
60A
330
1E
100
AcDbEntity
  8
0
100
AcDbLine
 10
310.25
 20
1169.2
 30
0.0
 11
310.25
 21
1174.0
 31
0.0
  0
LINE
  5
60B
330
1E
100
AcDbEntity
  8
0
100
AcDbLine
 10
310.25
 20
1169.2
 30
0.0
 11
310.7499999999999
 21
1169.2
 31
0.0
  0
LINE
  5
60C
330
1E
100
AcDbEntity
  8
0
100
AcDbLine
 10
310.25
 20
1155.599999999999
 30
0.0
 11
310.25
 21
1160.4
 31
0.0
  0
LINE
  5
60D
330
1E
100
AcDbEntity
  8
0
100
AcDbLine
 10
310.25
 20
1155.599999999999
 30
0.0
 11
310.7499999999999
 21
1155.599999999999
 31
0.0
  0
LINE
  5
60E
330
1E
100
AcDbEntity
  8
0
100
AcDbLine
 10
310.25
 20
1148.8
 30
0.0
 11
310.25
 21
1153.599999999999
 31
0.0
  0
LINE
  5
60F
330
1E
100
AcDbEntity
  8
0
100
AcDbLine
 10
310.25
 20
1148.8
 30
0.0
 11
310.7499999999999
 21
1148.8
 31
0.0
  0
LINE
  5
610
330
1E
100
AcDbEntity
  8
0
100
AcDbLine
 10
310.25
 20
1142.0
 30
0.0
 11
310.25
 21
1146.8
 31
0.0
  0
LINE
  5
611
330
1E
100
AcDbEntity
  8
0
100
AcDbLine
 10
310.25
 20
1142.0
 30
0.0
 11
310.7499999999999
 21
1142.0
 31
0.0
  0
LINE
  5
612
330
1E
100
AcDbEntity
  8
0
100
AcDbLine
 10
310.25
 20
1135.199999999999
 30
0.0
 11
310.25
 21
1140.0
 31
0.0
  0
LINE
  5
613
330
1E
100
AcDbEntity
  8
0
100
AcDbLine
 10
310.25
 20
1135.199999999999
 30
0.0
 11
310.7499999999999
 21
1135.199999999999
 31
0.0
  0
LINE
  5
614
330
1E
100
AcDbEntity
  8
0
100
AcDbLine
 10
310.25
 20
1128.4
 30
0.0
 11
310.25
 21
1133.2
 31
0.0
  0
LINE
  5
615
330
1E
100
AcDbEntity
  8
0
100
AcDbLine
 10
310.25
 20
1128.4
 30
0.0
 11
310.7499999999999
 21
1128.4
 31
0.0
  0
LINE
  5
616
330
1E
100
AcDbEntity
  8
0
100
AcDbLine
 10
310.25
 20
1121.599999999999
 30
0.0
 11
310.25
 21
1126.4
 31
0.0
  0
LINE
  5
617
330
1E
100
AcDbEntity
  8
0
100
AcDbLine
 10
310.25
 20
1121.599999999999
 30
0.0
 11
310.7499999999999
 21
1121.599999999999
 31
0.0
  0
LINE
  5
618
330
1E
100
AcDbEntity
  8
0
100
AcDbLine
 10
310.7499999999999
 20
1113.299999999999
 30
0.0
 11
310.7499999999999
 21
1112.8
 31
0.0
  0
LINE
  5
619
330
1E
100
AcDbEntity
  8
0
100
AcDbLine
 10
310.7499999999999
 20
1113.299999999999
 30
0.0
 11
310.7499999999999
 21
1114.299999999999
 31
0.0
  0
LINE
  5
61A
330
1E
100
AcDbEntity
  8
0
100
AcDbLine
 10
310.7499999999999
 20
1112.8
 30
0.0
 11
310.7499999999999
 21
1113.299999999999
 31
0.0
  0
LINE
  5
61B
330
1E
100
AcDbEntity
  8
0
100
AcDbLine
 10
310.7499999999999
 20
1120.099999999999
 30
0.0
 11
310.7499999999999
 21
1119.599999999999
 31
0.0
  0
LINE
  5
61C
330
1E
100
AcDbEntity
  8
0
100
AcDbLine
 10
310.7499999999999
 20
1120.099999999999
 30
0.0
 11
310.7499999999999
 21
1121.099999999999
 31
0.0
  0
LINE
  5
61D
330
1E
100
AcDbEntity
  8
0
100
AcDbLine
 10
310.7499999999999
 20
1119.599999999999
 30
0.0
 11
310.7499999999999
 21
1120.099999999999
 31
0.0
  0
LINE
  5
61E
330
1E
100
AcDbEntity
  8
0
100
AcDbLine
 10
310.7499999999999
 20
1126.4
 30
0.0
 11
310.7499999999999
 21
1126.9
 31
0.0
  0
LINE
  5
61F
330
1E
100
AcDbEntity
  8
0
100
AcDbLine
 10
310.7499999999999
 20
1126.9
 30
0.0
 11
310.7499999999999
 21
1127.9
 31
0.0
  0
LINE
  5
620
330
1E
100
AcDbEntity
  8
0
100
AcDbLine
 10
310.7499999999999
 20
1126.9
 30
0.0
 11
310.7499999999999
 21
1126.4
 31
0.0
  0
LINE
  5
621
330
1E
100
AcDbEntity
  8
0
100
AcDbLine
 10
310.7499999999999
 20
1133.7
 30
0.0
 11
310.7499999999999
 21
1133.2
 31
0.0
  0
LINE
  5
622
330
1E
100
AcDbEntity
  8
0
100
AcDbLine
 10
310.7499999999999
 20
1133.7
 30
0.0
 11
310.7499999999999
 21
1134.7
 31
0.0
  0
LINE
  5
623
330
1E
100
AcDbEntity
  8
0
100
AcDbLine
 10
310.7499999999999
 20
1133.2
 30
0.0
 11
310.7499999999999
 21
1133.7
 31
0.0
  0
LINE
  5
624
330
1E
100
AcDbEntity
  8
0
100
AcDbLine
 10
310.7499999999999
 20
1140.0
 30
0.0
 11
310.7499999999999
 21
1140.5
 31
0.0
  0
LINE
  5
625
330
1E
100
AcDbEntity
  8
0
100
AcDbLine
 10
310.7499999999999
 20
1140.5
 30
0.0
 11
310.7499999999999
 21
1141.5
 31
0.0
  0
LINE
  5
626
330
1E
100
AcDbEntity
  8
0
100
AcDbLine
 10
310.7499999999999
 20
1140.5
 30
0.0
 11
310.7499999999999
 21
1140.0
 31
0.0
  0
LINE
  5
627
330
1E
100
AcDbEntity
  8
0
100
AcDbLine
 10
310.7499999999999
 20
1146.8
 30
0.0
 11
310.7499999999999
 21
1147.299999999999
 31
0.0
  0
LINE
  5
628
330
1E
100
AcDbEntity
  8
0
100
AcDbLine
 10
310.7499999999999
 20
1147.299999999999
 30
0.0
 11
310.7499999999999
 21
1148.3
 31
0.0
  0
LINE
  5
629
330
1E
100
AcDbEntity
  8
0
100
AcDbLine
 10
310.7499999999999
 20
1147.299999999999
 30
0.0
 11
310.7499999999999
 21
1146.8
 31
0.0
  0
LINE
  5
62A
330
1E
100
AcDbEntity
  8
0
100
AcDbLine
 10
310.7499999999999
 20
1154.099999999999
 30
0.0
 11
310.7499999999999
 21
1153.599999999999
 31
0.0
  0
LINE
  5
62B
330
1E
100
AcDbEntity
  8
0
100
AcDbLine
 10
310.7499999999999
 20
1154.099999999999
 30
0.0
 11
310.7499999999999
 21
1155.1
 31
0.0
  0
LINE
  5
62C
330
1E
100
AcDbEntity
  8
0
100
AcDbLine
 10
310.7499999999999
 20
1153.599999999999
 30
0.0
 11
310.7499999999999
 21
1154.099999999999
 31
0.0
  0
LINE
  5
62D
330
1E
100
AcDbEntity
  8
0
100
AcDbLine
 10
310.7499999999999
 20
1162.4
 30
0.0
 11
310.7499999999999
 21
1161.9
 31
0.0
  0
LINE
  5
62E
330
1E
100
AcDbEntity
  8
0
100
AcDbLine
 10
310.7499999999999
 20
1161.9
 30
0.0
 11
310.7499999999999
 21
1162.4
 31
0.0
  0
LINE
  5
62F
330
1E
100
AcDbEntity
  8
0
100
AcDbLine
 10
310.7499999999999
 20
1161.9
 30
0.0
 11
310.7499999999999
 21
1160.9
 31
0.0
  0
LINE
  5
630
330
1E
100
AcDbEntity
  8
0
100
AcDbLine
 10
310.7499999999999
 20
1167.2
 30
0.0
 11
310.7499999999999
 21
1167.7
 31
0.0
  0
LINE
  5
631
330
1E
100
AcDbEntity
  8
0
100
AcDbLine
 10
310.7499999999999
 20
1174.0
 30
0.0
 11
310.7499999999999
 21
1174.5
 31
0.0
  0
LINE
  5
632
330
1E
100
AcDbEntity
  8
0
100
AcDbLine
 10
310.7499999999999
 20
1174.5
 30
0.0
 11
310.7499999999999
 21
1175.5
 31
0.0
  0
LINE
  5
633
330
1E
100
AcDbEntity
  8
0
100
AcDbLine
 10
310.7499999999999
 20
1174.5
 30
0.0
 11
310.7499999999999
 21
1174.0
 31
0.0
  0
LINE
  5
634
330
1E
100
AcDbEntity
  8
0
100
AcDbLine
 10
310.7499999999999
 20
1176.0
 30
0.0
 11
310.7499999999999
 21
1175.5
 31
0.0
  0
LINE
  5
635
330
1E
100
AcDbEntity
  8
0
100
AcDbLine
 10
310.7499999999999
 20
1175.5
 30
0.0
 11
310.7499999999999
 21
1174.5
 31
0.0
  0
LINE
  5
636
330
1E
100
AcDbEntity
  8
0
100
AcDbLine
 10
310.7499999999999
 20
1175.5
 30
0.0
 11
310.7499999999999
 21
1176.0
 31
0.0
  0
LINE
  5
637
330
1E
100
AcDbEntity
  8
0
100
AcDbLine
 10
310.7499999999999
 20
1169.2
 30
0.0
 11
310.7499999999999
 21
1168.7
 31
0.0
  0
LINE
  5
638
330
1E
100
AcDbEntity
  8
0
100
AcDbLine
 10
310.7499999999999
 20
1168.7
 30
0.0
 11
310.7499999999999
 21
1167.7
 31
0.0
  0
LINE
  5
639
330
1E
100
AcDbEntity
  8
0
100
AcDbLine
 10
310.7499999999999
 20
1168.7
 30
0.0
 11
310.7499999999999
 21
1169.2
 31
0.0
  0
LINE
  5
63A
330
1E
100
AcDbEntity
  8
0
100
AcDbLine
 10
310.7499999999999
 20
1167.7
 30
0.0
 11
310.7499999999999
 21
1167.2
 31
0.0
  0
LINE
  5
63B
330
1E
100
AcDbEntity
  8
0
100
AcDbLine
 10
310.7499999999999
 20
1167.7
 30
0.0
 11
310.7499999999999
 21
1168.7
 31
0.0
  0
LINE
  5
63C
330
1E
100
AcDbEntity
  8
0
100
AcDbLine
 10
310.7499999999999
 20
1160.9
 30
0.0
 11
310.7499999999999
 21
1160.4
 31
0.0
  0
LINE
  5
63D
330
1E
100
AcDbEntity
  8
0
100
AcDbLine
 10
310.7499999999999
 20
1160.9
 30
0.0
 11
310.7499999999999
 21
1161.9
 31
0.0
  0
LINE
  5
63E
330
1E
100
AcDbEntity
  8
0
100
AcDbLine
 10
310.7499999999999
 20
1160.4
 30
0.0
 11
310.7499999999999
 21
1160.9
 31
0.0
  0
LINE
  5
63F
330
1E
100
AcDbEntity
  8
0
100
AcDbLine
 10
310.7499999999999
 20
1155.599999999999
 30
0.0
 11
310.7499999999999
 21
1155.1
 31
0.0
  0
LINE
  5
640
330
1E
100
AcDbEntity
  8
0
100
AcDbLine
 10
310.7499999999999
 20
1155.1
 30
0.0
 11
310.7499999999999
 21
1155.599999999999
 31
0.0
  0
LINE
  5
641
330
1E
100
AcDbEntity
  8
0
100
AcDbLine
 10
310.7499999999999
 20
1155.1
 30
0.0
 11
310.7499999999999
 21
1154.099999999999
 31
0.0
  0
LINE
  5
642
330
1E
100
AcDbEntity
  8
0
100
AcDbLine
 10
310.7499999999999
 20
1148.8
 30
0.0
 11
310.7499999999999
 21
1148.3
 31
0.0
  0
LINE
  5
643
330
1E
100
AcDbEntity
  8
0
100
AcDbLine
 10
310.7499999999999
 20
1148.3
 30
0.0
 11
310.7499999999999
 21
1147.299999999999
 31
0.0
  0
LINE
  5
644
330
1E
100
AcDbEntity
  8
0
100
AcDbLine
 10
310.7499999999999
 20
1148.3
 30
0.0
 11
310.7499999999999
 21
1148.8
 31
0.0
  0
LINE
  5
645
330
1E
100
AcDbEntity
  8
0
100
AcDbLine
 10
310.7499999999999
 20
1142.0
 30
0.0
 11
310.7499999999999
 21
1141.5
 31
0.0
  0
LINE
  5
646
330
1E
100
AcDbEntity
  8
0
100
AcDbLine
 10
310.7499999999999
 20
1141.5
 30
0.0
 11
310.7499999999999
 21
1140.5
 31
0.0
  0
LINE
  5
647
330
1E
100
AcDbEntity
  8
0
100
AcDbLine
 10
310.7499999999999
 20
1141.5
 30
0.0
 11
310.7499999999999
 21
1142.0
 31
0.0
  0
LINE
  5
648
330
1E
100
AcDbEntity
  8
0
100
AcDbLine
 10
310.7499999999999
 20
1135.199999999999
 30
0.0
 11
310.7499999999999
 21
1134.7
 31
0.0
  0
LINE
  5
649
330
1E
100
AcDbEntity
  8
0
100
AcDbLine
 10
310.7499999999999
 20
1134.7
 30
0.0
 11
310.7499999999999
 21
1135.199999999999
 31
0.0
  0
LINE
  5
64A
330
1E
100
AcDbEntity
  8
0
100
AcDbLine
 10
310.7499999999999
 20
1134.7
 30
0.0
 11
310.7499999999999
 21
1133.7
 31
0.0
  0
LINE
  5
64B
330
1E
100
AcDbEntity
  8
0
100
AcDbLine
 10
310.7499999999999
 20
1128.4
 30
0.0
 11
310.7499999999999
 21
1127.9
 31
0.0
  0
LINE
  5
64C
330
1E
100
AcDbEntity
  8
0
100
AcDbLine
 10
310.7499999999999
 20
1127.9
 30
0.0
 11
310.7499999999999
 21
1126.9
 31
0.0
  0
LINE
  5
64D
330
1E
100
AcDbEntity
  8
0
100
AcDbLine
 10
310.7499999999999
 20
1127.9
 30
0.0
 11
310.7499999999999
 21
1128.4
 31
0.0
  0
LINE
  5
64E
330
1E
100
AcDbEntity
  8
0
100
AcDbLine
 10
310.7499999999999
 20
1121.599999999999
 30
0.0
 11
310.7499999999999
 21
1121.099999999999
 31
0.0
  0
LINE
  5
64F
330
1E
100
AcDbEntity
  8
0
100
AcDbLine
 10
310.7499999999999
 20
1121.099999999999
 30
0.0
 11
310.7499999999999
 21
1121.599999999999
 31
0.0
  0
LINE
  5
650
330
1E
100
AcDbEntity
  8
0
100
AcDbLine
 10
310.7499999999999
 20
1121.099999999999
 30
0.0
 11
310.7499999999999
 21
1120.099999999999
 31
0.0
  0
LINE
  5
651
330
1E
100
AcDbEntity
  8
0
100
AcDbLine
 10
310.7499999999999
 20
1114.8
 30
0.0
 11
310.7499999999999
 21
1114.299999999999
 31
0.0
  0
LINE
  5
652
330
1E
100
AcDbEntity
  8
0
100
AcDbLine
 10
310.7499999999999
 20
1114.299999999999
 30
0.0
 11
310.7499999999999
 21
1114.8
 31
0.0
  0
LINE
  5
653
330
1E
100
AcDbEntity
  8
0
100
AcDbLine
 10
310.7499999999999
 20
1114.299999999999
 30
0.0
 11
310.7499999999999
 21
1113.299999999999
 31
0.0
  0
LINE
  5
654
330
1E
100
AcDbEntity
  8
0
100
AcDbLine
 10
310.25
 20
1114.8
 30
0.0
 11
310.25
 21
1119.599999999999
 31
0.0
  0
LINE
  5
655
330
1E
100
AcDbEntity
  8
0
100
AcDbLine
 10
310.25
 20
1114.8
 30
0.0
 11
310.7499999999999
 21
1114.8
 31
0.0
  0
LINE
  5
656
330
1E
100
AcDbEntity
  8
0
100
AcDbLine
 10
310.25
 20
1108.0
 30
0.0
 11
310.25
 21
1112.8
 31
0.0
  0
LINE
  5
657
330
1E
100
AcDbEntity
  8
0
100
AcDbLine
 10
310.25
 20
1108.0
 30
0.0
 11
310.7499999999999
 21
1108.0
 31
0.0
  0
LINE
  5
658
330
1E
100
AcDbEntity
  8
0
100
AcDbLine
 10
244.2499999999999
 20
1097.0
 30
0.0
 11
244.95
 21
1096.7
 31
0.0
  0
LINE
  5
659
330
1E
100
AcDbEntity
  8
0
100
AcDbLine
 10
244.95
 20
1096.7
 30
0.0
 11
245.25
 21
1096.0
 31
0.0
  0
LINE
  5
65A
330
1E
100
AcDbEntity
  8
0
100
AcDbLine
 10
196.035
 20
1072.0
 30
0.0
 11
198.432
 21
1066.211999999999
 31
0.0
  0
LINE
  5
65B
330
1E
100
AcDbEntity
  8
0
100
AcDbLine
 10
198.432
 20
1066.211999999999
 30
0.0
 11
199.2499999999999
 21
1060.0
 31
0.0
  0
LINE
  5
65C
330
1E
100
AcDbEntity
  8
0
100
AcDbLine
 10
192.2209999999999
 20
1076.971
 30
0.0
 11
196.035
 21
1072.0
 31
0.0
  0
LINE
  5
661
330
1E
100
AcDbEntity
  8
0
100
AcDbLine
 10
3.905740000000009
 20
1090.597999999999
 30
0.0
 11
6.097145896463189
 21
1089.293355659053
 31
0.0
  0
LINE
  5
662
330
1E
100
AcDbEntity
  8
0
100
AcDbLine
 10
6.097145896463189
 20
1089.293355659053
 30
0.0
 11
9.256488237374469
 21
1087.916922466244
 31
0.0
  0
LINE
  5
663
330
1E
100
AcDbEntity
  8
0
100
AcDbLine
 10
9.256488237374469
 20
1087.916922466244
 30
0.0
 11
13.59045502548542
 21
1086.257101841198
 31
0.0
  0
LINE
  5
664
330
1E
100
AcDbEntity
  8
0
100
AcDbLine
 10
13.59045502548542
 20
1086.257101841198
 30
0.0
 11
18.6130012431322
 21
1084.718731368867
 31
0.0
  0
LINE
  5
665
330
1E
100
AcDbEntity
  8
0
100
AcDbLine
 10
18.6130012431322
 20
1084.718731368867
 30
0.0
 11
22.09637543752614
 21
1084.192449245057
 31
0.0
  0
LINE
  5
666
330
1E
100
AcDbEntity
  8
0
100
AcDbLine
 10
22.09637543752614
 20
1084.192449245057
 30
0.0
 11
24.8802086989006
 21
1084.05
 31
0.0
  0
ENDSEC
  0
SECTION
  2
OBJECTS
  0
DICTIONARY
  5
C
330
0
100
AcDbDictionary
281
     1
  3
ACAD_GROUP
350
D
  3
ACAD_LAYOUT
350
19
  3
ACAD_MLINESTYLE
350
16
  3
ACAD_PLOTSETTINGS
350
18
  3
ACAD_PLOTSTYLENAME
350
E
  3
AcDbVariableDictionary
350
667
  0
DICTIONARY
  5
D
102
{ACAD_REACTORS
330
C
102
}
330
C
100
AcDbDictionary
281
     1
  0
DICTIONARY
  5
19
102
{ACAD_REACTORS
330
C
102
}
330
C
100
AcDbDictionary
281
     1
  3
Layout1
350
1D
  3
Model
350
21
  0
DICTIONARY
  5
16
102
{ACAD_REACTORS
330
C
102
}
330
C
100
AcDbDictionary
281
     1
  3
Standard
350
17
  0
DICTIONARY
  5
18
102
{ACAD_REACTORS
330
C
102
}
330
C
100
AcDbDictionary
281
     1
  0
ACDBDICTIONARYWDFLT
  5
E
102
{ACAD_REACTORS
330
C
102
}
330
C
100
AcDbDictionary
281
     1
  3
Normal
350
F
100
AcDbDictionaryWithDefault
340
F
  0
DICTIONARY
  5
667
102
{ACAD_REACTORS
330
C
102
}
330
C
100
AcDbDictionary
281
     1
  3
DIMASSOC
350
668
  0
LAYOUT
  5
1D
102
{ACAD_REACTORS
330
19
102
}
330
19
100
AcDbPlotSettings
  1

  2
hp deskjet 980c series
  4

  6

 40
0.0
 41
0.0
 42
0.0
 43
0.0
 44
0.0
 45
0.0
 46
0.0
 47
0.0
 48
0.0
 49
0.0
140
0.0
141
0.0
142
1.0
143
1.0
 70
   688
 72
     0
 73
     0
 74
     5
  7

 75
    16
147
1.0
148
0.0
149
0.0
100
AcDbLayout
  1
Layout1
 70
     1
 71
     1
 10
0.0
 20
0.0
 11
12.0
 21
9.0
 12
0.0
 22
0.0
 32
0.0
 14
1.000000000000000E+20
 24
1.000000000000000E+20
 34
1.000000000000000E+20
 15
-1.000000000000000E+20
 25
-1.000000000000000E+20
 35
-1.000000000000000E+20
146
0.0
 13
0.0
 23
0.0
 33
0.0
 16
1.0
 26
0.0
 36
0.0
 17
0.0
 27
1.0
 37
0.0
 76
     0
330
1A
  0
LAYOUT
  5
21
102
{ACAD_REACTORS
330
19
102
}
330
19
100
AcDbPlotSettings
  1

  2
hp deskjet 980c series
  4

  6

 40
0.0
 41
0.0
 42
0.0
 43
0.0
 44
0.0
 45
0.0
 46
0.0
 47
0.0
 48
0.0
 49
0.0
140
0.0
141
0.0
142
1.0
143
1.0
 70
  1712
 72
     0
 73
     0
 74
     0
  7

 75
     0
147
1.0
148
0.0
149
0.0
100
AcDbLayout
  1
Model
 70
     1
 71
     0
 10
0.0
 20
0.0
 11
12.0
 21
9.0
 12
0.0
 22
0.0
 32
0.0
 14
0.0
 24
0.0
 34
0.0
 15
0.0
 25
0.0
 35
0.0
146
0.0
 13
0.0
 23
0.0
 33
0.0
 16
1.0
 26
0.0
 36
0.0
 17
0.0
 27
1.0
 37
0.0
 76
     0
330
1E
  0
MLINESTYLE
  5
17
102
{ACAD_REACTORS
330
16
102
}
330
16
100
AcDbMlineStyle
  2
STANDARD
 70
     0
  3

 62
   256
 51
90.0
 52
90.0
 71
     2
 49
0.5
 62
   256
  6
BYLAYER
 49
-0.5
 62
   256
  6
BYLAYER
  0
ACDBPLACEHOLDER
  5
F
102
{ACAD_REACTORS
330
E
102
}
330
E
  0
DICTIONARYVAR
  5
668
102
{ACAD_REACTORS
330
667
102
}
330
667
100
DictionaryVariables
280
     0
  1
1
  0
ENDSEC
  0
EOF
