  0
SECTION
  2
HEADER
  9
$ACADVER
  1
AC1015
  9
$ACADMAINTVER
 70
    13
  9
$DWGCODEPAGE
  3
ANSI_1252
  9
$INSBASE
 10
0.0
 20
0.0
 30
0.0
  9
$EXTMIN
 10
0.0
 20
0.0000244999999875
 30
0.0
  9
$EXTMAX
 10
170.0
 20
79.9999755
 30
0.0
  9
$LIMMIN
 10
0.0
 20
0.0
  9
$LIMMAX
 10
12.0
 20
9.0
  9
$ORTHOMODE
 70
     0
  9
$REGENMODE
 70
     1
  9
$FILLMODE
 70
     1
  9
$QTEXTMODE
 70
     0
  9
$MIRRTEXT
 70
     1
  9
$LTSCALE
 40
1.0
  9
$ATTMODE
 70
     1
  9
$TEXTSIZE
 40
0.2
  9
$TRACEWID
 40
0.05
  9
$TEXTSTYLE
  7
Standard
  9
$CLAYER
  8
0
  9
$CELTYPE
  6
Continuous
  9
$CECOLOR
 62
   256
  9
$CELTSCALE
 40
1.0
  9
$DISPSILH
 70
     0
  9
$DIMSCALE
 40
1.0
  9
$DIMASZ
 40
0.18
  9
$DIMEXO
 40
0.0625
  9
$DIMDLI
 40
0.38
  9
$DIMRND
 40
0.0
  9
$DIMDLE
 40
0.0
  9
$DIMEXE
 40
0.18
  9
$DIMTP
 40
0.0
  9
$DIMTM
 40
0.0
  9
$DIMTXT
 40
0.18
  9
$DIMCEN
 40
0.09
  9
$DIMTSZ
 40
0.0
  9
$DIMTOL
 70
     0
  9
$DIMLIM
 70
     0
  9
$DIMTIH
 70
     1
  9
$DIMTOH
 70
     1
  9
$DIMSE1
 70
     0
  9
$DIMSE2
 70
     0
  9
$DIMTAD
 70
     0
  9
$DIMZIN
 70
     0
  9
$DIMBLK
  1

  9
$DIMASO
 70
     1
  9
$DIMSHO
 70
     1
  9
$DIMPOST
  1

  9
$DIMAPOST
  1

  9
$DIMALT
 70
     0
  9
$DIMALTD
 70
     2
  9
$DIMALTF
 40
25.4
  9
$DIMLFAC
 40
1.0
  9
$DIMTOFL
 70
     0
  9
$DIMTVP
 40
0.0
  9
$DIMTIX
 70
     0
  9
$DIMSOXD
 70
     0
  9
$DIMSAH
 70
     0
  9
$DIMBLK1
  1

  9
$DIMBLK2
  1

  9
$DIMSTYLE
  2
Standard
  9
$DIMCLRD
 70
     0
  9
$DIMCLRE
 70
     0
  9
$DIMCLRT
 70
     0
  9
$DIMTFAC
 40
1.0
  9
$DIMGAP
 40
0.09
  9
$DIMJUST
 70
     0
  9
$DIMSD1
 70
     0
  9
$DIMSD2
 70
     0
  9
$DIMTOLJ
 70
     1
  9
$DIMTZIN
 70
     0
  9
$DIMALTZ
 70
     0
  9
$DIMALTTZ
 70
     0
  9
$DIMUPT
 70
     0
  9
$DIMDEC
 70
     4
  9
$DIMTDEC
 70
     4
  9
$DIMALTU
 70
     2
  9
$DIMALTTD
 70
     2
  9
$DIMTXSTY
  7
Standard
  9
$DIMAUNIT
 70
     0
  9
$DIMADEC
 70
     0
  9
$DIMALTRND
 40
0.0
  9
$DIMAZIN
 70
     0
  9
$DIMDSEP
 70
    46
  9
$DIMATFIT
 70
     3
  9
$DIMFRAC
 70
     0
  9
$DIMLDRBLK
  1

  9
$DIMLUNIT
 70
     2
  9
$DIMLWD
 70
    -2
  9
$DIMLWE
 70
    -2
  9
$DIMTMOVE
 70
     0
  9
$LUNITS
 70
     2
  9
$LUPREC
 70
     4
  9
$SKETCHINC
 40
0.1
  9
$FILLETRAD
 40
0.0
  9
$AUNITS
 70
     0
  9
$AUPREC
 70
     0
  9
$MENU
  1
.
  9
$ELEVATION
 40
0.0
  9
$PELEVATION
 40
0.0
  9
$THICKNESS
 40
0.0
  9
$LIMCHECK
 70
     0
  9
$CHAMFERA
 40
0.0
  9
$CHAMFERB
 40
0.0
  9
$CHAMFERC
 40
0.0
  9
$CHAMFERD
 40
0.0
  9
$SKPOLY
 70
     0
  9
$TDCREATE
 40
2454875.858041076
  9
$TDUCREATE
 40
2454875.816374410
  9
$TDUPDATE
 40
2454875.858997025
  9
$TDUUPDATE
 40
2454875.817330359
  9
$TDINDWG
 40
0.0009561227
  9
$TDUSRTIMER
 40
0.0009561227
  9
$USRTIMER
 70
     1
  9
$ANGBASE
 50
0.0
  9
$ANGDIR
 70
     0
  9
$PDMODE
 70
     0
  9
$PDSIZE
 40
0.0
  9
$PLINEWID
 40
0.0
  9
$SPLFRAME
 70
     0
  9
$SPLINETYPE
 70
     6
  9
$SPLINESEGS
 70
     8
  9
$HANDSEED
  5
22F
  9
$SURFTAB1
 70
     6
  9
$SURFTAB2
 70
     6
  9
$SURFTYPE
 70
     6
  9
$SURFU
 70
     6
  9
$SURFV
 70
     6
  9
$UCSBASE
  2

  9
$UCSNAME
  2

  9
$UCSORG
 10
0.0
 20
0.0
 30
0.0
  9
$UCSXDIR
 10
1.0
 20
0.0
 30
0.0
  9
$UCSYDIR
 10
0.0
 20
1.0
 30
0.0
  9
$UCSORTHOREF
  2

  9
$UCSORTHOVIEW
 70
     1
  9
$UCSORGTOP
 10
0.0
 20
0.0
 30
0.0
  9
$UCSORGBOTTOM
 10
0.0
 20
0.0
 30
0.0
  9
$UCSORGLEFT
 10
0.0
 20
0.0
 30
0.0
  9
$UCSORGRIGHT
 10
0.0
 20
0.0
 30
0.0
  9
$UCSORGFRONT
 10
0.0
 20
0.0
 30
0.0
  9
$UCSORGBACK
 10
0.0
 20
0.0
 30
0.0
  9
$PUCSBASE
  2

  9
$PUCSNAME
  2

  9
$PUCSORG
 10
0.0
 20
0.0
 30
0.0
  9
$PUCSXDIR
 10
1.0
 20
0.0
 30
0.0
  9
$PUCSYDIR
 10
0.0
 20
1.0
 30
0.0
  9
$PUCSORTHOREF
  2

  9
$PUCSORTHOVIEW
 70
     0
  9
$PUCSORGTOP
 10
0.0
 20
0.0
 30
0.0
  9
$PUCSORGBOTTOM
 10
0.0
 20
0.0
 30
0.0
  9
$PUCSORGLEFT
 10
0.0
 20
0.0
 30
0.0
  9
$PUCSORGRIGHT
 10
0.0
 20
0.0
 30
0.0
  9
$PUCSORGFRONT
 10
0.0
 20
0.0
 30
0.0
  9
$PUCSORGBACK
 10
0.0
 20
0.0
 30
0.0
  9
$USERI1
 70
     0
  9
$USERI2
 70
     0
  9
$USERI3
 70
     0
  9
$USERI4
 70
     0
  9
$USERI5
 70
     0
  9
$USERR1
 40
0.0
  9
$USERR2
 40
0.0
  9
$USERR3
 40
0.0
  9
$USERR4
 40
0.0
  9
$USERR5
 40
0.0
  9
$WORLDVIEW
 70
     1
  9
$SHADEDGE
 70
     3
  9
$SHADEDIF
 70
    70
  9
$TILEMODE
 70
     1
  9
$MAXACTVP
 70
    64
  9
$PINSBASE
 10
0.0
 20
0.0
 30
0.0
  9
$PLIMCHECK
 70
     0
  9
$PEXTMIN
 10
1.000000000000000E+20
 20
1.000000000000000E+20
 30
1.000000000000000E+20
  9
$PEXTMAX
 10
-1.000000000000000E+20
 20
-1.000000000000000E+20
 30
-1.000000000000000E+20
  9
$PLIMMIN
 10
0.0
 20
0.0
  9
$PLIMMAX
 10
12.0
 20
9.0
  9
$UNITMODE
 70
     0
  9
$VISRETAIN
 70
     1
  9
$PLINEGEN
 70
     0
  9
$PSLTSCALE
 70
     1
  9
$TREEDEPTH
 70
  3020
  9
$CMLSTYLE
  2
Standard
  9
$CMLJUST
 70
     0
  9
$CMLSCALE
 40
1.0
  9
$PROXYGRAPHICS
 70
     1
  9
$MEASUREMENT
 70
     0
  9
$CELWEIGHT
370
    -1
  9
$ENDCAPS
280
     0
  9
$JOINSTYLE
280
     0
  9
$LWDISPLAY
290
     0
  9
$INSUNITS
 70
     0
  9
$HYPERLINKBASE
  1

  9
$STYLESHEET
  1

  9
$XEDIT
290
     1
  9
$CEPSNTYPE
380
     0
  9
$PSTYLEMODE
290
     1
  9
$FINGERPRINTGUID
  2
{950BEE15-F690-4538-9CC3-E0E542350767}
  9
$VERSIONGUID
  2
{30C7EFF9-B743-44D1-AB72-B2DE3E76E142}
  9
$EXTNAMES
290
     1
  9
$PSVPSCALE
 40
0.0
  9
$OLESTARTUP
290
     0
  0
ENDSEC
  0
SECTION
  2
CLASSES
  0
CLASS
  1
ACDBDICTIONARYWDFLT
  2
AcDbDictionaryWithDefault
  3
AutoCAD 2000
 90
        0
280
     0
281
     0
  0
CLASS
  1
ACDBPLACEHOLDER
  2
AcDbPlaceHolder
  3
AutoCAD 2000
 90
        0
280
     0
281
     0
  0
CLASS
  1
LAYOUT
  2
AcDbLayout
  3
AutoCAD 2000
 90
        0
280
     0
281
     0
  0
CLASS
  1
DICTIONARYVAR
  2
AcDbDictionaryVar
  3
AutoCAD 2000
 90
        0
280
     0
281
     0
  0
ENDSEC
  0
SECTION
  2
TABLES
  0
TABLE
  2
VPORT
  5
8
330
0
100
AcDbSymbolTable
 70
     3
  0
VPORT
  5
22E
330
8
100
AcDbSymbolTableRecord
100
AcDbViewportTableRecord
  2
*Active
 70
     0
 10
0.0
 20
0.0
 11
1.0
 21
1.0
 12
85.0
 22
40.0
 13
0.0
 23
0.0
 14
1.0
 24
1.0
 15
0.0
 25
0.0
 16
0.0
 26
0.0
 36
1.0
 17
0.0
 27
0.0
 37
0.0
 40
86.64235188577753
 41
1.968387776606954
 42
50.0
 43
0.0
 44
0.0
 50
0.0
 51
0.0
 71
     0
 72
   100
 73
     1
 74
     3
 75
     0
 76
     0
 77
     0
 78
     0
281
     0
 65
     1
110
0.0
120
0.0
130
0.0
111
1.0
121
0.0
131
0.0
112
0.0
122
1.0
132
0.0
 79
     1
146
0.0
  0
ENDTAB
  0
TABLE
  2
LTYPE
  5
5
330
0
100
AcDbSymbolTable
 70
     1
  0
LTYPE
  5
13
330
5
100
AcDbSymbolTableRecord
100
AcDbLinetypeTableRecord
  2
ByBlock
 70
     0
  3

 72
    65
 73
     0
 40
0.0
  0
LTYPE
  5
14
330
5
100
AcDbSymbolTableRecord
100
AcDbLinetypeTableRecord
  2
ByLayer
 70
     0
  3

 72
    65
 73
     0
 40
0.0
  0
LTYPE
  5
15
330
5
100
AcDbSymbolTableRecord
100
AcDbLinetypeTableRecord
  2
Continuous
 70
     0
  3
Solid line
 72
    65
 73
     0
 40
0.0
  0
ENDTAB
  0
TABLE
  2
LAYER
  5
2
330
0
100
AcDbSymbolTable
 70
     1
  0
LAYER
  5
10
330
2
100
AcDbSymbolTableRecord
100
AcDbLayerTableRecord
  2
0
 70
     0
 62
     7
  6
Continuous
370
    -3
390
F
  0
ENDTAB
  0
TABLE
  2
STYLE
  5
3
330
0
100
AcDbSymbolTable
 70
     1
  0
STYLE
  5
11
330
3
100
AcDbSymbolTableRecord
100
AcDbTextStyleTableRecord
  2
Standard
 70
     0
 40
0.0
 41
1.0
 50
0.0
 71
     0
 42
0.2
  3
txt
  4

  0
ENDTAB
  0
TABLE
  2
VIEW
  5
6
330
0
100
AcDbSymbolTable
 70
     0
  0
ENDTAB
  0
TABLE
  2
UCS
  5
7
330
0
100
AcDbSymbolTable
 70
     0
  0
ENDTAB
  0
TABLE
  2
APPID
  5
9
330
0
100
AcDbSymbolTable
 70
     1
  0
APPID
  5
12
330
9
100
AcDbSymbolTableRecord
100
AcDbRegAppTableRecord
  2
ACAD
 70
     0
  0
ENDTAB
  0
TABLE
  2
DIMSTYLE
  5
A
330
0
100
AcDbSymbolTable
 70
     1
100
AcDbDimStyleTable
 71
     0
  0
DIMSTYLE
105
171
330
A
100
AcDbSymbolTableRecord
100
AcDbDimStyleTableRecord
  2
Standard
 70
     0
340
11
  0
ENDTAB
  0
TABLE
  2
BLOCK_RECORD
  5
1
330
0
100
AcDbSymbolTable
 70
     0
  0
BLOCK_RECORD
  5
1E
330
1
100
AcDbSymbolTableRecord
100
AcDbBlockTableRecord
  2
*Model_Space
340
21
  0
BLOCK_RECORD
  5
1A
330
1
100
AcDbSymbolTableRecord
100
AcDbBlockTableRecord
  2
*Paper_Space
340
1D
  0
ENDTAB
  0
ENDSEC
  0
SECTION
  2
BLOCKS
  0
BLOCK
  5
1F
330
1E
100
AcDbEntity
  8
0
100
AcDbBlockBegin
  2
*Model_Space
 70
     0
 10
0.0
 20
0.0
 30
0.0
  3
*Model_Space
  1

  0
ENDBLK
  5
20
330
1E
100
AcDbEntity
  8
0
100
AcDbBlockEnd
  0
BLOCK
  5
1B
330
1A
100
AcDbEntity
 67
     1
  8
0
100
AcDbBlockBegin
  2
*Paper_Space
 70
     0
 10
0.0
 20
0.0
 30
0.0
  3
*Paper_Space
  1

  0
ENDBLK
  5
1C
330
1A
100
AcDbEntity
 67
     1
  8
0
100
AcDbBlockEnd
  0
ENDSEC
  0
SECTION
  2
ENTITIES
  0
LINE
  5
22
330
1E
100
AcDbEntity
  8
0
100
AcDbLine
 10
0.0
 20
79.9999755
 30
0.0
 11
0.2
 21
79.9999755
 31
0.0
  0
LINE
  5
23
330
1E
100
AcDbEntity
  8
0
100
AcDbLine
 10
0.0
 20
79.9999755
 30
0.0
 11
0.0
 21
66.9999755
 31
0.0
  0
LINE
  5
24
330
1E
100
AcDbEntity
  8
0
100
AcDbLine
 10
0.0
 20
66.9999755
 30
0.0
 11
0.0
 21
79.9999755
 31
0.0
  0
LINE
  5
25
330
1E
100
AcDbEntity
  8
0
100
AcDbLine
 10
0.0
 20
66.9999755
 30
0.0
 11
0.3
 21
66.2999755
 31
0.0
  0
LINE
  5
26
330
1E
100
AcDbEntity
  8
0
100
AcDbLine
 10
0.3
 20
66.2999755
 30
0.0
 11
1.0
 21
65.99997550000001
 31
0.0
  0
LINE
  5
27
330
1E
100
AcDbEntity
  8
0
100
AcDbLine
 10
5.099999999999999
 20
65.99997550000001
 30
0.0
 11
6.5
 21
65.99997550000001
 31
0.0
  0
LINE
  5
28
330
1E
100
AcDbEntity
  8
0
100
AcDbLine
 10
6.5
 20
65.99997550000001
 30
0.0
 11
8.0
 21
65.99997550000001
 31
0.0
  0
LINE
  5
29
330
1E
100
AcDbEntity
  8
0
100
AcDbLine
 10
8.0
 20
65.99997550000001
 30
0.0
 11
9.699999999999999
 21
65.99997550000001
 31
0.0
  0
LINE
  5
2A
330
1E
100
AcDbEntity
  8
0
100
AcDbLine
 10
9.699999999999999
 20
65.99997550000001
 30
0.0
 11
11.4
 21
65.99997550000001
 31
0.0
  0
LINE
  5
2B
330
1E
100
AcDbEntity
  8
0
100
AcDbLine
 10
11.4
 20
65.99997550000001
 30
0.0
 11
13.2
 21
65.99997550000001
 31
0.0
  0
LINE
  5
2C
330
1E
100
AcDbEntity
  8
0
100
AcDbLine
 10
64.0
 20
1.06440549999999
 30
0.0
 11
64.0
 21
26.4286755
 31
0.0
  0
LINE
  5
2D
330
1E
100
AcDbEntity
  8
0
100
AcDbLine
 10
64.0
 20
1.119385499999989
 30
0.0
 11
64.0
 21
1.607425499999989
 31
0.0
  0
LINE
  5
2E
330
1E
100
AcDbEntity
  8
0
100
AcDbLine
 10
64.0
 20
1.119385499999989
 30
0.0
 11
64.0
 21
0.9470034999999878
 31
0.0
  0
LINE
  5
2F
330
1E
100
AcDbEntity
  8
0
100
AcDbLine
 10
64.0
 20
0.9470034999999878
 30
0.0
 11
64.0
 21
1.119385499999989
 31
0.0
  0
LINE
  5
30
330
1E
100
AcDbEntity
  8
0
100
AcDbLine
 10
64.0
 20
0.9470034999999878
 30
0.0
 11
64.29999999999999
 21
0.219091499999988
 31
0.0
  0
LINE
  5
31
330
1E
100
AcDbEntity
  8
0
100
AcDbLine
 10
64.0
 20
1.607425499999989
 30
0.0
 11
64.0
 21
2.46288549999999
 31
0.0
  0
LINE
  5
32
330
1E
100
AcDbEntity
  8
0
100
AcDbLine
 10
64.0
 20
1.607425499999989
 30
0.0
 11
64.0
 21
1.119385499999989
 31
0.0
  0
LINE
  5
33
330
1E
100
AcDbEntity
  8
0
100
AcDbLine
 10
64.0
 20
2.46288549999999
 30
0.0
 11
64.0
 21
3.49258549999999
 31
0.0
  0
LINE
  5
34
330
1E
100
AcDbEntity
  8
0
100
AcDbLine
 10
64.0
 20
2.46288549999999
 30
0.0
 11
64.0
 21
1.607425499999989
 31
0.0
  0
LINE
  5
35
330
1E
100
AcDbEntity
  8
0
100
AcDbLine
 10
64.0
 20
2.95464549999999
 30
0.0
 11
64.0
 21
2.55625549999999
 31
0.0
  0
LINE
  5
36
330
1E
100
AcDbEntity
  8
0
100
AcDbLine
 10
64.0
 20
2.95464549999999
 30
0.0
 11
64.0
 21
3.47549549999999
 31
0.0
  0
LINE
  5
37
330
1E
100
AcDbEntity
  8
0
100
AcDbLine
 10
64.0
 20
3.47549549999999
 30
0.0
 11
64.0
 21
2.95464549999999
 31
0.0
  0
LINE
  5
38
330
1E
100
AcDbEntity
  8
0
100
AcDbLine
 10
64.0
 20
3.47549549999999
 30
0.0
 11
64.0
 21
4.17059549999999
 31
0.0
  0
LINE
  5
39
330
1E
100
AcDbEntity
  8
0
100
AcDbLine
 10
64.0
 20
14.9365755
 30
0.0
 11
64.0
 21
2.51328549999999
 31
0.0
  0
LINE
  5
3A
330
1E
100
AcDbEntity
  8
0
100
AcDbLine
 10
64.0
 20
14.9365755
 30
0.0
 11
64.0
 21
15.3627755
 31
0.0
  0
LINE
  5
3B
330
1E
100
AcDbEntity
  8
0
100
AcDbLine
 10
64.0
 20
16.6202755
 30
0.0
 11
64.0
 21
15.8595755
 31
0.0
  0
LINE
  5
3C
330
1E
100
AcDbEntity
  8
0
100
AcDbLine
 10
64.0
 20
16.6202755
 30
0.0
 11
64.0
 21
17.4517755
 31
0.0
  0
LINE
  5
3D
330
1E
100
AcDbEntity
  8
0
100
AcDbLine
 10
64.0
 20
15.8595755
 30
0.0
 11
64.0
 21
15.3627755
 31
0.0
  0
LINE
  5
3E
330
1E
100
AcDbEntity
  8
0
100
AcDbLine
 10
64.0
 20
15.8595755
 30
0.0
 11
64.0
 21
16.6202755
 31
0.0
  0
LINE
  5
3F
330
1E
100
AcDbEntity
  8
0
100
AcDbLine
 10
64.0
 20
15.3627755
 30
0.0
 11
64.0
 21
14.9365755
 31
0.0
  0
LINE
  5
40
330
1E
100
AcDbEntity
  8
0
100
AcDbLine
 10
64.0
 20
15.3627755
 30
0.0
 11
64.0
 21
15.8595755
 31
0.0
  0
LINE
  5
41
330
1E
100
AcDbEntity
  8
0
100
AcDbLine
 10
64.0
 20
17.4517755
 30
0.0
 11
64.0
 21
16.6202755
 31
0.0
  0
LINE
  5
42
330
1E
100
AcDbEntity
  8
0
100
AcDbLine
 10
64.0
 20
17.4517755
 30
0.0
 11
64.0
 21
18.3020755
 31
0.0
  0
LINE
  5
43
330
1E
100
AcDbEntity
  8
0
100
AcDbLine
 10
64.0
 20
18.3020755
 30
0.0
 11
64.0
 21
17.4517755
 31
0.0
  0
LINE
  5
44
330
1E
100
AcDbEntity
  8
0
100
AcDbLine
 10
64.0
 20
18.3020755
 30
0.0
 11
64.0
 21
19.22317549999999
 31
0.0
  0
LINE
  5
45
330
1E
100
AcDbEntity
  8
0
100
AcDbLine
 10
64.0
 20
26.4286755
 30
0.0
 11
64.0
 21
1.06440549999999
 31
0.0
  0
LINE
  5
46
330
1E
100
AcDbEntity
  8
0
100
AcDbLine
 10
64.0
 20
19.22317549999999
 30
0.0
 11
64.0
 21
18.3020755
 31
0.0
  0
LINE
  5
47
330
1E
100
AcDbEntity
  8
0
100
AcDbLine
 10
64.0
 20
19.22317549999999
 30
0.0
 11
64.0
 21
42.4054755
 31
0.0
  0
LINE
  5
48
330
1E
100
AcDbEntity
  8
0
100
AcDbLine
 10
64.0
 20
4.59993549999999
 30
0.0
 11
64.0
 21
3.49258549999999
 31
0.0
  0
LINE
  5
49
330
1E
100
AcDbEntity
  8
0
100
AcDbLine
 10
64.0
 20
4.59993549999999
 30
0.0
 11
64.0
 21
27.7821755
 31
0.0
  0
LINE
  5
4A
330
1E
100
AcDbEntity
  8
0
100
AcDbLine
 10
64.0
 20
4.17059549999999
 30
0.0
 11
64.0
 21
3.47549549999999
 31
0.0
  0
LINE
  5
4B
330
1E
100
AcDbEntity
  8
0
100
AcDbLine
 10
64.0
 20
4.17059549999999
 30
0.0
 11
64.0
 21
4.98816549999999
 31
0.0
  0
LINE
  5
4C
330
1E
100
AcDbEntity
  8
0
100
AcDbLine
 10
64.0
 20
4.98816549999999
 30
0.0
 11
64.0
 21
4.17059549999999
 31
0.0
  0
LINE
  5
4D
330
1E
100
AcDbEntity
  8
0
100
AcDbLine
 10
64.0
 20
4.98816549999999
 30
0.0
 11
64.0
 21
28.1703755
 31
0.0
  0
LINE
  5
4E
330
1E
100
AcDbEntity
  8
0
100
AcDbLine
 10
64.0
 20
3.49258549999999
 30
0.0
 11
64.0
 21
4.59993549999999
 31
0.0
  0
LINE
  5
4F
330
1E
100
AcDbEntity
  8
0
100
AcDbLine
 10
64.0
 20
3.49258549999999
 30
0.0
 11
64.0
 21
2.46288549999999
 31
0.0
  0
LINE
  5
50
330
1E
100
AcDbEntity
  8
0
100
AcDbLine
 10
64.0
 20
2.55625549999999
 30
0.0
 11
64.0
 21
2.95464549999999
 31
0.0
  0
LINE
  5
51
330
1E
100
AcDbEntity
  8
0
100
AcDbLine
 10
64.0
 20
2.55625549999999
 30
0.0
 11
64.0
 21
2.47353549999999
 31
0.0
  0
LINE
  5
52
330
1E
100
AcDbEntity
  8
0
100
AcDbLine
 10
64.0
 20
2.47353549999999
 30
0.0
 11
64.0
 21
2.55625549999999
 31
0.0
  0
LINE
  5
53
330
1E
100
AcDbEntity
  8
0
100
AcDbLine
 10
64.0
 20
2.51328549999999
 30
0.0
 11
64.0
 21
14.9365755
 31
0.0
  0
LINE
  5
54
330
1E
100
AcDbEntity
  8
0
100
AcDbLine
 10
64.0
 20
28.1703755
 30
0.0
 11
64.0
 21
29.0914755
 31
0.0
  0
LINE
  5
55
330
1E
100
AcDbEntity
  8
0
100
AcDbLine
 10
64.0
 20
28.1703755
 30
0.0
 11
64.0
 21
4.98816549999999
 31
0.0
  0
LINE
  5
56
330
1E
100
AcDbEntity
  8
0
100
AcDbLine
 10
64.0
 20
28.99307549999999
 30
0.0
 11
64.0
 21
30.28157549999999
 31
0.0
  0
LINE
  5
57
330
1E
100
AcDbEntity
  8
0
100
AcDbLine
 10
64.0
 20
28.99307549999999
 30
0.0
 11
64.0
 21
27.7821755
 31
0.0
  0
LINE
  5
58
330
1E
100
AcDbEntity
  8
0
100
AcDbLine
 10
64.0
 20
30.28157549999999
 30
0.0
 11
64.0
 21
31.5510755
 31
0.0
  0
LINE
  5
59
330
1E
100
AcDbEntity
  8
0
100
AcDbLine
 10
64.0
 20
30.28157549999999
 30
0.0
 11
64.0
 21
28.99307549999999
 31
0.0
  0
LINE
  5
5A
330
1E
100
AcDbEntity
  8
0
100
AcDbLine
 10
64.0
 20
29.9418755
 30
0.0
 11
64.0
 21
29.0914755
 31
0.0
  0
LINE
  5
5B
330
1E
100
AcDbEntity
  8
0
100
AcDbLine
 10
64.0
 20
29.9418755
 30
0.0
 11
64.0
 21
30.7732755
 31
0.0
  0
LINE
  5
5C
330
1E
100
AcDbEntity
  8
0
100
AcDbLine
 10
64.0
 20
29.0914755
 30
0.0
 11
64.0
 21
28.1703755
 31
0.0
  0
LINE
  5
5D
330
1E
100
AcDbEntity
  8
0
100
AcDbLine
 10
64.0
 20
29.0914755
 30
0.0
 11
64.0
 21
29.9418755
 31
0.0
  0
LINE
  5
5E
330
1E
100
AcDbEntity
  8
0
100
AcDbLine
 10
64.0
 20
27.7821755
 30
0.0
 11
64.0
 21
28.99307549999999
 31
0.0
  0
LINE
  5
5F
330
1E
100
AcDbEntity
  8
0
100
AcDbLine
 10
64.0
 20
27.7821755
 30
0.0
 11
64.0
 21
4.59993549999999
 31
0.0
  0
LINE
  5
60
330
1E
100
AcDbEntity
  8
0
100
AcDbLine
 10
64.0
 20
31.5510755
 30
0.0
 11
64.0
 21
32.6085755
 31
0.0
  0
LINE
  5
61
330
1E
100
AcDbEntity
  8
0
100
AcDbLine
 10
64.0
 20
31.5510755
 30
0.0
 11
64.0
 21
30.28157549999999
 31
0.0
  0
LINE
  5
62
330
1E
100
AcDbEntity
  8
0
100
AcDbLine
 10
64.0
 20
30.7732755
 30
0.0
 11
64.0
 21
31.5340755
 31
0.0
  0
LINE
  5
63
330
1E
100
AcDbEntity
  8
0
100
AcDbLine
 10
64.0
 20
30.7732755
 30
0.0
 11
64.0
 21
29.9418755
 31
0.0
  0
LINE
  5
64
330
1E
100
AcDbEntity
  8
0
100
AcDbLine
 10
64.0
 20
31.5340755
 30
0.0
 11
64.0
 21
32.0308755
 31
0.0
  0
LINE
  5
65
330
1E
100
AcDbEntity
  8
0
100
AcDbLine
 10
64.0
 20
31.5340755
 30
0.0
 11
64.0
 21
30.7732755
 31
0.0
  0
LINE
  5
66
330
1E
100
AcDbEntity
  8
0
100
AcDbLine
 10
64.0
 20
32.4569755
 30
0.0
 11
64.0
 21
32.0308755
 31
0.0
  0
LINE
  5
67
330
1E
100
AcDbEntity
  8
0
100
AcDbLine
 10
64.0
 20
32.4569755
 30
0.0
 11
64.0
 21
44.8802755
 31
0.0
  0
LINE
  5
68
330
1E
100
AcDbEntity
  8
0
100
AcDbLine
 10
64.0
 20
32.0308755
 30
0.0
 11
64.0
 21
32.4569755
 31
0.0
  0
LINE
  5
69
330
1E
100
AcDbEntity
  8
0
100
AcDbLine
 10
64.0
 20
32.0308755
 30
0.0
 11
64.0
 21
31.5340755
 31
0.0
  0
LINE
  5
6A
330
1E
100
AcDbEntity
  8
0
100
AcDbLine
 10
64.0
 20
32.6085755
 30
0.0
 11
64.0
 21
31.5510755
 31
0.0
  0
LINE
  5
6B
330
1E
100
AcDbEntity
  8
0
100
AcDbLine
 10
64.0
 20
32.6085755
 30
0.0
 11
64.0
 21
33.4020755
 31
0.0
  0
LINE
  5
6C
330
1E
100
AcDbEntity
  8
0
100
AcDbLine
 10
64.0
 20
44.83737549999999
 30
0.0
 11
64.0
 21
44.43897549999999
 31
0.0
  0
LINE
  5
6D
330
1E
100
AcDbEntity
  8
0
100
AcDbLine
 10
64.0
 20
44.83737549999999
 30
0.0
 11
64.0
 21
44.9200755
 31
0.0
  0
LINE
  5
6E
330
1E
100
AcDbEntity
  8
0
100
AcDbLine
 10
62.3382
 20
58.38457550000001
 30
0.0
 11
63.0147
 21
57.9999755
 31
0.0
  0
LINE
  5
71
330
1E
100
AcDbEntity
  8
0
100
AcDbLine
 10
63.8265
 20
57.9999755
 30
0.0
 11
65.0
 21
57.9999755
 31
0.0
  0
LINE
  5
72
330
1E
100
AcDbEntity
  8
0
100
AcDbLine
 10
63.0147
 20
57.9999755
 30
0.0
 11
63.8265
 21
57.9999755
 31
0.0
  0
LINE
  5
73
330
1E
100
AcDbEntity
  8
0
100
AcDbLine
 10
62.0
 20
59.1537755
 30
0.0
 11
62.3382
 21
58.38457550000001
 31
0.0
  0
LINE
  5
74
330
1E
100
AcDbEntity
  8
0
100
AcDbLine
 10
62.0
 20
59.1537755
 30
0.0
 11
62.0
 21
65.99997550000001
 31
0.0
  0
LINE
  5
75
330
1E
100
AcDbEntity
  8
0
100
AcDbLine
 10
64.0
 20
54.8701755
 30
0.0
 11
64.0
 21
33.9058755
 31
0.0
  0
LINE
  5
76
330
1E
100
AcDbEntity
  8
0
100
AcDbLine
 10
64.0
 20
54.8701755
 30
0.0
 11
64.29999999999999
 21
55.5463755
 31
0.0
  0
LINE
  5
77
330
1E
100
AcDbEntity
  8
0
100
AcDbLine
 10
64.0
 20
44.9200755
 30
0.0
 11
64.0
 21
44.83737549999999
 31
0.0
  0
LINE
  5
78
330
1E
100
AcDbEntity
  8
0
100
AcDbLine
 10
64.0
 20
44.8802755
 30
0.0
 11
64.0
 21
32.4569755
 31
0.0
  0
LINE
  5
79
330
1E
100
AcDbEntity
  8
0
100
AcDbLine
 10
64.0
 20
44.43897549999999
 30
0.0
 11
64.0
 21
43.9180755
 31
0.0
  0
LINE
  5
7A
330
1E
100
AcDbEntity
  8
0
100
AcDbLine
 10
64.0
 20
44.43897549999999
 30
0.0
 11
64.0
 21
44.83737549999999
 31
0.0
  0
LINE
  5
7B
330
1E
100
AcDbEntity
  8
0
100
AcDbLine
 10
64.0
 20
43.9180755
 30
0.0
 11
64.0
 21
43.2229755
 31
0.0
  0
LINE
  5
7C
330
1E
100
AcDbEntity
  8
0
100
AcDbLine
 10
64.0
 20
43.9180755
 30
0.0
 11
64.0
 21
44.43897549999999
 31
0.0
  0
LINE
  5
7D
330
1E
100
AcDbEntity
  8
0
100
AcDbLine
 10
64.0
 20
43.2229755
 30
0.0
 11
64.0
 21
42.4054755
 31
0.0
  0
LINE
  5
7E
330
1E
100
AcDbEntity
  8
0
100
AcDbLine
 10
64.0
 20
43.2229755
 30
0.0
 11
64.0
 21
43.9180755
 31
0.0
  0
LINE
  5
7F
330
1E
100
AcDbEntity
  8
0
100
AcDbLine
 10
64.0
 20
42.4054755
 30
0.0
 11
64.0
 21
19.22317549999999
 31
0.0
  0
LINE
  5
80
330
1E
100
AcDbEntity
  8
0
100
AcDbLine
 10
64.0
 20
42.4054755
 30
0.0
 11
64.0
 21
43.2229755
 31
0.0
  0
LINE
  5
81
330
1E
100
AcDbEntity
  8
0
100
AcDbLine
 10
64.0
 20
33.4020755
 30
0.0
 11
64.0
 21
32.6085755
 31
0.0
  0
LINE
  5
82
330
1E
100
AcDbEntity
  8
0
100
AcDbLine
 10
64.0
 20
33.4020755
 30
0.0
 11
64.0
 21
33.9058755
 31
0.0
  0
LINE
  5
86
330
1E
100
AcDbEntity
  8
0
100
AcDbLine
 10
64.29999999999999
 20
0.219091499999988
 30
0.0
 11
65.0
 21
0.0000244999999875
 31
0.0
  0
LINE
  5
87
330
1E
100
AcDbEntity
  8
0
100
AcDbLine
 10
64.29999999999999
 20
0.219091499999988
 30
0.0
 11
65.0
 21
0.0000244999999875
 31
0.0
  0
LINE
  5
88
330
1E
100
AcDbEntity
  8
0
100
AcDbLine
 10
64.29999999999999
 20
55.5463755
 30
0.0
 11
65.0
 21
55.8361755
 31
0.0
  0
LINE
  5
89
330
1E
100
AcDbEntity
  8
0
100
AcDbLine
 10
64.29999999999999
 20
55.5463755
 30
0.0
 11
64.29999999999999
 21
52.6498755
 31
0.0
  0
LINE
  5
8A
330
1E
100
AcDbEntity
  8
0
100
AcDbLine
 10
64.29999999999999
 20
52.6498755
 30
0.0
 11
64.5
 21
52.4036755
 31
0.0
  0
LINE
  5
8B
330
1E
100
AcDbEntity
  8
0
100
AcDbLine
 10
64.29999999999999
 20
52.6498755
 30
0.0
 11
64.29999999999999
 21
55.5463755
 31
0.0
  0
LINE
  5
8C
330
1E
100
AcDbEntity
  8
0
100
AcDbLine
 10
64.29999999999999
 20
25.7524755
 30
0.0
 11
64.5
 21
26.1148755
 31
0.0
  0
LINE
  5
8F
330
1E
100
AcDbEntity
  8
0
100
AcDbLine
 10
67.36
 20
25.4999755
 30
0.0
 11
67.49089999999999
 21
25.4999755
 31
0.0
  0
LINE
  5
90
330
1E
100
AcDbEntity
  8
0
100
AcDbLine
 10
67.36
 20
25.4999755
 30
0.0
 11
67.49089999999999
 21
25.4999755
 31
0.0
  0
LINE
  5
91
330
1E
100
AcDbEntity
  8
0
100
AcDbLine
 10
67.49089999999999
 20
25.4999755
 30
0.0
 11
67.68729999999999
 21
25.4999755
 31
0.0
  0
LINE
  5
92
330
1E
100
AcDbEntity
  8
0
100
AcDbLine
 10
68.6691
 20
25.4999755
 30
0.0
 11
69.1273
 21
25.4999755
 31
0.0
  0
LINE
  5
93
330
1E
100
AcDbEntity
  8
0
100
AcDbLine
 10
69.1273
 20
25.4999755
 30
0.0
 11
69.6182
 21
25.4999755
 31
0.0
  0
LINE
  5
94
330
1E
100
AcDbEntity
  8
0
100
AcDbLine
 10
69.6182
 20
25.4999755
 30
0.0
 11
70.17459999999999
 21
25.4999755
 31
0.0
  0
LINE
  5
95
330
1E
100
AcDbEntity
  8
0
100
AcDbLine
 10
70.17459999999999
 20
25.4999755
 30
0.0
 11
70.7309
 21
25.4999755
 31
0.0
  0
LINE
  5
96
330
1E
100
AcDbEntity
  8
0
100
AcDbLine
 10
70.7309
 20
25.4999755
 30
0.0
 11
71.31999999999999
 21
25.4999755
 31
0.0
  0
LINE
  5
97
330
1E
100
AcDbEntity
  8
0
100
AcDbLine
 10
71.31999999999999
 20
25.4999755
 30
0.0
 11
71.90909999999999
 21
25.4999755
 31
0.0
  0
LINE
  5
A4
330
1E
100
AcDbEntity
  8
0
100
AcDbLine
 10
71.90909999999999
 20
25.4999755
 30
0.0
 11
85.0
 21
25.4999755
 31
0.0
  0
LINE
  5
A5
330
1E
100
AcDbEntity
  8
0
100
AcDbLine
 10
68.27639999999999
 20
25.4999755
 30
0.0
 11
68.6691
 21
25.4999755
 31
0.0
  0
LINE
  5
A6
330
1E
100
AcDbEntity
  8
0
100
AcDbLine
 10
67.9491
 20
25.4999755
 30
0.0
 11
68.27639999999999
 21
25.4999755
 31
0.0
  0
LINE
  5
A7
330
1E
100
AcDbEntity
  8
0
100
AcDbLine
 10
68.6691
 20
25.4999755
 30
0.0
 11
69.1273
 21
25.4999755
 31
0.0
  0
LINE
  5
A8
330
1E
100
AcDbEntity
  8
0
100
AcDbLine
 10
70.17459999999999
 20
25.4999755
 30
0.0
 11
70.7309
 21
25.4999755
 31
0.0
  0
LINE
  5
A9
330
1E
100
AcDbEntity
  8
0
100
AcDbLine
 10
70.7309
 20
25.4999755
 30
0.0
 11
71.31999999999999
 21
25.4999755
 31
0.0
  0
LINE
  5
B2
330
1E
100
AcDbEntity
  8
0
100
AcDbLine
 10
71.31999999999999
 20
25.4999755
 30
0.0
 11
71.90909999999999
 21
25.4999755
 31
0.0
  0
LINE
  5
B3
330
1E
100
AcDbEntity
  8
0
100
AcDbLine
 10
71.90909999999999
 20
25.4999755
 30
0.0
 11
85.0
 21
25.4999755
 31
0.0
  0
LINE
  5
B4
330
1E
100
AcDbEntity
  8
0
100
AcDbLine
 10
68.27639999999999
 20
25.4999755
 30
0.0
 11
68.6691
 21
25.4999755
 31
0.0
  0
LINE
  5
B5
330
1E
100
AcDbEntity
  8
0
100
AcDbLine
 10
67.68729999999999
 20
25.4999755
 30
0.0
 11
67.9491
 21
25.4999755
 31
0.0
  0
LINE
  5
B6
330
1E
100
AcDbEntity
  8
0
100
AcDbLine
 10
67.49089999999999
 20
25.4999755
 30
0.0
 11
67.68729999999999
 21
25.4999755
 31
0.0
  0
LINE
  5
CE
330
1E
100
AcDbEntity
  8
0
100
AcDbLine
 10
67.0
 20
26.0713755
 30
0.0
 11
67.0
 21
61.4999755
 31
0.0
  0
LINE
  5
CF
330
1E
100
AcDbEntity
  8
0
100
AcDbLine
 10
67.0
 20
26.0713755
 30
0.0
 11
67.0982
 21
25.67137549999999
 31
0.0
  0
LINE
  5
D4
330
1E
100
AcDbEntity
  8
0
100
AcDbLine
 10
65.09999999999999
 20
26.4771755
 30
0.0
 11
66.0
 21
26.7877755
 31
0.0
  0
LINE
  5
D5
330
1E
100
AcDbEntity
  8
0
100
AcDbLine
 10
64.5
 20
26.1148755
 30
0.0
 11
65.09999999999999
 21
26.4771755
 31
0.0
  0
LINE
  5
DA
330
1E
100
AcDbEntity
  8
0
100
AcDbLine
 10
66.0
 20
51.9289755
 30
0.0
 11
67.0
 21
51.7912255
 31
0.0
  0
LINE
  5
DB
330
1E
100
AcDbEntity
  8
0
100
AcDbLine
 10
65.09999999999999
 20
52.1483755
 30
0.0
 11
66.0
 21
51.9289755
 31
0.0
  0
LINE
  5
DC
330
1E
100
AcDbEntity
  8
0
100
AcDbLine
 10
65.0
 20
55.8361755
 30
0.0
 11
65.0
 21
57.9999755
 31
0.0
  0
LINE
  5
E0
330
1E
100
AcDbEntity
  8
0
100
AcDbLine
 10
66.5454
 20
57.9999755
 30
0.0
 11
67.0
 21
57.9999755
 31
0.0
  0
LINE
  5
E1
330
1E
100
AcDbEntity
  8
0
100
AcDbLine
 10
65.7272
 20
57.9999755
 30
0.0
 11
66.5454
 21
57.9999755
 31
0.0
  0
LINE
  5
E2
330
1E
100
AcDbEntity
  8
0
100
AcDbLine
 10
65.1818
 20
57.9999755
 30
0.0
 11
65.7272
 21
57.9999755
 31
0.0
  0
LINE
  5
E3
330
1E
100
AcDbEntity
  8
0
100
AcDbLine
 10
65.0
 20
57.9999755
 30
0.0
 11
65.0
 21
55.8361755
 31
0.0
  0
LINE
  5
E4
330
1E
100
AcDbEntity
  8
0
100
AcDbLine
 10
65.0
 20
57.9999755
 30
0.0
 11
65.1818
 21
57.9999755
 31
0.0
  0
LINE
  5
E8
330
1E
100
AcDbEntity
  8
0
100
AcDbLine
 10
69.0
 20
61.4999755
 30
0.0
 11
69.0
 21
65.99997550000001
 31
0.0
  0
LINE
  5
E9
330
1E
100
AcDbEntity
  8
0
100
AcDbLine
 10
68.44
 20
61.4999755
 30
0.0
 11
68.93089999999999
 21
61.4999755
 31
0.0
  0
LINE
  5
EA
330
1E
100
AcDbEntity
  8
0
100
AcDbLine
 10
68.93089999999999
 20
61.4999755
 30
0.0
 11
69.4546
 21
61.4999755
 31
0.0
  0
LINE
  5
EB
330
1E
100
AcDbEntity
  8
0
100
AcDbLine
 10
69.4546
 20
61.4999755
 30
0.0
 11
70.0436
 21
61.4999755
 31
0.0
  0
LINE
  5
EC
330
1E
100
AcDbEntity
  8
0
100
AcDbLine
 10
70.0436
 20
61.4999755
 30
0.0
 11
70.6327
 21
61.4999755
 31
0.0
  0
LINE
  5
ED
330
1E
100
AcDbEntity
  8
0
100
AcDbLine
 10
70.6327
 20
61.4999755
 30
0.0
 11
71.25449999999999
 21
61.4999755
 31
0.0
  0
LINE
  5
EE
330
1E
100
AcDbEntity
  8
0
100
AcDbLine
 10
71.25449999999999
 20
61.4999755
 30
0.0
 11
71.90909999999999
 21
61.4999755
 31
0.0
  0
LINE
  5
FD
330
1E
100
AcDbEntity
  8
0
100
AcDbLine
 10
71.90909999999999
 20
61.4999755
 30
0.0
 11
85.0
 21
61.4999755
 31
0.0
  0
LINE
  5
FE
330
1E
100
AcDbEntity
  8
0
100
AcDbLine
 10
68.01449999999999
 20
61.4999755
 30
0.0
 11
68.44
 21
61.4999755
 31
0.0
  0
LINE
  5
FF
330
1E
100
AcDbEntity
  8
0
100
AcDbLine
 10
67.6545
 20
61.4999755
 30
0.0
 11
68.01449999999999
 21
61.4999755
 31
0.0
  0
LINE
  5
100
330
1E
100
AcDbEntity
  8
0
100
AcDbLine
 10
67.39270000000001
 20
61.4999755
 30
0.0
 11
67.6545
 21
61.4999755
 31
0.0
  0
LINE
  5
101
330
1E
100
AcDbEntity
  8
0
100
AcDbLine
 10
67.1636
 20
61.4999755
 30
0.0
 11
67.39270000000001
 21
61.4999755
 31
0.0
  0
LINE
  5
102
330
1E
100
AcDbEntity
  8
0
100
AcDbLine
 10
67.0655
 20
61.4999755
 30
0.0
 11
67.1636
 21
61.4999755
 31
0.0
  0
LINE
  5
103
330
1E
100
AcDbEntity
  8
0
100
AcDbLine
 10
67.0
 20
61.4999755
 30
0.0
 11
67.0
 21
26.0713755
 31
0.0
  0
LINE
  5
104
330
1E
100
AcDbEntity
  8
0
100
AcDbLine
 10
67.0
 20
61.4999755
 30
0.0
 11
67.0655
 21
61.4999755
 31
0.0
  0
LINE
  5
108
330
1E
100
AcDbEntity
  8
0
100
AcDbLine
 10
64.5
 20
52.4036755
 30
0.0
 11
65.09999999999999
 21
52.1483755
 31
0.0
  0
LINE
  5
10F
330
1E
100
AcDbEntity
  8
0
100
AcDbLine
 10
66.0
 20
26.7877755
 30
0.0
 11
67.0
 21
26.98194216666669
 31
0.0
  0
LINE
  5
12A
330
1E
100
AcDbEntity
  8
0
100
AcDbLine
 10
64.0
 20
33.9058755
 30
0.0
 11
64.0
 21
33.4020755
 31
0.0
  0
LINE
  5
12B
330
1E
100
AcDbEntity
  8
0
100
AcDbLine
 10
64.0
 20
33.9058755
 30
0.0
 11
64.0
 21
54.8701755
 31
0.0
  0
LINE
  5
12C
330
1E
100
AcDbEntity
  8
0
100
AcDbLine
 10
15.0
 20
65.99997550000001
 30
0.0
 11
62.0
 21
65.99997550000001
 31
0.0
  0
LINE
  5
12D
330
1E
100
AcDbEntity
  8
0
100
AcDbLine
 10
13.2
 20
65.99997550000001
 30
0.0
 11
15.0
 21
65.99997550000001
 31
0.0
  0
LINE
  5
12E
330
1E
100
AcDbEntity
  8
0
100
AcDbLine
 10
15.0
 20
65.99997550000001
 30
0.0
 11
62.0
 21
65.99997550000001
 31
0.0
  0
LINE
  5
12F
330
1E
100
AcDbEntity
  8
0
100
AcDbLine
 10
3.9
 20
65.99997550000001
 30
0.0
 11
5.099999999999999
 21
65.99997550000001
 31
0.0
  0
LINE
  5
130
330
1E
100
AcDbEntity
  8
0
100
AcDbLine
 10
2.9
 20
65.99997550000001
 30
0.0
 11
3.9
 21
65.99997550000001
 31
0.0
  0
LINE
  5
131
330
1E
100
AcDbEntity
  8
0
100
AcDbLine
 10
2.1
 20
65.99997550000001
 30
0.0
 11
2.9
 21
65.99997550000001
 31
0.0
  0
LINE
  5
132
330
1E
100
AcDbEntity
  8
0
100
AcDbLine
 10
1.5
 20
65.99997550000001
 30
0.0
 11
2.1
 21
65.99997550000001
 31
0.0
  0
LINE
  5
133
330
1E
100
AcDbEntity
  8
0
100
AcDbLine
 10
1.1
 20
65.99997550000001
 30
0.0
 11
1.5
 21
65.99997550000001
 31
0.0
  0
LINE
  5
135
330
1E
100
AcDbEntity
  8
0
100
AcDbLine
 10
69.0
 20
65.99997550000001
 30
0.0
 11
69.0
 21
61.4999755
 31
0.0
  0
LINE
  5
137
330
1E
100
AcDbEntity
  8
0
100
AcDbLine
 10
62.0
 20
65.99997550000001
 30
0.0
 11
62.0
 21
59.1537755
 31
0.0
  0
LINE
  5
138
330
1E
100
AcDbEntity
  8
0
100
AcDbLine
 10
1.0
 20
65.99997550000001
 30
0.0
 11
1.1
 21
65.99997550000001
 31
0.0
  0
LINE
  5
139
330
1E
100
AcDbEntity
  8
0
100
AcDbLine
 10
0.2
 20
79.9999755
 30
0.0
 11
0.5
 21
79.9999755
 31
0.0
  0
LINE
  5
153
330
1E
100
AcDbEntity
  8
0
100
AcDbLine
 10
4.4
 20
79.9999755
 30
0.0
 11
5.9
 21
79.9999755
 31
0.0
  0
LINE
  5
154
330
1E
100
AcDbEntity
  8
0
100
AcDbLine
 10
5.9
 20
79.9999755
 30
0.0
 11
7.5
 21
79.9999755
 31
0.0
  0
LINE
  5
155
330
1E
100
AcDbEntity
  8
0
100
AcDbLine
 10
7.5
 20
79.9999755
 30
0.0
 11
9.3
 21
79.9999755
 31
0.0
  0
LINE
  5
156
330
1E
100
AcDbEntity
  8
0
100
AcDbLine
 10
9.3
 20
79.9999755
 30
0.0
 11
11.1
 21
79.9999755
 31
0.0
  0
LINE
  5
157
330
1E
100
AcDbEntity
  8
0
100
AcDbLine
 10
11.1
 20
79.9999755
 30
0.0
 11
13.0
 21
79.9999755
 31
0.0
  0
LINE
  5
158
330
1E
100
AcDbEntity
  8
0
100
AcDbLine
 10
13.0
 20
79.9999755
 30
0.0
 11
15.0
 21
79.9999755
 31
0.0
  0
LINE
  5
168
330
1E
100
AcDbEntity
  8
0
100
AcDbLine
 10
15.0
 20
79.9999755
 30
0.0
 11
85.0
 21
79.9999755
 31
0.0
  0
LINE
  5
169
330
1E
100
AcDbEntity
  8
0
100
AcDbLine
 10
15.0
 20
79.9999755
 30
0.0
 11
85.0
 21
79.9999755
 31
0.0
  0
LINE
  5
16B
330
1E
100
AcDbEntity
  8
0
100
AcDbLine
 10
3.1
 20
79.9999755
 30
0.0
 11
4.4
 21
79.9999755
 31
0.0
  0
LINE
  5
16C
330
1E
100
AcDbEntity
  8
0
100
AcDbLine
 10
2.0
 20
79.9999755
 30
0.0
 11
3.1
 21
79.9999755
 31
0.0
  0
LINE
  5
16D
330
1E
100
AcDbEntity
  8
0
100
AcDbLine
 10
1.199999999999999
 20
79.9999755
 30
0.0
 11
2.0
 21
79.9999755
 31
0.0
  0
LINE
  5
16E
330
1E
100
AcDbEntity
  8
0
100
AcDbLine
 10
0.5
 20
79.9999755
 30
0.0
 11
1.199999999999999
 21
79.9999755
 31
0.0
  0
LINE
  5
170
330
1E
100
AcDbEntity
  8
0
100
AcDbLine
 10
0.3
 20
66.2999755
 30
0.0
 11
1.0
 21
65.99997550000001
 31
0.0
  0
LINE
  5
175
330
1E
100
AcDbEntity
  8
0
100
AcDbLine
 10
67.0982
 20
25.67137549999999
 30
0.0
 11
67.36
 21
25.4999755
 31
0.0
  0
LINE
  5
176
330
1E
100
AcDbEntity
  8
0
100
AcDbLine
 10
155.0
 20
79.9999755
 30
0.0
 11
85.0
 21
79.9999755
 31
0.0
  0
LINE
  5
177
330
1E
100
AcDbEntity
  8
0
100
AcDbLine
 10
155.0
 20
79.9999755
 30
0.0
 11
85.0
 21
79.9999755
 31
0.0
  0
LINE
  5
178
330
1E
100
AcDbEntity
  8
0
100
AcDbLine
 10
155.0
 20
65.99997550000001
 30
0.0
 11
108.0
 21
65.99997550000001
 31
0.0
  0
LINE
  5
179
330
1E
100
AcDbEntity
  8
0
100
AcDbLine
 10
155.0
 20
65.99997550000001
 30
0.0
 11
108.0
 21
65.99997550000001
 31
0.0
  0
LINE
  5
17A
330
1E
100
AcDbEntity
  8
0
100
AcDbLine
 10
168.0
 20
79.9999755
 30
0.0
 11
166.9
 21
79.9999755
 31
0.0
  0
LINE
  5
17B
330
1E
100
AcDbEntity
  8
0
100
AcDbLine
 10
167.9
 20
65.99997550000001
 30
0.0
 11
167.1
 21
65.99997550000001
 31
0.0
  0
LINE
  5
17C
330
1E
100
AcDbEntity
  8
0
100
AcDbLine
 10
170.0
 20
66.9999755
 30
0.0
 11
170.0
 21
79.9999755
 31
0.0
  0
LINE
  5
17D
330
1E
100
AcDbEntity
  8
0
100
AcDbLine
 10
170.0
 20
79.9999755
 30
0.0
 11
170.0
 21
66.9999755
 31
0.0
  0
LINE
  5
17E
330
1E
100
AcDbEntity
  8
0
100
AcDbLine
 10
169.6999999999999
 20
66.2999755
 30
0.0
 11
169.0
 21
65.99997550000001
 31
0.0
  0
LINE
  5
17F
330
1E
100
AcDbEntity
  8
0
100
AcDbLine
 10
169.6999999999999
 20
66.2999755
 30
0.0
 11
169.0
 21
65.99997550000001
 31
0.0
  0
LINE
  5
180
330
1E
100
AcDbEntity
  8
0
100
AcDbLine
 10
170.0
 20
66.9999755
 30
0.0
 11
169.6999999999999
 21
66.2999755
 31
0.0
  0
LINE
  5
181
330
1E
100
AcDbEntity
  8
0
100
AcDbLine
 10
168.5
 20
65.99997550000001
 30
0.0
 11
167.9
 21
65.99997550000001
 31
0.0
  0
LINE
  5
182
330
1E
100
AcDbEntity
  8
0
100
AcDbLine
 10
169.0
 20
65.99997550000001
 30
0.0
 11
168.9
 21
65.99997550000001
 31
0.0
  0
LINE
  5
183
330
1E
100
AcDbEntity
  8
0
100
AcDbLine
 10
168.9
 20
65.99997550000001
 30
0.0
 11
168.5
 21
65.99997550000001
 31
0.0
  0
LINE
  5
184
330
1E
100
AcDbEntity
  8
0
100
AcDbLine
 10
169.5
 20
79.9999755
 30
0.0
 11
168.8
 21
79.9999755
 31
0.0
  0
LINE
  5
185
330
1E
100
AcDbEntity
  8
0
100
AcDbLine
 10
170.0
 20
79.9999755
 30
0.0
 11
169.8
 21
79.9999755
 31
0.0
  0
LINE
  5
186
330
1E
100
AcDbEntity
  8
0
100
AcDbLine
 10
169.8
 20
79.9999755
 30
0.0
 11
169.5
 21
79.9999755
 31
0.0
  0
LINE
  5
187
330
1E
100
AcDbEntity
  8
0
100
AcDbLine
 10
168.8
 20
79.9999755
 30
0.0
 11
168.0
 21
79.9999755
 31
0.0
  0
LINE
  5
188
330
1E
100
AcDbEntity
  8
0
100
AcDbLine
 10
162.0
 20
65.99997550000001
 30
0.0
 11
160.3
 21
65.99997550000001
 31
0.0
  0
LINE
  5
189
330
1E
100
AcDbEntity
  8
0
100
AcDbLine
 10
164.9
 20
65.99997550000001
 30
0.0
 11
163.4999999999999
 21
65.99997550000001
 31
0.0
  0
LINE
  5
18A
330
1E
100
AcDbEntity
  8
0
100
AcDbLine
 10
166.1
 20
65.99997550000001
 30
0.0
 11
164.9
 21
65.99997550000001
 31
0.0
  0
LINE
  5
18B
330
1E
100
AcDbEntity
  8
0
100
AcDbLine
 10
167.1
 20
65.99997550000001
 30
0.0
 11
166.1
 21
65.99997550000001
 31
0.0
  0
LINE
  5
18C
330
1E
100
AcDbEntity
  8
0
100
AcDbLine
 10
163.4999999999999
 20
65.99997550000001
 30
0.0
 11
162.0
 21
65.99997550000001
 31
0.0
  0
LINE
  5
18D
330
1E
100
AcDbEntity
  8
0
100
AcDbLine
 10
158.6
 20
65.99997550000001
 30
0.0
 11
156.8
 21
65.99997550000001
 31
0.0
  0
LINE
  5
18E
330
1E
100
AcDbEntity
  8
0
100
AcDbLine
 10
160.3
 20
65.99997550000001
 30
0.0
 11
158.6
 21
65.99997550000001
 31
0.0
  0
LINE
  5
18F
330
1E
100
AcDbEntity
  8
0
100
AcDbLine
 10
156.8
 20
65.99997550000001
 30
0.0
 11
155.0
 21
65.99997550000001
 31
0.0
  0
LINE
  5
190
330
1E
100
AcDbEntity
  8
0
100
AcDbLine
 10
162.5
 20
79.9999755
 30
0.0
 11
160.7
 21
79.9999755
 31
0.0
  0
LINE
  5
191
330
1E
100
AcDbEntity
  8
0
100
AcDbLine
 10
164.1
 20
79.9999755
 30
0.0
 11
162.5
 21
79.9999755
 31
0.0
  0
LINE
  5
192
330
1E
100
AcDbEntity
  8
0
100
AcDbLine
 10
166.9
 20
79.9999755
 30
0.0
 11
165.5999999999999
 21
79.9999755
 31
0.0
  0
LINE
  5
193
330
1E
100
AcDbEntity
  8
0
100
AcDbLine
 10
165.5999999999999
 20
79.9999755
 30
0.0
 11
164.1
 21
79.9999755
 31
0.0
  0
LINE
  5
194
330
1E
100
AcDbEntity
  8
0
100
AcDbLine
 10
158.9
 20
79.9999755
 30
0.0
 11
157.0
 21
79.9999755
 31
0.0
  0
LINE
  5
195
330
1E
100
AcDbEntity
  8
0
100
AcDbLine
 10
160.7
 20
79.9999755
 30
0.0
 11
158.9
 21
79.9999755
 31
0.0
  0
LINE
  5
196
330
1E
100
AcDbEntity
  8
0
100
AcDbLine
 10
157.0
 20
79.9999755
 30
0.0
 11
155.0
 21
79.9999755
 31
0.0
  0
LINE
  5
197
330
1E
100
AcDbEntity
  8
0
100
AcDbLine
 10
106.0
 20
33.9058755
 30
0.0
 11
106.0
 21
54.8701755
 31
0.0
  0
LINE
  5
198
330
1E
100
AcDbEntity
  8
0
100
AcDbLine
 10
103.0
 20
61.4999755
 30
0.0
 11
103.0
 21
26.0713755
 31
0.0
  0
LINE
  5
199
330
1E
100
AcDbEntity
  8
0
100
AcDbLine
 10
103.0
 20
26.0713755
 30
0.0
 11
103.0
 21
61.4999755
 31
0.0
  0
LINE
  5
19A
330
1E
100
AcDbEntity
  8
0
100
AcDbLine
 10
106.0
 20
42.4054755
 30
0.0
 11
106.0
 21
19.22317549999999
 31
0.0
  0
LINE
  5
19B
330
1E
100
AcDbEntity
  8
0
100
AcDbLine
 10
106.0
 20
44.8802755
 30
0.0
 11
106.0
 21
32.4569755
 31
0.0
  0
LINE
  5
19C
330
1E
100
AcDbEntity
  8
0
100
AcDbLine
 10
106.0
 20
54.8701755
 30
0.0
 11
106.0
 21
33.9058755
 31
0.0
  0
LINE
  5
19D
330
1E
100
AcDbEntity
  8
0
100
AcDbLine
 10
106.0
 20
32.4569755
 30
0.0
 11
106.0
 21
44.8802755
 31
0.0
  0
LINE
  5
19E
330
1E
100
AcDbEntity
  8
0
100
AcDbLine
 10
106.0
 20
19.22317549999999
 30
0.0
 11
106.0
 21
42.4054755
 31
0.0
  0
LINE
  5
19F
330
1E
100
AcDbEntity
  8
0
100
AcDbLine
 10
101.3309
 20
25.4999755
 30
0.0
 11
100.8726999999999
 21
25.4999755
 31
0.0
  0
LINE
  5
1A0
330
1E
100
AcDbEntity
  8
0
100
AcDbLine
 10
101.3309
 20
25.4999755
 30
0.0
 11
100.8726999999999
 21
25.4999755
 31
0.0
  0
LINE
  5
1A1
330
1E
100
AcDbEntity
  8
0
100
AcDbLine
 10
106.0
 20
27.7821755
 30
0.0
 11
106.0
 21
4.59993549999999
 31
0.0
  0
LINE
  5
1A2
330
1E
100
AcDbEntity
  8
0
100
AcDbLine
 10
106.0
 20
28.1703755
 30
0.0
 11
106.0
 21
4.98816549999999
 31
0.0
  0
LINE
  5
1A3
330
1E
100
AcDbEntity
  8
0
100
AcDbLine
 10
106.0
 20
4.98816549999999
 30
0.0
 11
106.0
 21
28.1703755
 31
0.0
  0
LINE
  5
1A4
330
1E
100
AcDbEntity
  8
0
100
AcDbLine
 10
106.0
 20
4.59993549999999
 30
0.0
 11
106.0
 21
27.7821755
 31
0.0
  0
LINE
  5
1A5
330
1E
100
AcDbEntity
  8
0
100
AcDbLine
 10
106.0
 20
26.4286755
 30
0.0
 11
106.0
 21
1.06440549999999
 31
0.0
  0
LINE
  5
1A6
330
1E
100
AcDbEntity
  8
0
100
AcDbLine
 10
106.0
 20
15.3627755
 30
0.0
 11
106.0
 21
14.9365755
 31
0.0
  0
LINE
  5
1A7
330
1E
100
AcDbEntity
  8
0
100
AcDbLine
 10
106.0
 20
14.9365755
 30
0.0
 11
106.0
 21
15.3627755
 31
0.0
  0
LINE
  5
1A8
330
1E
100
AcDbEntity
  8
0
100
AcDbLine
 10
106.0
 20
1.06440549999999
 30
0.0
 11
106.0
 21
26.4286755
 31
0.0
  0
LINE
  5
1A9
330
1E
100
AcDbEntity
  8
0
100
AcDbLine
 10
106.0
 20
2.47353549999999
 30
0.0
 11
106.0
 21
2.55625549999999
 31
0.0
  0
LINE
  5
1AA
330
1E
100
AcDbEntity
  8
0
100
AcDbLine
 10
106.0
 20
2.55625549999999
 30
0.0
 11
106.0
 21
2.47353549999999
 31
0.0
  0
LINE
  5
1AB
330
1E
100
AcDbEntity
  8
0
100
AcDbLine
 10
106.0
 20
3.49258549999999
 30
0.0
 11
106.0
 21
2.46288549999999
 31
0.0
  0
LINE
  5
1AC
330
1E
100
AcDbEntity
  8
0
100
AcDbLine
 10
106.0
 20
2.46288549999999
 30
0.0
 11
106.0
 21
3.49258549999999
 31
0.0
  0
LINE
  5
1AD
330
1E
100
AcDbEntity
  8
0
100
AcDbLine
 10
106.0
 20
0.9470034999999878
 30
0.0
 11
105.6999999999999
 21
0.219091499999988
 31
0.0
  0
LINE
  5
1AE
330
1E
100
AcDbEntity
  8
0
100
AcDbLine
 10
106.0
 20
2.46288549999999
 30
0.0
 11
106.0
 21
1.607425499999989
 31
0.0
  0
LINE
  5
1AF
330
1E
100
AcDbEntity
  8
0
100
AcDbLine
 10
106.0
 20
1.607425499999989
 30
0.0
 11
106.0
 21
1.119385499999989
 31
0.0
  0
LINE
  5
1B0
330
1E
100
AcDbEntity
  8
0
100
AcDbLine
 10
106.0
 20
1.607425499999989
 30
0.0
 11
106.0
 21
2.46288549999999
 31
0.0
  0
LINE
  5
1B1
330
1E
100
AcDbEntity
  8
0
100
AcDbLine
 10
106.0
 20
0.9470034999999878
 30
0.0
 11
106.0
 21
1.119385499999989
 31
0.0
  0
LINE
  5
1B2
330
1E
100
AcDbEntity
  8
0
100
AcDbLine
 10
106.0
 20
1.119385499999989
 30
0.0
 11
106.0
 21
0.9470034999999878
 31
0.0
  0
LINE
  5
1B3
330
1E
100
AcDbEntity
  8
0
100
AcDbLine
 10
106.0
 20
1.119385499999989
 30
0.0
 11
106.0
 21
1.607425499999989
 31
0.0
  0
LINE
  5
1B4
330
1E
100
AcDbEntity
  8
0
100
AcDbLine
 10
105.6999999999999
 20
0.219091499999988
 30
0.0
 11
105.0
 21
0.0000244999999875
 31
0.0
  0
LINE
  5
1B5
330
1E
100
AcDbEntity
  8
0
100
AcDbLine
 10
105.6999999999999
 20
0.219091499999988
 30
0.0
 11
105.0
 21
0.0000244999999875
 31
0.0
  0
LINE
  5
1B6
330
1E
100
AcDbEntity
  8
0
100
AcDbLine
 10
106.0
 20
2.51328549999999
 30
0.0
 11
106.0
 21
14.9365755
 31
0.0
  0
LINE
  5
1B7
330
1E
100
AcDbEntity
  8
0
100
AcDbLine
 10
106.0
 20
14.9365755
 30
0.0
 11
106.0
 21
2.51328549999999
 31
0.0
  0
LINE
  5
1B8
330
1E
100
AcDbEntity
  8
0
100
AcDbLine
 10
106.0
 20
3.49258549999999
 30
0.0
 11
106.0
 21
4.59993549999999
 31
0.0
  0
LINE
  5
1B9
330
1E
100
AcDbEntity
  8
0
100
AcDbLine
 10
106.0
 20
4.17059549999999
 30
0.0
 11
106.0
 21
3.47549549999999
 31
0.0
  0
LINE
  5
1BA
330
1E
100
AcDbEntity
  8
0
100
AcDbLine
 10
106.0
 20
4.59993549999999
 30
0.0
 11
106.0
 21
3.49258549999999
 31
0.0
  0
LINE
  5
1BB
330
1E
100
AcDbEntity
  8
0
100
AcDbLine
 10
106.0
 20
3.47549549999999
 30
0.0
 11
106.0
 21
4.17059549999999
 31
0.0
  0
LINE
  5
1BC
330
1E
100
AcDbEntity
  8
0
100
AcDbLine
 10
106.0
 20
2.55625549999999
 30
0.0
 11
106.0
 21
2.95464549999999
 31
0.0
  0
LINE
  5
1BD
330
1E
100
AcDbEntity
  8
0
100
AcDbLine
 10
106.0
 20
3.47549549999999
 30
0.0
 11
106.0
 21
2.95464549999999
 31
0.0
  0
LINE
  5
1BE
330
1E
100
AcDbEntity
  8
0
100
AcDbLine
 10
106.0
 20
2.95464549999999
 30
0.0
 11
106.0
 21
3.47549549999999
 31
0.0
  0
LINE
  5
1BF
330
1E
100
AcDbEntity
  8
0
100
AcDbLine
 10
106.0
 20
2.95464549999999
 30
0.0
 11
106.0
 21
2.55625549999999
 31
0.0
  0
LINE
  5
1C0
330
1E
100
AcDbEntity
  8
0
100
AcDbLine
 10
106.0
 20
4.98816549999999
 30
0.0
 11
106.0
 21
4.17059549999999
 31
0.0
  0
LINE
  5
1C1
330
1E
100
AcDbEntity
  8
0
100
AcDbLine
 10
106.0
 20
4.17059549999999
 30
0.0
 11
106.0
 21
4.98816549999999
 31
0.0
  0
LINE
  5
1C2
330
1E
100
AcDbEntity
  8
0
100
AcDbLine
 10
106.0
 20
18.3020755
 30
0.0
 11
106.0
 21
17.4517755
 31
0.0
  0
LINE
  5
1C3
330
1E
100
AcDbEntity
  8
0
100
AcDbLine
 10
106.0
 20
17.4517755
 30
0.0
 11
106.0
 21
18.3020755
 31
0.0
  0
LINE
  5
1C4
330
1E
100
AcDbEntity
  8
0
100
AcDbLine
 10
106.0
 20
15.8595755
 30
0.0
 11
106.0
 21
16.6202755
 31
0.0
  0
LINE
  5
1C5
330
1E
100
AcDbEntity
  8
0
100
AcDbLine
 10
106.0
 20
16.6202755
 30
0.0
 11
106.0
 21
15.8595755
 31
0.0
  0
LINE
  5
1C6
330
1E
100
AcDbEntity
  8
0
100
AcDbLine
 10
106.0
 20
15.3627755
 30
0.0
 11
106.0
 21
15.8595755
 31
0.0
  0
LINE
  5
1C7
330
1E
100
AcDbEntity
  8
0
100
AcDbLine
 10
106.0
 20
15.8595755
 30
0.0
 11
106.0
 21
15.3627755
 31
0.0
  0
LINE
  5
1C8
330
1E
100
AcDbEntity
  8
0
100
AcDbLine
 10
106.0
 20
17.4517755
 30
0.0
 11
106.0
 21
16.6202755
 31
0.0
  0
LINE
  5
1C9
330
1E
100
AcDbEntity
  8
0
100
AcDbLine
 10
106.0
 20
16.6202755
 30
0.0
 11
106.0
 21
17.4517755
 31
0.0
  0
LINE
  5
1CA
330
1E
100
AcDbEntity
  8
0
100
AcDbLine
 10
106.0
 20
19.22317549999999
 30
0.0
 11
106.0
 21
18.3020755
 31
0.0
  0
LINE
  5
1CB
330
1E
100
AcDbEntity
  8
0
100
AcDbLine
 10
106.0
 20
18.3020755
 30
0.0
 11
106.0
 21
19.22317549999999
 31
0.0
  0
LINE
  5
1CC
330
1E
100
AcDbEntity
  8
0
100
AcDbLine
 10
104.9
 20
26.4771755
 30
0.0
 11
104.0
 21
26.7877755
 31
0.0
  0
LINE
  5
1CD
330
1E
100
AcDbEntity
  8
0
100
AcDbLine
 10
105.6999999999999
 20
25.7524755
 30
0.0
 11
105.4999999999999
 21
26.1148755
 31
0.0
  0
LINE
  5
1CE
330
1E
100
AcDbEntity
  8
0
100
AcDbLine
 10
105.4999999999999
 20
26.1148755
 30
0.0
 11
104.9
 21
26.4771755
 31
0.0
  0
LINE
  5
1CF
330
1E
100
AcDbEntity
  8
0
100
AcDbLine
 10
102.6399999999999
 20
25.4999755
 30
0.0
 11
102.5090999999999
 21
25.4999755
 31
0.0
  0
LINE
  5
1D0
330
1E
100
AcDbEntity
  8
0
100
AcDbLine
 10
102.6399999999999
 20
25.4999755
 30
0.0
 11
102.5090999999999
 21
25.4999755
 31
0.0
  0
LINE
  5
1D1
330
1E
100
AcDbEntity
  8
0
100
AcDbLine
 10
103.0
 20
26.0713755
 30
0.0
 11
102.9017999999999
 21
25.67137549999999
 31
0.0
  0
LINE
  5
1D2
330
1E
100
AcDbEntity
  8
0
100
AcDbLine
 10
102.9017999999999
 20
25.67137549999999
 30
0.0
 11
102.6399999999999
 21
25.4999755
 31
0.0
  0
LINE
  5
1D3
330
1E
100
AcDbEntity
  8
0
100
AcDbLine
 10
104.0
 20
26.7877755
 30
0.0
 11
103.0
 21
26.98194216666669
 31
0.0
  0
LINE
  5
1D4
330
1E
100
AcDbEntity
  8
0
100
AcDbLine
 10
102.0509
 20
25.4999755
 30
0.0
 11
101.7236
 21
25.4999755
 31
0.0
  0
LINE
  5
1D5
330
1E
100
AcDbEntity
  8
0
100
AcDbLine
 10
102.5090999999999
 20
25.4999755
 30
0.0
 11
102.3127
 21
25.4999755
 31
0.0
  0
LINE
  5
1D6
330
1E
100
AcDbEntity
  8
0
100
AcDbLine
 10
102.3127
 20
25.4999755
 30
0.0
 11
102.0509
 21
25.4999755
 31
0.0
  0
LINE
  5
1D7
330
1E
100
AcDbEntity
  8
0
100
AcDbLine
 10
102.5090999999999
 20
25.4999755
 30
0.0
 11
102.3127
 21
25.4999755
 31
0.0
  0
LINE
  5
1D8
330
1E
100
AcDbEntity
  8
0
100
AcDbLine
 10
101.7236
 20
25.4999755
 30
0.0
 11
101.3309
 21
25.4999755
 31
0.0
  0
LINE
  5
1D9
330
1E
100
AcDbEntity
  8
0
100
AcDbLine
 10
101.7236
 20
25.4999755
 30
0.0
 11
101.3309
 21
25.4999755
 31
0.0
  0
LINE
  5
1DA
330
1E
100
AcDbEntity
  8
0
100
AcDbLine
 10
106.0
 20
33.9058755
 30
0.0
 11
106.0
 21
33.4020755
 31
0.0
  0
LINE
  5
1DB
330
1E
100
AcDbEntity
  8
0
100
AcDbLine
 10
106.0
 20
33.4020755
 30
0.0
 11
106.0
 21
33.9058755
 31
0.0
  0
LINE
  5
1DC
330
1E
100
AcDbEntity
  8
0
100
AcDbLine
 10
106.0
 20
30.7732755
 30
0.0
 11
106.0
 21
29.9418755
 31
0.0
  0
LINE
  5
1DD
330
1E
100
AcDbEntity
  8
0
100
AcDbLine
 10
106.0
 20
31.5510755
 30
0.0
 11
106.0
 21
30.28157549999999
 31
0.0
  0
LINE
  5
1DE
330
1E
100
AcDbEntity
  8
0
100
AcDbLine
 10
106.0
 20
29.9418755
 30
0.0
 11
106.0
 21
30.7732755
 31
0.0
  0
LINE
  5
1DF
330
1E
100
AcDbEntity
  8
0
100
AcDbLine
 10
106.0
 20
30.28157549999999
 30
0.0
 11
106.0
 21
31.5510755
 31
0.0
  0
LINE
  5
1E0
330
1E
100
AcDbEntity
  8
0
100
AcDbLine
 10
106.0
 20
29.0914755
 30
0.0
 11
106.0
 21
28.1703755
 31
0.0
  0
LINE
  5
1E1
330
1E
100
AcDbEntity
  8
0
100
AcDbLine
 10
106.0
 20
30.28157549999999
 30
0.0
 11
106.0
 21
28.99307549999999
 31
0.0
  0
LINE
  5
1E2
330
1E
100
AcDbEntity
  8
0
100
AcDbLine
 10
106.0
 20
28.99307549999999
 30
0.0
 11
106.0
 21
30.28157549999999
 31
0.0
  0
LINE
  5
1E3
330
1E
100
AcDbEntity
  8
0
100
AcDbLine
 10
106.0
 20
28.1703755
 30
0.0
 11
106.0
 21
29.0914755
 31
0.0
  0
LINE
  5
1E4
330
1E
100
AcDbEntity
  8
0
100
AcDbLine
 10
106.0
 20
27.7821755
 30
0.0
 11
106.0
 21
28.99307549999999
 31
0.0
  0
LINE
  5
1E5
330
1E
100
AcDbEntity
  8
0
100
AcDbLine
 10
106.0
 20
28.99307549999999
 30
0.0
 11
106.0
 21
27.7821755
 31
0.0
  0
LINE
  5
1E6
330
1E
100
AcDbEntity
  8
0
100
AcDbLine
 10
106.0
 20
29.0914755
 30
0.0
 11
106.0
 21
29.9418755
 31
0.0
  0
LINE
  5
1E7
330
1E
100
AcDbEntity
  8
0
100
AcDbLine
 10
106.0
 20
29.9418755
 30
0.0
 11
106.0
 21
29.0914755
 31
0.0
  0
LINE
  5
1E8
330
1E
100
AcDbEntity
  8
0
100
AcDbLine
 10
106.0
 20
32.6085755
 30
0.0
 11
106.0
 21
31.5510755
 31
0.0
  0
LINE
  5
1E9
330
1E
100
AcDbEntity
  8
0
100
AcDbLine
 10
106.0
 20
32.0308755
 30
0.0
 11
106.0
 21
32.4569755
 31
0.0
  0
LINE
  5
1EA
330
1E
100
AcDbEntity
  8
0
100
AcDbLine
 10
106.0
 20
32.4569755
 30
0.0
 11
106.0
 21
32.0308755
 31
0.0
  0
LINE
  5
1EB
330
1E
100
AcDbEntity
  8
0
100
AcDbLine
 10
106.0
 20
31.5510755
 30
0.0
 11
106.0
 21
32.6085755
 31
0.0
  0
LINE
  5
1EC
330
1E
100
AcDbEntity
  8
0
100
AcDbLine
 10
106.0
 20
32.0308755
 30
0.0
 11
106.0
 21
31.5340755
 31
0.0
  0
LINE
  5
1ED
330
1E
100
AcDbEntity
  8
0
100
AcDbLine
 10
106.0
 20
31.5340755
 30
0.0
 11
106.0
 21
30.7732755
 31
0.0
  0
LINE
  5
1EE
330
1E
100
AcDbEntity
  8
0
100
AcDbLine
 10
106.0
 20
31.5340755
 30
0.0
 11
106.0
 21
32.0308755
 31
0.0
  0
LINE
  5
1EF
330
1E
100
AcDbEntity
  8
0
100
AcDbLine
 10
106.0
 20
30.7732755
 30
0.0
 11
106.0
 21
31.5340755
 31
0.0
  0
LINE
  5
1F0
330
1E
100
AcDbEntity
  8
0
100
AcDbLine
 10
106.0
 20
33.4020755
 30
0.0
 11
106.0
 21
32.6085755
 31
0.0
  0
LINE
  5
1F1
330
1E
100
AcDbEntity
  8
0
100
AcDbLine
 10
106.0
 20
32.6085755
 30
0.0
 11
106.0
 21
33.4020755
 31
0.0
  0
LINE
  5
1F2
330
1E
100
AcDbEntity
  8
0
100
AcDbLine
 10
98.09090000000001
 20
25.4999755
 30
0.0
 11
85.0
 21
25.4999755
 31
0.0
  0
LINE
  5
1F3
330
1E
100
AcDbEntity
  8
0
100
AcDbLine
 10
98.09090000000001
 20
25.4999755
 30
0.0
 11
85.0
 21
25.4999755
 31
0.0
  0
LINE
  5
1F4
330
1E
100
AcDbEntity
  8
0
100
AcDbLine
 10
99.8254
 20
25.4999755
 30
0.0
 11
99.26909999999999
 21
25.4999755
 31
0.0
  0
LINE
  5
1F5
330
1E
100
AcDbEntity
  8
0
100
AcDbLine
 10
99.8254
 20
25.4999755
 30
0.0
 11
99.26909999999999
 21
25.4999755
 31
0.0
  0
LINE
  5
1F6
330
1E
100
AcDbEntity
  8
0
100
AcDbLine
 10
100.3818
 20
25.4999755
 30
0.0
 11
99.8254
 21
25.4999755
 31
0.0
  0
LINE
  5
1F7
330
1E
100
AcDbEntity
  8
0
100
AcDbLine
 10
100.8726999999999
 20
25.4999755
 30
0.0
 11
100.3818
 21
25.4999755
 31
0.0
  0
LINE
  5
1F8
330
1E
100
AcDbEntity
  8
0
100
AcDbLine
 10
98.68000000000002
 20
25.4999755
 30
0.0
 11
98.09090000000001
 21
25.4999755
 31
0.0
  0
LINE
  5
1F9
330
1E
100
AcDbEntity
  8
0
100
AcDbLine
 10
98.68000000000002
 20
25.4999755
 30
0.0
 11
98.09090000000001
 21
25.4999755
 31
0.0
  0
LINE
  5
1FA
330
1E
100
AcDbEntity
  8
0
100
AcDbLine
 10
99.26909999999999
 20
25.4999755
 30
0.0
 11
98.68000000000002
 21
25.4999755
 31
0.0
  0
LINE
  5
1FB
330
1E
100
AcDbEntity
  8
0
100
AcDbLine
 10
99.26909999999999
 20
25.4999755
 30
0.0
 11
98.68000000000002
 21
25.4999755
 31
0.0
  0
LINE
  5
1FC
330
1E
100
AcDbEntity
  8
0
100
AcDbLine
 10
101.0691
 20
61.4999755
 30
0.0
 11
100.5454
 21
61.4999755
 31
0.0
  0
LINE
  5
1FD
330
1E
100
AcDbEntity
  8
0
100
AcDbLine
 10
108.0
 20
65.99997550000001
 30
0.0
 11
108.0
 21
59.1537755
 31
0.0
  0
LINE
  5
1FE
330
1E
100
AcDbEntity
  8
0
100
AcDbLine
 10
101.0
 20
65.99997550000001
 30
0.0
 11
101.0
 21
61.4999755
 31
0.0
  0
LINE
  5
1FF
330
1E
100
AcDbEntity
  8
0
100
AcDbLine
 10
101.0
 20
61.4999755
 30
0.0
 11
101.0
 21
65.99997550000001
 31
0.0
  0
LINE
  5
200
330
1E
100
AcDbEntity
  8
0
100
AcDbLine
 10
108.0
 20
59.1537755
 30
0.0
 11
108.0
 21
65.99997550000001
 31
0.0
  0
LINE
  5
201
330
1E
100
AcDbEntity
  8
0
100
AcDbLine
 10
105.6999999999999
 20
52.6498755
 30
0.0
 11
105.4999999999999
 21
52.4036755
 31
0.0
  0
LINE
  5
202
330
1E
100
AcDbEntity
  8
0
100
AcDbLine
 10
106.0
 20
42.4054755
 30
0.0
 11
106.0
 21
43.2229755
 31
0.0
  0
LINE
  5
203
330
1E
100
AcDbEntity
  8
0
100
AcDbLine
 10
106.0
 20
43.2229755
 30
0.0
 11
106.0
 21
42.4054755
 31
0.0
  0
LINE
  5
204
330
1E
100
AcDbEntity
  8
0
100
AcDbLine
 10
106.0
 20
44.43897549999999
 30
0.0
 11
106.0
 21
44.83737549999999
 31
0.0
  0
LINE
  5
205
330
1E
100
AcDbEntity
  8
0
100
AcDbLine
 10
106.0
 20
44.83737549999999
 30
0.0
 11
106.0
 21
44.43897549999999
 31
0.0
  0
LINE
  5
206
330
1E
100
AcDbEntity
  8
0
100
AcDbLine
 10
106.0
 20
43.2229755
 30
0.0
 11
106.0
 21
43.9180755
 31
0.0
  0
LINE
  5
207
330
1E
100
AcDbEntity
  8
0
100
AcDbLine
 10
106.0
 20
43.9180755
 30
0.0
 11
106.0
 21
44.43897549999999
 31
0.0
  0
LINE
  5
208
330
1E
100
AcDbEntity
  8
0
100
AcDbLine
 10
106.0
 20
43.9180755
 30
0.0
 11
106.0
 21
43.2229755
 31
0.0
  0
LINE
  5
209
330
1E
100
AcDbEntity
  8
0
100
AcDbLine
 10
106.0
 20
44.43897549999999
 30
0.0
 11
106.0
 21
43.9180755
 31
0.0
  0
LINE
  5
20A
330
1E
100
AcDbEntity
  8
0
100
AcDbLine
 10
106.0
 20
44.9200755
 30
0.0
 11
106.0
 21
44.83737549999999
 31
0.0
  0
LINE
  5
20B
330
1E
100
AcDbEntity
  8
0
100
AcDbLine
 10
106.0
 20
44.83737549999999
 30
0.0
 11
106.0
 21
44.9200755
 31
0.0
  0
LINE
  5
20C
330
1E
100
AcDbEntity
  8
0
100
AcDbLine
 10
104.9
 20
52.1483755
 30
0.0
 11
104.0
 21
51.9289755
 31
0.0
  0
LINE
  5
20D
330
1E
100
AcDbEntity
  8
0
100
AcDbLine
 10
105.4999999999999
 20
52.4036755
 30
0.0
 11
104.9
 21
52.1483755
 31
0.0
  0
LINE
  5
20E
330
1E
100
AcDbEntity
  8
0
100
AcDbLine
 10
104.0
 20
51.9289755
 30
0.0
 11
103.0
 21
51.7912255
 31
0.0
  0
LINE
  5
20F
330
1E
100
AcDbEntity
  8
0
100
AcDbLine
 10
107.6618
 20
58.38457550000001
 30
0.0
 11
106.9852999999999
 21
57.9999755
 31
0.0
  0
LINE
  5
210
330
1E
100
AcDbEntity
  8
0
100
AcDbLine
 10
108.0
 20
59.1537755
 30
0.0
 11
107.6618
 21
58.38457550000001
 31
0.0
  0
LINE
  5
211
330
1E
100
AcDbEntity
  8
0
100
AcDbLine
 10
104.2728
 20
57.9999755
 30
0.0
 11
103.4545999999999
 21
57.9999755
 31
0.0
  0
LINE
  5
212
330
1E
100
AcDbEntity
  8
0
100
AcDbLine
 10
105.6999999999999
 20
55.5463755
 30
0.0
 11
105.0
 21
55.8361755
 31
0.0
  0
LINE
  5
213
330
1E
100
AcDbEntity
  8
0
100
AcDbLine
 10
106.0
 20
54.8701755
 30
0.0
 11
105.6999999999999
 21
55.5463755
 31
0.0
  0
LINE
  5
214
330
1E
100
AcDbEntity
  8
0
100
AcDbLine
 10
105.6999999999999
 20
52.6498755
 30
0.0
 11
105.6999999999999
 21
55.5463755
 31
0.0
  0
LINE
  5
215
330
1E
100
AcDbEntity
  8
0
100
AcDbLine
 10
105.6999999999999
 20
55.5463755
 30
0.0
 11
105.6999999999999
 21
52.6498755
 31
0.0
  0
LINE
  5
216
330
1E
100
AcDbEntity
  8
0
100
AcDbLine
 10
106.1734999999999
 20
57.9999755
 30
0.0
 11
105.0
 21
57.9999755
 31
0.0
  0
LINE
  5
217
330
1E
100
AcDbEntity
  8
0
100
AcDbLine
 10
106.9852999999999
 20
57.9999755
 30
0.0
 11
106.1734999999999
 21
57.9999755
 31
0.0
  0
LINE
  5
218
330
1E
100
AcDbEntity
  8
0
100
AcDbLine
 10
105.0
 20
57.9999755
 30
0.0
 11
105.0
 21
55.8361755
 31
0.0
  0
LINE
  5
219
330
1E
100
AcDbEntity
  8
0
100
AcDbLine
 10
105.0
 20
55.8361755
 30
0.0
 11
105.0
 21
57.9999755
 31
0.0
  0
LINE
  5
21A
330
1E
100
AcDbEntity
  8
0
100
AcDbLine
 10
104.8182
 20
57.9999755
 30
0.0
 11
104.2728
 21
57.9999755
 31
0.0
  0
LINE
  5
21B
330
1E
100
AcDbEntity
  8
0
100
AcDbLine
 10
105.0
 20
57.9999755
 30
0.0
 11
104.8182
 21
57.9999755
 31
0.0
  0
LINE
  5
21C
330
1E
100
AcDbEntity
  8
0
100
AcDbLine
 10
103.4545999999999
 20
57.9999755
 30
0.0
 11
103.0
 21
57.9999755
 31
0.0
  0
LINE
  5
21D
330
1E
100
AcDbEntity
  8
0
100
AcDbLine
 10
102.6073
 20
61.4999755
 30
0.0
 11
102.3455
 21
61.4999755
 31
0.0
  0
LINE
  5
21E
330
1E
100
AcDbEntity
  8
0
100
AcDbLine
 10
103.0
 20
61.4999755
 30
0.0
 11
102.9344999999999
 21
61.4999755
 31
0.0
  0
LINE
  5
21F
330
1E
100
AcDbEntity
  8
0
100
AcDbLine
 10
102.9344999999999
 20
61.4999755
 30
0.0
 11
102.8364
 21
61.4999755
 31
0.0
  0
LINE
  5
220
330
1E
100
AcDbEntity
  8
0
100
AcDbLine
 10
102.8364
 20
61.4999755
 30
0.0
 11
102.6073
 21
61.4999755
 31
0.0
  0
LINE
  5
221
330
1E
100
AcDbEntity
  8
0
100
AcDbLine
 10
101.9854999999999
 20
61.4999755
 30
0.0
 11
101.56
 21
61.4999755
 31
0.0
  0
LINE
  5
222
330
1E
100
AcDbEntity
  8
0
100
AcDbLine
 10
102.3455
 20
61.4999755
 30
0.0
 11
101.9854999999999
 21
61.4999755
 31
0.0
  0
LINE
  5
223
330
1E
100
AcDbEntity
  8
0
100
AcDbLine
 10
101.56
 20
61.4999755
 30
0.0
 11
101.0691
 21
61.4999755
 31
0.0
  0
LINE
  5
224
330
1E
100
AcDbEntity
  8
0
100
AcDbLine
 10
98.09090000000001
 20
61.4999755
 30
0.0
 11
85.0
 21
61.4999755
 31
0.0
  0
LINE
  5
225
330
1E
100
AcDbEntity
  8
0
100
AcDbLine
 10
99.3673
 20
61.4999755
 30
0.0
 11
98.74550000000001
 21
61.4999755
 31
0.0
  0
LINE
  5
226
330
1E
100
AcDbEntity
  8
0
100
AcDbLine
 10
100.5454
 20
61.4999755
 30
0.0
 11
99.95640000000001
 21
61.4999755
 31
0.0
  0
LINE
  5
227
330
1E
100
AcDbEntity
  8
0
100
AcDbLine
 10
99.95640000000001
 20
61.4999755
 30
0.0
 11
99.3673
 21
61.4999755
 31
0.0
  0
LINE
  5
228
330
1E
100
AcDbEntity
  8
0
100
AcDbLine
 10
98.74550000000001
 20
61.4999755
 30
0.0
 11
98.09090000000001
 21
61.4999755
 31
0.0
  0
LINE
  5
229
330
1E
100
AcDbEntity
  8
0
100
AcDbLine
 10
65.0
 20
0.0000244999999875
 30
0.0
 11
105.0
 21
0.0000244999999875
 31
0.0
  0
LINE
  5
22A
330
1E
100
AcDbEntity
  8
0
100
AcDbLine
 10
62.0
 20
65.99997550000001
 30
0.0
 11
108.0
 21
65.99997550000001
 31
0.0
  0
ENDSEC
  0
SECTION
  2
OBJECTS
  0
DICTIONARY
  5
C
330
0
100
AcDbDictionary
281
     1
  3
ACAD_GROUP
350
D
  3
ACAD_LAYOUT
350
19
  3
ACAD_MLINESTYLE
350
16
  3
ACAD_PLOTSETTINGS
350
18
  3
ACAD_PLOTSTYLENAME
350
E
  3
AcDbVariableDictionary
350
22B
  0
DICTIONARY
  5
D
102
{ACAD_REACTORS
330
C
102
}
330
C
100
AcDbDictionary
281
     1
  0
DICTIONARY
  5
19
102
{ACAD_REACTORS
330
C
102
}
330
C
100
AcDbDictionary
281
     1
  3
Layout1
350
1D
  3
Model
350
21
  0
DICTIONARY
  5
16
102
{ACAD_REACTORS
330
C
102
}
330
C
100
AcDbDictionary
281
     1
  3
Standard
350
17
  0
DICTIONARY
  5
18
102
{ACAD_REACTORS
330
C
102
}
330
C
100
AcDbDictionary
281
     1
  0
ACDBDICTIONARYWDFLT
  5
E
102
{ACAD_REACTORS
330
C
102
}
330
C
100
AcDbDictionary
281
     1
  3
Normal
350
F
100
AcDbDictionaryWithDefault
340
F
  0
DICTIONARY
  5
22B
102
{ACAD_REACTORS
330
C
102
}
330
C
100
AcDbDictionary
281
     1
  3
DIMASSOC
350
22C
  0
LAYOUT
  5
1D
102
{ACAD_REACTORS
330
19
102
}
330
19
100
AcDbPlotSettings
  1

  2
hp deskjet 980c series
  4

  6

 40
0.0
 41
0.0
 42
0.0
 43
0.0
 44
0.0
 45
0.0
 46
0.0
 47
0.0
 48
0.0
 49
0.0
140
0.0
141
0.0
142
1.0
143
1.0
 70
   688
 72
     0
 73
     0
 74
     5
  7

 75
    16
147
1.0
148
0.0
149
0.0
100
AcDbLayout
  1
Layout1
 70
     1
 71
     1
 10
0.0
 20
0.0
 11
12.0
 21
9.0
 12
0.0
 22
0.0
 32
0.0
 14
1.000000000000000E+20
 24
1.000000000000000E+20
 34
1.000000000000000E+20
 15
-1.000000000000000E+20
 25
-1.000000000000000E+20
 35
-1.000000000000000E+20
146
0.0
 13
0.0
 23
0.0
 33
0.0
 16
1.0
 26
0.0
 36
0.0
 17
0.0
 27
1.0
 37
0.0
 76
     0
330
1A
  0
LAYOUT
  5
21
102
{ACAD_REACTORS
330
19
102
}
330
19
100
AcDbPlotSettings
  1

  2
hp deskjet 980c series
  4

  6

 40
0.0
 41
0.0
 42
0.0
 43
0.0
 44
0.0
 45
0.0
 46
0.0
 47
0.0
 48
0.0
 49
0.0
140
0.0
141
0.0
142
1.0
143
1.0
 70
  1712
 72
     0
 73
     0
 74
     0
  7

 75
     0
147
1.0
148
0.0
149
0.0
100
AcDbLayout
  1
Model
 70
     1
 71
     0
 10
0.0
 20
0.0
 11
12.0
 21
9.0
 12
0.0
 22
0.0
 32
0.0
 14
0.0
 24
0.0
 34
0.0
 15
0.0
 25
0.0
 35
0.0
146
0.0
 13
0.0
 23
0.0
 33
0.0
 16
1.0
 26
0.0
 36
0.0
 17
0.0
 27
1.0
 37
0.0
 76
     0
330
1E
  0
MLINESTYLE
  5
17
102
{ACAD_REACTORS
330
16
102
}
330
16
100
AcDbMlineStyle
  2
STANDARD
 70
     0
  3

 62
   256
 51
90.0
 52
90.0
 71
     2
 49
0.5
 62
   256
  6
BYLAYER
 49
-0.5
 62
   256
  6
BYLAYER
  0
ACDBPLACEHOLDER
  5
F
102
{ACAD_REACTORS
330
E
102
}
330
E
  0
DICTIONARYVAR
  5
22C
102
{ACAD_REACTORS
330
22B
102
}
330
22B
100
DictionaryVariables
280
     0
  1
1
  0
ENDSEC
  0
EOF
