  0
SECTION
  2
HEADER
  9
$ACADVER
  1
AC1015
  9
$ACADMAINTVER
 70
    13
  9
$DWGCODEPAGE
  3
ANSI_1252
  9
$INSBASE
 10
0.0
 20
0.0
 30
0.0
  9
$EXTMIN
 10
0.219091499999988
 20
0.219099999999994
 30
0.0
  9
$EXTMAX
 10
79.9999755
 20
207.0
 30
0.0
  9
$LIMMIN
 10
0.0
 20
0.0
  9
$LIMMAX
 10
12.0
 20
9.0
  9
$ORTHOMODE
 70
     0
  9
$REGENMODE
 70
     1
  9
$FILLMODE
 70
     1
  9
$QTEXTMODE
 70
     0
  9
$MIRRTEXT
 70
     1
  9
$LTSCALE
 40
1.0
  9
$ATTMODE
 70
     1
  9
$TEXTSIZE
 40
0.2
  9
$TRACEWID
 40
0.05
  9
$TEXTSTYLE
  7
Standard
  9
$CLAYER
  8
0
  9
$CELTYPE
  6
Continuous
  9
$CECOLOR
 62
   256
  9
$CELTSCALE
 40
1.0
  9
$DISPSILH
 70
     0
  9
$DIMSCALE
 40
1.0
  9
$DIMASZ
 40
0.18
  9
$DIMEXO
 40
0.0625
  9
$DIMDLI
 40
0.38
  9
$DIMRND
 40
0.0
  9
$DIMDLE
 40
0.0
  9
$DIMEXE
 40
0.18
  9
$DIMTP
 40
0.0
  9
$DIMTM
 40
0.0
  9
$DIMTXT
 40
0.18
  9
$DIMCEN
 40
0.09
  9
$DIMTSZ
 40
0.0
  9
$DIMTOL
 70
     0
  9
$DIMLIM
 70
     0
  9
$DIMTIH
 70
     1
  9
$DIMTOH
 70
     1
  9
$DIMSE1
 70
     0
  9
$DIMSE2
 70
     0
  9
$DIMTAD
 70
     0
  9
$DIMZIN
 70
     0
  9
$DIMBLK
  1

  9
$DIMASO
 70
     1
  9
$DIMSHO
 70
     1
  9
$DIMPOST
  1

  9
$DIMAPOST
  1

  9
$DIMALT
 70
     0
  9
$DIMALTD
 70
     2
  9
$DIMALTF
 40
25.4
  9
$DIMLFAC
 40
1.0
  9
$DIMTOFL
 70
     0
  9
$DIMTVP
 40
0.0
  9
$DIMTIX
 70
     0
  9
$DIMSOXD
 70
     0
  9
$DIMSAH
 70
     0
  9
$DIMBLK1
  1

  9
$DIMBLK2
  1

  9
$DIMSTYLE
  2
Standard
  9
$DIMCLRD
 70
     0
  9
$DIMCLRE
 70
     0
  9
$DIMCLRT
 70
     0
  9
$DIMTFAC
 40
1.0
  9
$DIMGAP
 40
0.09
  9
$DIMJUST
 70
     0
  9
$DIMSD1
 70
     0
  9
$DIMSD2
 70
     0
  9
$DIMTOLJ
 70
     1
  9
$DIMTZIN
 70
     0
  9
$DIMALTZ
 70
     0
  9
$DIMALTTZ
 70
     0
  9
$DIMUPT
 70
     0
  9
$DIMDEC
 70
     4
  9
$DIMTDEC
 70
     4
  9
$DIMALTU
 70
     2
  9
$DIMALTTD
 70
     2
  9
$DIMTXSTY
  7
Standard
  9
$DIMAUNIT
 70
     0
  9
$DIMADEC
 70
     0
  9
$DIMALTRND
 40
0.0
  9
$DIMAZIN
 70
     0
  9
$DIMDSEP
 70
    46
  9
$DIMATFIT
 70
     3
  9
$DIMFRAC
 70
     0
  9
$DIMLDRBLK
  1

  9
$DIMLUNIT
 70
     2
  9
$DIMLWD
 70
    -2
  9
$DIMLWE
 70
    -2
  9
$DIMTMOVE
 70
     0
  9
$LUNITS
 70
     2
  9
$LUPREC
 70
     4
  9
$SKETCHINC
 40
0.1
  9
$FILLETRAD
 40
0.0
  9
$AUNITS
 70
     0
  9
$AUPREC
 70
     0
  9
$MENU
  1
.
  9
$ELEVATION
 40
0.0
  9
$PELEVATION
 40
0.0
  9
$THICKNESS
 40
0.0
  9
$LIMCHECK
 70
     0
  9
$CHAMFERA
 40
0.0
  9
$CHAMFERB
 40
0.0
  9
$CHAMFERC
 40
0.0
  9
$CHAMFERD
 40
0.0
  9
$SKPOLY
 70
     0
  9
$TDCREATE
 40
2454875.858037997
  9
$TDUCREATE
 40
2454875.816371330
  9
$TDUPDATE
 40
2454875.861432280
  9
$TDUUPDATE
 40
2454875.819765613
  9
$TDINDWG
 40
0.0033942824
  9
$TDUSRTIMER
 40
0.0033942824
  9
$USRTIMER
 70
     1
  9
$ANGBASE
 50
0.0
  9
$ANGDIR
 70
     0
  9
$PDMODE
 70
     0
  9
$PDSIZE
 40
0.0
  9
$PLINEWID
 40
0.0
  9
$SPLFRAME
 70
     0
  9
$SPLINETYPE
 70
     6
  9
$SPLINESEGS
 70
     8
  9
$HANDSEED
  5
20B
  9
$SURFTAB1
 70
     6
  9
$SURFTAB2
 70
     6
  9
$SURFTYPE
 70
     6
  9
$SURFU
 70
     6
  9
$SURFV
 70
     6
  9
$UCSBASE
  2

  9
$UCSNAME
  2

  9
$UCSORG
 10
0.0
 20
0.0
 30
0.0
  9
$UCSXDIR
 10
1.0
 20
0.0
 30
0.0
  9
$UCSYDIR
 10
0.0
 20
1.0
 30
0.0
  9
$UCSORTHOREF
  2

  9
$UCSORTHOVIEW
 70
     1
  9
$UCSORGTOP
 10
0.0
 20
0.0
 30
0.0
  9
$UCSORGBOTTOM
 10
0.0
 20
0.0
 30
0.0
  9
$UCSORGLEFT
 10
0.0
 20
0.0
 30
0.0
  9
$UCSORGRIGHT
 10
0.0
 20
0.0
 30
0.0
  9
$UCSORGFRONT
 10
0.0
 20
0.0
 30
0.0
  9
$UCSORGBACK
 10
0.0
 20
0.0
 30
0.0
  9
$PUCSBASE
  2

  9
$PUCSNAME
  2

  9
$PUCSORG
 10
0.0
 20
0.0
 30
0.0
  9
$PUCSXDIR
 10
1.0
 20
0.0
 30
0.0
  9
$PUCSYDIR
 10
0.0
 20
1.0
 30
0.0
  9
$PUCSORTHOREF
  2

  9
$PUCSORTHOVIEW
 70
     0
  9
$PUCSORGTOP
 10
0.0
 20
0.0
 30
0.0
  9
$PUCSORGBOTTOM
 10
0.0
 20
0.0
 30
0.0
  9
$PUCSORGLEFT
 10
0.0
 20
0.0
 30
0.0
  9
$PUCSORGRIGHT
 10
0.0
 20
0.0
 30
0.0
  9
$PUCSORGFRONT
 10
0.0
 20
0.0
 30
0.0
  9
$PUCSORGBACK
 10
0.0
 20
0.0
 30
0.0
  9
$USERI1
 70
     0
  9
$USERI2
 70
     0
  9
$USERI3
 70
     0
  9
$USERI4
 70
     0
  9
$USERI5
 70
     0
  9
$USERR1
 40
0.0
  9
$USERR2
 40
0.0
  9
$USERR3
 40
0.0
  9
$USERR4
 40
0.0
  9
$USERR5
 40
0.0
  9
$WORLDVIEW
 70
     1
  9
$SHADEDGE
 70
     3
  9
$SHADEDIF
 70
    70
  9
$TILEMODE
 70
     1
  9
$MAXACTVP
 70
    64
  9
$PINSBASE
 10
0.0
 20
0.0
 30
0.0
  9
$PLIMCHECK
 70
     0
  9
$PEXTMIN
 10
1.000000000000000E+20
 20
1.000000000000000E+20
 30
1.000000000000000E+20
  9
$PEXTMAX
 10
-1.000000000000000E+20
 20
-1.000000000000000E+20
 30
-1.000000000000000E+20
  9
$PLIMMIN
 10
0.0
 20
0.0
  9
$PLIMMAX
 10
12.0
 20
9.0
  9
$UNITMODE
 70
     0
  9
$VISRETAIN
 70
     1
  9
$PLINEGEN
 70
     0
  9
$PSLTSCALE
 70
     1
  9
$TREEDEPTH
 70
  3020
  9
$CMLSTYLE
  2
Standard
  9
$CMLJUST
 70
     0
  9
$CMLSCALE
 40
1.0
  9
$PROXYGRAPHICS
 70
     1
  9
$MEASUREMENT
 70
     0
  9
$CELWEIGHT
370
    -1
  9
$ENDCAPS
280
     0
  9
$JOINSTYLE
280
     0
  9
$LWDISPLAY
290
     0
  9
$INSUNITS
 70
     0
  9
$HYPERLINKBASE
  1

  9
$STYLESHEET
  1

  9
$XEDIT
290
     1
  9
$CEPSNTYPE
380
     0
  9
$PSTYLEMODE
290
     1
  9
$FINGERPRINTGUID
  2
{D3158EE6-AC67-44ED-BF0E-24655BA9B85F}
  9
$VERSIONGUID
  2
{68644045-E437-4D73-B357-420EB3D78C3B}
  9
$EXTNAMES
290
     1
  9
$PSVPSCALE
 40
0.0
  9
$OLESTARTUP
290
     0
  0
ENDSEC
  0
SECTION
  2
CLASSES
  0
CLASS
  1
ACDBDICTIONARYWDFLT
  2
AcDbDictionaryWithDefault
  3
AutoCAD 2000
 90
        0
280
     0
281
     0
  0
CLASS
  1
ACDBPLACEHOLDER
  2
AcDbPlaceHolder
  3
AutoCAD 2000
 90
        0
280
     0
281
     0
  0
CLASS
  1
LAYOUT
  2
AcDbLayout
  3
AutoCAD 2000
 90
        0
280
     0
281
     0
  0
CLASS
  1
DICTIONARYVAR
  2
AcDbDictionaryVar
  3
AutoCAD 2000
 90
        0
280
     0
281
     0
  0
ENDSEC
  0
SECTION
  2
TABLES
  0
TABLE
  2
VPORT
  5
8
330
0
100
AcDbSymbolTable
 70
     3
  0
VPORT
  5
20A
330
8
100
AcDbSymbolTableRecord
100
AcDbViewportTableRecord
  2
*Active
 70
     0
 10
0.0
 20
0.0
 11
1.0
 21
1.0
 12
40.1095335
 22
103.60955
 13
0.0
 23
0.0
 14
1.0
 24
1.0
 15
0.0
 25
0.0
 16
0.0
 26
0.0
 36
1.0
 17
0.0
 27
0.0
 37
0.0
 40
208.0868846315789
 41
1.968387776606954
 42
50.0
 43
0.0
 44
0.0
 50
0.0
 51
0.0
 71
     0
 72
   100
 73
     1
 74
     3
 75
     0
 76
     0
 77
     0
 78
     0
281
     0
 65
     1
110
0.0
120
0.0
130
0.0
111
1.0
121
0.0
131
0.0
112
0.0
122
1.0
132
0.0
 79
     1
146
0.0
  0
ENDTAB
  0
TABLE
  2
LTYPE
  5
5
330
0
100
AcDbSymbolTable
 70
     1
  0
LTYPE
  5
13
330
5
100
AcDbSymbolTableRecord
100
AcDbLinetypeTableRecord
  2
ByBlock
 70
     0
  3

 72
    65
 73
     0
 40
0.0
  0
LTYPE
  5
14
330
5
100
AcDbSymbolTableRecord
100
AcDbLinetypeTableRecord
  2
ByLayer
 70
     0
  3

 72
    65
 73
     0
 40
0.0
  0
LTYPE
  5
15
330
5
100
AcDbSymbolTableRecord
100
AcDbLinetypeTableRecord
  2
Continuous
 70
     0
  3
Solid line
 72
    65
 73
     0
 40
0.0
  0
ENDTAB
  0
TABLE
  2
LAYER
  5
2
330
0
100
AcDbSymbolTable
 70
     1
  0
LAYER
  5
10
330
2
100
AcDbSymbolTableRecord
100
AcDbLayerTableRecord
  2
0
 70
     0
 62
     7
  6
Continuous
370
    -3
390
F
  0
ENDTAB
  0
TABLE
  2
STYLE
  5
3
330
0
100
AcDbSymbolTable
 70
     1
  0
STYLE
  5
11
330
3
100
AcDbSymbolTableRecord
100
AcDbTextStyleTableRecord
  2
Standard
 70
     0
 40
0.0
 41
1.0
 50
0.0
 71
     0
 42
0.2
  3
txt
  4

  0
ENDTAB
  0
TABLE
  2
VIEW
  5
6
330
0
100
AcDbSymbolTable
 70
     0
  0
ENDTAB
  0
TABLE
  2
UCS
  5
7
330
0
100
AcDbSymbolTable
 70
     0
  0
ENDTAB
  0
TABLE
  2
APPID
  5
9
330
0
100
AcDbSymbolTable
 70
     1
  0
APPID
  5
12
330
9
100
AcDbSymbolTableRecord
100
AcDbRegAppTableRecord
  2
ACAD
 70
     0
  0
ENDTAB
  0
TABLE
  2
DIMSTYLE
  5
A
330
0
100
AcDbSymbolTable
 70
     1
100
AcDbDimStyleTable
 71
     0
  0
DIMSTYLE
105
1FE
330
A
100
AcDbSymbolTableRecord
100
AcDbDimStyleTableRecord
  2
Standard
 70
     0
340
11
  0
ENDTAB
  0
TABLE
  2
BLOCK_RECORD
  5
1
330
0
100
AcDbSymbolTable
 70
     0
  0
BLOCK_RECORD
  5
1E
330
1
100
AcDbSymbolTableRecord
100
AcDbBlockTableRecord
  2
*Model_Space
340
21
  0
BLOCK_RECORD
  5
1A
330
1
100
AcDbSymbolTableRecord
100
AcDbBlockTableRecord
  2
*Paper_Space
340
1D
  0
ENDTAB
  0
ENDSEC
  0
SECTION
  2
BLOCKS
  0
BLOCK
  5
1F
330
1E
100
AcDbEntity
  8
0
100
AcDbBlockBegin
  2
*Model_Space
 70
     0
 10
0.0
 20
0.0
 30
0.0
  3
*Model_Space
  1

  0
ENDBLK
  5
20
330
1E
100
AcDbEntity
  8
0
100
AcDbBlockEnd
  0
BLOCK
  5
1B
330
1A
100
AcDbEntity
 67
     1
  8
0
100
AcDbBlockBegin
  2
*Paper_Space
 70
     0
 10
0.0
 20
0.0
 30
0.0
  3
*Paper_Space
  1

  0
ENDBLK
  5
1C
330
1A
100
AcDbEntity
 67
     1
  8
0
100
AcDbBlockEnd
  0
ENDSEC
  0
SECTION
  2
ENTITIES
  0
LINE
  5
23
330
1E
100
AcDbEntity
  8
0
100
AcDbLine
 10
28.1703755
 20
2.5133
 30
0.0
 11
29.0914755
 21
2.47349999999999
 31
0.0
  0
LINE
  5
24
330
1E
100
AcDbEntity
  8
0
100
AcDbLine
 10
27.6009755
 20
0.3883
 30
0.0
 11
29.0050755
 21
0.219099999999994
 31
0.0
  0
LINE
  5
26
330
1E
100
AcDbEntity
  8
0
100
AcDbLine
 10
29.9418755
 20
2.556299999999999
 30
0.0
 11
30.7732755
 21
2.9546
 31
0.0
  0
LINE
  5
27
330
1E
100
AcDbEntity
  8
0
100
AcDbLine
 10
29.0914755
 20
2.47349999999999
 30
0.0
 11
29.9418755
 21
2.556299999999999
 31
0.0
  0
LINE
  5
28
330
1E
100
AcDbEntity
  8
0
100
AcDbLine
 10
30.5126755
 20
0.4362999999999921
 30
0.0
 11
31.9046755
 21
0.994999999999996
 31
0.0
  0
LINE
  5
29
330
1E
100
AcDbEntity
  8
0
100
AcDbLine
 10
29.0050755
 20
0.219099999999994
 30
0.0
 11
30.5126755
 21
0.4362999999999921
 31
0.0
  0
LINE
  5
2A
330
1E
100
AcDbEntity
  8
0
100
AcDbLine
 10
30.7732755
 20
2.9546
 30
0.0
 11
31.5340755
 21
3.475499999999999
 31
0.0
  0
LINE
  5
2E
330
1E
100
AcDbEntity
  8
0
100
AcDbLine
 10
31.9046755
 20
0.994999999999996
 30
0.0
 11
33.08457549999999
 21
1.921199999999999
 31
0.0
  0
LINE
  5
2F
330
1E
100
AcDbEntity
  8
0
100
AcDbLine
 10
33.08457549999999
 20
1.921199999999999
 30
0.0
 11
34.0264755
 21
3.118200000000009
 31
0.0
  0
LINE
  5
30
330
1E
100
AcDbEntity
  8
0
100
AcDbLine
 10
34.0264755
 20
3.118200000000009
 30
0.0
 11
34.5820755
 21
4.418800000000009
 31
0.0
  0
LINE
  5
31
330
1E
100
AcDbEntity
  8
0
100
AcDbLine
 10
31.5340755
 20
3.475499999999999
 30
0.0
 11
32.0308755
 21
4.1706
 31
0.0
  0
LINE
  5
34
330
1E
100
AcDbEntity
  8
0
100
AcDbLine
 10
32.0308755
 20
4.1706
 30
0.0
 11
32.4569755
 21
4.988200000000009
 31
0.0
  0
LINE
  5
3B
330
1E
100
AcDbEntity
  8
0
100
AcDbLine
 10
32.4569755
 20
4.988200000000009
 30
0.0
 11
44.8802755
 21
51.3526
 31
0.0
  0
LINE
  5
3C
330
1E
100
AcDbEntity
  8
0
100
AcDbLine
 10
4.41876549999999
 20
6.599899999999999
 30
0.0
 11
27.6009755
 21
0.3883
 31
0.0
  0
LINE
  5
3D
330
1E
100
AcDbEntity
  8
0
100
AcDbLine
 10
4.41876549999999
 20
6.599899999999999
 30
0.0
 11
27.6009755
 21
0.3883
 31
0.0
  0
LINE
  5
3E
330
1E
100
AcDbEntity
  8
0
100
AcDbLine
 10
3.11822549999999
 20
7.1554
 30
0.0
 11
4.41876549999999
 21
6.599899999999999
 31
0.0
  0
LINE
  5
40
330
1E
100
AcDbEntity
  8
0
100
AcDbLine
 10
0.9950504999999878
 20
9.2773
 30
0.0
 11
1.921225499999989
 21
8.097300000000009
 31
0.0
  0
LINE
  5
41
330
1E
100
AcDbEntity
  8
0
100
AcDbLine
 10
1.921225499999989
 20
8.097300000000009
 30
0.0
 11
3.11822549999999
 21
7.1554
 31
0.0
  0
LINE
  5
42
330
1E
100
AcDbEntity
  8
0
100
AcDbLine
 10
2.95464549999999
 20
10.4086
 30
0.0
 11
3.47549549999999
 21
9.647899999999999
 31
0.0
  0
LINE
  5
43
330
1E
100
AcDbEntity
  8
0
100
AcDbLine
 10
3.47549549999999
 20
9.647899999999999
 30
0.0
 11
4.17059549999999
 21
9.151099999999999
 31
0.0
  0
LINE
  5
44
330
1E
100
AcDbEntity
  8
0
100
AcDbLine
 10
4.17059549999999
 20
9.151099999999999
 30
0.0
 11
4.98816549999999
 21
8.724899999999999
 31
0.0
  0
LINE
  5
45
330
1E
100
AcDbEntity
  8
0
100
AcDbLine
 10
4.98816549999999
 20
8.724899999999999
 30
0.0
 11
28.1703755
 21
2.5133
 31
0.0
  0
LINE
  5
47
330
1E
100
AcDbEntity
  8
0
100
AcDbLine
 10
4.98816549999999
 20
8.724899999999999
 30
0.0
 11
28.1703755
 21
2.5133
 31
0.0
  0
LINE
  5
4D
330
1E
100
AcDbEntity
  8
0
100
AcDbLine
 10
0.4363004999999881
 20
10.66929999999999
 30
0.0
 11
0.9950504999999878
 21
9.2773
 31
0.0
  0
LINE
  5
4E
330
1E
100
AcDbEntity
  8
0
100
AcDbLine
 10
2.55625549999999
 20
11.24009999999999
 30
0.0
 11
2.95464549999999
 21
10.4086
 31
0.0
  0
LINE
  5
50
330
1E
100
AcDbEntity
  8
0
100
AcDbLine
 10
2.51328549999999
 20
13.0116
 30
0.0
 11
14.9365755
 21
59.376
 31
0.0
  0
LINE
  5
51
330
1E
100
AcDbEntity
  8
0
100
AcDbLine
 10
0.388253499999988
 20
13.581
 30
0.0
 11
26.3685755
 21
111.7001
 31
0.0
  0
LINE
  5
52
330
1E
100
AcDbEntity
  8
0
100
AcDbLine
 10
0.388253499999988
 20
13.581
 30
0.0
 11
26.3685755
 21
111.7001
 31
0.0
  0
LINE
  5
53
330
1E
100
AcDbEntity
  8
0
100
AcDbLine
 10
2.51328549999999
 20
13.0116
 30
0.0
 11
14.9365755
 21
59.376
 31
0.0
  0
LINE
  5
54
330
1E
100
AcDbEntity
  8
0
100
AcDbLine
 10
0.219091499999988
 20
12.1769
 30
0.0
 11
0.388253499999988
 21
13.581
 31
0.0
  0
LINE
  5
55
330
1E
100
AcDbEntity
  8
0
100
AcDbLine
 10
0.219091499999988
 20
12.1769
 30
0.0
 11
0.4363004999999881
 21
10.66929999999999
 31
0.0
  0
LINE
  5
56
330
1E
100
AcDbEntity
  8
0
100
AcDbLine
 10
2.47353549999999
 20
12.0905
 30
0.0
 11
2.51328549999999
 21
13.0116
 31
0.0
  0
LINE
  5
57
330
1E
100
AcDbEntity
  8
0
100
AcDbLine
 10
2.47353549999999
 20
12.0905
 30
0.0
 11
2.55625549999999
 21
11.24009999999999
 31
0.0
  0
LINE
  5
59
330
1E
100
AcDbEntity
  8
0
100
AcDbLine
 10
65.99997550000001
 20
38.0
 30
0.0
 11
66.2999755
 21
37.29999999999999
 31
0.0
  0
LINE
  5
68
330
1E
100
AcDbEntity
  8
0
100
AcDbLine
 10
15.3627755
 20
60.1936
 30
0.0
 11
15.8595755
 21
60.8887
 31
0.0
  0
LINE
  5
69
330
1E
100
AcDbEntity
  8
0
100
AcDbLine
 10
14.9365755
 20
59.376
 30
0.0
 11
15.3627755
 21
60.1936
 31
0.0
  0
LINE
  5
6A
330
1E
100
AcDbEntity
  8
0
100
AcDbLine
 10
15.8595755
 20
60.8887
 30
0.0
 11
16.6202755
 21
61.4095
 31
0.0
  0
LINE
  5
6B
330
1E
100
AcDbEntity
  8
0
100
AcDbLine
 10
16.6202755
 20
61.4095
 30
0.0
 11
17.4517755
 21
61.8079
 31
0.0
  0
LINE
  5
6C
330
1E
100
AcDbEntity
  8
0
100
AcDbLine
 10
17.4517755
 20
61.8079
 30
0.0
 11
18.3020755
 21
61.8906
 31
0.0
  0
LINE
  5
6E
330
1E
100
AcDbEntity
  8
0
100
AcDbLine
 10
19.22317549999999
 20
61.8509
 30
0.0
 11
42.4054755
 21
55.6392
 31
0.0
  0
LINE
  5
71
330
1E
100
AcDbEntity
  8
0
100
AcDbLine
 10
19.22317549999999
 20
61.8509
 30
0.0
 11
42.4054755
 21
55.6392
 31
0.0
  0
LINE
  5
72
330
1E
100
AcDbEntity
  8
0
100
AcDbLine
 10
18.3020755
 20
61.8906
 30
0.0
 11
19.22317549999999
 21
61.8509
 31
0.0
  0
LINE
  5
7C
330
1E
100
AcDbEntity
  8
0
100
AcDbLine
 10
26.3685755
 20
111.7001
 30
0.0
 11
26.70507549999999
 21
112.9558
 31
0.0
  0
LINE
  5
7D
330
1E
100
AcDbEntity
  8
0
100
AcDbLine
 10
25.4999755
 20
141.9489999999999
 30
0.0
 11
25.4999755
 21
142.276
 31
0.0
  0
LINE
  5
7E
330
1E
100
AcDbEntity
  8
0
100
AcDbLine
 10
25.4999755
 20
142.276
 30
0.0
 11
25.4999755
 21
141.9489999999999
 31
0.0
  0
LINE
  5
7F
330
1E
100
AcDbEntity
  8
0
100
AcDbLine
 10
25.4999755
 20
142.276
 30
0.0
 11
25.4999755
 21
142.6689999999999
 31
0.0
  0
LINE
  5
80
330
1E
100
AcDbEntity
  8
0
100
AcDbLine
 10
25.4999755
 20
141.687
 30
0.0
 11
25.4999755
 21
141.491
 31
0.0
  0
LINE
  5
81
330
1E
100
AcDbEntity
  8
0
100
AcDbLine
 10
25.4999755
 20
141.491
 30
0.0
 11
25.4999755
 21
141.36
 31
0.0
  0
LINE
  5
82
330
1E
100
AcDbEntity
  8
0
100
AcDbLine
 10
25.4999755
 20
141.491
 30
0.0
 11
25.4999755
 21
141.687
 31
0.0
  0
LINE
  5
83
330
1E
100
AcDbEntity
  8
0
100
AcDbLine
 10
25.4999755
 20
141.36
 30
0.0
 11
25.4999755
 21
141.491
 31
0.0
  0
LINE
  5
84
330
1E
100
AcDbEntity
  8
0
100
AcDbLine
 10
25.4999755
 20
142.6689999999999
 30
0.0
 11
25.4999755
 21
143.127
 31
0.0
  0
LINE
  5
85
330
1E
100
AcDbEntity
  8
0
100
AcDbLine
 10
25.4999755
 20
142.6689999999999
 30
0.0
 11
25.4999755
 21
142.276
 31
0.0
  0
LINE
  5
86
330
1E
100
AcDbEntity
  8
0
100
AcDbLine
 10
25.4999755
 20
143.127
 30
0.0
 11
25.4999755
 21
142.6689999999999
 31
0.0
  0
LINE
  5
87
330
1E
100
AcDbEntity
  8
0
100
AcDbLine
 10
25.4999755
 20
143.127
 30
0.0
 11
25.4999755
 21
176.509
 31
0.0
  0
LINE
  5
88
330
1E
100
AcDbEntity
  8
0
100
AcDbLine
 10
25.4999755
 20
176.509
 30
0.0
 11
25.4999755
 21
143.127
 31
0.0
  0
LINE
  5
A4
330
1E
100
AcDbEntity
  8
0
100
AcDbLine
 10
25.67137549999999
 20
141.0979999999999
 30
0.0
 11
26.0713755
 21
141.0
 31
0.0
  0
LINE
  5
A5
330
1E
100
AcDbEntity
  8
0
100
AcDbLine
 10
26.0713755
 20
141.0
 30
0.0
 11
61.4999755
 21
141.0
 31
0.0
  0
LINE
  5
B0
330
1E
100
AcDbEntity
  8
0
100
AcDbLine
 10
25.4999755
 20
176.509
 30
0.0
 11
25.4999755
 21
176.673
 31
0.0
  0
LINE
  5
B1
330
1E
100
AcDbEntity
  8
0
100
AcDbLine
 10
25.4999755
 20
176.673
 30
0.0
 11
25.4999755
 21
176.509
 31
0.0
  0
LINE
  5
B2
330
1E
100
AcDbEntity
  8
0
100
AcDbLine
 10
25.4999755
 20
176.673
 30
0.0
 11
25.67137549999999
 21
176.902
 31
0.0
  0
LINE
  5
D8
330
1E
100
AcDbEntity
  8
0
100
AcDbLine
 10
26.7568755
 20
113.149
 30
0.0
 11
27.22777549999999
 21
113.7475
 31
0.0
  0
LINE
  5
D9
330
1E
100
AcDbEntity
  8
0
100
AcDbLine
 10
26.70507549999999
 20
112.9558
 30
0.0
 11
26.7568755
 21
113.149
 31
0.0
  0
LINE
  5
DD
330
1E
100
AcDbEntity
  8
0
100
AcDbLine
 10
44.8802755
 20
51.3526
 30
0.0
 11
44.9200755
 21
52.2737
 31
0.0
  0
LINE
  5
DE
330
1E
100
AcDbEntity
  8
0
100
AcDbLine
 10
27.9815755
 20
113.8560999999999
 30
0.0
 11
51.7622755
 21
107.1735
 31
0.0
  0
LINE
  5
DF
330
1E
100
AcDbEntity
  8
0
100
AcDbLine
 10
43.2229755
 20
55.21309999999999
 30
0.0
 11
43.9180755
 21
54.7163
 31
0.0
  0
LINE
  5
E0
330
1E
100
AcDbEntity
  8
0
100
AcDbLine
 10
42.4054755
 20
55.6392
 30
0.0
 11
43.2229755
 21
55.21309999999999
 31
0.0
  0
LINE
  5
E3
330
1E
100
AcDbEntity
  8
0
100
AcDbLine
 10
43.9180755
 20
54.7163
 30
0.0
 11
44.43897549999999
 21
53.9555
 31
0.0
  0
LINE
  5
E8
330
1E
100
AcDbEntity
  8
0
100
AcDbLine
 10
51.2136817625704
 20
65.32976392472519
 30
0.0
 11
54.7499755
 21
65.0
 31
0.0
  0
LINE
  5
E9
330
1E
100
AcDbEntity
  8
0
100
AcDbLine
 10
54.7499755
 20
65.0
 30
0.0
 11
57.9999755
 21
65.0
 31
0.0
  0
LINE
  5
EA
330
1E
100
AcDbEntity
  8
0
100
AcDbLine
 10
52.1561756224066
 20
104.7583908667869
 30
0.0
 11
55.8361755
 21
82.5811
 31
0.0
  0
LINE
  5
EB
330
1E
100
AcDbEntity
  8
0
100
AcDbLine
 10
57.9999755
 20
63.0147
 30
0.0
 11
57.9999755
 21
65.0
 31
0.0
  0
LINE
  5
EC
330
1E
100
AcDbEntity
  8
0
100
AcDbLine
 10
57.9999755
 20
69.18179999999999
 30
0.0
 11
57.9999755
 21
67.63639999999999
 31
0.0
  0
LINE
  5
ED
330
1E
100
AcDbEntity
  8
0
100
AcDbLine
 10
57.9999755
 20
67.63639999999999
 30
0.0
 11
57.9999755
 21
66.5454
 31
0.0
  0
LINE
  5
EE
330
1E
100
AcDbEntity
  8
0
100
AcDbLine
 10
57.9999755
 20
66.5454
 30
0.0
 11
57.9999755
 21
65.72729999999999
 31
0.0
  0
LINE
  5
EF
330
1E
100
AcDbEntity
  8
0
100
AcDbLine
 10
57.9999755
 20
65.72729999999999
 30
0.0
 11
57.9999755
 21
65.1818
 31
0.0
  0
LINE
  5
F0
330
1E
100
AcDbEntity
  8
0
100
AcDbLine
 10
57.9999755
 20
65.1818
 30
0.0
 11
57.9999755
 21
65.0
 31
0.0
  0
LINE
  5
F1
330
1E
100
AcDbEntity
  8
0
100
AcDbLine
 10
57.9999755
 20
70.9091
 30
0.0
 11
57.9999755
 21
69.18179999999999
 31
0.0
  0
LINE
  5
F2
330
1E
100
AcDbEntity
  8
0
100
AcDbLine
 10
57.9999755
 20
72.8182
 30
0.0
 11
57.9999755
 21
70.9091
 31
0.0
  0
LINE
  5
F3
330
1E
100
AcDbEntity
  8
0
100
AcDbLine
 10
57.9999755
 20
75.0
 30
0.0
 11
57.9999755
 21
72.8182
 31
0.0
  0
LINE
  5
F4
330
1E
100
AcDbEntity
  8
0
100
AcDbLine
 10
57.9999755
 20
77.36360000000001
 30
0.0
 11
57.9999755
 21
75.0
 31
0.0
  0
LINE
  5
F5
330
1E
100
AcDbEntity
  8
0
100
AcDbLine
 10
57.9999755
 20
79.8182
 30
0.0
 11
57.9999755
 21
77.36360000000001
 31
0.0
  0
LINE
  5
F6
330
1E
100
AcDbEntity
  8
0
100
AcDbLine
 10
57.9999755
 20
82.36360000000001
 30
0.0
 11
57.9999755
 21
79.8182
 31
0.0
  0
LINE
  5
F7
330
1E
100
AcDbEntity
  8
0
100
AcDbLine
 10
57.9999755
 20
79.3176
 30
0.0
 11
57.9999755
 21
74.0412
 31
0.0
  0
LINE
  5
F8
330
1E
100
AcDbEntity
  8
0
100
AcDbLine
 10
57.9999755
 20
74.0412
 30
0.0
 11
57.9999755
 21
79.3176
 31
0.0
  0
LINE
  5
F9
330
1E
100
AcDbEntity
  8
0
100
AcDbLine
 10
57.9999755
 20
69.44119999999999
 30
0.0
 11
57.9999755
 21
65.9912
 31
0.0
  0
LINE
  5
FA
330
1E
100
AcDbEntity
  8
0
100
AcDbLine
 10
57.9999755
 20
65.9912
 30
0.0
 11
57.9999755
 21
69.44119999999999
 31
0.0
  0
LINE
  5
FB
330
1E
100
AcDbEntity
  8
0
100
AcDbLine
 10
57.9999755
 20
65.0
 30
0.0
 11
57.9999755
 21
63.0147
 31
0.0
  0
LINE
  5
106
330
1E
100
AcDbEntity
  8
0
100
AcDbLine
 10
57.9999755
 20
63.0147
 30
0.0
 11
58.38457550000001
 21
62.3382
 31
0.0
  0
LINE
  5
107
330
1E
100
AcDbEntity
  8
0
100
AcDbLine
 10
58.38457550000001
 20
62.3382
 30
0.0
 11
59.1537755
 21
62.0
 31
0.0
  0
LINE
  5
109
330
1E
100
AcDbEntity
  8
0
100
AcDbLine
 10
59.1537755
 20
62.0
 30
0.0
 11
65.99997550000001
 21
62.0
 31
0.0
  0
LINE
  5
10A
330
1E
100
AcDbEntity
  8
0
100
AcDbLine
 10
57.9999755
 20
95.0
 30
0.0
 11
57.9999755
 21
92.6364
 31
0.0
  0
LINE
  5
10B
330
1E
100
AcDbEntity
  8
0
100
AcDbLine
 10
57.9999755
 20
92.6364
 30
0.0
 11
57.9999755
 21
90.18179999999999
 31
0.0
  0
LINE
  5
10C
330
1E
100
AcDbEntity
  8
0
100
AcDbLine
 10
57.9999755
 20
90.18179999999999
 30
0.0
 11
57.9999755
 21
87.6364
 31
0.0
  0
LINE
  5
10D
330
1E
100
AcDbEntity
  8
0
100
AcDbLine
 10
57.9999755
 20
87.6364
 30
0.0
 11
57.9999755
 21
85.0
 31
0.0
  0
LINE
  5
10E
330
1E
100
AcDbEntity
  8
0
100
AcDbLine
 10
57.9999755
 20
85.0
 30
0.0
 11
57.9999755
 21
82.36360000000001
 31
0.0
  0
LINE
  5
10F
330
1E
100
AcDbEntity
  8
0
100
AcDbLine
 10
57.9999755
 20
100.8188
 30
0.0
 11
57.9999755
 21
99.0906
 31
0.0
  0
LINE
  5
110
330
1E
100
AcDbEntity
  8
0
100
AcDbLine
 10
57.9999755
 20
99.0906
 30
0.0
 11
57.9999755
 21
97.1812
 31
0.0
  0
LINE
  5
111
330
1E
100
AcDbEntity
  8
0
100
AcDbLine
 10
57.9999755
 20
97.1812
 30
0.0
 11
57.9999755
 21
95.0
 31
0.0
  0
LINE
  5
11A
330
1E
100
AcDbEntity
  8
0
100
AcDbLine
 10
52.1561756224066
 20
104.7583908667869
 30
0.0
 11
55.8361755
 21
82.5811
 31
0.0
  0
LINE
  5
11C
330
1E
100
AcDbEntity
  8
0
100
AcDbLine
 10
51.7622755
 20
107.1735
 30
0.0
 11
52.00227550000001
 21
105.6669999999999
 31
0.0
  0
LINE
  5
120
330
1E
100
AcDbEntity
  8
0
100
AcDbLine
 10
52.1561756224066
 20
104.7583908667869
 30
0.0
 11
54.7499755
 21
105.0
 31
0.0
  0
LINE
  5
122
330
1E
100
AcDbEntity
  8
0
100
AcDbLine
 10
52.00227550000001
 20
105.6669999999999
 30
0.0
 11
52.1520755
 21
104.7830999999999
 31
0.0
  0
LINE
  5
125
330
1E
100
AcDbEntity
  8
0
100
AcDbLine
 10
57.9999755
 20
102.3635
 30
0.0
 11
57.9999755
 21
100.8188
 31
0.0
  0
LINE
  5
126
330
1E
100
AcDbEntity
  8
0
100
AcDbLine
 10
57.9999755
 20
103.4540999999999
 30
0.0
 11
57.9999755
 21
102.3635
 31
0.0
  0
LINE
  5
127
330
1E
100
AcDbEntity
  8
0
100
AcDbLine
 10
57.9999755
 20
104.2729
 30
0.0
 11
57.9999755
 21
103.4540999999999
 31
0.0
  0
LINE
  5
128
330
1E
100
AcDbEntity
  8
0
100
AcDbLine
 10
57.9999755
 20
104.0089999999999
 30
0.0
 11
57.9999755
 21
106.1739999999999
 31
0.0
  0
LINE
  5
129
330
1E
100
AcDbEntity
  8
0
100
AcDbLine
 10
57.9999755
 20
104.8187999999999
 30
0.0
 11
57.9999755
 21
104.2729
 31
0.0
  0
LINE
  5
12A
330
1E
100
AcDbEntity
  8
0
100
AcDbLine
 10
54.7499755
 20
105.0
 30
0.0
 11
57.9999755
 21
105.0
 31
0.0
  0
LINE
  5
12B
330
1E
100
AcDbEntity
  8
0
100
AcDbLine
 10
57.9999755
 20
105.0
 30
0.0
 11
57.9999755
 21
106.1739999999999
 31
0.0
  0
LINE
  5
12C
330
1E
100
AcDbEntity
  8
0
100
AcDbLine
 10
57.9999755
 20
105.0
 30
0.0
 11
57.9999755
 21
104.8187999999999
 31
0.0
  0
LINE
  5
12D
330
1E
100
AcDbEntity
  8
0
100
AcDbLine
 10
57.9999755
 20
106.1739999999999
 30
0.0
 11
57.9999755
 21
104.0089999999999
 31
0.0
  0
LINE
  5
12E
330
1E
100
AcDbEntity
  8
0
100
AcDbLine
 10
57.9999755
 20
106.9849999999999
 30
0.0
 11
57.9999755
 21
105.0
 31
0.0
  0
LINE
  5
12F
330
1E
100
AcDbEntity
  8
0
100
AcDbLine
 10
57.9999755
 20
106.9849999999999
 30
0.0
 11
58.38457550000001
 21
107.662
 31
0.0
  0
LINE
  5
134
330
1E
100
AcDbEntity
  8
0
100
AcDbLine
 10
58.38457550000001
 20
107.662
 30
0.0
 11
59.1537755
 21
108.0
 31
0.0
  0
LINE
  5
136
330
1E
100
AcDbEntity
  8
0
100
AcDbLine
 10
61.4999755
 20
143.0
 30
0.0
 11
65.99997550000001
 21
143.0
 31
0.0
  0
LINE
  5
137
330
1E
100
AcDbEntity
  8
0
100
AcDbLine
 10
61.4999755
 20
142.931
 30
0.0
 11
61.4999755
 21
143.455
 31
0.0
  0
LINE
  5
138
330
1E
100
AcDbEntity
  8
0
100
AcDbLine
 10
61.4999755
 20
142.931
 30
0.0
 11
61.4999755
 21
142.44
 31
0.0
  0
LINE
  5
139
330
1E
100
AcDbEntity
  8
0
100
AcDbLine
 10
61.4999755
 20
143.455
 30
0.0
 11
61.4999755
 21
144.0439999999999
 31
0.0
  0
LINE
  5
13A
330
1E
100
AcDbEntity
  8
0
100
AcDbLine
 10
61.4999755
 20
143.455
 30
0.0
 11
61.4999755
 21
142.931
 31
0.0
  0
LINE
  5
13B
330
1E
100
AcDbEntity
  8
0
100
AcDbLine
 10
61.4999755
 20
144.0439999999999
 30
0.0
 11
61.4999755
 21
144.6329999999999
 31
0.0
  0
LINE
  5
13C
330
1E
100
AcDbEntity
  8
0
100
AcDbLine
 10
61.4999755
 20
144.0439999999999
 30
0.0
 11
61.4999755
 21
143.455
 31
0.0
  0
LINE
  5
13D
330
1E
100
AcDbEntity
  8
0
100
AcDbLine
 10
61.4999755
 20
144.6329999999999
 30
0.0
 11
61.4999755
 21
145.255
 31
0.0
  0
LINE
  5
13E
330
1E
100
AcDbEntity
  8
0
100
AcDbLine
 10
61.4999755
 20
144.6329999999999
 30
0.0
 11
61.4999755
 21
144.0439999999999
 31
0.0
  0
LINE
  5
13F
330
1E
100
AcDbEntity
  8
0
100
AcDbLine
 10
61.4999755
 20
145.255
 30
0.0
 11
61.4999755
 21
145.9089999999999
 31
0.0
  0
LINE
  5
140
330
1E
100
AcDbEntity
  8
0
100
AcDbLine
 10
61.4999755
 20
145.255
 30
0.0
 11
61.4999755
 21
144.6329999999999
 31
0.0
  0
LINE
  5
141
330
1E
100
AcDbEntity
  8
0
100
AcDbLine
 10
61.4999755
 20
145.9089999999999
 30
0.0
 11
61.4999755
 21
159.0
 31
0.0
  0
LINE
  5
142
330
1E
100
AcDbEntity
  8
0
100
AcDbLine
 10
61.4999755
 20
145.9089999999999
 30
0.0
 11
61.4999755
 21
145.255
 31
0.0
  0
LINE
  5
143
330
1E
100
AcDbEntity
  8
0
100
AcDbLine
 10
61.4999755
 20
142.44
 30
0.0
 11
61.4999755
 21
142.0149999999999
 31
0.0
  0
LINE
  5
144
330
1E
100
AcDbEntity
  8
0
100
AcDbLine
 10
61.4999755
 20
142.44
 30
0.0
 11
61.4999755
 21
142.931
 31
0.0
  0
LINE
  5
145
330
1E
100
AcDbEntity
  8
0
100
AcDbLine
 10
61.4999755
 20
142.0149999999999
 30
0.0
 11
61.4999755
 21
142.44
 31
0.0
  0
LINE
  5
146
330
1E
100
AcDbEntity
  8
0
100
AcDbLine
 10
61.4999755
 20
142.0149999999999
 30
0.0
 11
61.4999755
 21
141.6549999999999
 31
0.0
  0
LINE
  5
147
330
1E
100
AcDbEntity
  8
0
100
AcDbLine
 10
61.4999755
 20
141.6549999999999
 30
0.0
 11
61.4999755
 21
142.0149999999999
 31
0.0
  0
LINE
  5
148
330
1E
100
AcDbEntity
  8
0
100
AcDbLine
 10
61.4999755
 20
141.6549999999999
 30
0.0
 11
61.4999755
 21
141.393
 31
0.0
  0
LINE
  5
149
330
1E
100
AcDbEntity
  8
0
100
AcDbLine
 10
61.4999755
 20
141.393
 30
0.0
 11
61.4999755
 21
141.6549999999999
 31
0.0
  0
LINE
  5
14A
330
1E
100
AcDbEntity
  8
0
100
AcDbLine
 10
61.4999755
 20
141.393
 30
0.0
 11
61.4999755
 21
141.164
 31
0.0
  0
LINE
  5
14B
330
1E
100
AcDbEntity
  8
0
100
AcDbLine
 10
61.4999755
 20
141.164
 30
0.0
 11
61.4999755
 21
141.393
 31
0.0
  0
LINE
  5
14C
330
1E
100
AcDbEntity
  8
0
100
AcDbLine
 10
61.4999755
 20
141.164
 30
0.0
 11
61.4999755
 21
141.0649999999999
 31
0.0
  0
LINE
  5
14D
330
1E
100
AcDbEntity
  8
0
100
AcDbLine
 10
61.4999755
 20
141.0649999999999
 30
0.0
 11
61.4999755
 21
141.164
 31
0.0
  0
LINE
  5
14E
330
1E
100
AcDbEntity
  8
0
100
AcDbLine
 10
61.4999755
 20
141.0649999999999
 30
0.0
 11
61.4999755
 21
141.0
 31
0.0
  0
LINE
  5
14F
330
1E
100
AcDbEntity
  8
0
100
AcDbLine
 10
61.4999755
 20
175.0
 30
0.0
 11
65.99997550000001
 21
175.0
 31
0.0
  0
LINE
  5
150
330
1E
100
AcDbEntity
  8
0
100
AcDbLine
 10
61.4999755
 20
175.9859999999999
 30
0.0
 11
61.4999755
 21
176.3459999999999
 31
0.0
  0
LINE
  5
151
330
1E
100
AcDbEntity
  8
0
100
AcDbLine
 10
61.4999755
 20
175.9859999999999
 30
0.0
 11
61.4999755
 21
175.56
 31
0.0
  0
LINE
  5
152
330
1E
100
AcDbEntity
  8
0
100
AcDbLine
 10
61.4999755
 20
176.3459999999999
 30
0.0
 11
61.4999755
 21
176.607
 31
0.0
  0
LINE
  5
153
330
1E
100
AcDbEntity
  8
0
100
AcDbLine
 10
61.4999755
 20
176.3459999999999
 30
0.0
 11
61.4999755
 21
175.9859999999999
 31
0.0
  0
LINE
  5
154
330
1E
100
AcDbEntity
  8
0
100
AcDbLine
 10
61.4999755
 20
176.607
 30
0.0
 11
61.4999755
 21
176.8359999999999
 31
0.0
  0
LINE
  5
155
330
1E
100
AcDbEntity
  8
0
100
AcDbLine
 10
61.4999755
 20
176.607
 30
0.0
 11
61.4999755
 21
176.3459999999999
 31
0.0
  0
LINE
  5
156
330
1E
100
AcDbEntity
  8
0
100
AcDbLine
 10
61.4999755
 20
177.0
 30
0.0
 11
61.4999755
 21
176.934
 31
0.0
  0
LINE
  5
157
330
1E
100
AcDbEntity
  8
0
100
AcDbLine
 10
61.4999755
 20
176.8359999999999
 30
0.0
 11
61.4999755
 21
176.934
 31
0.0
  0
LINE
  5
158
330
1E
100
AcDbEntity
  8
0
100
AcDbLine
 10
61.4999755
 20
176.8359999999999
 30
0.0
 11
61.4999755
 21
176.607
 31
0.0
  0
LINE
  5
159
330
1E
100
AcDbEntity
  8
0
100
AcDbLine
 10
61.4999755
 20
176.934
 30
0.0
 11
61.4999755
 21
177.0
 31
0.0
  0
LINE
  5
15A
330
1E
100
AcDbEntity
  8
0
100
AcDbLine
 10
61.4999755
 20
176.934
 30
0.0
 11
61.4999755
 21
176.8359999999999
 31
0.0
  0
LINE
  5
15B
330
1E
100
AcDbEntity
  8
0
100
AcDbLine
 10
61.4999755
 20
175.56
 30
0.0
 11
61.4999755
 21
175.069
 31
0.0
  0
LINE
  5
15C
330
1E
100
AcDbEntity
  8
0
100
AcDbLine
 10
61.4999755
 20
175.56
 30
0.0
 11
61.4999755
 21
175.9859999999999
 31
0.0
  0
LINE
  5
15D
330
1E
100
AcDbEntity
  8
0
100
AcDbLine
 10
61.4999755
 20
175.069
 30
0.0
 11
61.4999755
 21
175.56
 31
0.0
  0
LINE
  5
15E
330
1E
100
AcDbEntity
  8
0
100
AcDbLine
 10
61.4999755
 20
175.069
 30
0.0
 11
61.4999755
 21
174.546
 31
0.0
  0
LINE
  5
15F
330
1E
100
AcDbEntity
  8
0
100
AcDbLine
 10
61.4999755
 20
174.546
 30
0.0
 11
61.4999755
 21
175.069
 31
0.0
  0
LINE
  5
160
330
1E
100
AcDbEntity
  8
0
100
AcDbLine
 10
61.4999755
 20
174.546
 30
0.0
 11
61.4999755
 21
173.9559999999999
 31
0.0
  0
LINE
  5
161
330
1E
100
AcDbEntity
  8
0
100
AcDbLine
 10
61.4999755
 20
173.9559999999999
 30
0.0
 11
61.4999755
 21
174.546
 31
0.0
  0
LINE
  5
162
330
1E
100
AcDbEntity
  8
0
100
AcDbLine
 10
61.4999755
 20
173.9559999999999
 30
0.0
 11
61.4999755
 21
173.367
 31
0.0
  0
LINE
  5
163
330
1E
100
AcDbEntity
  8
0
100
AcDbLine
 10
61.4999755
 20
173.367
 30
0.0
 11
61.4999755
 21
173.9559999999999
 31
0.0
  0
LINE
  5
164
330
1E
100
AcDbEntity
  8
0
100
AcDbLine
 10
61.4999755
 20
173.367
 30
0.0
 11
61.4999755
 21
172.745
 31
0.0
  0
LINE
  5
165
330
1E
100
AcDbEntity
  8
0
100
AcDbLine
 10
61.4999755
 20
172.745
 30
0.0
 11
61.4999755
 21
173.367
 31
0.0
  0
LINE
  5
166
330
1E
100
AcDbEntity
  8
0
100
AcDbLine
 10
61.4999755
 20
172.745
 30
0.0
 11
61.4999755
 21
172.0909999999999
 31
0.0
  0
LINE
  5
167
330
1E
100
AcDbEntity
  8
0
100
AcDbLine
 10
61.4999755
 20
172.0909999999999
 30
0.0
 11
61.4999755
 21
172.745
 31
0.0
  0
LINE
  5
168
330
1E
100
AcDbEntity
  8
0
100
AcDbLine
 10
61.4999755
 20
172.0909999999999
 30
0.0
 11
61.4999755
 21
159.0
 31
0.0
  0
LINE
  5
169
330
1E
100
AcDbEntity
  8
0
100
AcDbLine
 10
61.4999755
 20
159.0
 30
0.0
 11
61.4999755
 21
172.0909999999999
 31
0.0
  0
LINE
  5
16A
330
1E
100
AcDbEntity
  8
0
100
AcDbLine
 10
61.4999755
 20
159.0
 30
0.0
 11
61.4999755
 21
145.9089999999999
 31
0.0
  0
LINE
  5
16B
330
1E
100
AcDbEntity
  8
0
100
AcDbLine
 10
61.4999755
 20
141.0
 30
0.0
 11
61.4999755
 21
141.0649999999999
 31
0.0
  0
LINE
  5
16C
330
1E
100
AcDbEntity
  8
0
100
AcDbLine
 10
59.1537755
 20
108.0
 30
0.0
 11
65.99997550000001
 21
108.0
 31
0.0
  0
LINE
  5
170
330
1E
100
AcDbEntity
  8
0
100
AcDbLine
 10
44.43897549999999
 20
53.9555
 30
0.0
 11
44.83737549999999
 21
53.12409999999999
 31
0.0
  0
LINE
  5
171
330
1E
100
AcDbEntity
  8
0
100
AcDbLine
 10
44.83737549999999
 20
53.12409999999999
 30
0.0
 11
44.9200755
 21
52.2737
 31
0.0
  0
LINE
  5
174
330
1E
100
AcDbEntity
  8
0
100
AcDbLine
 10
27.22777549999999
 20
113.7475
 30
0.0
 11
27.9815755
 21
113.8560999999999
 31
0.0
  0
LINE
  5
179
330
1E
100
AcDbEntity
  8
0
100
AcDbLine
 10
66.9999755
 20
37.0
 30
0.0
 11
79.9999755
 21
37.0
 31
0.0
  0
LINE
  5
17A
330
1E
100
AcDbEntity
  8
0
100
AcDbLine
 10
65.99997550000001
 20
38.0
 30
0.0
 11
65.99997550000001
 21
205.5
 31
0.0
  0
LINE
  5
194
330
1E
100
AcDbEntity
  8
0
100
AcDbLine
 10
65.99997550000001
 20
205.5
 30
0.0
 11
65.99997550000001
 21
38.0
 31
0.0
  0
LINE
  5
19D
330
1E
100
AcDbEntity
  8
0
100
AcDbLine
 10
65.99997550000001
 20
205.5
 30
0.0
 11
65.99997550000001
 21
205.9
 31
0.0
  0
LINE
  5
19E
330
1E
100
AcDbEntity
  8
0
100
AcDbLine
 10
65.99997550000001
 20
205.9
 30
0.0
 11
65.99997550000001
 21
205.5
 31
0.0
  0
LINE
  5
19F
330
1E
100
AcDbEntity
  8
0
100
AcDbLine
 10
65.99997550000001
 20
205.9
 30
0.0
 11
65.99997550000001
 21
206.0
 31
0.0
  0
LINE
  5
1A0
330
1E
100
AcDbEntity
  8
0
100
AcDbLine
 10
65.99997550000001
 20
206.0
 30
0.0
 11
66.2999755
 21
206.6999999999999
 31
0.0
  0
LINE
  5
1A1
330
1E
100
AcDbEntity
  8
0
100
AcDbLine
 10
65.99997550000001
 20
206.0
 30
0.0
 11
65.99997550000001
 21
205.9
 31
0.0
  0
LINE
  5
1AB
330
1E
100
AcDbEntity
  8
0
100
AcDbLine
 10
79.9999755
 20
42.9
 30
0.0
 11
79.9999755
 21
41.39999999999999
 31
0.0
  0
LINE
  5
1AC
330
1E
100
AcDbEntity
  8
0
100
AcDbLine
 10
79.9999755
 20
42.9
 30
0.0
 11
79.9999755
 21
44.5
 31
0.0
  0
LINE
  5
1AD
330
1E
100
AcDbEntity
  8
0
100
AcDbLine
 10
79.9999755
 20
44.5
 30
0.0
 11
79.9999755
 21
42.9
 31
0.0
  0
LINE
  5
1AE
330
1E
100
AcDbEntity
  8
0
100
AcDbLine
 10
79.9999755
 20
44.5
 30
0.0
 11
79.9999755
 21
46.29999999999999
 31
0.0
  0
LINE
  5
1AF
330
1E
100
AcDbEntity
  8
0
100
AcDbLine
 10
79.9999755
 20
46.29999999999999
 30
0.0
 11
79.9999755
 21
44.5
 31
0.0
  0
LINE
  5
1B0
330
1E
100
AcDbEntity
  8
0
100
AcDbLine
 10
79.9999755
 20
46.29999999999999
 30
0.0
 11
79.9999755
 21
48.1
 31
0.0
  0
LINE
  5
1B1
330
1E
100
AcDbEntity
  8
0
100
AcDbLine
 10
79.9999755
 20
48.1
 30
0.0
 11
79.9999755
 21
46.29999999999999
 31
0.0
  0
LINE
  5
1B2
330
1E
100
AcDbEntity
  8
0
100
AcDbLine
 10
79.9999755
 20
48.1
 30
0.0
 11
79.9999755
 21
50.0
 31
0.0
  0
LINE
  5
1B3
330
1E
100
AcDbEntity
  8
0
100
AcDbLine
 10
79.9999755
 20
50.0
 30
0.0
 11
79.9999755
 21
48.1
 31
0.0
  0
LINE
  5
1B4
330
1E
100
AcDbEntity
  8
0
100
AcDbLine
 10
79.9999755
 20
50.0
 30
0.0
 11
79.9999755
 21
52.0
 31
0.0
  0
LINE
  5
1B5
330
1E
100
AcDbEntity
  8
0
100
AcDbLine
 10
79.9999755
 20
52.0
 30
0.0
 11
79.9999755
 21
50.0
 31
0.0
  0
LINE
  5
1B6
330
1E
100
AcDbEntity
  8
0
100
AcDbLine
 10
79.9999755
 20
52.0
 30
0.0
 11
79.9999755
 21
122.0
 31
0.0
  0
LINE
  5
1B7
330
1E
100
AcDbEntity
  8
0
100
AcDbLine
 10
79.9999755
 20
41.39999999999999
 30
0.0
 11
79.9999755
 21
40.1
 31
0.0
  0
LINE
  5
1B8
330
1E
100
AcDbEntity
  8
0
100
AcDbLine
 10
79.9999755
 20
41.39999999999999
 30
0.0
 11
79.9999755
 21
42.9
 31
0.0
  0
LINE
  5
1B9
330
1E
100
AcDbEntity
  8
0
100
AcDbLine
 10
79.9999755
 20
40.1
 30
0.0
 11
79.9999755
 21
39.0
 31
0.0
  0
LINE
  5
1BA
330
1E
100
AcDbEntity
  8
0
100
AcDbLine
 10
79.9999755
 20
40.1
 30
0.0
 11
79.9999755
 21
41.39999999999999
 31
0.0
  0
LINE
  5
1BB
330
1E
100
AcDbEntity
  8
0
100
AcDbLine
 10
79.9999755
 20
39.0
 30
0.0
 11
79.9999755
 21
38.2
 31
0.0
  0
LINE
  5
1BC
330
1E
100
AcDbEntity
  8
0
100
AcDbLine
 10
79.9999755
 20
39.0
 30
0.0
 11
79.9999755
 21
40.1
 31
0.0
  0
LINE
  5
1BD
330
1E
100
AcDbEntity
  8
0
100
AcDbLine
 10
79.9999755
 20
38.2
 30
0.0
 11
79.9999755
 21
37.5
 31
0.0
  0
LINE
  5
1BE
330
1E
100
AcDbEntity
  8
0
100
AcDbLine
 10
79.9999755
 20
38.2
 30
0.0
 11
79.9999755
 21
39.0
 31
0.0
  0
LINE
  5
1BF
330
1E
100
AcDbEntity
  8
0
100
AcDbLine
 10
79.9999755
 20
37.5
 30
0.0
 11
79.9999755
 21
37.2
 31
0.0
  0
LINE
  5
1C0
330
1E
100
AcDbEntity
  8
0
100
AcDbLine
 10
79.9999755
 20
37.5
 30
0.0
 11
79.9999755
 21
38.2
 31
0.0
  0
LINE
  5
1C1
330
1E
100
AcDbEntity
  8
0
100
AcDbLine
 10
79.9999755
 20
37.2
 30
0.0
 11
79.9999755
 21
37.0
 31
0.0
  0
LINE
  5
1C2
330
1E
100
AcDbEntity
  8
0
100
AcDbLine
 10
79.9999755
 20
37.2
 30
0.0
 11
79.9999755
 21
37.5
 31
0.0
  0
LINE
  5
1DC
330
1E
100
AcDbEntity
  8
0
100
AcDbLine
 10
79.9999755
 20
192.0
 30
0.0
 11
79.9999755
 21
194.0
 31
0.0
  0
LINE
  5
1DD
330
1E
100
AcDbEntity
  8
0
100
AcDbLine
 10
79.9999755
 20
203.9
 30
0.0
 11
79.9999755
 21
202.5999999999999
 31
0.0
  0
LINE
  5
1DE
330
1E
100
AcDbEntity
  8
0
100
AcDbLine
 10
79.9999755
 20
203.9
 30
0.0
 11
79.9999755
 21
205.0
 31
0.0
  0
LINE
  5
1DF
330
1E
100
AcDbEntity
  8
0
100
AcDbLine
 10
79.9999755
 20
205.0
 30
0.0
 11
79.9999755
 21
203.9
 31
0.0
  0
LINE
  5
1E0
330
1E
100
AcDbEntity
  8
0
100
AcDbLine
 10
79.9999755
 20
205.0
 30
0.0
 11
79.9999755
 21
205.8
 31
0.0
  0
LINE
  5
1E1
330
1E
100
AcDbEntity
  8
0
100
AcDbLine
 10
79.9999755
 20
205.8
 30
0.0
 11
79.9999755
 21
205.0
 31
0.0
  0
LINE
  5
1E2
330
1E
100
AcDbEntity
  8
0
100
AcDbLine
 10
79.9999755
 20
205.8
 30
0.0
 11
79.9999755
 21
206.4999999999999
 31
0.0
  0
LINE
  5
1E3
330
1E
100
AcDbEntity
  8
0
100
AcDbLine
 10
79.9999755
 20
206.4999999999999
 30
0.0
 11
79.9999755
 21
205.8
 31
0.0
  0
LINE
  5
1E4
330
1E
100
AcDbEntity
  8
0
100
AcDbLine
 10
79.9999755
 20
206.4999999999999
 30
0.0
 11
79.9999755
 21
206.8
 31
0.0
  0
LINE
  5
1E5
330
1E
100
AcDbEntity
  8
0
100
AcDbLine
 10
79.9999755
 20
202.5999999999999
 30
0.0
 11
79.9999755
 21
201.1
 31
0.0
  0
LINE
  5
1E6
330
1E
100
AcDbEntity
  8
0
100
AcDbLine
 10
79.9999755
 20
202.5999999999999
 30
0.0
 11
79.9999755
 21
203.9
 31
0.0
  0
LINE
  5
1E7
330
1E
100
AcDbEntity
  8
0
100
AcDbLine
 10
79.9999755
 20
201.1
 30
0.0
 11
79.9999755
 21
199.5
 31
0.0
  0
LINE
  5
1E8
330
1E
100
AcDbEntity
  8
0
100
AcDbLine
 10
79.9999755
 20
201.1
 30
0.0
 11
79.9999755
 21
202.5999999999999
 31
0.0
  0
LINE
  5
1E9
330
1E
100
AcDbEntity
  8
0
100
AcDbLine
 10
79.9999755
 20
199.5
 30
0.0
 11
79.9999755
 21
197.6999999999999
 31
0.0
  0
LINE
  5
1EA
330
1E
100
AcDbEntity
  8
0
100
AcDbLine
 10
79.9999755
 20
199.5
 30
0.0
 11
79.9999755
 21
201.1
 31
0.0
  0
LINE
  5
1EB
330
1E
100
AcDbEntity
  8
0
100
AcDbLine
 10
79.9999755
 20
197.6999999999999
 30
0.0
 11
79.9999755
 21
195.8999999999999
 31
0.0
  0
LINE
  5
1EC
330
1E
100
AcDbEntity
  8
0
100
AcDbLine
 10
79.9999755
 20
197.6999999999999
 30
0.0
 11
79.9999755
 21
199.5
 31
0.0
  0
LINE
  5
1ED
330
1E
100
AcDbEntity
  8
0
100
AcDbLine
 10
79.9999755
 20
195.8999999999999
 30
0.0
 11
79.9999755
 21
194.0
 31
0.0
  0
LINE
  5
1EE
330
1E
100
AcDbEntity
  8
0
100
AcDbLine
 10
79.9999755
 20
195.8999999999999
 30
0.0
 11
79.9999755
 21
197.6999999999999
 31
0.0
  0
LINE
  5
1EF
330
1E
100
AcDbEntity
  8
0
100
AcDbLine
 10
79.9999755
 20
194.0
 30
0.0
 11
79.9999755
 21
192.0
 31
0.0
  0
LINE
  5
1F0
330
1E
100
AcDbEntity
  8
0
100
AcDbLine
 10
79.9999755
 20
194.0
 30
0.0
 11
79.9999755
 21
195.8999999999999
 31
0.0
  0
LINE
  5
1F1
330
1E
100
AcDbEntity
  8
0
100
AcDbLine
 10
79.9999755
 20
122.0
 30
0.0
 11
79.9999755
 21
192.0
 31
0.0
  0
LINE
  5
1F2
330
1E
100
AcDbEntity
  8
0
100
AcDbLine
 10
79.9999755
 20
122.0
 30
0.0
 11
79.9999755
 21
52.0
 31
0.0
  0
LINE
  5
1F3
330
1E
100
AcDbEntity
  8
0
100
AcDbLine
 10
66.9999755
 20
207.0
 30
0.0
 11
79.9999755
 21
207.0
 31
0.0
  0
LINE
  5
1F4
330
1E
100
AcDbEntity
  8
0
100
AcDbLine
 10
79.9999755
 20
206.8
 30
0.0
 11
79.9999755
 21
206.4999999999999
 31
0.0
  0
LINE
  5
1F5
330
1E
100
AcDbEntity
  8
0
100
AcDbLine
 10
79.9999755
 20
206.8
 30
0.0
 11
79.9999755
 21
207.0
 31
0.0
  0
LINE
  5
1F6
330
1E
100
AcDbEntity
  8
0
100
AcDbLine
 10
79.9999755
 20
207.0
 30
0.0
 11
79.9999755
 21
206.8
 31
0.0
  0
LINE
  5
1F7
330
1E
100
AcDbEntity
  8
0
100
AcDbLine
 10
66.2999755
 20
206.6999999999999
 30
0.0
 11
66.9999755
 21
207.0
 31
0.0
  0
LINE
  5
1F9
330
1E
100
AcDbEntity
  8
0
100
AcDbLine
 10
66.2999755
 20
37.29999999999999
 30
0.0
 11
66.9999755
 21
37.0
 31
0.0
  0
LINE
  5
1FB
330
1E
100
AcDbEntity
  8
0
100
AcDbLine
 10
79.9999755
 20
37.0
 30
0.0
 11
79.9999755
 21
37.2
 31
0.0
  0
LINE
  5
202
330
1E
100
AcDbEntity
  8
0
100
AcDbLine
 10
61.4999755
 20
177.0
 30
0.0
 11
25.67137549999999
 21
176.902
 31
0.0
  0
LINE
  5
203
330
1E
100
AcDbEntity
  8
0
100
AcDbLine
 10
25.67137549999999
 20
141.0979999999999
 30
0.0
 11
25.4999755
 21
141.36
 31
0.0
  0
LINE
  5
204
330
1E
100
AcDbEntity
  8
0
100
AcDbLine
 10
25.4999755
 20
141.36
 30
0.0
 11
25.4999755
 21
141.9489999999999
 31
0.0
  0
LINE
  5
205
330
1E
100
AcDbEntity
  8
0
100
AcDbLine
 10
55.8361755
 20
82.5811
 30
0.0
 11
51.2136817625704
 21
65.32976392472519
 31
0.0
  0
LINE
  5
206
330
1E
100
AcDbEntity
  8
0
100
AcDbLine
 10
51.2136817625704
 20
65.32976392472519
 30
0.0
 11
34.5820755
 21
4.418800000000009
 31
0.0
  0
ENDSEC
  0
SECTION
  2
OBJECTS
  0
DICTIONARY
  5
C
330
0
100
AcDbDictionary
281
     1
  3
ACAD_GROUP
350
D
  3
ACAD_LAYOUT
350
19
  3
ACAD_MLINESTYLE
350
16
  3
ACAD_PLOTSETTINGS
350
18
  3
ACAD_PLOTSTYLENAME
350
E
  3
AcDbVariableDictionary
350
207
  0
DICTIONARY
  5
D
102
{ACAD_REACTORS
330
C
102
}
330
C
100
AcDbDictionary
281
     1
  0
DICTIONARY
  5
19
102
{ACAD_REACTORS
330
C
102
}
330
C
100
AcDbDictionary
281
     1
  3
Layout1
350
1D
  3
Model
350
21
  0
DICTIONARY
  5
16
102
{ACAD_REACTORS
330
C
102
}
330
C
100
AcDbDictionary
281
     1
  3
Standard
350
17
  0
DICTIONARY
  5
18
102
{ACAD_REACTORS
330
C
102
}
330
C
100
AcDbDictionary
281
     1
  0
ACDBDICTIONARYWDFLT
  5
E
102
{ACAD_REACTORS
330
C
102
}
330
C
100
AcDbDictionary
281
     1
  3
Normal
350
F
100
AcDbDictionaryWithDefault
340
F
  0
DICTIONARY
  5
207
102
{ACAD_REACTORS
330
C
102
}
330
C
100
AcDbDictionary
281
     1
  3
DIMASSOC
350
208
  0
LAYOUT
  5
1D
102
{ACAD_REACTORS
330
19
102
}
330
19
100
AcDbPlotSettings
  1

  2
hp deskjet 980c series
  4

  6

 40
0.0
 41
0.0
 42
0.0
 43
0.0
 44
0.0
 45
0.0
 46
0.0
 47
0.0
 48
0.0
 49
0.0
140
0.0
141
0.0
142
1.0
143
1.0
 70
   688
 72
     0
 73
     0
 74
     5
  7

 75
    16
147
1.0
148
0.0
149
0.0
100
AcDbLayout
  1
Layout1
 70
     1
 71
     1
 10
0.0
 20
0.0
 11
12.0
 21
9.0
 12
0.0
 22
0.0
 32
0.0
 14
1.000000000000000E+20
 24
1.000000000000000E+20
 34
1.000000000000000E+20
 15
-1.000000000000000E+20
 25
-1.000000000000000E+20
 35
-1.000000000000000E+20
146
0.0
 13
0.0
 23
0.0
 33
0.0
 16
1.0
 26
0.0
 36
0.0
 17
0.0
 27
1.0
 37
0.0
 76
     0
330
1A
  0
LAYOUT
  5
21
102
{ACAD_REACTORS
330
19
102
}
330
19
100
AcDbPlotSettings
  1

  2
hp deskjet 980c series
  4

  6

 40
0.0
 41
0.0
 42
0.0
 43
0.0
 44
0.0
 45
0.0
 46
0.0
 47
0.0
 48
0.0
 49
0.0
140
0.0
141
0.0
142
1.0
143
1.0
 70
  1712
 72
     0
 73
     0
 74
     0
  7

 75
     0
147
1.0
148
0.0
149
0.0
100
AcDbLayout
  1
Model
 70
     1
 71
     0
 10
0.0
 20
0.0
 11
12.0
 21
9.0
 12
0.0
 22
0.0
 32
0.0
 14
0.0
 24
0.0
 34
0.0
 15
0.0
 25
0.0
 35
0.0
146
0.0
 13
0.0
 23
0.0
 33
0.0
 16
1.0
 26
0.0
 36
0.0
 17
0.0
 27
1.0
 37
0.0
 76
     0
330
1E
  0
MLINESTYLE
  5
17
102
{ACAD_REACTORS
330
16
102
}
330
16
100
AcDbMlineStyle
  2
STANDARD
 70
     0
  3

 62
   256
 51
90.0
 52
90.0
 71
     2
 49
0.5
 62
   256
  6
BYLAYER
 49
-0.5
 62
   256
  6
BYLAYER
  0
ACDBPLACEHOLDER
  5
F
102
{ACAD_REACTORS
330
E
102
}
330
E
  0
DICTIONARYVAR
  5
208
102
{ACAD_REACTORS
330
207
102
}
330
207
100
DictionaryVariables
280
     0
  1
1
  0
ENDSEC
  0
EOF
