  0
SECTION
  2
HEADER
  9
$ACADVER
  1
AC1015
  9
$ACADMAINTVER
 70
    13
  9
$DWGCODEPAGE
  3
ANSI_1252
  9
$INSBASE
 10
0.0
 20
0.0
 30
0.0
  9
$EXTMIN
 10
0.0
 20
0.173999999999998
 30
0.0
  9
$EXTMAX
 10
212.0
 20
160.826
 30
0.0
  9
$LIMMIN
 10
0.0
 20
0.0
  9
$LIMMAX
 10
12.0
 20
9.0
  9
$ORTHOMODE
 70
     0
  9
$REGENMODE
 70
     1
  9
$FILLMODE
 70
     1
  9
$QTEXTMODE
 70
     0
  9
$MIRRTEXT
 70
     1
  9
$LTSCALE
 40
1.0
  9
$ATTMODE
 70
     1
  9
$TEXTSIZE
 40
0.2
  9
$TRACEWID
 40
0.05
  9
$TEXTSTYLE
  7
Standard
  9
$CLAYER
  8
0
  9
$CELTYPE
  6
Continuous
  9
$CECOLOR
 62
   256
  9
$CELTSCALE
 40
1.0
  9
$DISPSILH
 70
     0
  9
$DIMSCALE
 40
1.0
  9
$DIMASZ
 40
0.18
  9
$DIMEXO
 40
0.0625
  9
$DIMDLI
 40
0.38
  9
$DIMRND
 40
0.0
  9
$DIMDLE
 40
0.0
  9
$DIMEXE
 40
0.18
  9
$DIMTP
 40
0.0
  9
$DIMTM
 40
0.0
  9
$DIMTXT
 40
0.18
  9
$DIMCEN
 40
0.09
  9
$DIMTSZ
 40
0.0
  9
$DIMTOL
 70
     0
  9
$DIMLIM
 70
     0
  9
$DIMTIH
 70
     1
  9
$DIMTOH
 70
     1
  9
$DIMSE1
 70
     0
  9
$DIMSE2
 70
     0
  9
$DIMTAD
 70
     0
  9
$DIMZIN
 70
     0
  9
$DIMBLK
  1

  9
$DIMASO
 70
     1
  9
$DIMSHO
 70
     1
  9
$DIMPOST
  1

  9
$DIMAPOST
  1

  9
$DIMALT
 70
     0
  9
$DIMALTD
 70
     2
  9
$DIMALTF
 40
25.4
  9
$DIMLFAC
 40
1.0
  9
$DIMTOFL
 70
     0
  9
$DIMTVP
 40
0.0
  9
$DIMTIX
 70
     0
  9
$DIMSOXD
 70
     0
  9
$DIMSAH
 70
     0
  9
$DIMBLK1
  1

  9
$DIMBLK2
  1

  9
$DIMSTYLE
  2
Standard
  9
$DIMCLRD
 70
     0
  9
$DIMCLRE
 70
     0
  9
$DIMCLRT
 70
     0
  9
$DIMTFAC
 40
1.0
  9
$DIMGAP
 40
0.09
  9
$DIMJUST
 70
     0
  9
$DIMSD1
 70
     0
  9
$DIMSD2
 70
     0
  9
$DIMTOLJ
 70
     1
  9
$DIMTZIN
 70
     0
  9
$DIMALTZ
 70
     0
  9
$DIMALTTZ
 70
     0
  9
$DIMUPT
 70
     0
  9
$DIMDEC
 70
     4
  9
$DIMTDEC
 70
     4
  9
$DIMALTU
 70
     2
  9
$DIMALTTD
 70
     2
  9
$DIMTXSTY
  7
Standard
  9
$DIMAUNIT
 70
     0
  9
$DIMADEC
 70
     0
  9
$DIMALTRND
 40
0.0
  9
$DIMAZIN
 70
     0
  9
$DIMDSEP
 70
    46
  9
$DIMATFIT
 70
     3
  9
$DIMFRAC
 70
     0
  9
$DIMLDRBLK
  1

  9
$DIMLUNIT
 70
     2
  9
$DIMLWD
 70
    -2
  9
$DIMLWE
 70
    -2
  9
$DIMTMOVE
 70
     0
  9
$LUNITS
 70
     2
  9
$LUPREC
 70
     4
  9
$SKETCHINC
 40
0.1
  9
$FILLETRAD
 40
0.0
  9
$AUNITS
 70
     0
  9
$AUPREC
 70
     0
  9
$MENU
  1
.
  9
$ELEVATION
 40
0.0
  9
$PELEVATION
 40
0.0
  9
$THICKNESS
 40
0.0
  9
$LIMCHECK
 70
     0
  9
$CHAMFERA
 40
0.0
  9
$CHAMFERB
 40
0.0
  9
$CHAMFERC
 40
0.0
  9
$CHAMFERD
 40
0.0
  9
$SKPOLY
 70
     0
  9
$TDCREATE
 40
2454875.879051458
  9
$TDUCREATE
 40
2454875.837384791
  9
$TDUPDATE
 40
2454875.884459988
  9
$TDUUPDATE
 40
2454875.842793321
  9
$TDINDWG
 40
0.0054087037
  9
$TDUSRTIMER
 40
0.0054087037
  9
$USRTIMER
 70
     1
  9
$ANGBASE
 50
0.0
  9
$ANGDIR
 70
     0
  9
$PDMODE
 70
     0
  9
$PDSIZE
 40
0.0
  9
$PLINEWID
 40
0.0
  9
$SPLFRAME
 70
     0
  9
$SPLINETYPE
 70
     6
  9
$SPLINESEGS
 70
     8
  9
$HANDSEED
  5
2B7
  9
$SURFTAB1
 70
     6
  9
$SURFTAB2
 70
     6
  9
$SURFTYPE
 70
     6
  9
$SURFU
 70
     6
  9
$SURFV
 70
     6
  9
$UCSBASE
  2

  9
$UCSNAME
  2

  9
$UCSORG
 10
0.0
 20
0.0
 30
0.0
  9
$UCSXDIR
 10
1.0
 20
0.0
 30
0.0
  9
$UCSYDIR
 10
0.0
 20
1.0
 30
0.0
  9
$UCSORTHOREF
  2

  9
$UCSORTHOVIEW
 70
     1
  9
$UCSORGTOP
 10
0.0
 20
0.0
 30
0.0
  9
$UCSORGBOTTOM
 10
0.0
 20
0.0
 30
0.0
  9
$UCSORGLEFT
 10
0.0
 20
0.0
 30
0.0
  9
$UCSORGRIGHT
 10
0.0
 20
0.0
 30
0.0
  9
$UCSORGFRONT
 10
0.0
 20
0.0
 30
0.0
  9
$UCSORGBACK
 10
0.0
 20
0.0
 30
0.0
  9
$PUCSBASE
  2

  9
$PUCSNAME
  2

  9
$PUCSORG
 10
0.0
 20
0.0
 30
0.0
  9
$PUCSXDIR
 10
1.0
 20
0.0
 30
0.0
  9
$PUCSYDIR
 10
0.0
 20
1.0
 30
0.0
  9
$PUCSORTHOREF
  2

  9
$PUCSORTHOVIEW
 70
     0
  9
$PUCSORGTOP
 10
0.0
 20
0.0
 30
0.0
  9
$PUCSORGBOTTOM
 10
0.0
 20
0.0
 30
0.0
  9
$PUCSORGLEFT
 10
0.0
 20
0.0
 30
0.0
  9
$PUCSORGRIGHT
 10
0.0
 20
0.0
 30
0.0
  9
$PUCSORGFRONT
 10
0.0
 20
0.0
 30
0.0
  9
$PUCSORGBACK
 10
0.0
 20
0.0
 30
0.0
  9
$USERI1
 70
     0
  9
$USERI2
 70
     0
  9
$USERI3
 70
     0
  9
$USERI4
 70
     0
  9
$USERI5
 70
     0
  9
$USERR1
 40
0.0
  9
$USERR2
 40
0.0
  9
$USERR3
 40
0.0
  9
$USERR4
 40
0.0
  9
$USERR5
 40
0.0
  9
$WORLDVIEW
 70
     1
  9
$SHADEDGE
 70
     3
  9
$SHADEDIF
 70
    70
  9
$TILEMODE
 70
     1
  9
$MAXACTVP
 70
    64
  9
$PINSBASE
 10
0.0
 20
0.0
 30
0.0
  9
$PLIMCHECK
 70
     0
  9
$PEXTMIN
 10
1.000000000000000E+20
 20
1.000000000000000E+20
 30
1.000000000000000E+20
  9
$PEXTMAX
 10
-1.000000000000000E+20
 20
-1.000000000000000E+20
 30
-1.000000000000000E+20
  9
$PLIMMIN
 10
0.0
 20
0.0
  9
$PLIMMAX
 10
12.0
 20
9.0
  9
$UNITMODE
 70
     0
  9
$VISRETAIN
 70
     1
  9
$PLINEGEN
 70
     0
  9
$PSLTSCALE
 70
     1
  9
$TREEDEPTH
 70
  3020
  9
$CMLSTYLE
  2
Standard
  9
$CMLJUST
 70
     0
  9
$CMLSCALE
 40
1.0
  9
$PROXYGRAPHICS
 70
     1
  9
$MEASUREMENT
 70
     0
  9
$CELWEIGHT
370
    -1
  9
$ENDCAPS
280
     0
  9
$JOINSTYLE
280
     0
  9
$LWDISPLAY
290
     0
  9
$INSUNITS
 70
     0
  9
$HYPERLINKBASE
  1

  9
$STYLESHEET
  1

  9
$XEDIT
290
     1
  9
$CEPSNTYPE
380
     0
  9
$PSTYLEMODE
290
     1
  9
$FINGERPRINTGUID
  2
{EED7CC84-837D-4601-BAC2-F89770B6523F}
  9
$VERSIONGUID
  2
{74706921-0446-4BA5-A373-104A7645EC1C}
  9
$EXTNAMES
290
     1
  9
$PSVPSCALE
 40
0.0
  9
$OLESTARTUP
290
     0
  0
ENDSEC
  0
SECTION
  2
CLASSES
  0
CLASS
  1
ACDBDICTIONARYWDFLT
  2
AcDbDictionaryWithDefault
  3
AutoCAD 2000
 90
        0
280
     0
281
     0
  0
CLASS
  1
ACDBPLACEHOLDER
  2
AcDbPlaceHolder
  3
AutoCAD 2000
 90
        0
280
     0
281
     0
  0
CLASS
  1
LAYOUT
  2
AcDbLayout
  3
AutoCAD 2000
 90
        0
280
     0
281
     0
  0
CLASS
  1
DICTIONARYVAR
  2
AcDbDictionaryVar
  3
AutoCAD 2000
 90
        0
280
     0
281
     0
  0
ENDSEC
  0
SECTION
  2
TABLES
  0
TABLE
  2
VPORT
  5
8
330
0
100
AcDbSymbolTable
 70
     2
  0
VPORT
  5
2B6
330
8
100
AcDbSymbolTableRecord
100
AcDbViewportTableRecord
  2
*Active
 70
     0
 10
0.0
 20
0.0
 11
1.0
 21
1.0
 12
106.0
 22
80.49999999999998
 13
0.0
 23
0.0
 14
1.0
 24
1.0
 15
0.0
 25
0.0
 16
0.0
 26
0.0
 36
1.0
 17
0.0
 27
0.0
 37
0.0
 40
161.6666442105263
 41
1.968387776606954
 42
50.0
 43
0.0
 44
0.0
 50
0.0
 51
0.0
 71
     0
 72
   100
 73
     1
 74
     3
 75
     0
 76
     0
 77
     0
 78
     0
281
     0
 65
     1
110
0.0
120
0.0
130
0.0
111
1.0
121
0.0
131
0.0
112
0.0
122
1.0
132
0.0
 79
     1
146
0.0
  0
ENDTAB
  0
TABLE
  2
LTYPE
  5
5
330
0
100
AcDbSymbolTable
 70
     1
  0
LTYPE
  5
13
330
5
100
AcDbSymbolTableRecord
100
AcDbLinetypeTableRecord
  2
ByBlock
 70
     0
  3

 72
    65
 73
     0
 40
0.0
  0
LTYPE
  5
14
330
5
100
AcDbSymbolTableRecord
100
AcDbLinetypeTableRecord
  2
ByLayer
 70
     0
  3

 72
    65
 73
     0
 40
0.0
  0
LTYPE
  5
15
330
5
100
AcDbSymbolTableRecord
100
AcDbLinetypeTableRecord
  2
Continuous
 70
     0
  3
Solid line
 72
    65
 73
     0
 40
0.0
  0
ENDTAB
  0
TABLE
  2
LAYER
  5
2
330
0
100
AcDbSymbolTable
 70
     1
  0
LAYER
  5
10
330
2
100
AcDbSymbolTableRecord
100
AcDbLayerTableRecord
  2
0
 70
     0
 62
     7
  6
Continuous
370
    -3
390
F
  0
ENDTAB
  0
TABLE
  2
STYLE
  5
3
330
0
100
AcDbSymbolTable
 70
     1
  0
STYLE
  5
11
330
3
100
AcDbSymbolTableRecord
100
AcDbTextStyleTableRecord
  2
Standard
 70
     0
 40
0.0
 41
1.0
 50
0.0
 71
     0
 42
0.2
  3
txt
  4

  0
ENDTAB
  0
TABLE
  2
VIEW
  5
6
330
0
100
AcDbSymbolTable
 70
     0
  0
ENDTAB
  0
TABLE
  2
UCS
  5
7
330
0
100
AcDbSymbolTable
 70
     0
  0
ENDTAB
  0
TABLE
  2
APPID
  5
9
330
0
100
AcDbSymbolTable
 70
     1
  0
APPID
  5
12
330
9
100
AcDbSymbolTableRecord
100
AcDbRegAppTableRecord
  2
ACAD
 70
     0
  0
ENDTAB
  0
TABLE
  2
DIMSTYLE
  5
A
330
0
100
AcDbSymbolTable
 70
     1
100
AcDbDimStyleTable
 71
     0
  0
DIMSTYLE
105
27B
330
A
100
AcDbSymbolTableRecord
100
AcDbDimStyleTableRecord
  2
Standard
 70
     0
340
11
  0
ENDTAB
  0
TABLE
  2
BLOCK_RECORD
  5
1
330
0
100
AcDbSymbolTable
 70
     0
  0
BLOCK_RECORD
  5
1E
330
1
100
AcDbSymbolTableRecord
100
AcDbBlockTableRecord
  2
*Model_Space
340
21
  0
BLOCK_RECORD
  5
1A
330
1
100
AcDbSymbolTableRecord
100
AcDbBlockTableRecord
  2
*Paper_Space
340
1D
  0
ENDTAB
  0
ENDSEC
  0
SECTION
  2
BLOCKS
  0
BLOCK
  5
1F
330
1E
100
AcDbEntity
  8
0
100
AcDbBlockBegin
  2
*Model_Space
 70
     0
 10
0.0
 20
0.0
 30
0.0
  3
*Model_Space
  1

  0
ENDBLK
  5
20
330
1E
100
AcDbEntity
  8
0
100
AcDbBlockEnd
  0
BLOCK
  5
1B
330
1A
100
AcDbEntity
 67
     1
  8
0
100
AcDbBlockBegin
  2
*Paper_Space
 70
     0
 10
0.0
 20
0.0
 30
0.0
  3
*Paper_Space
  1

  0
ENDBLK
  5
1C
330
1A
100
AcDbEntity
 67
     1
  8
0
100
AcDbBlockEnd
  0
ENDSEC
  0
SECTION
  2
ENTITIES
  0
LINE
  5
22
330
1E
100
AcDbEntity
  8
0
100
AcDbLine
 10
106.0279999999999
 20
4.4358
 30
0.0
 11
107.7909999999999
 21
5.785199999999999
 31
0.0
  0
LINE
  5
23
330
1E
100
AcDbEntity
  8
0
100
AcDbLine
 10
107.7909999999999
 20
5.785199999999999
 30
0.0
 11
109.6289999999999
 21
6.9846
 31
0.0
  0
LINE
  5
24
330
1E
100
AcDbEntity
  8
0
100
AcDbLine
 10
109.6289999999999
 20
6.9846
 30
0.0
 11
111.43
 21
8.18399999999999
 31
0.0
  0
LINE
  5
25
330
1E
100
AcDbEntity
  8
0
100
AcDbLine
 10
111.43
 20
8.18399999999999
 30
0.0
 11
112.5179999999999
 21
9.23349999999999
 31
0.0
  0
LINE
  5
26
330
1E
100
AcDbEntity
  8
0
100
AcDbLine
 10
112.5179999999999
 20
9.23349999999999
 30
0.0
 11
113.231
 21
9.9457
 31
0.0
  0
LINE
  5
27
330
1E
100
AcDbEntity
  8
0
100
AcDbLine
 10
113.5
 20
10.174
 30
0.0
 11
113.5
 21
60.174
 31
0.0
  0
LINE
  5
28
330
1E
100
AcDbEntity
  8
0
100
AcDbLine
 10
113.231
 20
9.9457
 30
0.0
 11
113.5
 21
10.174
 31
0.0
  0
LINE
  5
29
330
1E
100
AcDbEntity
  8
0
100
AcDbLine
 10
104.077
 20
2.44920000000001
 30
0.0
 11
106.0279999999999
 21
4.4358
 31
0.0
  0
LINE
  5
2A
330
1E
100
AcDbEntity
  8
0
100
AcDbLine
 10
102.2769999999999
 20
1.324699999999999
 30
0.0
 11
104.077
 21
2.44920000000001
 31
0.0
  0
LINE
  5
2B
330
1E
100
AcDbEntity
  8
0
100
AcDbLine
 10
100.776
 20
0.650099999999993
 30
0.0
 11
102.2769999999999
 21
1.324699999999999
 31
0.0
  0
LINE
  5
2C
330
1E
100
AcDbEntity
  8
0
100
AcDbLine
 10
99.53800000000001
 20
0.2752000000000061
 30
0.0
 11
100.776
 21
0.650099999999993
 31
0.0
  0
LINE
  5
2D
330
1E
100
AcDbEntity
  8
0
100
AcDbLine
 10
98.863
 20
0.20029999999999
 30
0.0
 11
99.53800000000001
 21
0.2752000000000061
 31
0.0
  0
LINE
  5
2E
330
1E
100
AcDbEntity
  8
0
100
AcDbLine
 10
98.50000000000001
 20
0.173999999999998
 30
0.0
 11
98.863
 21
0.20029999999999
 31
0.0
  0
LINE
  5
2F
330
1E
100
AcDbEntity
  8
0
100
AcDbLine
 10
98.50000000000001
 20
0.173999999999998
 30
0.0
 11
98.50000000000001
 21
60.174
 31
0.0
  0
LINE
  5
30
330
1E
100
AcDbEntity
  8
0
100
AcDbLine
 10
149.0
 20
46.8904
 30
0.0
 11
149.0
 21
46.773002
 31
0.0
  0
LINE
  5
31
330
1E
100
AcDbEntity
  8
0
100
AcDbLine
 10
149.0
 20
46.8904
 30
0.0
 11
149.0
 21
53.10205999999999
 31
0.0
  0
LINE
  5
32
330
1E
100
AcDbEntity
  8
0
100
AcDbLine
 10
149.0
 20
48.29954
 30
0.0
 11
149.0
 21
48.38225999999999
 31
0.0
  0
LINE
  5
33
330
1E
100
AcDbEntity
  8
0
100
AcDbLine
 10
149.0
 20
48.38225999999999
 30
0.0
 11
149.0
 21
48.78064000000001
 31
0.0
  0
LINE
  5
34
330
1E
100
AcDbEntity
  8
0
100
AcDbLine
 10
149.0
 20
48.38225999999999
 30
0.0
 11
149.0
 21
48.29954
 31
0.0
  0
LINE
  5
35
330
1E
100
AcDbEntity
  8
0
100
AcDbLine
 10
149.0
 20
48.33929000000001
 30
0.0
 11
149.0
 21
54.55095
 31
0.0
  0
LINE
  5
36
330
1E
100
AcDbEntity
  8
0
100
AcDbLine
 10
149.0
 20
46.773002
 30
0.0
 11
149.0
 21
46.8904
 31
0.0
  0
LINE
  5
37
330
1E
100
AcDbEntity
  8
0
100
AcDbLine
 10
149.0
 20
46.773002
 30
0.0
 11
149.3
 21
46.04509
 31
0.0
  0
LINE
  5
38
330
1E
100
AcDbEntity
  8
0
100
AcDbLine
 10
149.0
 20
48.78064000000001
 30
0.0
 11
149.0
 21
49.3015
 31
0.0
  0
LINE
  5
39
330
1E
100
AcDbEntity
  8
0
100
AcDbLine
 10
149.0
 20
48.78064000000001
 30
0.0
 11
149.0
 21
48.38225999999999
 31
0.0
  0
LINE
  5
3A
330
1E
100
AcDbEntity
  8
0
100
AcDbLine
 10
149.0
 20
49.3015
 30
0.0
 11
149.0
 21
48.78064000000001
 31
0.0
  0
LINE
  5
3B
330
1E
100
AcDbEntity
  8
0
100
AcDbLine
 10
149.0
 20
49.3015
 30
0.0
 11
149.0
 21
49.99659000000001
 31
0.0
  0
LINE
  5
3C
330
1E
100
AcDbEntity
  8
0
100
AcDbLine
 10
149.0
 20
54.55095
 30
0.0
 11
149.0
 21
54.97707
 31
0.0
  0
LINE
  5
3D
330
1E
100
AcDbEntity
  8
0
100
AcDbLine
 10
149.0
 20
54.55095
 30
0.0
 11
149.0
 21
48.33929000000001
 31
0.0
  0
LINE
  5
3E
330
1E
100
AcDbEntity
  8
0
100
AcDbLine
 10
149.0
 20
56.7264
 30
0.0
 11
149.0
 21
58.0149
 31
0.0
  0
LINE
  5
3F
330
1E
100
AcDbEntity
  8
0
100
AcDbLine
 10
149.0
 20
56.7264
 30
0.0
 11
149.0
 21
55.45681
 31
0.0
  0
LINE
  5
40
330
1E
100
AcDbEntity
  8
0
100
AcDbLine
 10
149.0
 20
55.45681
 30
0.0
 11
149.0
 21
54.39937
 31
0.0
  0
LINE
  5
41
330
1E
100
AcDbEntity
  8
0
100
AcDbLine
 10
149.0
 20
55.45681
 30
0.0
 11
149.0
 21
56.7264
 31
0.0
  0
LINE
  5
42
330
1E
100
AcDbEntity
  8
0
100
AcDbLine
 10
149.0
 20
54.39937
 30
0.0
 11
149.0
 21
55.45681
 31
0.0
  0
LINE
  5
43
330
1E
100
AcDbEntity
  8
0
100
AcDbLine
 10
149.0
 20
54.39937
 30
0.0
 11
149.0
 21
53.60583
 31
0.0
  0
LINE
  5
44
330
1E
100
AcDbEntity
  8
0
100
AcDbLine
 10
149.0
 20
55.4739
 30
0.0
 11
149.0
 21
54.97707
 31
0.0
  0
LINE
  5
45
330
1E
100
AcDbEntity
  8
0
100
AcDbLine
 10
149.0
 20
55.4739
 30
0.0
 11
149.0
 21
56.2346
 31
0.0
  0
LINE
  5
46
330
1E
100
AcDbEntity
  8
0
100
AcDbLine
 10
149.0
 20
53.60583
 30
0.0
 11
149.0
 21
54.39937
 31
0.0
  0
LINE
  5
47
330
1E
100
AcDbEntity
  8
0
100
AcDbLine
 10
149.0
 20
53.60583
 30
0.0
 11
149.0
 21
53.10205999999999
 31
0.0
  0
LINE
  5
48
330
1E
100
AcDbEntity
  8
0
100
AcDbLine
 10
149.0
 20
54.97707
 30
0.0
 11
149.0
 21
54.55095
 31
0.0
  0
LINE
  5
49
330
1E
100
AcDbEntity
  8
0
100
AcDbLine
 10
149.0
 20
54.97707
 30
0.0
 11
149.0
 21
55.4739
 31
0.0
  0
LINE
  5
4A
330
1E
100
AcDbEntity
  8
0
100
AcDbLine
 10
149.0
 20
53.10205999999999
 30
0.0
 11
149.0
 21
53.60583
 31
0.0
  0
LINE
  5
4B
330
1E
100
AcDbEntity
  8
0
100
AcDbLine
 10
149.0
 20
53.10205999999999
 30
0.0
 11
149.0
 21
46.8904
 31
0.0
  0
LINE
  5
4C
330
1E
100
AcDbEntity
  8
0
100
AcDbLine
 10
149.0
 20
56.2346
 30
0.0
 11
149.0
 21
57.0661
 31
0.0
  0
LINE
  5
4D
330
1E
100
AcDbEntity
  8
0
100
AcDbLine
 10
149.0
 20
56.2346
 30
0.0
 11
149.0
 21
55.4739
 31
0.0
  0
LINE
  5
4E
330
1E
100
AcDbEntity
  8
0
100
AcDbLine
 10
94.9
 20
90.174
 30
0.0
 11
96.0
 21
90.174
 31
0.0
  0
LINE
  5
4F
330
1E
100
AcDbEntity
  8
0
100
AcDbLine
 10
18.0
 20
90.82600000000001
 30
0.0
 11
95.0
 21
90.82600000000001
 31
0.0
  0
LINE
  5
50
330
1E
100
AcDbEntity
  8
0
100
AcDbLine
 10
18.0
 20
90.82600000000001
 30
0.0
 11
95.0
 21
90.82600000000001
 31
0.0
  0
LINE
  5
51
330
1E
100
AcDbEntity
  8
0
100
AcDbLine
 10
17.242
 20
90.89530000000001
 30
0.0
 11
18.0
 21
90.82600000000001
 31
0.0
  0
LINE
  5
52
330
1E
100
AcDbEntity
  8
0
100
AcDbLine
 10
16.61939999999999
 20
91.1409
 30
0.0
 11
17.242
 21
90.89530000000001
 31
0.0
  0
LINE
  5
53
330
1E
100
AcDbEntity
  8
0
100
AcDbLine
 10
16.1951
 20
91.4517
 30
0.0
 11
16.61939999999999
 21
91.1409
 31
0.0
  0
LINE
  5
54
330
1E
100
AcDbEntity
  8
0
100
AcDbLine
 10
94.50000000000001
 20
90.174
 30
0.0
 11
95.5
 21
60.174
 31
0.0
  0
LINE
  5
55
330
1E
100
AcDbEntity
  8
0
100
AcDbLine
 10
94.50000000000001
 20
90.174
 30
0.0
 11
94.9
 21
90.174
 31
0.0
  0
LINE
  5
56
330
1E
100
AcDbEntity
  8
0
100
AcDbLine
 10
98.50000000000001
 20
60.174
 30
0.0
 11
98.50000000000001
 21
0.173999999999998
 31
0.0
  0
LINE
  5
57
330
1E
100
AcDbEntity
  8
0
100
AcDbLine
 10
98.50000000000001
 20
60.174
 30
0.0
 11
98.8
 21
60.174
 31
0.0
  0
LINE
  5
58
330
1E
100
AcDbEntity
  8
0
100
AcDbLine
 10
102.2999999999999
 20
60.174
 30
0.0
 11
104.0999999999999
 21
60.174
 31
0.0
  0
LINE
  5
59
330
1E
100
AcDbEntity
  8
0
100
AcDbLine
 10
100.7
 20
60.174
 30
0.0
 11
102.2999999999999
 21
60.174
 31
0.0
  0
LINE
  5
5A
330
1E
100
AcDbEntity
  8
0
100
AcDbLine
 10
99.50000000000001
 20
60.174
 30
0.0
 11
100.7
 21
60.174
 31
0.0
  0
LINE
  5
5B
330
1E
100
AcDbEntity
  8
0
100
AcDbLine
 10
98.8
 20
60.174
 30
0.0
 11
99.50000000000001
 21
60.174
 31
0.0
  0
LINE
  5
5C
330
1E
100
AcDbEntity
  8
0
100
AcDbLine
 10
106.0
 20
60.174
 30
0.0
 11
107.9
 21
60.174
 31
0.0
  0
LINE
  5
5D
330
1E
100
AcDbEntity
  8
0
100
AcDbLine
 10
106.0
 20
60.174
 30
0.0
 11
108.6999999999999
 21
60.174
 31
0.0
  0
LINE
  5
5E
330
1E
100
AcDbEntity
  8
0
100
AcDbLine
 10
108.6999999999999
 20
60.174
 30
0.0
 11
111.2
 21
60.174
 31
0.0
  0
LINE
  5
5F
330
1E
100
AcDbEntity
  8
0
100
AcDbLine
 10
111.2
 20
60.174
 30
0.0
 11
113.4
 21
60.174
 31
0.0
  0
LINE
  5
60
330
1E
100
AcDbEntity
  8
0
100
AcDbLine
 10
107.9
 20
60.174
 30
0.0
 11
109.6999999999999
 21
60.174
 31
0.0
  0
LINE
  5
61
330
1E
100
AcDbEntity
  8
0
100
AcDbLine
 10
109.6999999999999
 20
60.174
 30
0.0
 11
111.2999999999999
 21
60.174
 31
0.0
  0
LINE
  5
62
330
1E
100
AcDbEntity
  8
0
100
AcDbLine
 10
111.2999999999999
 20
60.174
 30
0.0
 11
112.5
 21
60.174
 31
0.0
  0
LINE
  5
63
330
1E
100
AcDbEntity
  8
0
100
AcDbLine
 10
112.5
 20
60.174
 30
0.0
 11
113.2
 21
60.174
 31
0.0
  0
LINE
  5
64
330
1E
100
AcDbEntity
  8
0
100
AcDbLine
 10
113.5
 20
60.174
 30
0.0
 11
115.1
 21
60.174
 31
0.0
  0
LINE
  5
65
330
1E
100
AcDbEntity
  8
0
100
AcDbLine
 10
113.5
 20
60.174
 30
0.0
 11
113.5
 21
10.174
 31
0.0
  0
LINE
  5
66
330
1E
100
AcDbEntity
  8
0
100
AcDbLine
 10
113.4
 20
60.174
 30
0.0
 11
115.1
 21
60.174
 31
0.0
  0
LINE
  5
67
330
1E
100
AcDbEntity
  8
0
100
AcDbLine
 10
115.1
 20
60.174
 30
0.0
 11
116.1
 21
60.174
 31
0.0
  0
LINE
  5
68
330
1E
100
AcDbEntity
  8
0
100
AcDbLine
 10
116.5
 20
60.174
 30
0.0
 11
117.5
 21
90.174
 31
0.0
  0
LINE
  5
69
330
1E
100
AcDbEntity
  8
0
100
AcDbLine
 10
116.1
 20
60.174
 30
0.0
 11
116.5
 21
60.174
 31
0.0
  0
LINE
  5
6A
330
1E
100
AcDbEntity
  8
0
100
AcDbLine
 10
113.2
 20
60.174
 30
0.0
 11
113.5
 21
60.174
 31
0.0
  0
LINE
  5
6B
330
1E
100
AcDbEntity
  8
0
100
AcDbLine
 10
104.0999999999999
 20
60.174
 30
0.0
 11
106.0
 21
60.174
 31
0.0
  0
LINE
  5
6C
330
1E
100
AcDbEntity
  8
0
100
AcDbLine
 10
103.2999999999999
 20
60.174
 30
0.0
 11
106.0
 21
60.174
 31
0.0
  0
LINE
  5
6D
330
1E
100
AcDbEntity
  8
0
100
AcDbLine
 10
100.8
 20
60.174
 30
0.0
 11
103.2999999999999
 21
60.174
 31
0.0
  0
LINE
  5
6E
330
1E
100
AcDbEntity
  8
0
100
AcDbLine
 10
98.59999999999999
 20
60.174
 30
0.0
 11
100.8
 21
60.174
 31
0.0
  0
LINE
  5
6F
330
1E
100
AcDbEntity
  8
0
100
AcDbLine
 10
96.90000000000001
 20
60.174
 30
0.0
 11
98.59999999999999
 21
60.174
 31
0.0
  0
LINE
  5
70
330
1E
100
AcDbEntity
  8
0
100
AcDbLine
 10
96.90000000000001
 20
60.174
 30
0.0
 11
98.50000000000001
 21
60.174
 31
0.0
  0
LINE
  5
71
330
1E
100
AcDbEntity
  8
0
100
AcDbLine
 10
95.90000000000001
 20
60.174
 30
0.0
 11
96.90000000000001
 21
60.174
 31
0.0
  0
LINE
  5
72
330
1E
100
AcDbEntity
  8
0
100
AcDbLine
 10
106.0
 20
90.174
 30
0.0
 11
109.0
 21
90.174
 31
0.0
  0
LINE
  5
73
330
1E
100
AcDbEntity
  8
0
100
AcDbLine
 10
109.0
 20
90.174
 30
0.0
 11
111.6999999999999
 21
90.174
 31
0.0
  0
LINE
  5
74
330
1E
100
AcDbEntity
  8
0
100
AcDbLine
 10
111.6999999999999
 20
90.174
 30
0.0
 11
114.1
 21
90.174
 31
0.0
  0
LINE
  5
75
330
1E
100
AcDbEntity
  8
0
100
AcDbLine
 10
114.1
 20
90.174
 30
0.0
 11
116.0
 21
90.174
 31
0.0
  0
LINE
  5
76
330
1E
100
AcDbEntity
  8
0
100
AcDbLine
 10
116.0
 20
90.174
 30
0.0
 11
117.1
 21
90.174
 31
0.0
  0
LINE
  5
77
330
1E
100
AcDbEntity
  8
0
100
AcDbLine
 10
103.0
 20
90.174
 30
0.0
 11
106.0
 21
90.174
 31
0.0
  0
LINE
  5
78
330
1E
100
AcDbEntity
  8
0
100
AcDbLine
 10
100.2999999999999
 20
90.174
 30
0.0
 11
103.0
 21
90.174
 31
0.0
  0
LINE
  5
79
330
1E
100
AcDbEntity
  8
0
100
AcDbLine
 10
97.9
 20
90.174
 30
0.0
 11
100.2999999999999
 21
90.174
 31
0.0
  0
LINE
  5
7A
330
1E
100
AcDbEntity
  8
0
100
AcDbLine
 10
95.5
 20
60.174
 30
0.0
 11
95.90000000000001
 21
60.174
 31
0.0
  0
LINE
  5
7B
330
1E
100
AcDbEntity
  8
0
100
AcDbLine
 10
117.1
 20
90.174
 30
0.0
 11
117.5
 21
90.174
 31
0.0
  0
LINE
  5
7C
330
1E
100
AcDbEntity
  8
0
100
AcDbLine
 10
116.736
 20
90.174
 30
0.0
 11
117.0
 21
90.53399999999999
 31
0.0
  0
LINE
  5
7D
330
1E
100
AcDbEntity
  8
0
100
AcDbLine
 10
103.184
 20
90.53399999999999
 30
0.0
 11
106.0
 21
90.53399999999999
 31
0.0
  0
LINE
  5
7E
330
1E
100
AcDbEntity
  8
0
100
AcDbLine
 10
100.5439999999999
 20
90.53399999999999
 30
0.0
 11
103.184
 21
90.53399999999999
 31
0.0
  0
LINE
  5
7F
330
1E
100
AcDbEntity
  8
0
100
AcDbLine
 10
98.21200000000001
 20
90.53399999999999
 30
0.0
 11
100.5439999999999
 21
90.53399999999999
 31
0.0
  0
LINE
  5
80
330
1E
100
AcDbEntity
  8
0
100
AcDbLine
 10
96.45200000000002
 20
90.53399999999999
 30
0.0
 11
98.21200000000001
 21
90.53399999999999
 31
0.0
  0
LINE
  5
81
330
1E
100
AcDbEntity
  8
0
100
AcDbLine
 10
95.396
 20
90.53399999999999
 30
0.0
 11
96.45200000000002
 21
90.53399999999999
 31
0.0
  0
LINE
  5
82
330
1E
100
AcDbEntity
  8
0
100
AcDbLine
 10
106.0
 20
90.53399999999999
 30
0.0
 11
108.816
 21
90.53399999999999
 31
0.0
  0
LINE
  5
83
330
1E
100
AcDbEntity
  8
0
100
AcDbLine
 10
108.816
 20
90.53399999999999
 30
0.0
 11
111.4559999999999
 21
90.53399999999999
 31
0.0
  0
LINE
  5
84
330
1E
100
AcDbEntity
  8
0
100
AcDbLine
 10
111.4559999999999
 20
90.53399999999999
 30
0.0
 11
113.788
 21
90.53399999999999
 31
0.0
  0
LINE
  5
85
330
1E
100
AcDbEntity
  8
0
100
AcDbLine
 10
113.788
 20
90.53399999999999
 30
0.0
 11
115.5479999999999
 21
90.53399999999999
 31
0.0
  0
LINE
  5
86
330
1E
100
AcDbEntity
  8
0
100
AcDbLine
 10
115.5479999999999
 20
90.53399999999999
 30
0.0
 11
116.6039999999999
 21
90.53399999999999
 31
0.0
  0
LINE
  5
87
330
1E
100
AcDbEntity
  8
0
100
AcDbLine
 10
117.0
 20
90.82600000000001
 30
0.0
 11
149.0
 21
90.82600000000001
 31
0.0
  0
LINE
  5
88
330
1E
100
AcDbEntity
  8
0
100
AcDbLine
 10
117.0
 20
93.15933333333331
 30
0.0
 11
117.0
 21
90.53399999999999
 31
0.0
  0
LINE
  5
89
330
1E
100
AcDbEntity
  8
0
100
AcDbLine
 10
116.6039999999999
 20
90.53399999999999
 30
0.0
 11
117.0
 21
90.53399999999999
 31
0.0
  0
LINE
  5
8A
330
1E
100
AcDbEntity
  8
0
100
AcDbLine
 10
117.0
 20
90.53399999999999
 30
0.0
 11
117.0
 21
93.15933333333331
 31
0.0
  0
LINE
  5
8B
330
1E
100
AcDbEntity
  8
0
100
AcDbLine
 10
96.0
 20
90.174
 30
0.0
 11
97.9
 21
90.174
 31
0.0
  0
LINE
  5
8C
330
1E
100
AcDbEntity
  8
0
100
AcDbLine
 10
95.0
 20
90.53399999999999
 30
0.0
 11
95.264
 21
90.174
 31
0.0
  0
LINE
  5
8D
330
1E
100
AcDbEntity
  8
0
100
AcDbLine
 10
95.0
 20
90.53399999999999
 30
0.0
 11
95.0
 21
94.18844541484721
 31
0.0
  0
LINE
  5
8E
330
1E
100
AcDbEntity
  8
0
100
AcDbLine
 10
95.0
 20
90.53399999999999
 30
0.0
 11
95.396
 21
90.53399999999999
 31
0.0
  0
LINE
  5
8F
330
1E
100
AcDbEntity
  8
0
100
AcDbLine
 10
95.0
 20
94.18844541484721
 30
0.0
 11
95.0
 21
90.53399999999999
 31
0.0
  0
LINE
  5
90
330
1E
100
AcDbEntity
  8
0
100
AcDbLine
 10
149.0
 20
97.17860000000001
 30
0.0
 11
149.0
 21
98.09969999999999
 31
0.0
  0
LINE
  5
91
330
1E
100
AcDbEntity
  8
0
100
AcDbLine
 10
149.0
 20
97.17860000000001
 30
0.0
 11
149.0
 21
50.81416
 31
0.0
  0
LINE
  5
92
330
1E
100
AcDbEntity
  8
0
100
AcDbLine
 10
149.0
 20
99.78149999999999
 30
0.0
 11
149.0
 21
98.9501
 31
0.0
  0
LINE
  5
93
330
1E
100
AcDbEntity
  8
0
100
AcDbLine
 10
149.0
 20
99.78149999999999
 30
0.0
 11
149.0
 21
100.5422999999999
 31
0.0
  0
LINE
  5
94
330
1E
100
AcDbEntity
  8
0
100
AcDbLine
 10
149.0
 20
98.9501
 30
0.0
 11
149.0
 21
98.09969999999999
 31
0.0
  0
LINE
  5
95
330
1E
100
AcDbEntity
  8
0
100
AcDbLine
 10
149.0
 20
98.9501
 30
0.0
 11
149.0
 21
99.78149999999999
 31
0.0
  0
LINE
  5
96
330
1E
100
AcDbEntity
  8
0
100
AcDbLine
 10
149.0
 20
98.09969999999999
 30
0.0
 11
149.0
 21
97.17860000000001
 31
0.0
  0
LINE
  5
97
330
1E
100
AcDbEntity
  8
0
100
AcDbLine
 10
149.0
 20
98.09969999999999
 30
0.0
 11
149.0
 21
98.9501
 31
0.0
  0
LINE
  5
98
330
1E
100
AcDbEntity
  8
0
100
AcDbLine
 10
149.0
 20
100.5422999999999
 30
0.0
 11
149.0
 21
99.78149999999999
 31
0.0
  0
LINE
  5
99
330
1E
100
AcDbEntity
  8
0
100
AcDbLine
 10
149.0
 20
100.5422999999999
 30
0.0
 11
149.0
 21
101.0391
 31
0.0
  0
LINE
  5
9A
330
1E
100
AcDbEntity
  8
0
100
AcDbLine
 10
149.0
 20
101.0391
 30
0.0
 11
149.0
 21
100.5422999999999
 31
0.0
  0
LINE
  5
9B
330
1E
100
AcDbEntity
  8
0
100
AcDbLine
 10
149.0
 20
101.0391
 30
0.0
 11
149.0
 21
101.4651999999999
 31
0.0
  0
LINE
  5
9C
330
1E
100
AcDbEntity
  8
0
100
AcDbLine
 10
149.0
 20
101.4651999999999
 30
0.0
 11
149.0
 21
101.0391
 31
0.0
  0
LINE
  5
9D
330
1E
100
AcDbEntity
  8
0
100
AcDbLine
 10
149.0
 20
101.4651999999999
 30
0.0
 11
149.0
 21
107.6769
 31
0.0
  0
LINE
  5
9E
330
1E
100
AcDbEntity
  8
0
100
AcDbLine
 10
149.0
 20
106.7147
 30
0.0
 11
149.0
 21
107.2354999999999
 31
0.0
  0
LINE
  5
9F
330
1E
100
AcDbEntity
  8
0
100
AcDbLine
 10
149.0
 20
106.7147
 30
0.0
 11
149.0
 21
106.0195999999999
 31
0.0
  0
LINE
  5
A0
330
1E
100
AcDbEntity
  8
0
100
AcDbLine
 10
149.0
 20
106.0195999999999
 30
0.0
 11
149.0
 21
106.7147
 31
0.0
  0
LINE
  5
A1
330
1E
100
AcDbEntity
  8
0
100
AcDbLine
 10
149.0
 20
106.0195999999999
 30
0.0
 11
149.0
 21
105.202
 31
0.0
  0
LINE
  5
A2
330
1E
100
AcDbEntity
  8
0
100
AcDbLine
 10
149.0
 20
105.202
 30
0.0
 11
149.0
 21
106.0195999999999
 31
0.0
  0
LINE
  5
A3
330
1E
100
AcDbEntity
  8
0
100
AcDbLine
 10
149.0
 20
105.202
 30
0.0
 11
149.0
 21
58.8376
 31
0.0
  0
LINE
  5
A4
330
1E
100
AcDbEntity
  8
0
100
AcDbLine
 10
149.0
 20
107.2354999999999
 30
0.0
 11
149.0
 21
107.6338999999999
 31
0.0
  0
LINE
  5
A5
330
1E
100
AcDbEntity
  8
0
100
AcDbLine
 10
149.0
 20
107.2354999999999
 30
0.0
 11
149.0
 21
106.7147
 31
0.0
  0
LINE
  5
A6
330
1E
100
AcDbEntity
  8
0
100
AcDbLine
 10
1.0
 20
111.826
 30
0.0
 11
16.1951
 21
91.4517
 31
0.0
  0
LINE
  5
A7
330
1E
100
AcDbEntity
  8
0
100
AcDbLine
 10
1.0
 20
111.826
 30
0.0
 11
16.1951
 21
91.4517
 31
0.0
  0
LINE
  5
A8
330
1E
100
AcDbEntity
  8
0
100
AcDbLine
 10
1.0
 20
111.826
 30
0.0
 11
16.1951
 21
91.4517
 31
0.0
  0
LINE
  5
A9
330
1E
100
AcDbEntity
  8
0
100
AcDbLine
 10
1.0
 20
111.826
 30
0.0
 11
16.1951
 21
91.4517
 31
0.0
  0
LINE
  5
AA
330
1E
100
AcDbEntity
  8
0
100
AcDbLine
 10
0.4894520000000001
 20
112.126
 30
0.0
 11
0.7963160000000001
 21
112.126
 31
0.0
  0
LINE
  5
AB
330
1E
100
AcDbEntity
  8
0
100
AcDbLine
 10
0.7963160000000001
 20
112.126
 30
0.0
 11
1.3
 21
112.126
 31
0.0
  0
LINE
  5
AC
330
1E
100
AcDbEntity
  8
0
100
AcDbLine
 10
1.3
 20
112.126
 30
0.0
 11
2.1
 21
112.126
 31
0.0
  0
LINE
  5
AD
330
1E
100
AcDbEntity
  8
0
100
AcDbLine
 10
2.1
 20
112.126
 30
0.0
 11
3.299999999999999
 21
112.126
 31
0.0
  0
LINE
  5
AE
330
1E
100
AcDbEntity
  8
0
100
AcDbLine
 10
37.29999999999999
 20
112.126
 30
0.0
 11
106.0
 21
112.126
 31
0.0
  0
LINE
  5
AF
330
1E
100
AcDbEntity
  8
0
100
AcDbLine
 10
23.0
 20
112.126
 30
0.0
 11
37.29999999999999
 21
112.126
 31
0.0
  0
LINE
  5
B0
330
1E
100
AcDbEntity
  8
0
100
AcDbLine
 10
9.0
 20
112.126
 30
0.0
 11
23.0
 21
112.126
 31
0.0
  0
LINE
  5
B1
330
1E
100
AcDbEntity
  8
0
100
AcDbLine
 10
9.0
 20
112.126
 30
0.0
 11
23.0
 21
112.126
 31
0.0
  0
LINE
  5
B2
330
1E
100
AcDbEntity
  8
0
100
AcDbLine
 10
6.9
 20
112.126
 30
0.0
 11
9.0
 21
112.126
 31
0.0
  0
LINE
  5
B3
330
1E
100
AcDbEntity
  8
0
100
AcDbLine
 10
5.0
 20
112.126
 30
0.0
 11
6.9
 21
112.126
 31
0.0
  0
LINE
  5
B4
330
1E
100
AcDbEntity
  8
0
100
AcDbLine
 10
3.299999999999999
 20
112.126
 30
0.0
 11
5.0
 21
112.126
 31
0.0
  0
LINE
  5
B5
330
1E
100
AcDbEntity
  8
0
100
AcDbLine
 10
106.0
 20
112.126
 30
0.0
 11
149.0
 21
112.126
 31
0.0
  0
LINE
  5
B6
330
1E
100
AcDbEntity
  8
0
100
AcDbLine
 10
0.0
 20
121.0549
 30
0.0
 11
0.0
 21
112.826
 31
0.0
  0
LINE
  5
B7
330
1E
100
AcDbEntity
  8
0
100
AcDbLine
 10
0.0
 20
121.0549
 30
0.0
 11
0.0
 21
130.6610999999999
 31
0.0
  0
LINE
  5
B8
330
1E
100
AcDbEntity
  8
0
100
AcDbLine
 10
0.0
 20
139.826
 30
0.0
 11
0.0
 21
130.6610999999999
 31
0.0
  0
LINE
  5
B9
330
1E
100
AcDbEntity
  8
0
100
AcDbLine
 10
0.0
 20
139.826
 30
0.0
 11
0.0
 21
147.696
 31
0.0
  0
LINE
  5
BA
330
1E
100
AcDbEntity
  8
0
100
AcDbLine
 10
0.0
 20
130.6610999999999
 30
0.0
 11
0.0
 21
121.0549
 31
0.0
  0
LINE
  5
BB
330
1E
100
AcDbEntity
  8
0
100
AcDbLine
 10
0.0
 20
130.6610999999999
 30
0.0
 11
0.0
 21
139.826
 31
0.0
  0
LINE
  5
BC
330
1E
100
AcDbEntity
  8
0
100
AcDbLine
 10
0.0
 20
153.735
 30
0.0
 11
0.0
 21
147.696
 31
0.0
  0
LINE
  5
BD
330
1E
100
AcDbEntity
  8
0
100
AcDbLine
 10
0.0
 20
153.735
 30
0.0
 11
0.0
 21
157.4759999999999
 31
0.0
  0
LINE
  5
BE
330
1E
100
AcDbEntity
  8
0
100
AcDbLine
 10
0.0
 20
147.696
 30
0.0
 11
0.0
 21
139.826
 31
0.0
  0
LINE
  5
BF
330
1E
100
AcDbEntity
  8
0
100
AcDbLine
 10
0.0
 20
147.696
 30
0.0
 11
0.0
 21
153.735
 31
0.0
  0
LINE
  5
C0
330
1E
100
AcDbEntity
  8
0
100
AcDbLine
 10
9.546051174879169
 20
145.329813417637
 30
0.0
 11
10.9503
 21
145.176
 31
0.0
  0
LINE
  5
C1
330
1E
100
AcDbEntity
  8
0
100
AcDbLine
 10
8.541339999999999
 20
145.426
 30
0.0
 11
8.66791
 21
145.426
 31
0.0
  0
LINE
  5
C2
330
1E
100
AcDbEntity
  8
0
100
AcDbLine
 10
8.66791
 20
145.426
 30
0.0
 11
8.970318850168009
 21
145.392875857088
 31
0.0
  0
LINE
  5
C3
330
1E
100
AcDbEntity
  8
0
100
AcDbLine
 10
12.396
 20
142.1349
 30
0.0
 11
12.66
 21
141.8565
 31
0.0
  0
LINE
  5
C4
330
1E
100
AcDbEntity
  8
0
100
AcDbLine
 10
12.66
 20
141.8565
 30
0.0
 11
13.71599999999999
 21
141.196
 31
0.0
  0
LINE
  5
C5
330
1E
100
AcDbEntity
  8
0
100
AcDbLine
 10
12.264
 20
142.5739
 30
0.0
 11
12.66
 21
143.2914
 31
0.0
  0
LINE
  5
C6
330
1E
100
AcDbEntity
  8
0
100
AcDbLine
 10
12.264
 20
142.5739
 30
0.0
 11
12.66
 21
141.8565
 31
0.0
  0
LINE
  5
C7
330
1E
100
AcDbEntity
  8
0
100
AcDbLine
 10
12.66
 20
143.2914
 30
0.0
 11
13.71599999999999
 21
143.9518999999999
 31
0.0
  0
LINE
  5
C8
330
1E
100
AcDbEntity
  8
0
100
AcDbLine
 10
12.0
 20
142.8636999999999
 30
0.0
 11
12.396
 21
143.5926
 31
0.0
  0
LINE
  5
C9
330
1E
100
AcDbEntity
  8
0
100
AcDbLine
 10
12.0
 20
142.8636999999999
 30
0.0
 11
12.396
 21
142.1349
 31
0.0
  0
LINE
  5
CA
330
1E
100
AcDbEntity
  8
0
100
AcDbLine
 10
12.0
 20
142.8636999999999
 30
0.0
 11
12.0
 21
145.8259999999999
 31
0.0
  0
LINE
  5
CB
330
1E
100
AcDbEntity
  8
0
100
AcDbLine
 10
12.396
 20
143.5926
 30
0.0
 11
13.452
 21
144.2757999999999
 31
0.0
  0
LINE
  5
CC
330
1E
100
AcDbEntity
  8
0
100
AcDbLine
 10
13.71599999999999
 20
141.196
 30
0.0
 11
15.432
 21
140.6151999999999
 31
0.0
  0
LINE
  5
CD
330
1E
100
AcDbEntity
  8
0
100
AcDbLine
 10
15.432
 20
140.6151999999999
 30
0.0
 11
17.67599999999999
 21
140.1710999999999
 31
0.0
  0
LINE
  5
CE
330
1E
100
AcDbEntity
  8
0
100
AcDbLine
 10
17.67599999999999
 20
140.1710999999999
 30
0.0
 11
20.22799999999999
 21
139.8977999999999
 31
0.0
  0
LINE
  5
CF
330
1E
100
AcDbEntity
  8
0
100
AcDbLine
 10
20.22799999999999
 20
139.8977999999999
 30
0.0
 11
23.0
 21
139.7953
 31
0.0
  0
LINE
  5
D0
330
1E
100
AcDbEntity
  8
0
100
AcDbLine
 10
13.71599999999999
 20
143.9518999999999
 30
0.0
 11
15.432
 21
144.5326999999999
 31
0.0
  0
LINE
  5
D1
330
1E
100
AcDbEntity
  8
0
100
AcDbLine
 10
15.432
 20
144.5326999999999
 30
0.0
 11
17.67599999999999
 21
144.9767999999999
 31
0.0
  0
LINE
  5
D2
330
1E
100
AcDbEntity
  8
0
100
AcDbLine
 10
13.452
 20
144.2757999999999
 30
0.0
 11
15.212
 21
144.8794
 31
0.0
  0
LINE
  5
D3
330
1E
100
AcDbEntity
  8
0
100
AcDbLine
 10
17.67599999999999
 20
144.9767999999999
 30
0.0
 11
20.22799999999999
 21
145.2500999999999
 31
0.0
  0
LINE
  5
D4
330
1E
100
AcDbEntity
  8
0
100
AcDbLine
 10
15.212
 20
144.8794
 30
0.0
 11
17.544
 21
145.3349
 31
0.0
  0
LINE
  5
D5
330
1E
100
AcDbEntity
  8
0
100
AcDbLine
 10
30.568
 20
144.5326999999999
 30
0.0
 11
32.284
 21
143.9518999999999
 31
0.0
  0
LINE
  5
D6
330
1E
100
AcDbEntity
  8
0
100
AcDbLine
 10
28.324
 20
144.9767999999999
 30
0.0
 11
30.568
 21
144.5326999999999
 31
0.0
  0
LINE
  5
D7
330
1E
100
AcDbEntity
  8
0
100
AcDbLine
 10
32.284
 20
143.9518999999999
 30
0.0
 11
33.34
 21
143.2914
 31
0.0
  0
LINE
  5
D8
330
1E
100
AcDbEntity
  8
0
100
AcDbLine
 10
33.34
 20
143.2914
 30
0.0
 11
33.73599999999999
 21
142.5739
 31
0.0
  0
LINE
  5
D9
330
1E
100
AcDbEntity
  8
0
100
AcDbLine
 10
32.548
 20
144.2757999999999
 30
0.0
 11
33.604
 21
143.5926
 31
0.0
  0
LINE
  5
DA
330
1E
100
AcDbEntity
  8
0
100
AcDbLine
 10
30.788
 20
144.8794
 30
0.0
 11
32.548
 21
144.2757999999999
 31
0.0
  0
LINE
  5
DB
330
1E
100
AcDbEntity
  8
0
100
AcDbLine
 10
33.604
 20
143.5926
 30
0.0
 11
34.0
 21
142.8636999999999
 31
0.0
  0
LINE
  5
DC
330
1E
100
AcDbEntity
  8
0
100
AcDbLine
 10
33.34
 20
141.8565
 30
0.0
 11
33.604
 21
142.1349
 31
0.0
  0
LINE
  5
DD
330
1E
100
AcDbEntity
  8
0
100
AcDbLine
 10
33.34
 20
141.8565
 30
0.0
 11
33.73599999999999
 21
142.5739
 31
0.0
  0
LINE
  5
DE
330
1E
100
AcDbEntity
  8
0
100
AcDbLine
 10
32.284
 20
141.196
 30
0.0
 11
33.34
 21
141.8565
 31
0.0
  0
LINE
  5
DF
330
1E
100
AcDbEntity
  8
0
100
AcDbLine
 10
30.568
 20
140.6151999999999
 30
0.0
 11
32.284
 21
141.196
 31
0.0
  0
LINE
  5
E0
330
1E
100
AcDbEntity
  8
0
100
AcDbLine
 10
28.324
 20
140.1710999999999
 30
0.0
 11
30.568
 21
140.6151999999999
 31
0.0
  0
LINE
  5
E1
330
1E
100
AcDbEntity
  8
0
100
AcDbLine
 10
25.77199999999999
 20
139.8977999999999
 30
0.0
 11
28.324
 21
140.1710999999999
 31
0.0
  0
LINE
  5
E2
330
1E
100
AcDbEntity
  8
0
100
AcDbLine
 10
23.0
 20
139.7953
 30
0.0
 11
25.77199999999999
 21
139.8977999999999
 31
0.0
  0
LINE
  5
E3
330
1E
100
AcDbEntity
  8
0
100
AcDbLine
 10
46.0
 20
135.706
 30
0.0
 11
46.0
 21
145.0766999999999
 31
0.0
  0
LINE
  5
E4
330
1E
100
AcDbEntity
  8
0
100
AcDbLine
 10
46.0
 20
135.706
 30
0.0
 11
46.0
 21
128.056
 31
0.0
  0
LINE
  5
E5
330
1E
100
AcDbEntity
  8
0
100
AcDbLine
 10
46.0
 20
120.746
 30
0.0
 11
46.0
 21
128.056
 31
0.0
  0
LINE
  5
E6
330
1E
100
AcDbEntity
  8
0
100
AcDbLine
 10
46.0
 20
120.746
 30
0.0
 11
46.0
 21
112.826
 31
0.0
  0
LINE
  5
E7
330
1E
100
AcDbEntity
  8
0
100
AcDbLine
 10
46.0
 20
112.826
 30
0.0
 11
46.0
 21
120.746
 31
0.0
  0
LINE
  5
122
330
1E
100
AcDbEntity
  8
0
100
AcDbLine
 10
96.0
 20
142.0987
 30
0.0
 11
96.0364
 21
142.4624
 31
0.0
  0
LINE
  5
123
330
1E
100
AcDbEntity
  8
0
100
AcDbLine
 10
96.0
 20
142.0987
 30
0.0
 11
96.0
 21
134.826
 31
0.0
  0
LINE
  5
13C
330
1E
100
AcDbEntity
  8
0
100
AcDbLine
 10
96.09090000000001
 20
142.8078
 30
0.0
 11
96.21819999999999
 21
143.1351
 31
0.0
  0
LINE
  5
13D
330
1E
100
AcDbEntity
  8
0
100
AcDbLine
 10
96.0364
 20
142.4624
 30
0.0
 11
96.09090000000001
 21
142.8078
 31
0.0
  0
LINE
  5
141
330
1E
100
AcDbEntity
  8
0
100
AcDbLine
 10
96.0
 20
134.826
 30
0.0
 11
96.0
 21
142.0987
 31
0.0
  0
LINE
  5
144
330
1E
100
AcDbEntity
  8
0
100
AcDbLine
 10
46.0
 20
128.056
 30
0.0
 11
46.0
 21
135.706
 31
0.0
  0
LINE
  5
145
330
1E
100
AcDbEntity
  8
0
100
AcDbLine
 10
46.0
 20
128.056
 30
0.0
 11
46.0
 21
120.746
 31
0.0
  0
LINE
  5
150
330
1E
100
AcDbEntity
  8
0
100
AcDbLine
 10
96.79999999999999
 20
144.026
 30
0.0
 11
97.07270000000001
 21
144.2624
 31
0.0
  0
LINE
  5
153
330
1E
100
AcDbEntity
  8
0
100
AcDbLine
 10
97.07270000000001
 20
144.2624
 30
0.0
 11
97.36360000000001
 21
144.4624
 31
0.0
  0
LINE
  5
155
330
1E
100
AcDbEntity
  8
0
100
AcDbLine
 10
97.36360000000001
 20
144.4624
 30
0.0
 11
97.6909
 21
144.6077999999999
 31
0.0
  0
LINE
  5
158
330
1E
100
AcDbEntity
  8
0
100
AcDbLine
 10
97.6909
 20
144.6077999999999
 30
0.0
 11
98.01819999999999
 21
144.7350999999999
 31
0.0
  0
LINE
  5
15A
330
1E
100
AcDbEntity
  8
0
100
AcDbLine
 10
98.01819999999999
 20
144.7350999999999
 30
0.0
 11
98.3636
 21
144.7896
 31
0.0
  0
LINE
  5
174
330
1E
100
AcDbEntity
  8
0
100
AcDbLine
 10
98.7273
 20
144.8259999999999
 30
0.0
 11
106.0
 21
144.8259999999999
 31
0.0
  0
LINE
  5
175
330
1E
100
AcDbEntity
  8
0
100
AcDbLine
 10
98.3636
 20
144.7896
 30
0.0
 11
98.7273
 21
144.8259999999999
 31
0.0
  0
LINE
  5
177
330
1E
100
AcDbEntity
  8
0
100
AcDbLine
 10
96.56359999999999
 20
143.7532999999999
 30
0.0
 11
96.79999999999999
 21
144.026
 31
0.0
  0
LINE
  5
178
330
1E
100
AcDbEntity
  8
0
100
AcDbLine
 10
96.36360000000001
 20
143.4624
 30
0.0
 11
96.56359999999999
 21
143.7532999999999
 31
0.0
  0
LINE
  5
179
330
1E
100
AcDbEntity
  8
0
100
AcDbLine
 10
96.21819999999999
 20
143.1351
 30
0.0
 11
96.36360000000001
 21
143.4624
 31
0.0
  0
LINE
  5
17A
330
1E
100
AcDbEntity
  8
0
100
AcDbLine
 10
46.0
 20
145.0766999999999
 30
0.0
 11
46.0
 21
153.352
 31
0.0
  0
LINE
  5
17B
330
1E
100
AcDbEntity
  8
0
100
AcDbLine
 10
46.0
 20
145.0766999999999
 30
0.0
 11
46.0
 21
135.706
 31
0.0
  0
LINE
  5
17C
330
1E
100
AcDbEntity
  8
0
100
AcDbLine
 10
35.0497
 20
145.176
 30
0.0
 11
36.4538269300912
 21
145.3297993920969
 31
0.0
  0
LINE
  5
17D
330
1E
100
AcDbEntity
  8
0
100
AcDbLine
 10
35.0497
 20
145.176
 30
0.0
 11
36.4538269300912
 21
145.3297993920969
 31
0.0
  0
LINE
  5
17E
330
1E
100
AcDbEntity
  8
0
100
AcDbLine
 10
34.0
 20
142.8636999999999
 30
0.0
 11
34.0
 21
145.8259999999999
 31
0.0
  0
LINE
  5
17F
330
1E
100
AcDbEntity
  8
0
100
AcDbLine
 10
33.604
 20
142.1349
 30
0.0
 11
34.0
 21
142.8636999999999
 31
0.0
  0
LINE
  5
180
330
1E
100
AcDbEntity
  8
0
100
AcDbLine
 10
20.22799999999999
 20
145.2500999999999
 30
0.0
 11
23.0
 21
145.3525999999999
 31
0.0
  0
LINE
  5
181
330
1E
100
AcDbEntity
  8
0
100
AcDbLine
 10
17.544
 20
145.3349
 30
0.0
 11
20.184
 21
145.6082
 31
0.0
  0
LINE
  5
182
330
1E
100
AcDbEntity
  8
0
100
AcDbLine
 10
25.77199999999999
 20
145.2500999999999
 30
0.0
 11
28.324
 21
144.9767999999999
 31
0.0
  0
LINE
  5
183
330
1E
100
AcDbEntity
  8
0
100
AcDbLine
 10
23.0
 20
145.3525999999999
 30
0.0
 11
25.77199999999999
 21
145.2500999999999
 31
0.0
  0
LINE
  5
184
330
1E
100
AcDbEntity
  8
0
100
AcDbLine
 10
36.4538269300912
 20
145.3297993920969
 30
0.0
 11
37.33209999999999
 21
145.426
 31
0.0
  0
LINE
  5
185
330
1E
100
AcDbEntity
  8
0
100
AcDbLine
 10
37.33209999999999
 20
145.426
 30
0.0
 11
37.4587
 21
145.426
 31
0.0
  0
LINE
  5
186
330
1E
100
AcDbEntity
  8
0
100
AcDbLine
 10
37.4587
 20
145.426
 30
0.0
 11
39.50139999999999
 21
145.8259999999999
 31
0.0
  0
LINE
  5
187
330
1E
100
AcDbEntity
  8
0
100
AcDbLine
 10
28.456
 20
145.3349
 30
0.0
 11
30.788
 21
144.8794
 31
0.0
  0
LINE
  5
188
330
1E
100
AcDbEntity
  8
0
100
AcDbLine
 10
9.546051174879169
 20
145.329813417637
 30
0.0
 11
10.9503
 21
145.176
 31
0.0
  0
LINE
  5
189
330
1E
100
AcDbEntity
  8
0
100
AcDbLine
 10
20.184
 20
145.6082
 30
0.0
 11
23.0
 21
145.7107
 31
0.0
  0
LINE
  5
18A
330
1E
100
AcDbEntity
  8
0
100
AcDbLine
 10
25.81599999999999
 20
145.6082
 30
0.0
 11
28.456
 21
145.3349
 31
0.0
  0
LINE
  5
18B
330
1E
100
AcDbEntity
  8
0
100
AcDbLine
 10
12.0
 20
145.8259999999999
 30
0.0
 11
12.0
 21
142.8636999999999
 31
0.0
  0
LINE
  5
18C
330
1E
100
AcDbEntity
  8
0
100
AcDbLine
 10
23.0
 20
145.7107
 30
0.0
 11
25.81599999999999
 21
145.6082
 31
0.0
  0
LINE
  5
18D
330
1E
100
AcDbEntity
  8
0
100
AcDbLine
 10
39.50139999999999
 20
145.8259999999999
 30
0.0
 11
41.3497
 21
146.626
 31
0.0
  0
LINE
  5
18E
330
1E
100
AcDbEntity
  8
0
100
AcDbLine
 10
34.0
 20
145.8259999999999
 30
0.0
 11
34.0
 21
142.8636999999999
 31
0.0
  0
LINE
  5
18F
330
1E
100
AcDbEntity
  8
0
100
AcDbLine
 10
41.3497
 20
146.626
 30
0.0
 11
43.0033
 21
147.8259999999999
 31
0.0
  0
LINE
  5
190
330
1E
100
AcDbEntity
  8
0
100
AcDbLine
 10
6.498559999999999
 20
145.8259999999999
 30
0.0
 11
8.541339999999999
 21
145.426
 31
0.0
  0
LINE
  5
191
330
1E
100
AcDbEntity
  8
0
100
AcDbLine
 10
4.65033
 20
146.626
 30
0.0
 11
6.498559999999999
 21
145.8259999999999
 31
0.0
  0
LINE
  5
192
330
1E
100
AcDbEntity
  8
0
100
AcDbLine
 10
2.792392223161439
 20
148.120111017188
 30
0.0
 11
2.87706422018346
 21
148.000159021407
 31
0.0
  0
LINE
  5
193
330
1E
100
AcDbEntity
  8
0
100
AcDbLine
 10
1.799319999999999
 20
149.526
 30
0.0
 11
2.993859999999999
 21
147.8259999999999
 31
0.0
  0
LINE
  5
194
330
1E
100
AcDbEntity
  8
0
100
AcDbLine
 10
43.0061
 20
147.8259999999999
 30
0.0
 11
44.20069999999999
 21
149.526
 31
0.0
  0
LINE
  5
195
330
1E
100
AcDbEntity
  8
0
100
AcDbLine
 10
2.996649999999999
 20
147.8259999999999
 30
0.0
 11
4.65033
 21
146.626
 31
0.0
  0
LINE
  5
196
330
1E
100
AcDbEntity
  8
0
100
AcDbLine
 10
46.0
 20
153.352
 30
0.0
 11
46.0
 21
157.4759999999999
 31
0.0
  0
LINE
  5
197
330
1E
100
AcDbEntity
  8
0
100
AcDbLine
 10
46.0
 20
153.352
 30
0.0
 11
46.0
 21
145.0766999999999
 31
0.0
  0
LINE
  5
198
330
1E
100
AcDbEntity
  8
0
100
AcDbLine
 10
2.79239222316145
 20
148.120111017188
 30
0.0
 11
2.87706422018346
 21
148.000159021407
 31
0.0
  0
LINE
  5
199
330
1E
100
AcDbEntity
  8
0
100
AcDbLine
 10
0.0
 20
112.826
 30
0.0
 11
0.3
 21
112.126
 31
0.0
  0
LINE
  5
19A
330
1E
100
AcDbEntity
  8
0
100
AcDbLine
 10
0.0
 20
112.826
 30
0.0
 11
0.0
 21
121.0549
 31
0.0
  0
LINE
  5
19B
330
1E
100
AcDbEntity
  8
0
100
AcDbLine
 10
0.0
 20
112.826
 30
0.0
 11
0.0
 21
156.8259999999999
 31
0.0
  0
LINE
  5
19C
330
1E
100
AcDbEntity
  8
0
100
AcDbLine
 10
0.3
 20
112.126
 30
0.0
 11
1.0
 21
111.826
 31
0.0
  0
LINE
  5
19D
330
1E
100
AcDbEntity
  8
0
100
AcDbLine
 10
0.3
 20
112.126
 30
0.0
 11
0.4894520000000001
 21
112.126
 31
0.0
  0
LINE
  5
19E
330
1E
100
AcDbEntity
  8
0
100
AcDbLine
 10
149.0
 20
107.6769
 30
0.0
 11
149.0
 21
101.4651999999999
 31
0.0
  0
LINE
  5
19F
330
1E
100
AcDbEntity
  8
0
100
AcDbLine
 10
149.0
 20
107.6338999999999
 30
0.0
 11
149.0
 21
107.7166
 31
0.0
  0
LINE
  5
1A0
330
1E
100
AcDbEntity
  8
0
100
AcDbLine
 10
149.0
 20
107.6338999999999
 30
0.0
 11
149.0
 21
107.2354999999999
 31
0.0
  0
LINE
  5
1A1
330
1E
100
AcDbEntity
  8
0
100
AcDbLine
 10
149.0
 20
107.7166
 30
0.0
 11
149.0
 21
107.6338999999999
 31
0.0
  0
LINE
  5
1A2
330
1E
100
AcDbEntity
  8
0
100
AcDbLine
 10
0.0
 20
159.8259999999999
 30
0.0
 11
0.3
 21
160.526
 31
0.0
  0
LINE
  5
1A3
330
1E
100
AcDbEntity
  8
0
100
AcDbLine
 10
0.0
 20
159.8259999999999
 30
0.0
 11
0.0
 21
158.826
 31
0.0
  0
LINE
  5
1A4
330
1E
100
AcDbEntity
  8
0
100
AcDbLine
 10
0.0
 20
158.826
 30
0.0
 11
0.0
 21
157.4759999999999
 31
0.0
  0
LINE
  5
1A5
330
1E
100
AcDbEntity
  8
0
100
AcDbLine
 10
0.0
 20
158.826
 30
0.0
 11
0.2862
 21
155.7939999999999
 31
0.0
  0
LINE
  5
1A6
330
1E
100
AcDbEntity
  8
0
100
AcDbLine
 10
0.0
 20
158.826
 30
0.0
 11
0.286158
 21
155.7939999999999
 31
0.0
  0
LINE
  5
1A7
330
1E
100
AcDbEntity
  8
0
100
AcDbLine
 10
0.0
 20
158.826
 30
0.0
 11
0.0
 21
159.8259999999999
 31
0.0
  0
LINE
  5
1A8
330
1E
100
AcDbEntity
  8
0
100
AcDbLine
 10
0.0
 20
157.4759999999999
 30
0.0
 11
0.0
 21
153.735
 31
0.0
  0
LINE
  5
1A9
330
1E
100
AcDbEntity
  8
0
100
AcDbLine
 10
0.0
 20
157.4759999999999
 30
0.0
 11
0.0
 21
158.826
 31
0.0
  0
LINE
  5
1AA
330
1E
100
AcDbEntity
  8
0
100
AcDbLine
 10
0.2862
 20
155.7939999999999
 30
0.0
 11
0.6
 21
153.526
 31
0.0
  0
LINE
  5
1AC
330
1E
100
AcDbEntity
  8
0
100
AcDbLine
 10
46.0
 20
157.4759999999999
 30
0.0
 11
46.0
 21
158.826
 31
0.0
  0
LINE
  5
1AD
330
1E
100
AcDbEntity
  8
0
100
AcDbLine
 10
46.0
 20
157.4759999999999
 30
0.0
 11
46.0
 21
153.352
 31
0.0
  0
LINE
  5
1AF
330
1E
100
AcDbEntity
  8
0
100
AcDbLine
 10
46.0
 20
157.826
 30
0.0
 11
150.71609561753
 21
157.826
 31
0.0
  0
LINE
  5
1B5
330
1E
100
AcDbEntity
  8
0
100
AcDbLine
 10
46.0
 20
158.826
 30
0.0
 11
46.0
 21
159.8259999999999
 31
0.0
  0
LINE
  5
1B6
330
1E
100
AcDbEntity
  8
0
100
AcDbLine
 10
46.0
 20
158.826
 30
0.0
 11
46.0
 21
157.4759999999999
 31
0.0
  0
LINE
  5
1B7
330
1E
100
AcDbEntity
  8
0
100
AcDbLine
 10
46.0
 20
157.826
 30
0.0
 11
150.71609561753
 21
157.826
 31
0.0
  0
LINE
  5
1BE
330
1E
100
AcDbEntity
  8
0
100
AcDbLine
 10
1.072019999999999
 20
160.826
 30
0.0
 11
1.18036
 21
160.826
 31
0.0
  0
LINE
  5
1BF
330
1E
100
AcDbEntity
  8
0
100
AcDbLine
 10
1.18036
 20
160.826
 30
0.0
 11
1.342879999999999
 21
160.826
 31
0.0
  0
LINE
  5
1C0
330
1E
100
AcDbEntity
  8
0
100
AcDbLine
 10
1.342879999999999
 20
160.826
 30
0.0
 11
1.595679999999999
 21
160.826
 31
0.0
  0
LINE
  5
1C1
330
1E
100
AcDbEntity
  8
0
100
AcDbLine
 10
1.595679999999999
 20
160.826
 30
0.0
 11
1.992929999999999
 21
160.826
 31
0.0
  0
LINE
  5
1C2
330
1E
100
AcDbEntity
  8
0
100
AcDbLine
 10
1.992929999999999
 20
160.826
 30
0.0
 11
2.799999999999999
 21
160.826
 31
0.0
  0
LINE
  5
1D3
330
1E
100
AcDbEntity
  8
0
100
AcDbLine
 10
45.7
 20
160.526
 30
0.0
 11
46.0
 21
159.8259999999999
 31
0.0
  0
LINE
  5
1D4
330
1E
100
AcDbEntity
  8
0
100
AcDbLine
 10
46.0
 20
159.8259999999999
 30
0.0
 11
46.0
 21
158.826
 31
0.0
  0
LINE
  5
1DB
330
1E
100
AcDbEntity
  8
0
100
AcDbLine
 10
44.4043
 20
160.826
 30
0.0
 11
44.6571
 21
160.826
 31
0.0
  0
LINE
  5
1DC
330
1E
100
AcDbEntity
  8
0
100
AcDbLine
 10
44.6571
 20
160.826
 30
0.0
 11
44.81959999999999
 21
160.826
 31
0.0
  0
LINE
  5
1DD
330
1E
100
AcDbEntity
  8
0
100
AcDbLine
 10
44.81959999999999
 20
160.826
 30
0.0
 11
45.0
 21
160.826
 31
0.0
  0
LINE
  5
1E6
330
1E
100
AcDbEntity
  8
0
100
AcDbLine
 10
45.0
 20
160.826
 30
0.0
 11
45.7
 21
160.526
 31
0.0
  0
LINE
  5
1ED
330
1E
100
AcDbEntity
  8
0
100
AcDbLine
 10
7.504119999999999
 20
160.826
 30
0.0
 11
44.4043
 21
160.826
 31
0.0
  0
LINE
  5
1EF
330
1E
100
AcDbEntity
  8
0
100
AcDbLine
 10
5.7
 20
160.826
 30
0.0
 11
7.504119999999999
 21
160.826
 31
0.0
  0
LINE
  5
1F1
330
1E
100
AcDbEntity
  8
0
100
AcDbLine
 10
4.0
 20
160.826
 30
0.0
 11
5.7
 21
160.826
 31
0.0
  0
LINE
  5
1F3
330
1E
100
AcDbEntity
  8
0
100
AcDbLine
 10
2.799999999999999
 20
160.826
 30
0.0
 11
4.0
 21
160.826
 31
0.0
  0
LINE
  5
1F7
330
1E
100
AcDbEntity
  8
0
100
AcDbLine
 10
0.3
 20
160.526
 30
0.0
 11
1.0
 21
160.826
 31
0.0
  0
LINE
  5
1F8
330
1E
100
AcDbEntity
  8
0
100
AcDbLine
 10
0.286158
 20
155.7939999999999
 30
0.0
 11
0.6
 21
153.526
 31
0.0
  0
LINE
  5
1F9
330
1E
100
AcDbEntity
  8
0
100
AcDbLine
 10
0.0
 20
156.8259999999999
 30
0.0
 11
0.0
 21
112.826
 31
0.0
  0
LINE
  5
1FA
330
1E
100
AcDbEntity
  8
0
100
AcDbLine
 10
149.0
 20
153.887
 30
0.0
 11
149.3
 21
155.335
 31
0.0
  0
LINE
  5
1FB
330
1E
100
AcDbEntity
  8
0
100
AcDbLine
 10
149.0
 20
153.887
 30
0.0
 11
149.0
 21
59.22579999999999
 31
0.0
  0
LINE
  5
1FC
330
1E
100
AcDbEntity
  8
0
100
AcDbLine
 10
149.0
 20
59.22579999999999
 30
0.0
 11
149.0
 21
58.0149
 31
0.0
  0
LINE
  5
1FD
330
1E
100
AcDbEntity
  8
0
100
AcDbLine
 10
149.0
 20
59.22579999999999
 30
0.0
 11
149.0
 21
153.887
 31
0.0
  0
LINE
  5
1FE
330
1E
100
AcDbEntity
  8
0
100
AcDbLine
 10
149.0
 20
58.0149
 30
0.0
 11
149.0
 21
59.22579999999999
 31
0.0
  0
LINE
  5
1FF
330
1E
100
AcDbEntity
  8
0
100
AcDbLine
 10
149.0
 20
58.0149
 30
0.0
 11
149.0
 21
56.7264
 31
0.0
  0
LINE
  5
200
330
1E
100
AcDbEntity
  8
0
100
AcDbLine
 10
149.0
 20
58.8376
 30
0.0
 11
149.0
 21
57.9165
 31
0.0
  0
LINE
  5
201
330
1E
100
AcDbEntity
  8
0
100
AcDbLine
 10
149.0
 20
58.8376
 30
0.0
 11
149.0
 21
105.202
 31
0.0
  0
LINE
  5
202
330
1E
100
AcDbEntity
  8
0
100
AcDbLine
 10
149.0
 20
57.0661
 30
0.0
 11
149.0
 21
57.9165
 31
0.0
  0
LINE
  5
203
330
1E
100
AcDbEntity
  8
0
100
AcDbLine
 10
149.0
 20
57.0661
 30
0.0
 11
149.0
 21
56.2346
 31
0.0
  0
LINE
  5
204
330
1E
100
AcDbEntity
  8
0
100
AcDbLine
 10
149.0
 20
57.9165
 30
0.0
 11
149.0
 21
58.8376
 31
0.0
  0
LINE
  5
205
330
1E
100
AcDbEntity
  8
0
100
AcDbLine
 10
149.0
 20
57.9165
 30
0.0
 11
149.0
 21
57.0661
 31
0.0
  0
LINE
  5
206
330
1E
100
AcDbEntity
  8
0
100
AcDbLine
 10
149.0
 20
49.99659000000001
 30
0.0
 11
149.0
 21
49.3015
 31
0.0
  0
LINE
  5
207
330
1E
100
AcDbEntity
  8
0
100
AcDbLine
 10
149.0
 20
49.99659000000001
 30
0.0
 11
149.0
 21
50.81416
 31
0.0
  0
LINE
  5
208
330
1E
100
AcDbEntity
  8
0
100
AcDbLine
 10
150.0
 20
45.826023
 30
0.0
 11
190.0
 21
45.826023
 31
0.0
  0
LINE
  5
209
330
1E
100
AcDbEntity
  8
0
100
AcDbLine
 10
190.0
 20
45.826023
 30
0.0
 11
190.7
 21
46.04509
 31
0.0
  0
LINE
  5
20B
330
1E
100
AcDbEntity
  8
0
100
AcDbLine
 10
190.7
 20
46.04509
 30
0.0
 11
191.0
 21
46.773002
 31
0.0
  0
LINE
  5
210
330
1E
100
AcDbEntity
  8
0
100
AcDbLine
 10
149.3
 20
155.335
 30
0.0
 11
149.9
 21
156.6879999999999
 31
0.0
  0
LINE
  5
221
330
1E
100
AcDbEntity
  8
0
100
AcDbLine
 10
191.0
 20
53.10205999999999
 30
0.0
 11
191.0
 21
53.60583
 31
0.0
  0
LINE
  5
222
330
1E
100
AcDbEntity
  8
0
100
AcDbLine
 10
191.0
 20
53.10205999999999
 30
0.0
 11
191.0
 21
46.8904
 31
0.0
  0
LINE
  5
229
330
1E
100
AcDbEntity
  8
0
100
AcDbLine
 10
191.0
 20
56.7264
 30
0.0
 11
191.0
 21
55.45681
 31
0.0
  0
LINE
  5
22A
330
1E
100
AcDbEntity
  8
0
100
AcDbLine
 10
191.0
 20
56.7264
 30
0.0
 11
191.0
 21
58.0149
 31
0.0
  0
LINE
  5
22C
330
1E
100
AcDbEntity
  8
0
100
AcDbLine
 10
149.9
 20
156.6879999999999
 30
0.0
 11
150.8
 21
157.9429999999999
 31
0.0
  0
LINE
  5
22E
330
1E
100
AcDbEntity
  8
0
100
AcDbLine
 10
150.8
 20
157.9429999999999
 30
0.0
 11
152.0999999999999
 21
158.8129999999999
 31
0.0
  0
LINE
  5
230
330
1E
100
AcDbEntity
  8
0
100
AcDbLine
 10
152.0999999999999
 20
158.8129999999999
 30
0.0
 11
153.5
 21
159.3919999999999
 31
0.0
  0
LINE
  5
235
330
1E
100
AcDbEntity
  8
0
100
AcDbLine
 10
187.8999999999999
 20
158.8129999999999
 30
0.0
 11
189.1999999999999
 21
157.9429999999999
 31
0.0
  0
LINE
  5
236
330
1E
100
AcDbEntity
  8
0
100
AcDbLine
 10
189.2839043824699
 20
157.826
 30
0.0
 11
205.0
 21
157.826
 31
0.0
  0
LINE
  5
239
330
1E
100
AcDbEntity
  8
0
100
AcDbLine
 10
189.2839043824699
 20
157.826
 30
0.0
 11
205.0
 21
157.826
 31
0.0
  0
LINE
  5
23B
330
1E
100
AcDbEntity
  8
0
100
AcDbLine
 10
189.1999999999999
 20
157.9429999999999
 30
0.0
 11
190.0999999999999
 21
156.6879999999999
 31
0.0
  0
LINE
  5
23D
330
1E
100
AcDbEntity
  8
0
100
AcDbLine
 10
190.7
 20
155.335
 30
0.0
 11
191.0
 21
153.887
 31
0.0
  0
LINE
  5
241
330
1E
100
AcDbEntity
  8
0
100
AcDbLine
 10
155.0
 20
159.682
 30
0.0
 11
185.0
 21
159.682
 31
0.0
  0
LINE
  5
243
330
1E
100
AcDbEntity
  8
0
100
AcDbLine
 10
185.0
 20
159.682
 30
0.0
 11
186.5
 21
159.3919999999999
 31
0.0
  0
LINE
  5
244
330
1E
100
AcDbEntity
  8
0
100
AcDbLine
 10
186.5
 20
159.3919999999999
 30
0.0
 11
187.8999999999999
 21
158.8129999999999
 31
0.0
  0
LINE
  5
245
330
1E
100
AcDbEntity
  8
0
100
AcDbLine
 10
153.5
 20
159.3919999999999
 30
0.0
 11
155.0
 21
159.682
 31
0.0
  0
LINE
  5
247
330
1E
100
AcDbEntity
  8
0
100
AcDbLine
 10
191.0
 20
90.82600000000001
 30
0.0
 11
194.0
 21
90.82600000000001
 31
0.0
  0
LINE
  5
248
330
1E
100
AcDbEntity
  8
0
100
AcDbLine
 10
191.0
 20
112.126
 30
0.0
 11
205.0
 21
112.126
 31
0.0
  0
LINE
  5
249
330
1E
100
AcDbEntity
  8
0
100
AcDbLine
 10
191.0
 20
153.887
 30
0.0
 11
191.0
 21
59.22579999999999
 31
0.0
  0
LINE
  5
24C
330
1E
100
AcDbEntity
  8
0
100
AcDbLine
 10
191.0
 20
58.0149
 30
0.0
 11
191.0
 21
56.7264
 31
0.0
  0
LINE
  5
24D
330
1E
100
AcDbEntity
  8
0
100
AcDbLine
 10
191.0
 20
58.0149
 30
0.0
 11
191.0
 21
59.22579999999999
 31
0.0
  0
LINE
  5
24E
330
1E
100
AcDbEntity
  8
0
100
AcDbLine
 10
191.0
 20
59.22579999999999
 30
0.0
 11
191.0
 21
58.0149
 31
0.0
  0
LINE
  5
24F
330
1E
100
AcDbEntity
  8
0
100
AcDbLine
 10
191.0
 20
59.22579999999999
 30
0.0
 11
191.0
 21
153.887
 31
0.0
  0
LINE
  5
252
330
1E
100
AcDbEntity
  8
0
100
AcDbLine
 10
191.0
 20
55.45681
 30
0.0
 11
191.0
 21
54.39937
 31
0.0
  0
LINE
  5
253
330
1E
100
AcDbEntity
  8
0
100
AcDbLine
 10
191.0
 20
55.45681
 30
0.0
 11
191.0
 21
56.7264
 31
0.0
  0
LINE
  5
254
330
1E
100
AcDbEntity
  8
0
100
AcDbLine
 10
191.0
 20
54.39937
 30
0.0
 11
191.0
 21
53.60583
 31
0.0
  0
LINE
  5
255
330
1E
100
AcDbEntity
  8
0
100
AcDbLine
 10
191.0
 20
54.39937
 30
0.0
 11
191.0
 21
55.45681
 31
0.0
  0
LINE
  5
256
330
1E
100
AcDbEntity
  8
0
100
AcDbLine
 10
191.0
 20
53.60583
 30
0.0
 11
191.0
 21
53.10205999999999
 31
0.0
  0
LINE
  5
257
330
1E
100
AcDbEntity
  8
0
100
AcDbLine
 10
191.0
 20
53.60583
 30
0.0
 11
191.0
 21
54.39937
 31
0.0
  0
LINE
  5
258
330
1E
100
AcDbEntity
  8
0
100
AcDbLine
 10
191.0
 20
46.8904
 30
0.0
 11
191.0
 21
46.773002
 31
0.0
  0
LINE
  5
259
330
1E
100
AcDbEntity
  8
0
100
AcDbLine
 10
191.0
 20
46.8904
 30
0.0
 11
191.0
 21
53.10205999999999
 31
0.0
  0
LINE
  5
25A
330
1E
100
AcDbEntity
  8
0
100
AcDbLine
 10
195.805
 20
91.4517
 30
0.0
 11
211.0
 21
111.826
 31
0.0
  0
LINE
  5
25B
330
1E
100
AcDbEntity
  8
0
100
AcDbLine
 10
205.0
 20
112.126
 30
0.0
 11
206.666
 21
112.126
 31
0.0
  0
LINE
  5
25C
330
1E
100
AcDbEntity
  8
0
100
AcDbLine
 10
206.666
 20
112.126
 30
0.0
 11
208.49
 21
112.126
 31
0.0
  0
LINE
  5
25D
330
1E
100
AcDbEntity
  8
0
100
AcDbLine
 10
211.0
 20
111.826
 30
0.0
 11
211.6999999999999
 21
112.126
 31
0.0
  0
LINE
  5
25E
330
1E
100
AcDbEntity
  8
0
100
AcDbLine
 10
211.4809999999999
 20
112.126
 30
0.0
 11
211.6999999999999
 21
112.126
 31
0.0
  0
LINE
  5
25F
330
1E
100
AcDbEntity
  8
0
100
AcDbLine
 10
210.7299999999999
 20
112.126
 30
0.0
 11
211.4809999999999
 21
112.126
 31
0.0
  0
LINE
  5
260
330
1E
100
AcDbEntity
  8
0
100
AcDbLine
 10
209.75
 20
112.126
 30
0.0
 11
210.7299999999999
 21
112.126
 31
0.0
  0
LINE
  5
261
330
1E
100
AcDbEntity
  8
0
100
AcDbLine
 10
212.0
 20
112.826
 30
0.0
 11
212.0
 21
156.8259999999999
 31
0.0
  0
LINE
  5
262
330
1E
100
AcDbEntity
  8
0
100
AcDbLine
 10
208.49
 20
112.126
 30
0.0
 11
209.75
 21
112.126
 31
0.0
  0
LINE
  5
264
330
1E
100
AcDbEntity
  8
0
100
AcDbLine
 10
205.0
 20
157.826
 30
0.0
 11
206.5119999999999
 21
157.826
 31
0.0
  0
LINE
  5
267
330
1E
100
AcDbEntity
  8
0
100
AcDbLine
 10
206.5119999999999
 20
157.826
 30
0.0
 11
208.076
 21
157.826
 31
0.0
  0
LINE
  5
268
330
1E
100
AcDbEntity
  8
0
100
AcDbLine
 10
208.076
 20
157.826
 30
0.0
 11
209.25
 21
157.826
 31
0.0
  0
LINE
  5
26B
330
1E
100
AcDbEntity
  8
0
100
AcDbLine
 10
209.25
 20
157.826
 30
0.0
 11
210.194
 21
157.826
 31
0.0
  0
LINE
  5
26C
330
1E
100
AcDbEntity
  8
0
100
AcDbLine
 10
210.194
 20
157.826
 30
0.0
 11
210.822
 21
157.826
 31
0.0
  0
LINE
  5
26E
330
1E
100
AcDbEntity
  8
0
100
AcDbLine
 10
211.6999999999999
 20
157.526
 30
0.0
 11
212.0
 21
156.8259999999999
 31
0.0
  0
LINE
  5
26F
330
1E
100
AcDbEntity
  8
0
100
AcDbLine
 10
211.0
 20
157.826
 30
0.0
 11
211.6999999999999
 21
157.526
 31
0.0
  0
LINE
  5
270
330
1E
100
AcDbEntity
  8
0
100
AcDbLine
 10
210.822
 20
157.826
 30
0.0
 11
211.0
 21
157.826
 31
0.0
  0
LINE
  5
271
330
1E
100
AcDbEntity
  8
0
100
AcDbLine
 10
212.0
 20
156.8259999999999
 30
0.0
 11
212.0
 21
112.826
 31
0.0
  0
LINE
  5
272
330
1E
100
AcDbEntity
  8
0
100
AcDbLine
 10
191.0
 20
46.773002
 30
0.0
 11
191.0
 21
46.8904
 31
0.0
  0
LINE
  5
277
330
1E
100
AcDbEntity
  8
0
100
AcDbLine
 10
149.3
 20
46.04509
 30
0.0
 11
150.0
 21
45.826023
 31
0.0
  0
LINE
  5
279
330
1E
100
AcDbEntity
  8
0
100
AcDbLine
 10
149.0
 20
50.81416
 30
0.0
 11
149.0
 21
49.99659000000001
 31
0.0
  0
LINE
  5
27A
330
1E
100
AcDbEntity
  8
0
100
AcDbLine
 10
149.0
 20
50.81416
 30
0.0
 11
149.0
 21
97.17860000000001
 31
0.0
  0
LINE
  5
27F
330
1E
100
AcDbEntity
  8
0
100
AcDbLine
 10
9.546051174879169
 20
145.329813417637
 30
0.0
 11
8.66791
 21
145.426
 31
0.0
  0
LINE
  5
280
330
1E
100
AcDbEntity
  8
0
100
AcDbLine
 10
10.9503
 20
145.176
 30
0.0
 11
12.0
 21
145.176
 31
0.0
  0
LINE
  5
281
330
1E
100
AcDbEntity
  8
0
100
AcDbLine
 10
35.0497
 20
145.176
 30
0.0
 11
34.0
 21
145.176
 31
0.0
  0
LINE
  5
282
330
1E
100
AcDbEntity
  8
0
100
AcDbLine
 10
1.799319999999999
 20
149.526
 30
0.0
 11
0.6
 21
153.526
 31
0.0
  0
LINE
  5
283
330
1E
100
AcDbEntity
  8
0
100
AcDbLine
 10
96.21819999999999
 20
126.5168999999999
 30
0.0
 11
96.36360000000001
 21
126.1895999999999
 31
0.0
  0
LINE
  5
284
330
1E
100
AcDbEntity
  8
0
100
AcDbLine
 10
96.0
 20
134.826
 30
0.0
 11
96.0
 21
127.5532999999999
 31
0.0
  0
LINE
  5
285
330
1E
100
AcDbEntity
  8
0
100
AcDbLine
 10
96.0
 20
127.5532999999999
 30
0.0
 11
96.0
 21
134.826
 31
0.0
  0
LINE
  5
286
330
1E
100
AcDbEntity
  8
0
100
AcDbLine
 10
96.0364
 20
127.1895999999999
 30
0.0
 11
96.09090000000001
 21
126.8442
 31
0.0
  0
LINE
  5
287
330
1E
100
AcDbEntity
  8
0
100
AcDbLine
 10
96.09090000000001
 20
126.8442
 30
0.0
 11
96.21819999999999
 21
126.5168999999999
 31
0.0
  0
LINE
  5
288
330
1E
100
AcDbEntity
  8
0
100
AcDbLine
 10
96.0
 20
127.5532999999999
 30
0.0
 11
96.0364
 21
127.1895999999999
 31
0.0
  0
LINE
  5
289
330
1E
100
AcDbEntity
  8
0
100
AcDbLine
 10
97.6909
 20
125.0441999999999
 30
0.0
 11
98.01819999999999
 21
124.9168999999999
 31
0.0
  0
LINE
  5
28A
330
1E
100
AcDbEntity
  8
0
100
AcDbLine
 10
96.36360000000001
 20
126.1895999999999
 30
0.0
 11
96.56359999999999
 21
125.8986999999999
 31
0.0
  0
LINE
  5
28B
330
1E
100
AcDbEntity
  8
0
100
AcDbLine
 10
96.56359999999999
 20
125.8986999999999
 30
0.0
 11
96.79999999999999
 21
125.6259999999999
 31
0.0
  0
LINE
  5
28C
330
1E
100
AcDbEntity
  8
0
100
AcDbLine
 10
97.36360000000001
 20
125.1895999999999
 30
0.0
 11
97.6909
 21
125.0441999999999
 31
0.0
  0
LINE
  5
28D
330
1E
100
AcDbEntity
  8
0
100
AcDbLine
 10
97.07270000000001
 20
125.3895999999999
 30
0.0
 11
97.36360000000001
 21
125.1895999999999
 31
0.0
  0
LINE
  5
28E
330
1E
100
AcDbEntity
  8
0
100
AcDbLine
 10
96.79999999999999
 20
125.6259999999999
 30
0.0
 11
97.07270000000001
 21
125.3895999999999
 31
0.0
  0
LINE
  5
28F
330
1E
100
AcDbEntity
  8
0
100
AcDbLine
 10
98.7273
 20
124.8259999999999
 30
0.0
 11
106.0
 21
124.8259999999999
 31
0.0
  0
LINE
  5
290
330
1E
100
AcDbEntity
  8
0
100
AcDbLine
 10
98.3636
 20
124.8623999999999
 30
0.0
 11
98.7273
 21
124.8259999999999
 31
0.0
  0
LINE
  5
291
330
1E
100
AcDbEntity
  8
0
100
AcDbLine
 10
98.01819999999999
 20
124.9168999999999
 30
0.0
 11
98.3636
 21
124.8623999999999
 31
0.0
  0
LINE
  5
292
330
1E
100
AcDbEntity
  8
0
100
AcDbLine
 10
116.0
 20
127.5532999999999
 30
0.0
 11
116.0
 21
134.826
 31
0.0
  0
LINE
  5
293
330
1E
100
AcDbEntity
  8
0
100
AcDbLine
 10
116.0
 20
134.826
 30
0.0
 11
116.0
 21
127.5532999999999
 31
0.0
  0
LINE
  5
294
330
1E
100
AcDbEntity
  8
0
100
AcDbLine
 10
114.3091
 20
125.0441999999999
 30
0.0
 11
113.9817999999999
 21
124.9168999999999
 31
0.0
  0
LINE
  5
295
330
1E
100
AcDbEntity
  8
0
100
AcDbLine
 10
116.0
 20
127.5532999999999
 30
0.0
 11
115.9636
 21
127.1895999999999
 31
0.0
  0
LINE
  5
296
330
1E
100
AcDbEntity
  8
0
100
AcDbLine
 10
115.2
 20
125.6259999999999
 30
0.0
 11
114.9272999999999
 21
125.3895999999999
 31
0.0
  0
LINE
  5
297
330
1E
100
AcDbEntity
  8
0
100
AcDbLine
 10
114.9272999999999
 20
125.3895999999999
 30
0.0
 11
114.6363999999999
 21
125.1895999999999
 31
0.0
  0
LINE
  5
298
330
1E
100
AcDbEntity
  8
0
100
AcDbLine
 10
114.6363999999999
 20
125.1895999999999
 30
0.0
 11
114.3091
 21
125.0441999999999
 31
0.0
  0
LINE
  5
299
330
1E
100
AcDbEntity
  8
0
100
AcDbLine
 10
115.4364
 20
125.8986999999999
 30
0.0
 11
115.2
 21
125.6259999999999
 31
0.0
  0
LINE
  5
29A
330
1E
100
AcDbEntity
  8
0
100
AcDbLine
 10
115.6363999999999
 20
126.1895999999999
 30
0.0
 11
115.4364
 21
125.8986999999999
 31
0.0
  0
LINE
  5
29B
330
1E
100
AcDbEntity
  8
0
100
AcDbLine
 10
115.9090999999999
 20
126.8442
 30
0.0
 11
115.7818
 21
126.5168999999999
 31
0.0
  0
LINE
  5
29C
330
1E
100
AcDbEntity
  8
0
100
AcDbLine
 10
115.9636
 20
127.1895999999999
 30
0.0
 11
115.9090999999999
 21
126.8442
 31
0.0
  0
LINE
  5
29D
330
1E
100
AcDbEntity
  8
0
100
AcDbLine
 10
115.7818
 20
126.5168999999999
 30
0.0
 11
115.6363999999999
 21
126.1895999999999
 31
0.0
  0
LINE
  5
29E
330
1E
100
AcDbEntity
  8
0
100
AcDbLine
 10
113.2727
 20
124.8259999999999
 30
0.0
 11
106.0
 21
124.8259999999999
 31
0.0
  0
LINE
  5
29F
330
1E
100
AcDbEntity
  8
0
100
AcDbLine
 10
113.9817999999999
 20
124.9168999999999
 30
0.0
 11
113.6363999999999
 21
124.8623999999999
 31
0.0
  0
LINE
  5
2A0
330
1E
100
AcDbEntity
  8
0
100
AcDbLine
 10
113.6363999999999
 20
124.8623999999999
 30
0.0
 11
113.2727
 21
124.8259999999999
 31
0.0
  0
LINE
  5
2A1
330
1E
100
AcDbEntity
  8
0
100
AcDbLine
 10
115.7818
 20
143.1351
 30
0.0
 11
115.6363999999999
 21
143.4624
 31
0.0
  0
LINE
  5
2A2
330
1E
100
AcDbEntity
  8
0
100
AcDbLine
 10
116.0
 20
134.826
 30
0.0
 11
116.0
 21
142.0987
 31
0.0
  0
LINE
  5
2A3
330
1E
100
AcDbEntity
  8
0
100
AcDbLine
 10
116.0
 20
142.0987
 30
0.0
 11
116.0
 21
134.826
 31
0.0
  0
LINE
  5
2A4
330
1E
100
AcDbEntity
  8
0
100
AcDbLine
 10
115.9636
 20
142.4624
 30
0.0
 11
115.9090999999999
 21
142.8078
 31
0.0
  0
LINE
  5
2A5
330
1E
100
AcDbEntity
  8
0
100
AcDbLine
 10
115.9090999999999
 20
142.8078
 30
0.0
 11
115.7818
 21
143.1351
 31
0.0
  0
LINE
  5
2A6
330
1E
100
AcDbEntity
  8
0
100
AcDbLine
 10
116.0
 20
142.0987
 30
0.0
 11
115.9636
 21
142.4624
 31
0.0
  0
LINE
  5
2A7
330
1E
100
AcDbEntity
  8
0
100
AcDbLine
 10
114.3091
 20
144.6077999999999
 30
0.0
 11
113.9817999999999
 21
144.7350999999999
 31
0.0
  0
LINE
  5
2A8
330
1E
100
AcDbEntity
  8
0
100
AcDbLine
 10
115.6363999999999
 20
143.4624
 30
0.0
 11
115.4364
 21
143.7532999999999
 31
0.0
  0
LINE
  5
2A9
330
1E
100
AcDbEntity
  8
0
100
AcDbLine
 10
115.4364
 20
143.7532999999999
 30
0.0
 11
115.2
 21
144.026
 31
0.0
  0
LINE
  5
2AA
330
1E
100
AcDbEntity
  8
0
100
AcDbLine
 10
114.6363999999999
 20
144.4624
 30
0.0
 11
114.3091
 21
144.6077999999999
 31
0.0
  0
LINE
  5
2AB
330
1E
100
AcDbEntity
  8
0
100
AcDbLine
 10
114.9272999999999
 20
144.2624
 30
0.0
 11
114.6363999999999
 21
144.4624
 31
0.0
  0
LINE
  5
2AC
330
1E
100
AcDbEntity
  8
0
100
AcDbLine
 10
115.2
 20
144.026
 30
0.0
 11
114.9272999999999
 21
144.2624
 31
0.0
  0
LINE
  5
2AD
330
1E
100
AcDbEntity
  8
0
100
AcDbLine
 10
113.2727
 20
144.8259999999999
 30
0.0
 11
106.0
 21
144.8259999999999
 31
0.0
  0
LINE
  5
2AE
330
1E
100
AcDbEntity
  8
0
100
AcDbLine
 10
113.6363999999999
 20
144.7896
 30
0.0
 11
113.2727
 21
144.8259999999999
 31
0.0
  0
LINE
  5
2AF
330
1E
100
AcDbEntity
  8
0
100
AcDbLine
 10
113.9817999999999
 20
144.7350999999999
 30
0.0
 11
113.6363999999999
 21
144.7896
 31
0.0
  0
LINE
  5
2B0
330
1E
100
AcDbEntity
  8
0
100
AcDbLine
 10
44.20069999999999
 20
149.526
 30
0.0
 11
46.0
 21
159.8259999999999
 31
0.0
  0
LINE
  5
2B1
330
1E
100
AcDbEntity
  8
0
100
AcDbLine
 10
190.0999999999999
 20
156.6879999999999
 30
0.0
 11
190.7
 21
155.335
 31
0.0
  0
LINE
  5
2B2
330
1E
100
AcDbEntity
  8
0
100
AcDbLine
 10
195.805
 20
91.4517
 30
0.0
 11
195.1030161957677
 21
91.01962570237516
 31
0.0
  0
LINE
  5
2B3
330
1E
100
AcDbEntity
  8
0
100
AcDbLine
 10
195.1030161957677
 20
91.01962570237516
 30
0.0
 11
194.0
 21
90.82600000000001
 31
0.0
  0
ENDSEC
  0
SECTION
  2
OBJECTS
  0
DICTIONARY
  5
C
330
0
100
AcDbDictionary
281
     1
  3
ACAD_GROUP
350
D
  3
ACAD_LAYOUT
350
19
  3
ACAD_MLINESTYLE
350
16
  3
ACAD_PLOTSETTINGS
350
18
  3
ACAD_PLOTSTYLENAME
350
E
  3
AcDbVariableDictionary
350
2B4
  0
DICTIONARY
  5
D
102
{ACAD_REACTORS
330
C
102
}
330
C
100
AcDbDictionary
281
     1
  0
DICTIONARY
  5
19
102
{ACAD_REACTORS
330
C
102
}
330
C
100
AcDbDictionary
281
     1
  3
Layout1
350
1D
  3
Model
350
21
  0
DICTIONARY
  5
16
102
{ACAD_REACTORS
330
C
102
}
330
C
100
AcDbDictionary
281
     1
  3
Standard
350
17
  0
DICTIONARY
  5
18
102
{ACAD_REACTORS
330
C
102
}
330
C
100
AcDbDictionary
281
     1
  0
ACDBDICTIONARYWDFLT
  5
E
102
{ACAD_REACTORS
330
C
102
}
330
C
100
AcDbDictionary
281
     1
  3
Normal
350
F
100
AcDbDictionaryWithDefault
340
F
  0
DICTIONARY
  5
2B4
102
{ACAD_REACTORS
330
C
102
}
330
C
100
AcDbDictionary
281
     1
  3
DIMASSOC
350
2B5
  0
LAYOUT
  5
1D
102
{ACAD_REACTORS
330
19
102
}
330
19
100
AcDbPlotSettings
  1

  2
hp deskjet 980c series
  4

  6

 40
0.0
 41
0.0
 42
0.0
 43
0.0
 44
0.0
 45
0.0
 46
0.0
 47
0.0
 48
0.0
 49
0.0
140
0.0
141
0.0
142
1.0
143
1.0
 70
   688
 72
     0
 73
     0
 74
     5
  7

 75
    16
147
1.0
148
0.0
149
0.0
100
AcDbLayout
  1
Layout1
 70
     1
 71
     1
 10
0.0
 20
0.0
 11
12.0
 21
9.0
 12
0.0
 22
0.0
 32
0.0
 14
1.000000000000000E+20
 24
1.000000000000000E+20
 34
1.000000000000000E+20
 15
-1.000000000000000E+20
 25
-1.000000000000000E+20
 35
-1.000000000000000E+20
146
0.0
 13
0.0
 23
0.0
 33
0.0
 16
1.0
 26
0.0
 36
0.0
 17
0.0
 27
1.0
 37
0.0
 76
     0
330
1A
  0
LAYOUT
  5
21
102
{ACAD_REACTORS
330
19
102
}
330
19
100
AcDbPlotSettings
  1

  2
hp deskjet 980c series
  4

  6

 40
0.0
 41
0.0
 42
0.0
 43
0.0
 44
0.0
 45
0.0
 46
0.0
 47
0.0
 48
0.0
 49
0.0
140
0.0
141
0.0
142
1.0
143
1.0
 70
  1712
 72
     0
 73
     0
 74
     0
  7

 75
     0
147
1.0
148
0.0
149
0.0
100
AcDbLayout
  1
Model
 70
     1
 71
     0
 10
0.0
 20
0.0
 11
12.0
 21
9.0
 12
0.0
 22
0.0
 32
0.0
 14
0.0
 24
0.0
 34
0.0
 15
0.0
 25
0.0
 35
0.0
146
0.0
 13
0.0
 23
0.0
 33
0.0
 16
1.0
 26
0.0
 36
0.0
 17
0.0
 27
1.0
 37
0.0
 76
     0
330
1E
  0
MLINESTYLE
  5
17
102
{ACAD_REACTORS
330
16
102
}
330
16
100
AcDbMlineStyle
  2
STANDARD
 70
     0
  3

 62
   256
 51
90.0
 52
90.0
 71
     2
 49
0.5
 62
   256
  6
BYLAYER
 49
-0.5
 62
   256
  6
BYLAYER
  0
ACDBPLACEHOLDER
  5
F
102
{ACAD_REACTORS
330
E
102
}
330
E
  0
DICTIONARYVAR
  5
2B5
102
{ACAD_REACTORS
330
2B4
102
}
330
2B4
100
DictionaryVariables
280
     0
  1
1
  0
ENDSEC
  0
EOF
