  0
SECTION
  2
HEADER
  9
$ACADVER
  1
AC1015
  9
$ACADMAINTVER
 70
    13
  9
$DWGCODEPAGE
  3
ANSI_1252
  9
$INSBASE
 10
0.0
 20
0.0
 30
0.0
  9
$EXTMIN
 10
0.23949999999999
 20
0.0932170000000247
 30
0.0
  9
$EXTMAX
 10
131.7605
 20
150.906783
 30
0.0
  9
$LIMMIN
 10
0.0
 20
0.0
  9
$LIMMAX
 10
12.0
 20
9.0
  9
$ORTHOMODE
 70
     0
  9
$REGENMODE
 70
     1
  9
$FILLMODE
 70
     1
  9
$QTEXTMODE
 70
     0
  9
$MIRRTEXT
 70
     1
  9
$LTSCALE
 40
1.0
  9
$ATTMODE
 70
     1
  9
$TEXTSIZE
 40
0.2
  9
$TRACEWID
 40
0.05
  9
$TEXTSTYLE
  7
Standard
  9
$CLAYER
  8
0
  9
$CELTYPE
  6
Continuous
  9
$CECOLOR
 62
   256
  9
$CELTSCALE
 40
1.0
  9
$DISPSILH
 70
     0
  9
$DIMSCALE
 40
1.0
  9
$DIMASZ
 40
0.18
  9
$DIMEXO
 40
0.0625
  9
$DIMDLI
 40
0.38
  9
$DIMRND
 40
0.0
  9
$DIMDLE
 40
0.0
  9
$DIMEXE
 40
0.18
  9
$DIMTP
 40
0.0
  9
$DIMTM
 40
0.0
  9
$DIMTXT
 40
0.18
  9
$DIMCEN
 40
0.09
  9
$DIMTSZ
 40
0.0
  9
$DIMTOL
 70
     0
  9
$DIMLIM
 70
     0
  9
$DIMTIH
 70
     1
  9
$DIMTOH
 70
     1
  9
$DIMSE1
 70
     0
  9
$DIMSE2
 70
     0
  9
$DIMTAD
 70
     0
  9
$DIMZIN
 70
     0
  9
$DIMBLK
  1

  9
$DIMASO
 70
     1
  9
$DIMSHO
 70
     1
  9
$DIMPOST
  1

  9
$DIMAPOST
  1

  9
$DIMALT
 70
     0
  9
$DIMALTD
 70
     2
  9
$DIMALTF
 40
25.4
  9
$DIMLFAC
 40
1.0
  9
$DIMTOFL
 70
     0
  9
$DIMTVP
 40
0.0
  9
$DIMTIX
 70
     0
  9
$DIMSOXD
 70
     0
  9
$DIMSAH
 70
     0
  9
$DIMBLK1
  1

  9
$DIMBLK2
  1

  9
$DIMSTYLE
  2
Standard
  9
$DIMCLRD
 70
     0
  9
$DIMCLRE
 70
     0
  9
$DIMCLRT
 70
     0
  9
$DIMTFAC
 40
1.0
  9
$DIMGAP
 40
0.09
  9
$DIMJUST
 70
     0
  9
$DIMSD1
 70
     0
  9
$DIMSD2
 70
     0
  9
$DIMTOLJ
 70
     1
  9
$DIMTZIN
 70
     0
  9
$DIMALTZ
 70
     0
  9
$DIMALTTZ
 70
     0
  9
$DIMUPT
 70
     0
  9
$DIMDEC
 70
     4
  9
$DIMTDEC
 70
     4
  9
$DIMALTU
 70
     2
  9
$DIMALTTD
 70
     2
  9
$DIMTXSTY
  7
Standard
  9
$DIMAUNIT
 70
     0
  9
$DIMADEC
 70
     0
  9
$DIMALTRND
 40
0.0
  9
$DIMAZIN
 70
     0
  9
$DIMDSEP
 70
    46
  9
$DIMATFIT
 70
     3
  9
$DIMFRAC
 70
     0
  9
$DIMLDRBLK
  1

  9
$DIMLUNIT
 70
     2
  9
$DIMLWD
 70
    -2
  9
$DIMLWE
 70
    -2
  9
$DIMTMOVE
 70
     0
  9
$LUNITS
 70
     2
  9
$LUPREC
 70
     4
  9
$SKETCHINC
 40
0.1
  9
$FILLETRAD
 40
0.0
  9
$AUNITS
 70
     0
  9
$AUPREC
 70
     0
  9
$MENU
  1
.
  9
$ELEVATION
 40
0.0
  9
$PELEVATION
 40
0.0
  9
$THICKNESS
 40
0.0
  9
$LIMCHECK
 70
     0
  9
$CHAMFERA
 40
0.0
  9
$CHAMFERB
 40
0.0
  9
$CHAMFERC
 40
0.0
  9
$CHAMFERD
 40
0.0
  9
$SKPOLY
 70
     0
  9
$TDCREATE
 40
2454875.885626794
  9
$TDUCREATE
 40
2454875.843960127
  9
$TDUPDATE
 40
2454875.894214039
  9
$TDUUPDATE
 40
2454875.852547372
  9
$TDINDWG
 40
0.0085872454
  9
$TDUSRTIMER
 40
0.0085872454
  9
$USRTIMER
 70
     1
  9
$ANGBASE
 50
0.0
  9
$ANGDIR
 70
     0
  9
$PDMODE
 70
     0
  9
$PDSIZE
 40
0.0
  9
$PLINEWID
 40
0.0
  9
$SPLFRAME
 70
     0
  9
$SPLINETYPE
 70
     6
  9
$SPLINESEGS
 70
     8
  9
$HANDSEED
  5
1E9
  9
$SURFTAB1
 70
     6
  9
$SURFTAB2
 70
     6
  9
$SURFTYPE
 70
     6
  9
$SURFU
 70
     6
  9
$SURFV
 70
     6
  9
$UCSBASE
  2

  9
$UCSNAME
  2

  9
$UCSORG
 10
0.0
 20
0.0
 30
0.0
  9
$UCSXDIR
 10
1.0
 20
0.0
 30
0.0
  9
$UCSYDIR
 10
0.0
 20
1.0
 30
0.0
  9
$UCSORTHOREF
  2

  9
$UCSORTHOVIEW
 70
     1
  9
$UCSORGTOP
 10
0.0
 20
0.0
 30
0.0
  9
$UCSORGBOTTOM
 10
0.0
 20
0.0
 30
0.0
  9
$UCSORGLEFT
 10
0.0
 20
0.0
 30
0.0
  9
$UCSORGRIGHT
 10
0.0
 20
0.0
 30
0.0
  9
$UCSORGFRONT
 10
0.0
 20
0.0
 30
0.0
  9
$UCSORGBACK
 10
0.0
 20
0.0
 30
0.0
  9
$PUCSBASE
  2

  9
$PUCSNAME
  2

  9
$PUCSORG
 10
0.0
 20
0.0
 30
0.0
  9
$PUCSXDIR
 10
1.0
 20
0.0
 30
0.0
  9
$PUCSYDIR
 10
0.0
 20
1.0
 30
0.0
  9
$PUCSORTHOREF
  2

  9
$PUCSORTHOVIEW
 70
     0
  9
$PUCSORGTOP
 10
0.0
 20
0.0
 30
0.0
  9
$PUCSORGBOTTOM
 10
0.0
 20
0.0
 30
0.0
  9
$PUCSORGLEFT
 10
0.0
 20
0.0
 30
0.0
  9
$PUCSORGRIGHT
 10
0.0
 20
0.0
 30
0.0
  9
$PUCSORGFRONT
 10
0.0
 20
0.0
 30
0.0
  9
$PUCSORGBACK
 10
0.0
 20
0.0
 30
0.0
  9
$USERI1
 70
     0
  9
$USERI2
 70
     0
  9
$USERI3
 70
     0
  9
$USERI4
 70
     0
  9
$USERI5
 70
     0
  9
$USERR1
 40
0.0
  9
$USERR2
 40
0.0
  9
$USERR3
 40
0.0
  9
$USERR4
 40
0.0
  9
$USERR5
 40
0.0
  9
$WORLDVIEW
 70
     1
  9
$SHADEDGE
 70
     3
  9
$SHADEDIF
 70
    70
  9
$TILEMODE
 70
     1
  9
$MAXACTVP
 70
    64
  9
$PINSBASE
 10
0.0
 20
0.0
 30
0.0
  9
$PLIMCHECK
 70
     0
  9
$PEXTMIN
 10
1.000000000000000E+20
 20
1.000000000000000E+20
 30
1.000000000000000E+20
  9
$PEXTMAX
 10
-1.000000000000000E+20
 20
-1.000000000000000E+20
 30
-1.000000000000000E+20
  9
$PLIMMIN
 10
0.0
 20
0.0
  9
$PLIMMAX
 10
12.0
 20
9.0
  9
$UNITMODE
 70
     0
  9
$VISRETAIN
 70
     1
  9
$PLINEGEN
 70
     0
  9
$PSLTSCALE
 70
     1
  9
$TREEDEPTH
 70
  3020
  9
$CMLSTYLE
  2
Standard
  9
$CMLJUST
 70
     0
  9
$CMLSCALE
 40
1.0
  9
$PROXYGRAPHICS
 70
     1
  9
$MEASUREMENT
 70
     0
  9
$CELWEIGHT
370
    -1
  9
$ENDCAPS
280
     0
  9
$JOINSTYLE
280
     0
  9
$LWDISPLAY
290
     0
  9
$INSUNITS
 70
     0
  9
$HYPERLINKBASE
  1

  9
$STYLESHEET
  1

  9
$XEDIT
290
     1
  9
$CEPSNTYPE
380
     0
  9
$PSTYLEMODE
290
     1
  9
$FINGERPRINTGUID
  2
{4243B108-BACF-41A4-B0AD-55AD1240251E}
  9
$VERSIONGUID
  2
{9AD2EB00-C6B1-4817-AC1C-6AF6ED226DD2}
  9
$EXTNAMES
290
     1
  9
$PSVPSCALE
 40
0.0
  9
$OLESTARTUP
290
     0
  0
ENDSEC
  0
SECTION
  2
CLASSES
  0
CLASS
  1
ACDBDICTIONARYWDFLT
  2
AcDbDictionaryWithDefault
  3
AutoCAD 2000
 90
        0
280
     0
281
     0
  0
CLASS
  1
ACDBPLACEHOLDER
  2
AcDbPlaceHolder
  3
AutoCAD 2000
 90
        0
280
     0
281
     0
  0
CLASS
  1
LAYOUT
  2
AcDbLayout
  3
AutoCAD 2000
 90
        0
280
     0
281
     0
  0
CLASS
  1
DICTIONARYVAR
  2
AcDbDictionaryVar
  3
AutoCAD 2000
 90
        0
280
     0
281
     0
  0
ENDSEC
  0
SECTION
  2
TABLES
  0
TABLE
  2
VPORT
  5
8
330
0
100
AcDbSymbolTable
 70
     2
  0
VPORT
  5
1E8
330
8
100
AcDbSymbolTableRecord
100
AcDbViewportTableRecord
  2
*Active
 70
     0
 10
0.0
 20
0.0
 11
1.0
 21
1.0
 12
66.0
 22
75.50000000000001
 13
0.0
 23
0.0
 14
1.0
 24
1.0
 15
0.0
 25
0.0
 16
0.0
 26
0.0
 36
1.0
 17
0.0
 27
0.0
 37
0.0
 40
151.7660727326315
 41
1.968387776606954
 42
50.0
 43
0.0
 44
0.0
 50
0.0
 51
0.0
 71
     0
 72
   100
 73
     1
 74
     3
 75
     0
 76
     0
 77
     0
 78
     0
281
     0
 65
     1
110
0.0
120
0.0
130
0.0
111
1.0
121
0.0
131
0.0
112
0.0
122
1.0
132
0.0
 79
     1
146
0.0
  0
ENDTAB
  0
TABLE
  2
LTYPE
  5
5
330
0
100
AcDbSymbolTable
 70
     1
  0
LTYPE
  5
13
330
5
100
AcDbSymbolTableRecord
100
AcDbLinetypeTableRecord
  2
ByBlock
 70
     0
  3

 72
    65
 73
     0
 40
0.0
  0
LTYPE
  5
14
330
5
100
AcDbSymbolTableRecord
100
AcDbLinetypeTableRecord
  2
ByLayer
 70
     0
  3

 72
    65
 73
     0
 40
0.0
  0
LTYPE
  5
15
330
5
100
AcDbSymbolTableRecord
100
AcDbLinetypeTableRecord
  2
Continuous
 70
     0
  3
Solid line
 72
    65
 73
     0
 40
0.0
  0
ENDTAB
  0
TABLE
  2
LAYER
  5
2
330
0
100
AcDbSymbolTable
 70
     1
  0
LAYER
  5
10
330
2
100
AcDbSymbolTableRecord
100
AcDbLayerTableRecord
  2
0
 70
     0
 62
     7
  6
Continuous
370
    -3
390
F
  0
ENDTAB
  0
TABLE
  2
STYLE
  5
3
330
0
100
AcDbSymbolTable
 70
     1
  0
STYLE
  5
11
330
3
100
AcDbSymbolTableRecord
100
AcDbTextStyleTableRecord
  2
Standard
 70
     0
 40
0.0
 41
1.0
 50
0.0
 71
     0
 42
0.2
  3
txt
  4

  0
ENDTAB
  0
TABLE
  2
VIEW
  5
6
330
0
100
AcDbSymbolTable
 70
     0
  0
ENDTAB
  0
TABLE
  2
UCS
  5
7
330
0
100
AcDbSymbolTable
 70
     0
  0
ENDTAB
  0
TABLE
  2
APPID
  5
9
330
0
100
AcDbSymbolTable
 70
     1
  0
APPID
  5
12
330
9
100
AcDbSymbolTableRecord
100
AcDbRegAppTableRecord
  2
ACAD
 70
     0
  0
ENDTAB
  0
TABLE
  2
DIMSTYLE
  5
A
330
0
100
AcDbSymbolTable
 70
     1
100
AcDbDimStyleTable
 71
     0
  0
DIMSTYLE
105
1E0
330
A
100
AcDbSymbolTableRecord
100
AcDbDimStyleTableRecord
  2
Standard
 70
     0
340
11
  0
ENDTAB
  0
TABLE
  2
BLOCK_RECORD
  5
1
330
0
100
AcDbSymbolTable
 70
     0
  0
BLOCK_RECORD
  5
1E
330
1
100
AcDbSymbolTableRecord
100
AcDbBlockTableRecord
  2
*Model_Space
340
21
  0
BLOCK_RECORD
  5
1A
330
1
100
AcDbSymbolTableRecord
100
AcDbBlockTableRecord
  2
*Paper_Space
340
1D
  0
ENDTAB
  0
ENDSEC
  0
SECTION
  2
BLOCKS
  0
BLOCK
  5
1F
330
1E
100
AcDbEntity
  8
0
100
AcDbBlockBegin
  2
*Model_Space
 70
     0
 10
0.0
 20
0.0
 30
0.0
  3
*Model_Space
  1

  0
ENDBLK
  5
20
330
1E
100
AcDbEntity
  8
0
100
AcDbBlockEnd
  0
BLOCK
  5
1B
330
1A
100
AcDbEntity
 67
     1
  8
0
100
AcDbBlockBegin
  2
*Paper_Space
 70
     0
 10
0.0
 20
0.0
 30
0.0
  3
*Paper_Space
  1

  0
ENDBLK
  5
1C
330
1A
100
AcDbEntity
 67
     1
  8
0
100
AcDbBlockEnd
  0
ENDSEC
  0
SECTION
  2
ENTITIES
  0
LINE
  5
22
330
1E
100
AcDbEntity
  8
0
100
AcDbLine
 10
20.9715
 20
0.230145000000025
 30
0.0
 11
23.23949999999999
 21
0.0932170000000247
 31
0.0
  0
LINE
  5
23
330
1E
100
AcDbEntity
  8
0
100
AcDbLine
 10
23.23949999999999
 20
0.0932170000000247
 30
0.0
 11
25.5075
 21
0.230145000000025
 31
0.0
  0
LINE
  5
24
330
1E
100
AcDbEntity
  8
0
100
AcDbLine
 10
20.4675
 20
0.341930000000025
 30
0.0
 11
23.23949999999999
 21
0.174574000000025
 31
0.0
  0
LINE
  5
25
330
1E
100
AcDbEntity
  8
0
100
AcDbLine
 10
23.23949999999999
 20
0.174574000000025
 30
0.0
 11
26.0115
 21
0.341930000000025
 31
0.0
  0
LINE
  5
26
330
1E
100
AcDbEntity
  8
0
100
AcDbLine
 10
12.8995
 20
3.54030300000002
 30
0.0
 11
13.9555
 21
2.46178300000002
 31
0.0
  0
LINE
  5
27
330
1E
100
AcDbEntity
  8
0
100
AcDbLine
 10
15.67149999999999
 20
1.513428000000019
 30
0.0
 11
17.9155
 21
0.788215000000025
 31
0.0
  0
LINE
  5
28
330
1E
100
AcDbEntity
  8
0
100
AcDbLine
 10
18.8835
 20
0.5952870000000239
 30
0.0
 11
20.9715
 21
0.230145000000025
 31
0.0
  0
LINE
  5
29
330
1E
100
AcDbEntity
  8
0
100
AcDbLine
 10
18.7240451733022
 20
0.6468193955066229
 30
0.0
 11
18.8835
 21
0.5952870000000239
 31
0.0
  0
LINE
  5
2A
330
1E
100
AcDbEntity
  8
0
100
AcDbLine
 10
17.9155
 20
0.788215000000025
 30
0.0
 11
20.4675
 21
0.341930000000025
 31
0.0
  0
LINE
  5
2B
330
1E
100
AcDbEntity
  8
0
100
AcDbLine
 10
20.4235
 20
0.5789340000000251
 30
0.0
 11
23.23949999999999
 21
0.4115770000000251
 31
0.0
  0
LINE
  5
2C
330
1E
100
AcDbEntity
  8
0
100
AcDbLine
 10
17.7835
 20
1.025219000000019
 30
0.0
 11
20.4235
 21
0.5789340000000251
 31
0.0
  0
LINE
  5
2D
330
1E
100
AcDbEntity
  8
0
100
AcDbLine
 10
13.9555
 20
2.46178300000002
 30
0.0
 11
15.67149999999999
 21
1.513428000000019
 31
0.0
  0
LINE
  5
2E
330
1E
100
AcDbEntity
  8
0
100
AcDbLine
 10
15.4515
 20
1.76902300000002
 30
0.0
 11
17.7835
 21
1.025219000000019
 31
0.0
  0
LINE
  5
2F
330
1E
100
AcDbEntity
  8
0
100
AcDbLine
 10
13.6915
 20
2.754573000000029
 30
0.0
 11
15.4515
 21
1.76902300000002
 31
0.0
  0
LINE
  5
30
330
1E
100
AcDbEntity
  8
0
100
AcDbLine
 10
20.4235
 20
16.19528299999999
 30
0.0
 11
23.23949999999999
 21
16.02798299999999
 31
0.0
  0
LINE
  5
31
330
1E
100
AcDbEntity
  8
0
100
AcDbLine
 10
12.6355
 20
3.87028300000002
 30
0.0
 11
13.6915
 21
2.754573000000029
 31
0.0
  0
LINE
  5
32
330
1E
100
AcDbEntity
  8
0
100
AcDbLine
 10
12.6355
 20
3.87028300000002
 30
0.0
 11
12.8995
 21
3.54030300000002
 31
0.0
  0
LINE
  5
33
330
1E
100
AcDbEntity
  8
0
100
AcDbLine
 10
12.2395
 20
5.060383000000019
 30
0.0
 11
12.6355
 21
3.87028300000002
 31
0.0
  0
LINE
  5
34
330
1E
100
AcDbEntity
  8
0
100
AcDbLine
 10
12.2395
 20
5.060383000000019
 30
0.0
 11
12.2395
 21
20.676783
 31
0.0
  0
LINE
  5
35
330
1E
100
AcDbEntity
  8
0
100
AcDbLine
 10
23.23949999999999
 20
0.4115770000000251
 30
0.0
 11
26.0555
 21
0.5789340000000251
 31
0.0
  0
LINE
  5
36
330
1E
100
AcDbEntity
  8
0
100
AcDbLine
 10
25.5075
 20
0.230145000000025
 30
0.0
 11
27.5955
 21
0.5952870000000239
 31
0.0
  0
LINE
  5
37
330
1E
100
AcDbEntity
  8
0
100
AcDbLine
 10
26.0115
 20
0.341930000000025
 30
0.0
 11
28.5635
 21
0.788215000000025
 31
0.0
  0
LINE
  5
38
330
1E
100
AcDbEntity
  8
0
100
AcDbLine
 10
23.23949999999999
 20
16.02798299999999
 30
0.0
 11
26.0555
 21
16.19528299999999
 31
0.0
  0
LINE
  5
39
330
1E
100
AcDbEntity
  8
0
100
AcDbLine
 10
17.7835
 20
16.64158299999999
 30
0.0
 11
20.4235
 21
16.19528299999999
 31
0.0
  0
LINE
  5
3A
330
1E
100
AcDbEntity
  8
0
100
AcDbLine
 10
20.4675
 20
16.655483
 30
0.0
 11
23.23949999999999
 21
16.48808299999999
 31
0.0
  0
LINE
  5
3B
330
1E
100
AcDbEntity
  8
0
100
AcDbLine
 10
23.23949999999999
 20
16.48808299999999
 30
0.0
 11
26.0115
 21
16.655483
 31
0.0
  0
LINE
  5
3C
330
1E
100
AcDbEntity
  8
0
100
AcDbLine
 10
26.0555
 20
0.5789340000000251
 30
0.0
 11
28.6955
 21
1.025219000000019
 31
0.0
  0
LINE
  5
3D
330
1E
100
AcDbEntity
  8
0
100
AcDbLine
 10
26.0555
 20
16.19528299999999
 30
0.0
 11
28.6955
 21
16.64158299999999
 31
0.0
  0
LINE
  5
3E
330
1E
100
AcDbEntity
  8
0
100
AcDbLine
 10
26.0115
 20
16.655483
 30
0.0
 11
28.5635
 21
17.10178299999999
 31
0.0
  0
LINE
  5
3F
330
1E
100
AcDbEntity
  8
0
100
AcDbLine
 10
12.2395
 20
20.676783
 30
0.0
 11
12.2395
 21
5.060383000000019
 31
0.0
  0
LINE
  5
40
330
1E
100
AcDbEntity
  8
0
100
AcDbLine
 10
12.2395
 20
20.676783
 30
0.0
 11
12.6355
 21
19.48668299999999
 31
0.0
  0
LINE
  5
41
330
1E
100
AcDbEntity
  8
0
100
AcDbLine
 10
12.2395
 20
20.676783
 30
0.0
 11
12.35368149735319
 21
21.01993299999999
 31
0.0
  0
LINE
  5
42
330
1E
100
AcDbEntity
  8
0
100
AcDbLine
 10
12.6355
 20
19.48668299999999
 30
0.0
 11
13.6915
 21
18.370983
 31
0.0
  0
LINE
  5
43
330
1E
100
AcDbEntity
  8
0
100
AcDbLine
 10
13.6915
 20
18.370983
 30
0.0
 11
15.4515
 21
17.38538299999999
 31
0.0
  0
LINE
  5
44
330
1E
100
AcDbEntity
  8
0
100
AcDbLine
 10
12.8995
 20
19.853883
 30
0.0
 11
13.9555
 21
18.77528299999999
 31
0.0
  0
LINE
  5
45
330
1E
100
AcDbEntity
  8
0
100
AcDbLine
 10
15.4515
 20
17.38538299999999
 30
0.0
 11
17.7835
 21
16.64158299999999
 31
0.0
  0
LINE
  5
46
330
1E
100
AcDbEntity
  8
0
100
AcDbLine
 10
15.67149999999999
 20
17.82698299999999
 30
0.0
 11
17.9155
 21
17.10178299999999
 31
0.0
  0
LINE
  5
47
330
1E
100
AcDbEntity
  8
0
100
AcDbLine
 10
17.9155
 20
17.10178299999999
 30
0.0
 11
20.4675
 21
16.655483
 31
0.0
  0
LINE
  5
48
330
1E
100
AcDbEntity
  8
0
100
AcDbLine
 10
20.4235
 20
16.881683
 30
0.0
 11
23.23949999999999
 21
16.71428299999999
 31
0.0
  0
LINE
  5
49
330
1E
100
AcDbEntity
  8
0
100
AcDbLine
 10
17.7835
 20
17.32798299999999
 30
0.0
 11
20.4235
 21
16.881683
 31
0.0
  0
LINE
  5
4A
330
1E
100
AcDbEntity
  8
0
100
AcDbLine
 10
13.9555
 20
18.77528299999999
 30
0.0
 11
15.67149999999999
 21
17.82698299999999
 31
0.0
  0
LINE
  5
4B
330
1E
100
AcDbEntity
  8
0
100
AcDbLine
 10
15.4515
 20
18.071783
 30
0.0
 11
17.7835
 21
17.32798299999999
 31
0.0
  0
LINE
  5
4C
330
1E
100
AcDbEntity
  8
0
100
AcDbLine
 10
13.6915
 20
19.05728299999999
 30
0.0
 11
15.4515
 21
18.071783
 31
0.0
  0
LINE
  5
4D
330
1E
100
AcDbEntity
  8
0
100
AcDbLine
 10
12.6355
 20
20.17298299999999
 30
0.0
 11
13.6915
 21
19.05728299999999
 31
0.0
  0
LINE
  5
4E
330
1E
100
AcDbEntity
  8
0
100
AcDbLine
 10
12.6355
 20
20.17298299999999
 30
0.0
 11
12.8995
 21
19.853883
 31
0.0
  0
LINE
  5
4F
330
1E
100
AcDbEntity
  8
0
100
AcDbLine
 10
12.2395
 20
21.363083
 30
0.0
 11
12.6355
 21
20.17298299999999
 31
0.0
  0
LINE
  5
50
330
1E
100
AcDbEntity
  8
0
100
AcDbLine
 10
12.2395
 20
21.363083
 30
0.0
 11
12.2395
 21
26.91607796039269
 31
0.0
  0
LINE
  5
51
330
1E
100
AcDbEntity
  8
0
100
AcDbLine
 10
23.23949999999999
 20
16.71428299999999
 30
0.0
 11
26.0555
 21
16.881683
 31
0.0
  0
LINE
  5
52
330
1E
100
AcDbEntity
  8
0
100
AcDbLine
 10
26.0555
 20
16.881683
 30
0.0
 11
28.6955
 21
17.32798299999999
 31
0.0
  0
LINE
  5
53
330
1E
100
AcDbEntity
  8
0
100
AcDbLine
 10
20.4235
 20
22.550283
 30
0.0
 11
23.23949999999999
 21
22.382883
 31
0.0
  0
LINE
  5
54
330
1E
100
AcDbEntity
  8
0
100
AcDbLine
 10
20.4675
 20
22.99958299999999
 30
0.0
 11
23.23949999999999
 21
22.832283
 31
0.0
  0
LINE
  5
55
330
1E
100
AcDbEntity
  8
0
100
AcDbLine
 10
17.7835
 20
22.99658299999999
 30
0.0
 11
20.4235
 21
22.550283
 31
0.0
  0
LINE
  5
56
330
1E
100
AcDbEntity
  8
0
100
AcDbLine
 10
23.23949999999999
 20
22.832283
 30
0.0
 11
26.0115
 21
22.99958299999999
 31
0.0
  0
LINE
  5
57
330
1E
100
AcDbEntity
  8
0
100
AcDbLine
 10
23.23949999999999
 20
22.382883
 30
0.0
 11
26.0555
 21
22.550283
 31
0.0
  0
LINE
  5
58
330
1E
100
AcDbEntity
  8
0
100
AcDbLine
 10
27.5955
 20
0.5952870000000239
 30
0.0
 11
27.7549548266978
 21
0.6468193955066229
 31
0.0
  0
LINE
  5
59
330
1E
100
AcDbEntity
  8
0
100
AcDbLine
 10
27.5955
 20
0.5952870000000239
 30
0.0
 11
27.7549548266978
 21
0.6468193955066229
 31
0.0
  0
LINE
  5
5A
330
1E
100
AcDbEntity
  8
0
100
AcDbLine
 10
28.5635
 20
0.788215000000025
 30
0.0
 11
30.8075
 21
1.513428000000019
 31
0.0
  0
LINE
  5
5B
330
1E
100
AcDbEntity
  8
0
100
AcDbLine
 10
28.6955
 20
1.025219000000019
 30
0.0
 11
31.0275
 21
1.76902300000002
 31
0.0
  0
LINE
  5
5C
330
1E
100
AcDbEntity
  8
0
100
AcDbLine
 10
28.6955
 20
16.64158299999999
 30
0.0
 11
31.0275
 21
17.38538299999999
 31
0.0
  0
LINE
  5
5D
330
1E
100
AcDbEntity
  8
0
100
AcDbLine
 10
28.5635
 20
17.10178299999999
 30
0.0
 11
30.8075
 21
17.82698299999999
 31
0.0
  0
LINE
  5
5E
330
1E
100
AcDbEntity
  8
0
100
AcDbLine
 10
28.6955
 20
17.32798299999999
 30
0.0
 11
31.0275
 21
18.071783
 31
0.0
  0
LINE
  5
5F
330
1E
100
AcDbEntity
  8
0
100
AcDbLine
 10
26.0555
 20
22.550283
 30
0.0
 11
28.6955
 21
22.99658299999999
 31
0.0
  0
LINE
  5
60
330
1E
100
AcDbEntity
  8
0
100
AcDbLine
 10
17.9155
 20
23.44588299999999
 30
0.0
 11
20.4675
 21
22.99958299999999
 31
0.0
  0
LINE
  5
61
330
1E
100
AcDbEntity
  8
0
100
AcDbLine
 10
26.0115
 20
22.99958299999999
 30
0.0
 11
28.5635
 21
23.44588299999999
 31
0.0
  0
LINE
  5
62
330
1E
100
AcDbEntity
  8
0
100
AcDbLine
 10
30.8075
 20
1.513428000000019
 30
0.0
 11
32.52349999999999
 21
2.46178300000002
 31
0.0
  0
LINE
  5
63
330
1E
100
AcDbEntity
  8
0
100
AcDbLine
 10
30.8075
 20
17.82698299999999
 30
0.0
 11
32.52349999999999
 21
18.77528299999999
 31
0.0
  0
LINE
  5
64
330
1E
100
AcDbEntity
  8
0
100
AcDbLine
 10
28.6955
 20
22.99658299999999
 30
0.0
 11
31.0275
 21
23.740383
 31
0.0
  0
LINE
  5
65
330
1E
100
AcDbEntity
  8
0
100
AcDbLine
 10
21.4475
 20
24.51768299999999
 30
0.0
 11
23.23949999999999
 21
24.41118299999999
 31
0.0
  0
LINE
  5
66
330
1E
100
AcDbEntity
  8
0
100
AcDbLine
 10
23.23949999999999
 20
24.41118299999999
 30
0.0
 11
25.0315
 21
24.51768299999999
 31
0.0
  0
LINE
  5
67
330
1E
100
AcDbEntity
  8
0
100
AcDbLine
 10
19.7675
 20
24.80168299999999
 30
0.0
 11
21.4475
 21
24.51768299999999
 31
0.0
  0
LINE
  5
68
330
1E
100
AcDbEntity
  8
0
100
AcDbLine
 10
25.0315
 20
24.51768299999999
 30
0.0
 11
26.7115
 21
24.80168299999999
 31
0.0
  0
LINE
  5
69
330
1E
100
AcDbEntity
  8
0
100
AcDbLine
 10
26.7115
 20
24.80168299999999
 30
0.0
 11
28.19549999999999
 21
25.27498299999999
 31
0.0
  0
LINE
  5
6A
330
1E
100
AcDbEntity
  8
0
100
AcDbLine
 10
15.67149999999999
 20
24.171083
 30
0.0
 11
17.9155
 21
23.44588299999999
 31
0.0
  0
LINE
  5
6B
330
1E
100
AcDbEntity
  8
0
100
AcDbLine
 10
13.9555
 20
25.119483
 30
0.0
 11
15.67149999999999
 21
24.171083
 31
0.0
  0
LINE
  5
6C
330
1E
100
AcDbEntity
  8
0
100
AcDbLine
 10
15.4515
 20
23.740383
 30
0.0
 11
17.7835
 21
22.99658299999999
 31
0.0
  0
LINE
  5
6D
330
1E
100
AcDbEntity
  8
0
100
AcDbLine
 10
13.6915
 20
24.72588299999999
 30
0.0
 11
15.4515
 21
23.740383
 31
0.0
  0
LINE
  5
6E
330
1E
100
AcDbEntity
  8
0
100
AcDbLine
 10
28.5635
 20
23.44588299999999
 30
0.0
 11
30.8075
 21
24.171083
 31
0.0
  0
LINE
  5
6F
330
1E
100
AcDbEntity
  8
0
100
AcDbLine
 10
31.0275
 20
1.76902300000002
 30
0.0
 11
32.7875
 21
2.754573000000029
 31
0.0
  0
LINE
  5
70
330
1E
100
AcDbEntity
  8
0
100
AcDbLine
 10
32.52349999999999
 20
2.46178300000002
 30
0.0
 11
33.5795
 21
3.54030300000002
 31
0.0
  0
LINE
  5
71
330
1E
100
AcDbEntity
  8
0
100
AcDbLine
 10
32.7875
 20
2.754573000000029
 30
0.0
 11
33.84349999999999
 21
3.87028300000002
 31
0.0
  0
LINE
  5
72
330
1E
100
AcDbEntity
  8
0
100
AcDbLine
 10
31.0275
 20
17.38538299999999
 30
0.0
 11
32.7875
 21
18.370983
 31
0.0
  0
LINE
  5
73
330
1E
100
AcDbEntity
  8
0
100
AcDbLine
 10
32.7875
 20
18.370983
 30
0.0
 11
33.84349999999999
 21
19.48668299999999
 31
0.0
  0
LINE
  5
74
330
1E
100
AcDbEntity
  8
0
100
AcDbLine
 10
32.52349999999999
 20
18.77528299999999
 30
0.0
 11
33.5795
 21
19.853883
 31
0.0
  0
LINE
  5
75
330
1E
100
AcDbEntity
  8
0
100
AcDbLine
 10
31.0275
 20
18.071783
 30
0.0
 11
32.7875
 21
19.05728299999999
 31
0.0
  0
LINE
  5
76
330
1E
100
AcDbEntity
  8
0
100
AcDbLine
 10
32.7875
 20
19.05728299999999
 30
0.0
 11
33.84349999999999
 21
20.17298299999999
 31
0.0
  0
LINE
  5
77
330
1E
100
AcDbEntity
  8
0
100
AcDbLine
 10
31.0275
 20
23.740383
 30
0.0
 11
32.7875
 21
24.72588299999999
 31
0.0
  0
LINE
  5
78
330
1E
100
AcDbEntity
  8
0
100
AcDbLine
 10
30.8075
 20
24.171083
 30
0.0
 11
32.52349999999999
 21
25.119483
 31
0.0
  0
LINE
  5
79
330
1E
100
AcDbEntity
  8
0
100
AcDbLine
 10
18.2835
 20
25.27498299999999
 30
0.0
 11
19.7675
 21
24.80168299999999
 31
0.0
  0
LINE
  5
7A
330
1E
100
AcDbEntity
  8
0
100
AcDbLine
 10
28.19549999999999
 20
25.27498299999999
 30
0.0
 11
29.3155
 21
25.902183
 31
0.0
  0
LINE
  5
7B
330
1E
100
AcDbEntity
  8
0
100
AcDbLine
 10
12.6355
 20
25.841583
 30
0.0
 11
13.6915
 21
24.72588299999999
 31
0.0
  0
LINE
  5
7C
330
1E
100
AcDbEntity
  8
0
100
AcDbLine
 10
32.52349999999999
 20
25.119483
 30
0.0
 11
33.5795
 21
26.19798299999999
 31
0.0
  0
LINE
  5
7D
330
1E
100
AcDbEntity
  8
0
100
AcDbLine
 10
33.5795
 20
3.54030300000002
 30
0.0
 11
33.84349999999999
 21
3.87028300000002
 31
0.0
  0
LINE
  5
7E
330
1E
100
AcDbEntity
  8
0
100
AcDbLine
 10
33.5795
 20
19.853883
 30
0.0
 11
33.84349999999999
 21
20.17298299999999
 31
0.0
  0
LINE
  5
7F
330
1E
100
AcDbEntity
  8
0
100
AcDbLine
 10
34.2395
 20
5.060383000000019
 30
0.0
 11
34.2395
 21
20.676783
 31
0.0
  0
LINE
  5
80
330
1E
100
AcDbEntity
  8
0
100
AcDbLine
 10
33.84349999999999
 20
3.87028300000002
 30
0.0
 11
34.2395
 21
5.060383000000019
 31
0.0
  0
LINE
  5
81
330
1E
100
AcDbEntity
  8
0
100
AcDbLine
 10
33.84349999999999
 20
19.48668299999999
 30
0.0
 11
34.2395
 21
20.676783
 31
0.0
  0
LINE
  5
82
330
1E
100
AcDbEntity
  8
0
100
AcDbLine
 10
34.2395
 20
20.676783
 30
0.0
 11
34.2395
 21
5.060383000000019
 31
0.0
  0
LINE
  5
83
330
1E
100
AcDbEntity
  8
0
100
AcDbLine
 10
34.12531850264679
 20
21.01993299999999
 30
0.0
 11
34.2395
 21
20.676783
 31
0.0
  0
LINE
  5
84
330
1E
100
AcDbEntity
  8
0
100
AcDbLine
 10
34.2395
 20
21.363083
 30
0.0
 11
34.2395
 21
26.91607796039269
 31
0.0
  0
LINE
  5
85
330
1E
100
AcDbEntity
  8
0
100
AcDbLine
 10
33.84349999999999
 20
20.17298299999999
 30
0.0
 11
34.2395
 21
21.363083
 31
0.0
  0
LINE
  5
86
330
1E
100
AcDbEntity
  8
0
100
AcDbLine
 10
32.7875
 20
24.72588299999999
 30
0.0
 11
33.84349999999999
 21
25.841583
 31
0.0
  0
LINE
  5
87
330
1E
100
AcDbEntity
  8
0
100
AcDbLine
 10
17.1635
 20
25.902183
 30
0.0
 11
18.2835
 21
25.27498299999999
 31
0.0
  0
LINE
  5
88
330
1E
100
AcDbEntity
  8
0
100
AcDbLine
 10
12.9933
 20
26.841383
 30
0.0
 11
15.4868
 21
26.637583
 31
0.0
  0
LINE
  5
89
330
1E
100
AcDbEntity
  8
0
100
AcDbLine
 10
15.4868
 20
26.637583
 30
0.0
 11
18.5578
 21
26.402983
 31
0.0
  0
LINE
  5
8A
330
1E
100
AcDbEntity
  8
0
100
AcDbLine
 10
27.9212
 20
26.402983
 30
0.0
 11
30.9922
 21
26.637583
 31
0.0
  0
LINE
  5
8B
330
1E
100
AcDbEntity
  8
0
100
AcDbLine
 10
26.7115
 20
26.3789138991181
 30
0.0
 11
27.9212
 21
26.402983
 31
0.0
  0
LINE
  5
8C
330
1E
100
AcDbEntity
  8
0
100
AcDbLine
 10
33.4857
 20
26.841383
 30
0.0
 11
35.54339999999999
 21
27.045283
 31
0.0
  0
LINE
  5
8D
330
1E
100
AcDbEntity
  8
0
100
AcDbLine
 10
30.9922
 20
26.637583
 30
0.0
 11
33.4857
 21
26.841383
 31
0.0
  0
LINE
  5
8E
330
1E
100
AcDbEntity
  8
0
100
AcDbLine
 10
18.5578
 20
26.402983
 30
0.0
 11
20.1460447959476
 21
26.3713820871962
 31
0.0
  0
LINE
  5
8F
330
1E
100
AcDbEntity
  8
0
100
AcDbLine
 10
16.54389076247739
 20
26.5568296646444
 30
0.0
 11
17.1635
 21
25.902183
 31
0.0
  0
LINE
  5
90
330
1E
100
AcDbEntity
  8
0
100
AcDbLine
 10
29.3155
 20
25.902183
 30
0.0
 11
29.9351092375225
 21
26.5568296646444
 31
0.0
  0
LINE
  5
91
330
1E
100
AcDbEntity
  8
0
100
AcDbLine
 10
12.8995
 20
26.19798299999999
 30
0.0
 11
13.9555
 21
25.119483
 31
0.0
  0
LINE
  5
92
330
1E
100
AcDbEntity
  8
0
100
AcDbLine
 10
12.6712245584552
 20
26.8732978479035
 30
0.0
 11
12.8995
 21
26.19798299999999
 31
0.0
  0
LINE
  5
93
330
1E
100
AcDbEntity
  8
0
100
AcDbLine
 10
12.2792786008342
 20
26.91213625037169
 30
0.0
 11
12.6355
 21
25.841583
 31
0.0
  0
LINE
  5
94
330
1E
100
AcDbEntity
  8
0
100
AcDbLine
 10
5.53711999999999
 20
28.175683
 30
0.0
 11
7.37695999999999
 21
27.675283
 31
0.0
  0
LINE
  5
95
330
1E
100
AcDbEntity
  8
0
100
AcDbLine
 10
7.37695999999999
 20
27.675283
 30
0.0
 11
9.09574999999999
 21
27.341783
 31
0.0
  0
LINE
  5
96
330
1E
100
AcDbEntity
  8
0
100
AcDbLine
 10
9.09574999999999
 20
27.341783
 30
0.0
 11
10.9356
 21
27.045283
 31
0.0
  0
LINE
  5
97
330
1E
100
AcDbEntity
  8
0
100
AcDbLine
 10
10.9356
 20
27.045283
 30
0.0
 11
12.9933
 21
26.841383
 31
0.0
  0
LINE
  5
9A
330
1E
100
AcDbEntity
  8
0
100
AcDbLine
 10
4.36140999999999
 20
28.731483
 30
0.0
 11
5.53711999999999
 21
28.175683
 31
0.0
  0
LINE
  5
9B
330
1E
100
AcDbEntity
  8
0
100
AcDbLine
 10
3.01943999999999
 20
29.784983
 30
0.0
 11
4.36140999999999
 21
28.731483
 31
0.0
  0
LINE
  5
9C
330
1E
100
AcDbEntity
  8
0
100
AcDbLine
 10
2.72893999999999
 20
30.102883
 30
0.0
 11
3.01943999999999
 21
29.784983
 31
0.0
  0
LINE
  5
9D
330
1E
100
AcDbEntity
  8
0
100
AcDbLine
 10
2.72893999999999
 20
30.102883
 30
0.0
 11
3.01943999999999
 21
29.784983
 31
0.0
  0
LINE
  5
9E
330
1E
100
AcDbEntity
  8
0
100
AcDbLine
 10
2.099519999999989
 20
31.100683
 30
0.0
 11
2.72893999999999
 21
30.102883
 31
0.0
  0
LINE
  5
9F
330
1E
100
AcDbEntity
  8
0
100
AcDbLine
 10
17.7854
 20
29.739083
 30
0.0
 11
20.9409
 21
29.624583
 31
0.0
  0
LINE
  5
A0
330
1E
100
AcDbEntity
  8
0
100
AcDbLine
 10
14.1676
 20
30.009783
 30
0.0
 11
17.7854
 21
29.739083
 31
0.0
  0
LINE
  5
A1
330
1E
100
AcDbEntity
  8
0
100
AcDbLine
 10
11.3794
 20
30.342983
 30
0.0
 11
14.1676
 21
30.009783
 31
0.0
  0
LINE
  5
A2
330
1E
100
AcDbEntity
  8
0
100
AcDbLine
 10
9.10801999999999
 20
30.696883
 30
0.0
 11
11.3794
 21
30.342983
 31
0.0
  0
LINE
  5
A3
330
1E
100
AcDbEntity
  8
0
100
AcDbLine
 10
7.13949999999999
 20
31.095983
 30
0.0
 11
9.10801999999999
 21
30.696883
 31
0.0
  0
LINE
  5
A4
330
1E
100
AcDbEntity
  8
0
100
AcDbLine
 10
5.23949999999999
 20
31.708883
 30
0.0
 11
7.13949999999999
 21
31.095983
 31
0.0
  0
LINE
  5
A7
330
1E
100
AcDbEntity
  8
0
100
AcDbLine
 10
23.23949999999999
 20
29.563883
 30
0.0
 11
25.5381
 21
29.624583
 31
0.0
  0
LINE
  5
A8
330
1E
100
AcDbEntity
  8
0
100
AcDbLine
 10
25.5381
 20
29.624583
 30
0.0
 11
28.6936
 21
29.739083
 31
0.0
  0
LINE
  5
AD
330
1E
100
AcDbEntity
  8
0
100
AcDbLine
 10
28.6936
 20
29.739083
 30
0.0
 11
32.31139999999999
 21
30.009783
 31
0.0
  0
LINE
  5
AE
330
1E
100
AcDbEntity
  8
0
100
AcDbLine
 10
20.9409
 20
29.624583
 30
0.0
 11
23.23949999999999
 21
29.563883
 31
0.0
  0
LINE
  5
AF
330
1E
100
AcDbEntity
  8
0
100
AcDbLine
 10
0.23949999999999
 20
47.269183
 30
0.0
 11
0.23949999999999
 21
46.62648299999999
 31
0.0
  0
LINE
  5
B0
330
1E
100
AcDbEntity
  8
0
100
AcDbLine
 10
0.23949999999999
 20
47.269183
 30
0.0
 11
0.23949999999999
 21
79.17258299999999
 31
0.0
  0
LINE
  5
B1
330
1E
100
AcDbEntity
  8
0
100
AcDbLine
 10
0.23949999999999
 20
82.206083
 30
0.0
 11
0.23949999999999
 21
79.17258299999999
 31
0.0
  0
LINE
  5
B2
330
1E
100
AcDbEntity
  8
0
100
AcDbLine
 10
0.23949999999999
 20
82.206083
 30
0.0
 11
0.23949999999999
 21
85.402283
 31
0.0
  0
LINE
  5
B3
330
1E
100
AcDbEntity
  8
0
100
AcDbLine
 10
0.23949999999999
 20
79.17258299999999
 30
0.0
 11
0.23949999999999
 21
47.269183
 31
0.0
  0
LINE
  5
B4
330
1E
100
AcDbEntity
  8
0
100
AcDbLine
 10
0.23949999999999
 20
79.17258299999999
 30
0.0
 11
0.23949999999999
 21
82.206083
 31
0.0
  0
LINE
  5
B5
330
1E
100
AcDbEntity
  8
0
100
AcDbLine
 10
0.24949999999999
 20
44.864583
 30
0.0
 11
0.28949999999999
 21
42.489783
 31
0.0
  0
LINE
  5
B6
330
1E
100
AcDbEntity
  8
0
100
AcDbLine
 10
0.28949999999999
 20
42.489783
 30
0.0
 11
0.38949999999999
 21
39.732083
 31
0.0
  0
LINE
  5
B7
330
1E
100
AcDbEntity
  8
0
100
AcDbLine
 10
1.353129999999989
 20
32.494183
 30
0.0
 11
2.099519999999989
 21
31.100683
 31
0.0
  0
LINE
  5
B8
330
1E
100
AcDbEntity
  8
0
100
AcDbLine
 10
1.08741999999999
 20
33.823883
 30
0.0
 11
1.353129999999989
 21
32.494183
 31
0.0
  0
LINE
  5
B9
330
1E
100
AcDbEntity
  8
0
100
AcDbLine
 10
3.53949999999999
 20
32.628083
 30
0.0
 11
5.23949999999999
 21
31.708883
 31
0.0
  0
LINE
  5
BA
330
1E
100
AcDbEntity
  8
0
100
AcDbLine
 10
0.8480369999999901
 20
35.577883
 30
0.0
 11
1.08741999999999
 21
33.823883
 31
0.0
  0
LINE
  5
BB
330
1E
100
AcDbEntity
  8
0
100
AcDbLine
 10
0.58949999999999
 20
37.433883
 30
0.0
 11
0.8480369999999901
 21
35.577883
 31
0.0
  0
LINE
  5
BD
330
1E
100
AcDbEntity
  8
0
100
AcDbLine
 10
0.6253529999999901
 20
43.600283
 30
0.0
 11
0.71563799999999
 21
40.877283
 31
0.0
  0
LINE
  5
BE
330
1E
100
AcDbEntity
  8
0
100
AcDbLine
 10
0.71563799999999
 20
40.877283
 30
0.0
 11
0.88949999999999
 21
38.756483
 31
0.0
  0
LINE
  5
BF
330
1E
100
AcDbEntity
  8
0
100
AcDbLine
 10
0.88949999999999
 20
38.756483
 30
0.0
 11
1.139499999999989
 21
36.99458299999999
 31
0.0
  0
LINE
  5
C0
330
1E
100
AcDbEntity
  8
0
100
AcDbLine
 10
1.139499999999989
 20
36.99458299999999
 30
0.0
 11
1.539499999999989
 21
35.385883
 31
0.0
  0
LINE
  5
C1
330
1E
100
AcDbEntity
  8
0
100
AcDbLine
 10
1.539499999999989
 20
35.385883
 30
0.0
 11
2.33949999999999
 21
33.930383
 31
0.0
  0
LINE
  5
C2
330
1E
100
AcDbEntity
  8
0
100
AcDbLine
 10
2.33949999999999
 20
33.930383
 30
0.0
 11
3.53949999999999
 21
32.628083
 31
0.0
  0
LINE
  5
C3
330
1E
100
AcDbEntity
  8
0
100
AcDbLine
 10
0.38949999999999
 20
39.732083
 30
0.0
 11
0.58949999999999
 21
37.433883
 31
0.0
  0
LINE
  5
CA
330
1E
100
AcDbEntity
  8
0
100
AcDbLine
 10
0.23949999999999
 20
46.62648299999999
 30
0.0
 11
0.24949999999999
 21
44.864583
 31
0.0
  0
LINE
  5
CB
330
1E
100
AcDbEntity
  8
0
100
AcDbLine
 10
0.23949999999999
 20
46.62648299999999
 30
0.0
 11
0.23949999999999
 21
47.269183
 31
0.0
  0
LINE
  5
CC
330
1E
100
AcDbEntity
  8
0
100
AcDbLine
 10
32.31139999999999
 20
30.009783
 30
0.0
 11
35.0996
 21
30.342983
 31
0.0
  0
LINE
  5
CD
330
1E
100
AcDbEntity
  8
0
100
AcDbLine
 10
12.2395
 20
26.91607796039269
 30
0.0
 11
12.2395
 21
21.363083
 31
0.0
  0
LINE
  5
CE
330
1E
100
AcDbEntity
  8
0
100
AcDbLine
 10
35.0996
 20
30.342983
 30
0.0
 11
37.371
 21
30.696883
 31
0.0
  0
LINE
  5
CF
330
1E
100
AcDbEntity
  8
0
100
AcDbLine
 10
37.371
 20
30.696883
 30
0.0
 11
39.3395
 21
31.095983
 31
0.0
  0
LINE
  5
D0
330
1E
100
AcDbEntity
  8
0
100
AcDbLine
 10
39.10199999999999
 20
27.675283
 30
0.0
 11
40.9419
 21
28.175683
 31
0.0
  0
LINE
  5
D1
330
1E
100
AcDbEntity
  8
0
100
AcDbLine
 10
43.4596
 20
29.784983
 30
0.0
 11
43.7501
 21
30.102883
 31
0.0
  0
LINE
  5
D2
330
1E
100
AcDbEntity
  8
0
100
AcDbLine
 10
42.1176
 20
28.731483
 30
0.0
 11
43.4596
 21
29.784983
 31
0.0
  0
LINE
  5
D3
330
1E
100
AcDbEntity
  8
0
100
AcDbLine
 10
40.9419
 20
28.175683
 30
0.0
 11
42.1176
 21
28.731483
 31
0.0
  0
LINE
  5
D4
330
1E
100
AcDbEntity
  8
0
100
AcDbLine
 10
39.3395
 20
31.095983
 30
0.0
 11
41.23949999999999
 21
31.708883
 31
0.0
  0
LINE
  5
D5
330
1E
100
AcDbEntity
  8
0
100
AcDbLine
 10
41.23949999999999
 20
31.708883
 30
0.0
 11
42.9395
 21
32.628083
 31
0.0
  0
LINE
  5
D6
330
1E
100
AcDbEntity
  8
0
100
AcDbLine
 10
44.37949999999999
 20
31.100683
 30
0.0
 11
45.1259
 21
32.494183
 31
0.0
  0
LINE
  5
D7
330
1E
100
AcDbEntity
  8
0
100
AcDbLine
 10
43.7501
 20
30.102883
 30
0.0
 11
44.37949999999999
 21
31.100683
 31
0.0
  0
LINE
  5
D8
330
1E
100
AcDbEntity
  8
0
100
AcDbLine
 10
37.3832
 20
27.341783
 30
0.0
 11
39.10199999999999
 21
27.675283
 31
0.0
  0
LINE
  5
D9
330
1E
100
AcDbEntity
  8
0
100
AcDbLine
 10
35.54339999999999
 20
27.045283
 30
0.0
 11
37.3832
 21
27.341783
 31
0.0
  0
LINE
  5
DA
330
1E
100
AcDbEntity
  8
0
100
AcDbLine
 10
45.1259
 20
32.494183
 30
0.0
 11
45.39159999999999
 21
33.823883
 31
0.0
  0
LINE
  5
DB
330
1E
100
AcDbEntity
  8
0
100
AcDbLine
 10
45.39159999999999
 20
33.823883
 30
0.0
 11
45.631
 21
35.577883
 31
0.0
  0
LINE
  5
DC
330
1E
100
AcDbEntity
  8
0
100
AcDbLine
 10
45.631
 20
35.577883
 30
0.0
 11
45.88949999999999
 21
37.433883
 31
0.0
  0
LINE
  5
DD
330
1E
100
AcDbEntity
  8
0
100
AcDbLine
 10
45.88949999999999
 20
37.433883
 30
0.0
 11
46.0895
 21
39.732083
 31
0.0
  0
LINE
  5
DF
330
1E
100
AcDbEntity
  8
0
100
AcDbLine
 10
45.9259
 20
45.963883
 30
0.0
 11
45.9395
 21
47.719183
 31
0.0
  0
LINE
  5
E0
330
1E
100
AcDbEntity
  8
0
100
AcDbLine
 10
45.8536
 20
43.600283
 30
0.0
 11
45.9259
 21
45.963883
 31
0.0
  0
LINE
  5
E1
330
1E
100
AcDbEntity
  8
0
100
AcDbLine
 10
45.7634
 20
40.877283
 30
0.0
 11
45.8536
 21
43.600283
 31
0.0
  0
LINE
  5
E2
330
1E
100
AcDbEntity
  8
0
100
AcDbLine
 10
45.5895
 20
38.756483
 30
0.0
 11
45.7634
 21
40.877283
 31
0.0
  0
LINE
  5
E3
330
1E
100
AcDbEntity
  8
0
100
AcDbLine
 10
45.33949999999999
 20
36.99458299999999
 30
0.0
 11
45.5895
 21
38.756483
 31
0.0
  0
LINE
  5
E4
330
1E
100
AcDbEntity
  8
0
100
AcDbLine
 10
44.9395
 20
35.385883
 30
0.0
 11
45.33949999999999
 21
36.99458299999999
 31
0.0
  0
LINE
  5
E5
330
1E
100
AcDbEntity
  8
0
100
AcDbLine
 10
44.13949999999999
 20
33.930383
 30
0.0
 11
44.9395
 21
35.385883
 31
0.0
  0
LINE
  5
E6
330
1E
100
AcDbEntity
  8
0
100
AcDbLine
 10
42.9395
 20
32.628083
 30
0.0
 11
44.13949999999999
 21
33.930383
 31
0.0
  0
LINE
  5
E7
330
1E
100
AcDbEntity
  8
0
100
AcDbLine
 10
46.0895
 20
39.732083
 30
0.0
 11
46.1895
 21
42.489783
 31
0.0
  0
LINE
  5
E8
330
1E
100
AcDbEntity
  8
0
100
AcDbLine
 10
46.23949999999999
 20
46.62648299999999
 30
0.0
 11
46.23949999999999
 21
79.17258299999999
 31
0.0
  0
LINE
  5
E9
330
1E
100
AcDbEntity
  8
0
100
AcDbLine
 10
46.2295
 20
44.864583
 30
0.0
 11
46.23949999999999
 21
46.62648299999999
 31
0.0
  0
LINE
  5
EA
330
1E
100
AcDbEntity
  8
0
100
AcDbLine
 10
46.1895
 20
42.489783
 30
0.0
 11
46.2295
 21
44.864583
 31
0.0
  0
LINE
  5
EB
330
1E
100
AcDbEntity
  8
0
100
AcDbLine
 10
46.23949999999999
 20
79.17258299999999
 30
0.0
 11
46.23949999999999
 21
46.62648299999999
 31
0.0
  0
LINE
  5
EC
330
1E
100
AcDbEntity
  8
0
100
AcDbLine
 10
46.23949999999999
 20
82.206083
 30
0.0
 11
46.23949999999999
 21
85.402283
 31
0.0
  0
LINE
  5
ED
330
1E
100
AcDbEntity
  8
0
100
AcDbLine
 10
46.23949999999999
 20
82.206083
 30
0.0
 11
46.23949999999999
 21
79.17258299999999
 31
0.0
  0
LINE
  5
F2
330
1E
100
AcDbEntity
  8
0
100
AcDbLine
 10
46.23949999999999
 20
79.17258299999999
 30
0.0
 11
46.23949999999999
 21
82.206083
 31
0.0
  0
LINE
  5
F3
330
1E
100
AcDbEntity
  8
0
100
AcDbLine
 10
34.2395
 20
26.91607796039269
 30
0.0
 11
34.2395
 21
21.363083
 31
0.0
  0
LINE
  5
F4
330
1E
100
AcDbEntity
  8
0
100
AcDbLine
 10
33.5795
 20
26.19798299999999
 30
0.0
 11
33.80777544154479
 21
26.8732978479035
 31
0.0
  0
LINE
  5
F5
330
1E
100
AcDbEntity
  8
0
100
AcDbLine
 10
33.84349999999999
 20
25.841583
 30
0.0
 11
34.1997213991658
 21
26.91213625037169
 31
0.0
  0
LINE
  5
F6
330
1E
100
AcDbEntity
  8
0
100
AcDbLine
 10
46.23949999999999
 20
83.87101645289479
 30
0.0
 11
46.4792
 21
83.87868299999999
 31
0.0
  0
LINE
  5
F9
330
1E
100
AcDbEntity
  8
0
100
AcDbLine
 10
46.4792
 20
83.87868299999999
 30
0.0
 11
51.5735
 21
84.17008299999999
 31
0.0
  0
LINE
  5
FC
330
1E
100
AcDbEntity
  8
0
100
AcDbLine
 10
51.5735
 20
84.17008299999999
 30
0.0
 11
57.87469999999999
 21
84.94708299999999
 31
0.0
  0
LINE
  5
FD
330
1E
100
AcDbEntity
  8
0
100
AcDbLine
 10
0.23949999999999
 20
85.402283
 30
0.0
 11
0.23949999999999
 21
82.206083
 31
0.0
  0
LINE
  5
FE
330
1E
100
AcDbEntity
  8
0
100
AcDbLine
 10
0.23949999999999
 20
85.402283
 30
0.0
 11
0.23949999999999
 21
89.16118299999999
 31
0.0
  0
LINE
  5
101
330
1E
100
AcDbEntity
  8
0
100
AcDbLine
 10
46.23949999999999
 20
85.402283
 30
0.0
 11
46.23949999999999
 21
89.16118299999999
 31
0.0
  0
LINE
  5
102
330
1E
100
AcDbEntity
  8
0
100
AcDbLine
 10
46.23949999999999
 20
85.402283
 30
0.0
 11
46.23949999999999
 21
82.206083
 31
0.0
  0
LINE
  5
105
330
1E
100
AcDbEntity
  8
0
100
AcDbLine
 10
57.87469999999999
 20
84.94708299999999
 30
0.0
 11
62.8007
 21
85.699783
 31
0.0
  0
LINE
  5
106
330
1E
100
AcDbEntity
  8
0
100
AcDbLine
 10
62.8007
 20
85.699783
 30
0.0
 11
71.6529
 21
87.373183
 31
0.0
  0
LINE
  5
107
330
1E
100
AcDbEntity
  8
0
100
AcDbLine
 10
71.6529
 20
87.373183
 30
0.0
 11
73.42449999999999
 21
87.613783
 31
0.0
  0
LINE
  5
108
330
1E
100
AcDbEntity
  8
0
100
AcDbLine
 10
59.7275
 20
87.613783
 30
0.0
 11
67.8993
 21
87.613783
 31
0.0
  0
LINE
  5
109
330
1E
100
AcDbEntity
  8
0
100
AcDbLine
 10
67.8993
 20
87.613783
 30
0.0
 11
83.19920000000001
 21
87.613783
 31
0.0
  0
LINE
  5
10A
330
1E
100
AcDbEntity
  8
0
100
AcDbLine
 10
88.06870000000001
 20
87.613783
 30
0.0
 11
88.29909999999999
 21
87.613783
 31
0.0
  0
LINE
  5
10B
330
1E
100
AcDbEntity
  8
0
100
AcDbLine
 10
87.9728
 20
87.613783
 30
0.0
 11
88.1896
 21
87.613783
 31
0.0
  0
LINE
  5
10C
330
1E
100
AcDbEntity
  8
0
100
AcDbLine
 10
87.9728
 20
87.613783
 30
0.0
 11
88.06870000000001
 21
87.613783
 31
0.0
  0
LINE
  5
10D
330
1E
100
AcDbEntity
  8
0
100
AcDbLine
 10
88.29909999999999
 20
87.613783
 30
0.0
 11
93.29299999999999
 21
87.613783
 31
0.0
  0
LINE
  5
10E
330
1E
100
AcDbEntity
  8
0
100
AcDbLine
 10
88.1896
 20
87.613783
 30
0.0
 11
88.54089999999999
 21
87.613783
 31
0.0
  0
LINE
  5
10F
330
1E
100
AcDbEntity
  8
0
100
AcDbLine
 10
88.54089999999999
 20
87.613783
 30
0.0
 11
89.11750000000001
 21
87.613783
 31
0.0
  0
LINE
  5
110
330
1E
100
AcDbEntity
  8
0
100
AcDbLine
 10
89.11750000000001
 20
87.613783
 30
0.0
 11
89.8286
 21
87.613783
 31
0.0
  0
LINE
  5
111
330
1E
100
AcDbEntity
  8
0
100
AcDbLine
 10
89.8286
 20
87.613783
 30
0.0
 11
115.2305
 21
87.613783
 31
0.0
  0
LINE
  5
112
330
1E
100
AcDbEntity
  8
0
100
AcDbLine
 10
83.19920000000001
 20
87.613783
 30
0.0
 11
128.1695
 21
87.613783
 31
0.0
  0
LINE
  5
113
330
1E
100
AcDbEntity
  8
0
100
AcDbLine
 10
93.29299999999999
 20
87.613783
 30
0.0
 11
98.28690000000001
 21
87.613783
 31
0.0
  0
LINE
  5
114
330
1E
100
AcDbEntity
  8
0
100
AcDbLine
 10
100.3565
 20
87.613783
 30
0.0
 11
101.2524999999999
 21
87.613783
 31
0.0
  0
LINE
  5
115
330
1E
100
AcDbEntity
  8
0
100
AcDbLine
 10
116.9724999999999
 20
87.613783
 30
0.0
 11
117.8684999999999
 21
87.613783
 31
0.0
  0
LINE
  5
116
330
1E
100
AcDbEntity
  8
0
100
AcDbLine
 10
116.1235
 20
87.613783
 30
0.0
 11
116.9724999999999
 21
87.613783
 31
0.0
  0
LINE
  5
117
330
1E
100
AcDbEntity
  8
0
100
AcDbLine
 10
115.2305
 20
87.613783
 30
0.0
 11
116.1235
 21
87.613783
 31
0.0
  0
LINE
  5
118
330
1E
100
AcDbEntity
  8
0
100
AcDbLine
 10
117.8684999999999
 20
87.613783
 30
0.0
 11
118.7215
 21
87.613783
 31
0.0
  0
LINE
  5
119
330
1E
100
AcDbEntity
  8
0
100
AcDbLine
 10
118.7215
 20
87.613783
 30
0.0
 11
119.3515
 21
87.613783
 31
0.0
  0
LINE
  5
11A
330
1E
100
AcDbEntity
  8
0
100
AcDbLine
 10
119.3515
 20
87.613783
 30
0.0
 11
119.9385
 21
87.613783
 31
0.0
  0
LINE
  5
11B
330
1E
100
AcDbEntity
  8
0
100
AcDbLine
 10
119.9385
 20
87.613783
 30
0.0
 11
124.4785
 21
87.613783
 31
0.0
  0
LINE
  5
11C
330
1E
100
AcDbEntity
  8
0
100
AcDbLine
 10
102.9945
 20
87.613783
 30
0.0
 11
127.4885
 21
87.613783
 31
0.0
  0
LINE
  5
11D
330
1E
100
AcDbEntity
  8
0
100
AcDbLine
 10
101.2524999999999
 20
87.613783
 30
0.0
 11
102.1015
 21
87.613783
 31
0.0
  0
LINE
  5
11E
330
1E
100
AcDbEntity
  8
0
100
AcDbLine
 10
102.1015
 20
87.613783
 30
0.0
 11
102.9945
 21
87.613783
 31
0.0
  0
LINE
  5
11F
330
1E
100
AcDbEntity
  8
0
100
AcDbLine
 10
99.50420000000001
 20
87.613783
 30
0.0
 11
100.3565
 21
87.613783
 31
0.0
  0
LINE
  5
120
330
1E
100
AcDbEntity
  8
0
100
AcDbLine
 10
98.8737
 20
87.613783
 30
0.0
 11
99.50420000000001
 21
87.613783
 31
0.0
  0
LINE
  5
121
330
1E
100
AcDbEntity
  8
0
100
AcDbLine
 10
98.28690000000001
 20
87.613783
 30
0.0
 11
98.8737
 21
87.613783
 31
0.0
  0
LINE
  5
12A
330
1E
100
AcDbEntity
  8
0
100
AcDbLine
 10
58.786
 20
87.91378299999999
 30
0.0
 11
59.7275
 21
87.613783
 31
0.0
  0
LINE
  5
12B
330
1E
100
AcDbEntity
  8
0
100
AcDbLine
 10
58.3825
 20
88.613783
 30
0.0
 11
58.786
 21
87.91378299999999
 31
0.0
  0
LINE
  5
12C
330
1E
100
AcDbEntity
  8
0
100
AcDbLine
 10
58.3825
 20
88.613783
 30
0.0
 11
58.3825
 21
124.613783
 31
0.0
  0
LINE
  5
12E
330
1E
100
AcDbEntity
  8
0
100
AcDbLine
 10
124.4785
 20
87.613783
 30
0.0
 11
129.0184999999999
 21
87.613783
 31
0.0
  0
LINE
  5
12F
330
1E
100
AcDbEntity
  8
0
100
AcDbLine
 10
128.1695
 20
87.613783
 30
0.0
 11
129.1475
 21
87.613783
 31
0.0
  0
LINE
  5
130
330
1E
100
AcDbEntity
  8
0
100
AcDbLine
 10
129.1475
 20
87.613783
 30
0.0
 11
129.9905
 21
87.613783
 31
0.0
  0
LINE
  5
131
330
1E
100
AcDbEntity
  8
0
100
AcDbLine
 10
129.1274999999999
 20
87.613783
 30
0.0
 11
129.3445
 21
87.613783
 31
0.0
  0
LINE
  5
132
330
1E
100
AcDbEntity
  8
0
100
AcDbLine
 10
129.9905
 20
87.613783
 30
0.0
 11
130.6074999999999
 21
87.613783
 31
0.0
  0
LINE
  5
133
330
1E
100
AcDbEntity
  8
0
100
AcDbLine
 10
130.8205
 20
87.613783
 30
0.0
 11
131.5364999999999
 21
87.91378299999999
 31
0.0
  0
LINE
  5
134
330
1E
100
AcDbEntity
  8
0
100
AcDbLine
 10
130.6074999999999
 20
87.613783
 30
0.0
 11
130.8205
 21
87.613783
 31
0.0
  0
LINE
  5
135
330
1E
100
AcDbEntity
  8
0
100
AcDbLine
 10
129.2485
 20
87.613783
 30
0.0
 11
129.3445
 21
87.613783
 31
0.0
  0
LINE
  5
136
330
1E
100
AcDbEntity
  8
0
100
AcDbLine
 10
129.0184999999999
 20
87.613783
 30
0.0
 11
129.2485
 21
87.613783
 31
0.0
  0
LINE
  5
137
330
1E
100
AcDbEntity
  8
0
100
AcDbLine
 10
128.7765
 20
87.613783
 30
0.0
 11
129.1274999999999
 21
87.613783
 31
0.0
  0
LINE
  5
139
330
1E
100
AcDbEntity
  8
0
100
AcDbLine
 10
131.5364999999999
 20
87.91378299999999
 30
0.0
 11
131.7605
 21
88.613783
 31
0.0
  0
LINE
  5
13B
330
1E
100
AcDbEntity
  8
0
100
AcDbLine
 10
128.1995
 20
87.613783
 30
0.0
 11
128.7765
 21
87.613783
 31
0.0
  0
LINE
  5
13C
330
1E
100
AcDbEntity
  8
0
100
AcDbLine
 10
127.4885
 20
87.613783
 30
0.0
 11
128.1995
 21
87.613783
 31
0.0
  0
LINE
  5
13D
330
1E
100
AcDbEntity
  8
0
100
AcDbLine
 10
0.23949999999999
 20
89.16118299999999
 30
0.0
 11
0.23949999999999
 21
85.402283
 31
0.0
  0
LINE
  5
13E
330
1E
100
AcDbEntity
  8
0
100
AcDbLine
 10
0.23949999999999
 20
89.16118299999999
 30
0.0
 11
0.23949999999999
 21
92.31378300000001
 31
0.0
  0
LINE
  5
13F
330
1E
100
AcDbEntity
  8
0
100
AcDbLine
 10
46.23949999999999
 20
89.16118299999999
 30
0.0
 11
46.23949999999999
 21
92.31378300000001
 31
0.0
  0
LINE
  5
140
330
1E
100
AcDbEntity
  8
0
100
AcDbLine
 10
46.23949999999999
 20
89.16118299999999
 30
0.0
 11
46.23949999999999
 21
85.402283
 31
0.0
  0
LINE
  5
143
330
1E
100
AcDbEntity
  8
0
100
AcDbLine
 10
46.23949999999999
 20
92.31378300000001
 30
0.0
 11
46.23949999999999
 21
108.913783
 31
0.0
  0
LINE
  5
144
330
1E
100
AcDbEntity
  8
0
100
AcDbLine
 10
46.23949999999999
 20
92.31378300000001
 30
0.0
 11
46.23949999999999
 21
89.16118299999999
 31
0.0
  0
LINE
  5
14B
330
1E
100
AcDbEntity
  8
0
100
AcDbLine
 10
0.23949999999999
 20
92.31378300000001
 30
0.0
 11
0.23949999999999
 21
89.16118299999999
 31
0.0
  0
LINE
  5
14C
330
1E
100
AcDbEntity
  8
0
100
AcDbLine
 10
0.23949999999999
 20
92.31378300000001
 30
0.0
 11
0.23949999999999
 21
108.913783
 31
0.0
  0
LINE
  5
14D
330
1E
100
AcDbEntity
  8
0
100
AcDbLine
 10
0.23949999999999
 20
106.592783
 30
0.0
 11
0.23949999999999
 21
104.880783
 31
0.0
  0
LINE
  5
14E
330
1E
100
AcDbEntity
  8
0
100
AcDbLine
 10
0.23949999999999
 20
104.880783
 30
0.0
 11
0.23949999999999
 21
106.592783
 31
0.0
  0
LINE
  5
153
330
1E
100
AcDbEntity
  8
0
100
AcDbLine
 10
0.23949999999999
 20
108.913783
 30
0.0
 11
0.28949999999999
 21
112.013783
 31
0.0
  0
LINE
  5
154
330
1E
100
AcDbEntity
  8
0
100
AcDbLine
 10
0.23949999999999
 20
108.913783
 30
0.0
 11
0.23949999999999
 21
92.31378300000001
 31
0.0
  0
LINE
  5
155
330
1E
100
AcDbEntity
  8
0
100
AcDbLine
 10
0.28949999999999
 20
112.013783
 30
0.0
 11
0.38949999999999
 21
115.613783
 31
0.0
  0
LINE
  5
15A
330
1E
100
AcDbEntity
  8
0
100
AcDbLine
 10
0.38949999999999
 20
115.613783
 30
0.0
 11
0.58949999999999
 21
118.613783
 31
0.0
  0
LINE
  5
15B
330
1E
100
AcDbEntity
  8
0
100
AcDbLine
 10
0.58949999999999
 20
118.613783
 30
0.0
 11
0.83949999999999
 21
120.913783
 31
0.0
  0
LINE
  5
160
330
1E
100
AcDbEntity
  8
0
100
AcDbLine
 10
0.83949999999999
 20
120.913783
 30
0.0
 11
1.23949999999999
 21
123.013783
 31
0.0
  0
LINE
  5
161
330
1E
100
AcDbEntity
  8
0
100
AcDbLine
 10
1.23949999999999
 20
123.013783
 30
0.0
 11
2.039499999999989
 21
124.913783
 31
0.0
  0
LINE
  5
167
330
1E
100
AcDbEntity
  8
0
100
AcDbLine
 10
46.23949999999999
 20
108.913783
 30
0.0
 11
46.23949999999999
 21
92.31378300000001
 31
0.0
  0
LINE
  5
168
330
1E
100
AcDbEntity
  8
0
100
AcDbLine
 10
46.1895
 20
112.013783
 30
0.0
 11
46.23949999999999
 21
108.913783
 31
0.0
  0
LINE
  5
169
330
1E
100
AcDbEntity
  8
0
100
AcDbLine
 10
46.0895
 20
115.613783
 30
0.0
 11
46.1895
 21
112.013783
 31
0.0
  0
LINE
  5
16A
330
1E
100
AcDbEntity
  8
0
100
AcDbLine
 10
45.88949999999999
 20
118.613783
 30
0.0
 11
46.0895
 21
115.613783
 31
0.0
  0
LINE
  5
16B
330
1E
100
AcDbEntity
  8
0
100
AcDbLine
 10
45.6395
 20
120.913783
 30
0.0
 11
45.88949999999999
 21
118.613783
 31
0.0
  0
LINE
  5
16C
330
1E
100
AcDbEntity
  8
0
100
AcDbLine
 10
45.2395
 20
123.013783
 30
0.0
 11
45.6395
 21
120.913783
 31
0.0
  0
LINE
  5
16F
330
1E
100
AcDbEntity
  8
0
100
AcDbLine
 10
2.039499999999989
 20
124.913783
 30
0.0
 11
3.23949999999999
 21
126.613783
 31
0.0
  0
LINE
  5
170
330
1E
100
AcDbEntity
  8
0
100
AcDbLine
 10
44.4395
 20
124.913783
 30
0.0
 11
45.2395
 21
123.013783
 31
0.0
  0
LINE
  5
17B
330
1E
100
AcDbEntity
  8
0
100
AcDbLine
 10
118.3495
 20
125.613783
 30
0.0
 11
119.5614999999999
 21
125.613783
 31
0.0
  0
LINE
  5
17C
330
1E
100
AcDbEntity
  8
0
100
AcDbLine
 10
119.5614999999999
 20
125.613783
 30
0.0
 11
120.5515
 21
125.613783
 31
0.0
  0
LINE
  5
17D
330
1E
100
AcDbEntity
  8
0
100
AcDbLine
 10
120.5515
 20
125.613783
 30
0.0
 11
121.2744999999999
 21
125.613783
 31
0.0
  0
LINE
  5
17E
330
1E
100
AcDbEntity
  8
0
100
AcDbLine
 10
117.0065
 20
125.613783
 30
0.0
 11
118.3495
 21
125.613783
 31
0.0
  0
LINE
  5
17F
330
1E
100
AcDbEntity
  8
0
100
AcDbLine
 10
115.7094999999999
 20
125.613783
 30
0.0
 11
117.0065
 21
125.613783
 31
0.0
  0
LINE
  5
180
330
1E
100
AcDbEntity
  8
0
100
AcDbLine
 10
114.5494999999999
 20
125.613783
 30
0.0
 11
115.7094999999999
 21
125.613783
 31
0.0
  0
LINE
  5
181
330
1E
100
AcDbEntity
  8
0
100
AcDbLine
 10
121.2744999999999
 20
125.613783
 30
0.0
 11
125.8145
 21
125.613783
 31
0.0
  0
LINE
  5
183
330
1E
100
AcDbEntity
  8
0
100
AcDbLine
 10
58.786
 20
125.313783
 30
0.0
 11
59.7275
 21
125.613783
 31
0.0
  0
LINE
  5
184
330
1E
100
AcDbEntity
  8
0
100
AcDbLine
 10
58.3825
 20
124.613783
 30
0.0
 11
58.3825
 21
88.613783
 31
0.0
  0
LINE
  5
185
330
1E
100
AcDbEntity
  8
0
100
AcDbLine
 10
58.3825
 20
124.613783
 30
0.0
 11
58.786
 21
125.313783
 31
0.0
  0
LINE
  5
186
330
1E
100
AcDbEntity
  8
0
100
AcDbLine
 10
59.7275
 20
125.613783
 30
0.0
 11
114.5494999999999
 21
125.613783
 31
0.0
  0
LINE
  5
18A
330
1E
100
AcDbEntity
  8
0
100
AcDbLine
 10
3.23949999999999
 20
126.613783
 30
0.0
 11
4.93949999999999
 21
127.813783
 31
0.0
  0
LINE
  5
18B
330
1E
100
AcDbEntity
  8
0
100
AcDbLine
 10
4.93949999999999
 20
127.813783
 30
0.0
 11
6.83949999999999
 21
128.613783
 31
0.0
  0
LINE
  5
18E
330
1E
100
AcDbEntity
  8
0
100
AcDbLine
 10
6.83949999999999
 20
128.613783
 30
0.0
 11
8.93949999999999
 21
129.013783
 31
0.0
  0
LINE
  5
18F
330
1E
100
AcDbEntity
  8
0
100
AcDbLine
 10
8.93949999999999
 20
129.013783
 30
0.0
 11
11.2395
 21
129.263783
 31
0.0
  0
LINE
  5
195
330
1E
100
AcDbEntity
  8
0
100
AcDbLine
 10
20.73999999999999
 20
129.601208806452
 30
0.0
 11
20.73999999999999
 21
135.0267829999999
 31
0.0
  0
LINE
  5
196
330
1E
100
AcDbEntity
  8
0
100
AcDbLine
 10
17.8395
 20
129.5637829999999
 30
0.0
 11
20.93949999999999
 21
129.603783
 31
0.0
  0
LINE
  5
197
330
1E
100
AcDbEntity
  8
0
100
AcDbLine
 10
14.2395
 20
129.463783
 30
0.0
 11
17.8395
 21
129.5637829999999
 31
0.0
  0
LINE
  5
198
330
1E
100
AcDbEntity
  8
0
100
AcDbLine
 10
11.2395
 20
129.263783
 30
0.0
 11
14.2395
 21
129.463783
 31
0.0
  0
LINE
  5
199
330
1E
100
AcDbEntity
  8
0
100
AcDbLine
 10
23.23949999999999
 20
129.613783
 30
0.0
 11
25.5395
 21
129.603783
 31
0.0
  0
LINE
  5
19F
330
1E
100
AcDbEntity
  8
0
100
AcDbLine
 10
28.6395
 20
129.5637829999999
 30
0.0
 11
32.2395
 21
129.463783
 31
0.0
  0
LINE
  5
1A0
330
1E
100
AcDbEntity
  8
0
100
AcDbLine
 10
32.2395
 20
129.463783
 30
0.0
 11
35.2395
 21
129.263783
 31
0.0
  0
LINE
  5
1A1
330
1E
100
AcDbEntity
  8
0
100
AcDbLine
 10
35.2395
 20
129.263783
 30
0.0
 11
37.53949999999999
 21
129.013783
 31
0.0
  0
LINE
  5
1A2
330
1E
100
AcDbEntity
  8
0
100
AcDbLine
 10
37.53949999999999
 20
129.013783
 30
0.0
 11
39.6395
 21
128.613783
 31
0.0
  0
LINE
  5
1A3
330
1E
100
AcDbEntity
  8
0
100
AcDbLine
 10
25.5395
 20
129.603783
 30
0.0
 11
28.6395
 21
129.5637829999999
 31
0.0
  0
LINE
  5
1A6
330
1E
100
AcDbEntity
  8
0
100
AcDbLine
 10
39.6395
 20
128.613783
 30
0.0
 11
41.5395
 21
127.813783
 31
0.0
  0
LINE
  5
1A7
330
1E
100
AcDbEntity
  8
0
100
AcDbLine
 10
39.7602
 20
129.5637829999999
 30
0.0
 11
46.4792
 21
129.3487829999999
 31
0.0
  0
LINE
  5
1A8
330
1E
100
AcDbEntity
  8
0
100
AcDbLine
 10
37.6873
 20
129.603783
 30
0.0
 11
39.7602
 21
129.5637829999999
 31
0.0
  0
LINE
  5
1A9
330
1E
100
AcDbEntity
  8
0
100
AcDbLine
 10
25.73999999999999
 20
129.613783
 30
0.0
 11
25.73999999999999
 21
132.912783
 31
0.0
  0
LINE
  5
1AA
330
1E
100
AcDbEntity
  8
0
100
AcDbLine
 10
35.6144
 20
129.613783
 30
0.0
 11
37.6873
 21
129.603783
 31
0.0
  0
LINE
  5
1AE
330
1E
100
AcDbEntity
  8
0
100
AcDbLine
 10
41.5395
 20
127.813783
 30
0.0
 11
43.23949999999999
 21
126.613783
 31
0.0
  0
LINE
  5
1AF
330
1E
100
AcDbEntity
  8
0
100
AcDbLine
 10
43.23949999999999
 20
126.613783
 30
0.0
 11
44.4395
 21
124.913783
 31
0.0
  0
LINE
  5
1B0
330
1E
100
AcDbEntity
  8
0
100
AcDbLine
 10
57.87469999999999
 20
128.280783
 30
0.0
 11
62.8007
 21
127.527783
 31
0.0
  0
LINE
  5
1B3
330
1E
100
AcDbEntity
  8
0
100
AcDbLine
 10
51.5735
 20
129.0577829999999
 30
0.0
 11
57.87469999999999
 21
128.280783
 31
0.0
  0
LINE
  5
1B4
330
1E
100
AcDbEntity
  8
0
100
AcDbLine
 10
46.4792
 20
129.3487829999999
 30
0.0
 11
51.5735
 21
129.0577829999999
 31
0.0
  0
LINE
  5
1B7
330
1E
100
AcDbEntity
  8
0
100
AcDbLine
 10
33.11209999999999
 20
129.613783
 30
0.0
 11
35.6144
 21
129.613783
 31
0.0
  0
LINE
  5
1B9
330
1E
100
AcDbEntity
  8
0
100
AcDbLine
 10
25.4638
 20
129.613783
 30
0.0
 11
33.11209999999999
 21
129.613783
 31
0.0
  0
LINE
  5
1BA
330
1E
100
AcDbEntity
  8
0
100
AcDbLine
 10
20.73999999999999
 20
132.912783
 30
0.0
 11
20.73999999999999
 21
133.298783
 31
0.0
  0
LINE
  5
1BB
330
1E
100
AcDbEntity
  8
0
100
AcDbLine
 10
20.73999999999999
 20
135.0267829999999
 30
0.0
 11
20.73999999999999
 21
129.601208806452
 31
0.0
  0
LINE
  5
1BC
330
1E
100
AcDbEntity
  8
0
100
AcDbLine
 10
20.73999999999999
 20
133.298783
 30
0.0
 11
20.73999999999999
 21
134.208783
 31
0.0
  0
LINE
  5
1BD
330
1E
100
AcDbEntity
  8
0
100
AcDbLine
 10
20.73999999999999
 20
133.298783
 30
0.0
 11
20.73999999999999
 21
132.912783
 31
0.0
  0
LINE
  5
1BE
330
1E
100
AcDbEntity
  8
0
100
AcDbLine
 10
20.73999999999999
 20
134.208783
 30
0.0
 11
20.73999999999999
 21
133.298783
 31
0.0
  0
LINE
  5
1BF
330
1E
100
AcDbEntity
  8
0
100
AcDbLine
 10
20.73999999999999
 20
135.0267829999999
 30
0.0
 11
20.73999999999999
 21
135.975783
 31
0.0
  0
LINE
  5
1C0
330
1E
100
AcDbEntity
  8
0
100
AcDbLine
 10
20.73999999999999
 20
135.975783
 30
0.0
 11
20.73999999999999
 21
136.681783
 31
0.0
  0
LINE
  5
1C1
330
1E
100
AcDbEntity
  8
0
100
AcDbLine
 10
20.73999999999999
 20
135.975783
 30
0.0
 11
20.73999999999999
 21
135.0267829999999
 31
0.0
  0
LINE
  5
1C2
330
1E
100
AcDbEntity
  8
0
100
AcDbLine
 10
20.73999999999999
 20
136.681783
 30
0.0
 11
20.73999999999999
 21
135.975783
 31
0.0
  0
LINE
  5
1C3
330
1E
100
AcDbEntity
  8
0
100
AcDbLine
 10
20.73999999999999
 20
136.803783
 30
0.0
 11
20.73999999999999
 21
150.750783
 31
0.0
  0
LINE
  5
1C4
330
1E
100
AcDbEntity
  8
0
100
AcDbLine
 10
20.73999999999999
 20
150.6287829999999
 30
0.0
 11
20.73999999999999
 21
150.750783
 31
0.0
  0
LINE
  5
1C5
330
1E
100
AcDbEntity
  8
0
100
AcDbLine
 10
20.73999999999999
 20
150.750783
 30
0.0
 11
21.44
 21
150.845783
 31
0.0
  0
LINE
  5
1C6
330
1E
100
AcDbEntity
  8
0
100
AcDbLine
 10
20.73999999999999
 20
150.750783
 30
0.0
 11
20.73999999999999
 21
136.803783
 31
0.0
  0
LINE
  5
1C7
330
1E
100
AcDbEntity
  8
0
100
AcDbLine
 10
20.73999999999999
 20
150.750783
 30
0.0
 11
20.73999999999999
 21
150.6287829999999
 31
0.0
  0
LINE
  5
1C8
330
1E
100
AcDbEntity
  8
0
100
AcDbLine
 10
21.44
 20
150.845783
 30
0.0
 11
22.54
 21
150.906783
 31
0.0
  0
LINE
  5
1C9
330
1E
100
AcDbEntity
  8
0
100
AcDbLine
 10
25.73999999999999
 20
134.208783
 30
0.0
 11
25.73999999999999
 21
132.912783
 31
0.0
  0
LINE
  5
1CA
330
1E
100
AcDbEntity
  8
0
100
AcDbLine
 10
25.73999999999999
 20
132.912783
 30
0.0
 11
25.73999999999999
 21
134.208783
 31
0.0
  0
LINE
  5
1CB
330
1E
100
AcDbEntity
  8
0
100
AcDbLine
 10
25.73999999999999
 20
132.912783
 30
0.0
 11
25.73999999999999
 21
129.613783
 31
0.0
  0
LINE
  5
1CC
330
1E
100
AcDbEntity
  8
0
100
AcDbLine
 10
25.73999999999999
 20
134.208783
 30
0.0
 11
25.73999999999999
 21
135.581783
 31
0.0
  0
LINE
  5
1CD
330
1E
100
AcDbEntity
  8
0
100
AcDbLine
 10
25.73999999999999
 20
136.803783
 30
0.0
 11
25.73999999999999
 21
135.581783
 31
0.0
  0
LINE
  5
1CE
330
1E
100
AcDbEntity
  8
0
100
AcDbLine
 10
25.73999999999999
 20
135.581783
 30
0.0
 11
25.73999999999999
 21
136.803783
 31
0.0
  0
LINE
  5
1CF
330
1E
100
AcDbEntity
  8
0
100
AcDbLine
 10
25.73999999999999
 20
135.581783
 30
0.0
 11
25.73999999999999
 21
134.208783
 31
0.0
  0
LINE
  5
1D0
330
1E
100
AcDbEntity
  8
0
100
AcDbLine
 10
25.04
 20
150.845783
 30
0.0
 11
25.73999999999999
 21
150.750783
 31
0.0
  0
LINE
  5
1D1
330
1E
100
AcDbEntity
  8
0
100
AcDbLine
 10
23.94
 20
150.906783
 30
0.0
 11
25.04
 21
150.845783
 31
0.0
  0
LINE
  5
1D2
330
1E
100
AcDbEntity
  8
0
100
AcDbLine
 10
23.23999999999999
 20
150.906783
 30
0.0
 11
23.94
 21
150.906783
 31
0.0
  0
LINE
  5
1D3
330
1E
100
AcDbEntity
  8
0
100
AcDbLine
 10
22.54
 20
150.906783
 30
0.0
 11
23.23999999999999
 21
150.906783
 31
0.0
  0
LINE
  5
1D4
330
1E
100
AcDbEntity
  8
0
100
AcDbLine
 10
20.93949999999999
 20
129.603783
 30
0.0
 11
25.4638
 21
129.613783
 31
0.0
  0
LINE
  5
1D5
330
1E
100
AcDbEntity
  8
0
100
AcDbLine
 10
71.6529
 20
125.854783
 30
0.0
 11
73.42449999999999
 21
125.613783
 31
0.0
  0
LINE
  5
1D6
330
1E
100
AcDbEntity
  8
0
100
AcDbLine
 10
62.8007
 20
127.527783
 30
0.0
 11
71.6529
 21
125.854783
 31
0.0
  0
LINE
  5
1D7
330
1E
100
AcDbEntity
  8
0
100
AcDbLine
 10
125.8145
 20
125.613783
 30
0.0
 11
130.3544999999999
 21
125.613783
 31
0.0
  0
LINE
  5
1D8
330
1E
100
AcDbEntity
  8
0
100
AcDbLine
 10
130.8205
 20
125.613783
 30
0.0
 11
131.5364999999999
 21
125.313783
 31
0.0
  0
LINE
  5
1DA
330
1E
100
AcDbEntity
  8
0
100
AcDbLine
 10
131.5364999999999
 20
125.313783
 30
0.0
 11
131.7605
 21
124.613783
 31
0.0
  0
LINE
  5
1DC
330
1E
100
AcDbEntity
  8
0
100
AcDbLine
 10
130.7215
 20
125.613783
 30
0.0
 11
130.8205
 21
125.613783
 31
0.0
  0
LINE
  5
1DD
330
1E
100
AcDbEntity
  8
0
100
AcDbLine
 10
130.3544999999999
 20
125.613783
 30
0.0
 11
130.7215
 21
125.613783
 31
0.0
  0
LINE
  5
1DE
330
1E
100
AcDbEntity
  8
0
100
AcDbLine
 10
131.7605
 20
88.613783
 30
0.0
 11
131.7605
 21
124.613783
 31
0.0
  0
LINE
  5
1DF
330
1E
100
AcDbEntity
  8
0
100
AcDbLine
 10
131.7605
 20
124.613783
 30
0.0
 11
131.7605
 21
88.613783
 31
0.0
  0
LINE
  5
1E4
330
1E
100
AcDbEntity
  8
0
100
AcDbLine
 10
25.73999999999999
 20
150.750783
 30
0.0
 11
25.73999999999999
 21
136.803783
 31
0.0
  0
LINE
  5
1E5
330
1E
100
AcDbEntity
  8
0
100
AcDbLine
 10
20.1460447959476
 20
26.3713820871962
 30
0.0
 11
26.7115
 21
26.3789138991181
 31
0.0
  0
ENDSEC
  0
SECTION
  2
OBJECTS
  0
DICTIONARY
  5
C
330
0
100
AcDbDictionary
281
     1
  3
ACAD_GROUP
350
D
  3
ACAD_LAYOUT
350
19
  3
ACAD_MLINESTYLE
350
16
  3
ACAD_PLOTSETTINGS
350
18
  3
ACAD_PLOTSTYLENAME
350
E
  3
AcDbVariableDictionary
350
1E6
  0
DICTIONARY
  5
D
102
{ACAD_REACTORS
330
C
102
}
330
C
100
AcDbDictionary
281
     1
  0
DICTIONARY
  5
19
102
{ACAD_REACTORS
330
C
102
}
330
C
100
AcDbDictionary
281
     1
  3
Layout1
350
1D
  3
Model
350
21
  0
DICTIONARY
  5
16
102
{ACAD_REACTORS
330
C
102
}
330
C
100
AcDbDictionary
281
     1
  3
Standard
350
17
  0
DICTIONARY
  5
18
102
{ACAD_REACTORS
330
C
102
}
330
C
100
AcDbDictionary
281
     1
  0
ACDBDICTIONARYWDFLT
  5
E
102
{ACAD_REACTORS
330
C
102
}
330
C
100
AcDbDictionary
281
     1
  3
Normal
350
F
100
AcDbDictionaryWithDefault
340
F
  0
DICTIONARY
  5
1E6
102
{ACAD_REACTORS
330
C
102
}
330
C
100
AcDbDictionary
281
     1
  3
DIMASSOC
350
1E7
  0
LAYOUT
  5
1D
102
{ACAD_REACTORS
330
19
102
}
330
19
100
AcDbPlotSettings
  1

  2
hp deskjet 980c series
  4

  6

 40
0.0
 41
0.0
 42
0.0
 43
0.0
 44
0.0
 45
0.0
 46
0.0
 47
0.0
 48
0.0
 49
0.0
140
0.0
141
0.0
142
1.0
143
1.0
 70
   688
 72
     0
 73
     0
 74
     5
  7

 75
    16
147
1.0
148
0.0
149
0.0
100
AcDbLayout
  1
Layout1
 70
     1
 71
     1
 10
0.0
 20
0.0
 11
12.0
 21
9.0
 12
0.0
 22
0.0
 32
0.0
 14
1.000000000000000E+20
 24
1.000000000000000E+20
 34
1.000000000000000E+20
 15
-1.000000000000000E+20
 25
-1.000000000000000E+20
 35
-1.000000000000000E+20
146
0.0
 13
0.0
 23
0.0
 33
0.0
 16
1.0
 26
0.0
 36
0.0
 17
0.0
 27
1.0
 37
0.0
 76
     0
330
1A
  0
LAYOUT
  5
21
102
{ACAD_REACTORS
330
19
102
}
330
19
100
AcDbPlotSettings
  1

  2
hp deskjet 980c series
  4

  6

 40
0.0
 41
0.0
 42
0.0
 43
0.0
 44
0.0
 45
0.0
 46
0.0
 47
0.0
 48
0.0
 49
0.0
140
0.0
141
0.0
142
1.0
143
1.0
 70
  1712
 72
     0
 73
     0
 74
     0
  7

 75
     0
147
1.0
148
0.0
149
0.0
100
AcDbLayout
  1
Model
 70
     1
 71
     0
 10
0.0
 20
0.0
 11
12.0
 21
9.0
 12
0.0
 22
0.0
 32
0.0
 14
0.0
 24
0.0
 34
0.0
 15
0.0
 25
0.0
 35
0.0
146
0.0
 13
0.0
 23
0.0
 33
0.0
 16
1.0
 26
0.0
 36
0.0
 17
0.0
 27
1.0
 37
0.0
 76
     0
330
1E
  0
MLINESTYLE
  5
17
102
{ACAD_REACTORS
330
16
102
}
330
16
100
AcDbMlineStyle
  2
STANDARD
 70
     0
  3

 62
   256
 51
90.0
 52
90.0
 71
     2
 49
0.5
 62
   256
  6
BYLAYER
 49
-0.5
 62
   256
  6
BYLAYER
  0
ACDBPLACEHOLDER
  5
F
102
{ACAD_REACTORS
330
E
102
}
330
E
  0
DICTIONARYVAR
  5
1E7
102
{ACAD_REACTORS
330
1E6
102
}
330
1E6
100
DictionaryVariables
280
     0
  1
1
  0
ENDSEC
  0
EOF
