  0
SECTION
  2
HEADER
  9
$ACADVER
  1
AC1015
  9
$ACADMAINTVER
 70
    13
  9
$DWGCODEPAGE
  3
ANSI_1252
  9
$INSBASE
 10
0.0
 20
0.0
 30
0.0
  9
$EXTMIN
 10
0.23949999999999
 20
0.0459999999999787
 30
0.0
  9
$EXTMAX
 10
131.7605
 20
156.954
 30
0.0
  9
$LIMMIN
 10
0.0
 20
0.0
  9
$LIMMAX
 10
12.0
 20
9.0
  9
$ORTHOMODE
 70
     0
  9
$REGENMODE
 70
     1
  9
$FILLMODE
 70
     1
  9
$QTEXTMODE
 70
     0
  9
$MIRRTEXT
 70
     1
  9
$LTSCALE
 40
1.0
  9
$ATTMODE
 70
     1
  9
$TEXTSIZE
 40
0.2
  9
$TRACEWID
 40
0.05
  9
$TEXTSTYLE
  7
Standard
  9
$CLAYER
  8
0
  9
$CELTYPE
  6
Continuous
  9
$CECOLOR
 62
   256
  9
$CELTSCALE
 40
1.0
  9
$DISPSILH
 70
     0
  9
$DIMSCALE
 40
1.0
  9
$DIMASZ
 40
0.18
  9
$DIMEXO
 40
0.0625
  9
$DIMDLI
 40
0.38
  9
$DIMRND
 40
0.0
  9
$DIMDLE
 40
0.0
  9
$DIMEXE
 40
0.18
  9
$DIMTP
 40
0.0
  9
$DIMTM
 40
0.0
  9
$DIMTXT
 40
0.18
  9
$DIMCEN
 40
0.09
  9
$DIMTSZ
 40
0.0
  9
$DIMTOL
 70
     0
  9
$DIMLIM
 70
     0
  9
$DIMTIH
 70
     1
  9
$DIMTOH
 70
     1
  9
$DIMSE1
 70
     0
  9
$DIMSE2
 70
     0
  9
$DIMTAD
 70
     0
  9
$DIMZIN
 70
     0
  9
$DIMBLK
  1

  9
$DIMASO
 70
     1
  9
$DIMSHO
 70
     1
  9
$DIMPOST
  1

  9
$DIMAPOST
  1

  9
$DIMALT
 70
     0
  9
$DIMALTD
 70
     2
  9
$DIMALTF
 40
25.4
  9
$DIMLFAC
 40
1.0
  9
$DIMTOFL
 70
     0
  9
$DIMTVP
 40
0.0
  9
$DIMTIX
 70
     0
  9
$DIMSOXD
 70
     0
  9
$DIMSAH
 70
     0
  9
$DIMBLK1
  1

  9
$DIMBLK2
  1

  9
$DIMSTYLE
  2
Standard
  9
$DIMCLRD
 70
     0
  9
$DIMCLRE
 70
     0
  9
$DIMCLRT
 70
     0
  9
$DIMTFAC
 40
1.0
  9
$DIMGAP
 40
0.09
  9
$DIMJUST
 70
     0
  9
$DIMSD1
 70
     0
  9
$DIMSD2
 70
     0
  9
$DIMTOLJ
 70
     1
  9
$DIMTZIN
 70
     0
  9
$DIMALTZ
 70
     0
  9
$DIMALTTZ
 70
     0
  9
$DIMUPT
 70
     0
  9
$DIMDEC
 70
     4
  9
$DIMTDEC
 70
     4
  9
$DIMALTU
 70
     2
  9
$DIMALTTD
 70
     2
  9
$DIMTXSTY
  7
Standard
  9
$DIMAUNIT
 70
     0
  9
$DIMADEC
 70
     0
  9
$DIMALTRND
 40
0.0
  9
$DIMAZIN
 70
     0
  9
$DIMDSEP
 70
    46
  9
$DIMATFIT
 70
     3
  9
$DIMFRAC
 70
     0
  9
$DIMLDRBLK
  1

  9
$DIMLUNIT
 70
     2
  9
$DIMLWD
 70
    -2
  9
$DIMLWE
 70
    -2
  9
$DIMTMOVE
 70
     0
  9
$LUNITS
 70
     2
  9
$LUPREC
 70
     4
  9
$SKETCHINC
 40
0.1
  9
$FILLETRAD
 40
0.0
  9
$AUNITS
 70
     0
  9
$AUPREC
 70
     0
  9
$MENU
  1
.
  9
$ELEVATION
 40
0.0
  9
$PELEVATION
 40
0.0
  9
$THICKNESS
 40
0.0
  9
$LIMCHECK
 70
     0
  9
$CHAMFERA
 40
0.0
  9
$CHAMFERB
 40
0.0
  9
$CHAMFERC
 40
0.0
  9
$CHAMFERD
 40
0.0
  9
$SKPOLY
 70
     0
  9
$TDCREATE
 40
2454875.885621365
  9
$TDUCREATE
 40
2454875.843954699
  9
$TDUPDATE
 40
2454875.896969931
  9
$TDUUPDATE
 40
2454875.855303263
  9
$TDINDWG
 40
0.0113485648
  9
$TDUSRTIMER
 40
0.0113485648
  9
$USRTIMER
 70
     1
  9
$ANGBASE
 50
0.0
  9
$ANGDIR
 70
     0
  9
$PDMODE
 70
     0
  9
$PDSIZE
 40
0.0
  9
$PLINEWID
 40
0.0
  9
$SPLFRAME
 70
     0
  9
$SPLINETYPE
 70
     6
  9
$SPLINESEGS
 70
     8
  9
$HANDSEED
  5
1D1
  9
$SURFTAB1
 70
     6
  9
$SURFTAB2
 70
     6
  9
$SURFTYPE
 70
     6
  9
$SURFU
 70
     6
  9
$SURFV
 70
     6
  9
$UCSBASE
  2

  9
$UCSNAME
  2

  9
$UCSORG
 10
0.0
 20
0.0
 30
0.0
  9
$UCSXDIR
 10
1.0
 20
0.0
 30
0.0
  9
$UCSYDIR
 10
0.0
 20
1.0
 30
0.0
  9
$UCSORTHOREF
  2

  9
$UCSORTHOVIEW
 70
     1
  9
$UCSORGTOP
 10
0.0
 20
0.0
 30
0.0
  9
$UCSORGBOTTOM
 10
0.0
 20
0.0
 30
0.0
  9
$UCSORGLEFT
 10
0.0
 20
0.0
 30
0.0
  9
$UCSORGRIGHT
 10
0.0
 20
0.0
 30
0.0
  9
$UCSORGFRONT
 10
0.0
 20
0.0
 30
0.0
  9
$UCSORGBACK
 10
0.0
 20
0.0
 30
0.0
  9
$PUCSBASE
  2

  9
$PUCSNAME
  2

  9
$PUCSORG
 10
0.0
 20
0.0
 30
0.0
  9
$PUCSXDIR
 10
1.0
 20
0.0
 30
0.0
  9
$PUCSYDIR
 10
0.0
 20
1.0
 30
0.0
  9
$PUCSORTHOREF
  2

  9
$PUCSORTHOVIEW
 70
     0
  9
$PUCSORGTOP
 10
0.0
 20
0.0
 30
0.0
  9
$PUCSORGBOTTOM
 10
0.0
 20
0.0
 30
0.0
  9
$PUCSORGLEFT
 10
0.0
 20
0.0
 30
0.0
  9
$PUCSORGRIGHT
 10
0.0
 20
0.0
 30
0.0
  9
$PUCSORGFRONT
 10
0.0
 20
0.0
 30
0.0
  9
$PUCSORGBACK
 10
0.0
 20
0.0
 30
0.0
  9
$USERI1
 70
     0
  9
$USERI2
 70
     0
  9
$USERI3
 70
     0
  9
$USERI4
 70
     0
  9
$USERI5
 70
     0
  9
$USERR1
 40
0.0
  9
$USERR2
 40
0.0
  9
$USERR3
 40
0.0
  9
$USERR4
 40
0.0
  9
$USERR5
 40
0.0
  9
$WORLDVIEW
 70
     1
  9
$SHADEDGE
 70
     3
  9
$SHADEDIF
 70
    70
  9
$TILEMODE
 70
     1
  9
$MAXACTVP
 70
    64
  9
$PINSBASE
 10
0.0
 20
0.0
 30
0.0
  9
$PLIMCHECK
 70
     0
  9
$PEXTMIN
 10
1.000000000000000E+20
 20
1.000000000000000E+20
 30
1.000000000000000E+20
  9
$PEXTMAX
 10
-1.000000000000000E+20
 20
-1.000000000000000E+20
 30
-1.000000000000000E+20
  9
$PLIMMIN
 10
0.0
 20
0.0
  9
$PLIMMAX
 10
12.0
 20
9.0
  9
$UNITMODE
 70
     0
  9
$VISRETAIN
 70
     1
  9
$PLINEGEN
 70
     0
  9
$PSLTSCALE
 70
     1
  9
$TREEDEPTH
 70
  3020
  9
$CMLSTYLE
  2
Standard
  9
$CMLJUST
 70
     0
  9
$CMLSCALE
 40
1.0
  9
$PROXYGRAPHICS
 70
     1
  9
$MEASUREMENT
 70
     0
  9
$CELWEIGHT
370
    -1
  9
$ENDCAPS
280
     0
  9
$JOINSTYLE
280
     0
  9
$LWDISPLAY
290
     0
  9
$INSUNITS
 70
     0
  9
$HYPERLINKBASE
  1

  9
$STYLESHEET
  1

  9
$XEDIT
290
     1
  9
$CEPSNTYPE
380
     0
  9
$PSTYLEMODE
290
     1
  9
$FINGERPRINTGUID
  2
{723E100A-F38A-4D66-B19D-B10E4DC15F10}
  9
$VERSIONGUID
  2
{926A8F00-E2B2-4E97-B561-05D49C0F8472}
  9
$EXTNAMES
290
     1
  9
$PSVPSCALE
 40
0.0
  9
$OLESTARTUP
290
     0
  0
ENDSEC
  0
SECTION
  2
CLASSES
  0
CLASS
  1
ACDBDICTIONARYWDFLT
  2
AcDbDictionaryWithDefault
  3
AutoCAD 2000
 90
        0
280
     0
281
     0
  0
CLASS
  1
ACDBPLACEHOLDER
  2
AcDbPlaceHolder
  3
AutoCAD 2000
 90
        0
280
     0
281
     0
  0
CLASS
  1
LAYOUT
  2
AcDbLayout
  3
AutoCAD 2000
 90
        0
280
     0
281
     0
  0
CLASS
  1
DICTIONARYVAR
  2
AcDbDictionaryVar
  3
AutoCAD 2000
 90
        0
280
     0
281
     0
  0
ENDSEC
  0
SECTION
  2
TABLES
  0
TABLE
  2
VPORT
  5
8
330
0
100
AcDbSymbolTable
 70
     2
  0
VPORT
  5
1D0
330
8
100
AcDbSymbolTableRecord
100
AcDbViewportTableRecord
  2
*Active
 70
     0
 10
0.0
 20
0.0
 11
1.0
 21
1.0
 12
66.0
 22
78.49999999999998
 13
0.0
 23
0.0
 14
1.0
 24
1.0
 15
0.0
 25
0.0
 16
0.0
 26
0.0
 36
1.0
 17
0.0
 27
0.0
 37
0.0
 40
157.8989978947368
 41
1.968387776606954
 42
50.0
 43
0.0
 44
0.0
 50
0.0
 51
0.0
 71
     0
 72
   100
 73
     1
 74
     3
 75
     0
 76
     0
 77
     0
 78
     0
281
     0
 65
     1
110
0.0
120
0.0
130
0.0
111
1.0
121
0.0
131
0.0
112
0.0
122
1.0
132
0.0
 79
     1
146
0.0
  0
ENDTAB
  0
TABLE
  2
LTYPE
  5
5
330
0
100
AcDbSymbolTable
 70
     1
  0
LTYPE
  5
13
330
5
100
AcDbSymbolTableRecord
100
AcDbLinetypeTableRecord
  2
ByBlock
 70
     0
  3

 72
    65
 73
     0
 40
0.0
  0
LTYPE
  5
14
330
5
100
AcDbSymbolTableRecord
100
AcDbLinetypeTableRecord
  2
ByLayer
 70
     0
  3

 72
    65
 73
     0
 40
0.0
  0
LTYPE
  5
15
330
5
100
AcDbSymbolTableRecord
100
AcDbLinetypeTableRecord
  2
Continuous
 70
     0
  3
Solid line
 72
    65
 73
     0
 40
0.0
  0
ENDTAB
  0
TABLE
  2
LAYER
  5
2
330
0
100
AcDbSymbolTable
 70
     1
  0
LAYER
  5
10
330
2
100
AcDbSymbolTableRecord
100
AcDbLayerTableRecord
  2
0
 70
     0
 62
     7
  6
Continuous
370
    -3
390
F
  0
ENDTAB
  0
TABLE
  2
STYLE
  5
3
330
0
100
AcDbSymbolTable
 70
     1
  0
STYLE
  5
11
330
3
100
AcDbSymbolTableRecord
100
AcDbTextStyleTableRecord
  2
Standard
 70
     0
 40
0.0
 41
1.0
 50
0.0
 71
     0
 42
0.2
  3
txt
  4

  0
ENDTAB
  0
TABLE
  2
VIEW
  5
6
330
0
100
AcDbSymbolTable
 70
     0
  0
ENDTAB
  0
TABLE
  2
UCS
  5
7
330
0
100
AcDbSymbolTable
 70
     0
  0
ENDTAB
  0
TABLE
  2
APPID
  5
9
330
0
100
AcDbSymbolTable
 70
     1
  0
APPID
  5
12
330
9
100
AcDbSymbolTableRecord
100
AcDbRegAppTableRecord
  2
ACAD
 70
     0
  0
ENDTAB
  0
TABLE
  2
DIMSTYLE
  5
A
330
0
100
AcDbSymbolTable
 70
     1
100
AcDbDimStyleTable
 71
     0
  0
DIMSTYLE
105
1C3
330
A
100
AcDbSymbolTableRecord
100
AcDbDimStyleTableRecord
  2
Standard
 70
     0
340
11
  0
ENDTAB
  0
TABLE
  2
BLOCK_RECORD
  5
1
330
0
100
AcDbSymbolTable
 70
     0
  0
BLOCK_RECORD
  5
1E
330
1
100
AcDbSymbolTableRecord
100
AcDbBlockTableRecord
  2
*Model_Space
340
21
  0
BLOCK_RECORD
  5
1A
330
1
100
AcDbSymbolTableRecord
100
AcDbBlockTableRecord
  2
*Paper_Space
340
1D
  0
ENDTAB
  0
ENDSEC
  0
SECTION
  2
BLOCKS
  0
BLOCK
  5
1F
330
1E
100
AcDbEntity
  8
0
100
AcDbBlockBegin
  2
*Model_Space
 70
     0
 10
0.0
 20
0.0
 30
0.0
  3
*Model_Space
  1

  0
ENDBLK
  5
20
330
1E
100
AcDbEntity
  8
0
100
AcDbBlockEnd
  0
BLOCK
  5
1B
330
1A
100
AcDbEntity
 67
     1
  8
0
100
AcDbBlockBegin
  2
*Paper_Space
 70
     0
 10
0.0
 20
0.0
 30
0.0
  3
*Paper_Space
  1

  0
ENDBLK
  5
1C
330
1A
100
AcDbEntity
 67
     1
  8
0
100
AcDbBlockEnd
  0
ENDSEC
  0
SECTION
  2
ENTITIES
  0
LINE
  5
22
330
1E
100
AcDbEntity
  8
0
100
AcDbLine
 10
0.28949999999999
 20
0.0459999999999806
 30
0.0
 11
0.38949999999999
 21
0.0459999999999804
 31
0.0
  0
LINE
  5
23
330
1E
100
AcDbEntity
  8
0
100
AcDbLine
 10
0.23949999999999
 20
0.0459999999999809
 30
0.0
 11
0.23949999999999
 21
76.7633
 31
0.0
  0
LINE
  5
24
330
1E
100
AcDbEntity
  8
0
100
AcDbLine
 10
0.38949999999999
 20
0.0459999999999804
 30
0.0
 11
0.58949999999999
 21
0.0459999999999802
 31
0.0
  0
LINE
  5
25
330
1E
100
AcDbEntity
  8
0
100
AcDbLine
 10
0.58949999999999
 20
0.0459999999999802
 30
0.0
 11
0.83949999999999
 21
0.0459999999999801
 31
0.0
  0
LINE
  5
26
330
1E
100
AcDbEntity
  8
0
100
AcDbLine
 10
0.28949999999999
 20
0.0459999999999813
 30
0.0
 11
0.38949999999999
 21
0.0459999999999815
 31
0.0
  0
LINE
  5
27
330
1E
100
AcDbEntity
  8
0
100
AcDbLine
 10
0.38949999999999
 20
0.0459999999999815
 30
0.0
 11
0.58949999999999
 21
0.0459999999999817
 31
0.0
  0
LINE
  5
28
330
1E
100
AcDbEntity
  8
0
100
AcDbLine
 10
0.83949999999999
 20
0.0459999999999801
 30
0.0
 11
1.23949999999999
 21
0.0459999999999799
 31
0.0
  0
LINE
  5
29
330
1E
100
AcDbEntity
  8
0
100
AcDbLine
 10
1.23949999999999
 20
0.0459999999999799
 30
0.0
 11
2.039499999999989
 21
0.0459999999999798
 31
0.0
  0
LINE
  5
2A
330
1E
100
AcDbEntity
  8
0
100
AcDbLine
 10
0.58949999999999
 20
0.0459999999999817
 30
0.0
 11
0.83949999999999
 21
0.0459999999999818
 31
0.0
  0
LINE
  5
2B
330
1E
100
AcDbEntity
  8
0
100
AcDbLine
 10
0.83949999999999
 20
0.0459999999999818
 30
0.0
 11
1.23949999999999
 21
0.045999999999982
 31
0.0
  0
LINE
  5
2C
330
1E
100
AcDbEntity
  8
0
100
AcDbLine
 10
3.23949999999999
 20
0.0459999999999797
 30
0.0
 11
4.93949999999999
 21
0.0459999999999797
 31
0.0
  0
LINE
  5
2D
330
1E
100
AcDbEntity
  8
0
100
AcDbLine
 10
2.039499999999989
 20
0.0459999999999798
 30
0.0
 11
3.23949999999999
 21
0.0459999999999797
 31
0.0
  0
LINE
  5
2E
330
1E
100
AcDbEntity
  8
0
100
AcDbLine
 10
1.23949999999999
 20
0.045999999999982
 30
0.0
 11
2.039499999999989
 21
0.0459999999999821
 31
0.0
  0
LINE
  5
2F
330
1E
100
AcDbEntity
  8
0
100
AcDbLine
 10
0.23949999999999
 20
141.1839999999999
 30
0.0
 11
0.23949999999999
 21
140.418
 31
0.0
  0
LINE
  5
30
330
1E
100
AcDbEntity
  8
0
100
AcDbLine
 10
0.23949999999999
 20
141.1839999999999
 30
0.0
 11
0.24949999999999
 21
142.6619999999999
 31
0.0
  0
LINE
  5
31
330
1E
100
AcDbEntity
  8
0
100
AcDbLine
 10
0.23949999999999
 20
140.418
 30
0.0
 11
0.23949999999999
 21
108.9639999999999
 31
0.0
  0
LINE
  5
34
330
1E
100
AcDbEntity
  8
0
100
AcDbLine
 10
0.23949999999999
 20
140.418
 30
0.0
 11
0.23949999999999
 21
141.1839999999999
 31
0.0
  0
LINE
  5
35
330
1E
100
AcDbEntity
  8
0
100
AcDbLine
 10
0.23949999999999
 20
108.9639999999999
 30
0.0
 11
0.23949999999999
 21
102.536
 31
0.0
  0
LINE
  5
36
330
1E
100
AcDbEntity
  8
0
100
AcDbLine
 10
0.23949999999999
 20
108.9639999999999
 30
0.0
 11
0.23949999999999
 21
140.418
 31
0.0
  0
LINE
  5
37
330
1E
100
AcDbEntity
  8
0
100
AcDbLine
 10
0.23949999999999
 20
94.15689999999999
 30
0.0
 11
0.23949999999999
 21
84.11849999999999
 31
0.0
  0
LINE
  5
38
330
1E
100
AcDbEntity
  8
0
100
AcDbLine
 10
0.23949999999999
 20
94.15689999999999
 30
0.0
 11
0.23949999999999
 21
102.536
 31
0.0
  0
LINE
  5
39
330
1E
100
AcDbEntity
  8
0
100
AcDbLine
 10
0.23949999999999
 20
102.536
 30
0.0
 11
0.23949999999999
 21
94.15689999999999
 31
0.0
  0
LINE
  5
3A
330
1E
100
AcDbEntity
  8
0
100
AcDbLine
 10
0.23949999999999
 20
102.536
 30
0.0
 11
0.23949999999999
 21
108.9639999999999
 31
0.0
  0
LINE
  5
3B
330
1E
100
AcDbEntity
  8
0
100
AcDbLine
 10
0.23949999999999
 20
84.11849999999999
 30
0.0
 11
0.23949999999999
 21
76.7633
 31
0.0
  0
LINE
  5
3C
330
1E
100
AcDbEntity
  8
0
100
AcDbLine
 10
0.23949999999999
 20
84.11849999999999
 30
0.0
 11
0.23949999999999
 21
94.15689999999999
 31
0.0
  0
LINE
  5
3E
330
1E
100
AcDbEntity
  8
0
100
AcDbLine
 10
0.24949999999999
 20
142.6619999999999
 30
0.0
 11
0.28949999999999
 21
144.655
 31
0.0
  0
LINE
  5
3F
330
1E
100
AcDbEntity
  8
0
100
AcDbLine
 10
0.28949999999999
 20
144.655
 30
0.0
 11
0.38949999999999
 21
146.9689999999999
 31
0.0
  0
LINE
  5
40
330
1E
100
AcDbEntity
  8
0
100
AcDbLine
 10
0.38949999999999
 20
146.9689999999999
 30
0.0
 11
0.58949999999999
 21
148.897
 31
0.0
  0
LINE
  5
41
330
1E
100
AcDbEntity
  8
0
100
AcDbLine
 10
0.58949999999999
 20
148.897
 30
0.0
 11
0.83949999999999
 21
150.375
 31
0.0
  0
LINE
  5
42
330
1E
100
AcDbEntity
  8
0
100
AcDbLine
 10
0.83949999999999
 20
150.375
 30
0.0
 11
1.23949999999999
 21
151.7249999999999
 31
0.0
  0
LINE
  5
43
330
1E
100
AcDbEntity
  8
0
100
AcDbLine
 10
2.33949999999999
 20
153.2899999999999
 30
0.0
 11
3.53949999999999
 21
154.3829999999999
 31
0.0
  0
LINE
  5
44
330
1E
100
AcDbEntity
  8
0
100
AcDbLine
 10
2.039499999999989
 20
152.947
 30
0.0
 11
2.33949999999999
 21
153.2899999999999
 31
0.0
  0
LINE
  5
45
330
1E
100
AcDbEntity
  8
0
100
AcDbLine
 10
1.23949999999999
 20
151.7249999999999
 30
0.0
 11
2.039499999999989
 21
152.947
 31
0.0
  0
LINE
  5
47
330
1E
100
AcDbEntity
  8
0
100
AcDbLine
 10
0.23949999999999
 20
76.7633
 30
0.0
 11
0.23949999999999
 21
0.0459999999999787
 31
0.0
  0
LINE
  5
48
330
1E
100
AcDbEntity
  8
0
100
AcDbLine
 10
0.23949999999999
 20
76.7633
 30
0.0
 11
0.23949999999999
 21
84.11849999999999
 31
0.0
  0
LINE
  5
49
330
1E
100
AcDbEntity
  8
0
100
AcDbLine
 10
2.039499999999989
 20
0.0459999999999821
 30
0.0
 11
3.23949999999999
 21
0.0459999999999822
 31
0.0
  0
LINE
  5
4A
330
1E
100
AcDbEntity
  8
0
100
AcDbLine
 10
17.8395
 20
0.0459999999999795
 30
0.0
 11
20.93949999999999
 21
0.0459999999999795
 31
0.0
  0
LINE
  5
4B
330
1E
100
AcDbEntity
  8
0
100
AcDbLine
 10
20.93949999999999
 20
0.0459999999999795
 30
0.0
 11
23.23949999999999
 21
0.0459999999999795
 31
0.0
  0
LINE
  5
4C
330
1E
100
AcDbEntity
  8
0
100
AcDbLine
 10
23.23949999999999
 20
0.0459999999999795
 30
0.0
 11
25.5395
 21
0.0459999999999795
 31
0.0
  0
LINE
  5
4D
330
1E
100
AcDbEntity
  8
0
100
AcDbLine
 10
14.2395
 20
0.0459999999999796
 30
0.0
 11
17.8395
 21
0.0459999999999795
 31
0.0
  0
LINE
  5
4E
330
1E
100
AcDbEntity
  8
0
100
AcDbLine
 10
25.5395
 20
0.0459999999999795
 30
0.0
 11
28.6395
 21
0.0459999999999795
 31
0.0
  0
LINE
  5
4F
330
1E
100
AcDbEntity
  8
0
100
AcDbLine
 10
28.6395
 20
0.0459999999999795
 30
0.0
 11
32.2395
 21
0.0459999999999796
 31
0.0
  0
LINE
  5
50
330
1E
100
AcDbEntity
  8
0
100
AcDbLine
 10
8.93949999999999
 20
0.0459999999999796
 30
0.0
 11
11.2395
 21
0.0459999999999796
 31
0.0
  0
LINE
  5
51
330
1E
100
AcDbEntity
  8
0
100
AcDbLine
 10
11.2395
 20
0.0459999999999796
 30
0.0
 11
14.2395
 21
0.0459999999999796
 31
0.0
  0
LINE
  5
52
330
1E
100
AcDbEntity
  8
0
100
AcDbLine
 10
32.2395
 20
0.0459999999999796
 30
0.0
 11
35.2395
 21
0.0459999999999796
 31
0.0
  0
LINE
  5
53
330
1E
100
AcDbEntity
  8
0
100
AcDbLine
 10
35.2395
 20
0.0459999999999796
 30
0.0
 11
37.53949999999999
 21
0.0459999999999796
 31
0.0
  0
LINE
  5
54
330
1E
100
AcDbEntity
  8
0
100
AcDbLine
 10
4.93949999999999
 20
0.0459999999999797
 30
0.0
 11
6.83949999999999
 21
0.0459999999999796
 31
0.0
  0
LINE
  5
55
330
1E
100
AcDbEntity
  8
0
100
AcDbLine
 10
6.83949999999999
 20
0.0459999999999796
 30
0.0
 11
8.93949999999999
 21
0.0459999999999796
 31
0.0
  0
LINE
  5
56
330
1E
100
AcDbEntity
  8
0
100
AcDbLine
 10
37.53949999999999
 20
0.0459999999999796
 30
0.0
 11
39.6395
 21
0.0459999999999796
 31
0.0
  0
LINE
  5
57
330
1E
100
AcDbEntity
  8
0
100
AcDbLine
 10
39.6395
 20
0.0459999999999796
 30
0.0
 11
41.5395
 21
0.0459999999999797
 31
0.0
  0
LINE
  5
58
330
1E
100
AcDbEntity
  8
0
100
AcDbLine
 10
41.5395
 20
0.0459999999999797
 30
0.0
 11
43.23949999999999
 21
0.0459999999999797
 31
0.0
  0
LINE
  5
59
330
1E
100
AcDbEntity
  8
0
100
AcDbLine
 10
44.4395
 20
0.0459999999999798
 30
0.0
 11
45.2395
 21
0.0459999999999799
 31
0.0
  0
LINE
  5
5A
330
1E
100
AcDbEntity
  8
0
100
AcDbLine
 10
43.23949999999999
 20
0.0459999999999797
 30
0.0
 11
44.4395
 21
0.0459999999999798
 31
0.0
  0
LINE
  5
5B
330
1E
100
AcDbEntity
  8
0
100
AcDbLine
 10
45.6395
 20
0.0459999999999801
 30
0.0
 11
45.88949999999999
 21
0.0459999999999802
 31
0.0
  0
LINE
  5
5C
330
1E
100
AcDbEntity
  8
0
100
AcDbLine
 10
45.2395
 20
0.0459999999999799
 30
0.0
 11
45.6395
 21
0.0459999999999801
 31
0.0
  0
LINE
  5
5D
330
1E
100
AcDbEntity
  8
0
100
AcDbLine
 10
46.0895
 20
0.0459999999999804
 30
0.0
 11
46.1895
 21
0.0459999999999806
 31
0.0
  0
LINE
  5
5E
330
1E
100
AcDbEntity
  8
0
100
AcDbLine
 10
45.88949999999999
 20
0.0459999999999802
 30
0.0
 11
46.0895
 21
0.0459999999999804
 31
0.0
  0
LINE
  5
5F
330
1E
100
AcDbEntity
  8
0
100
AcDbLine
 10
46.23949999999999
 20
0.0459999999999809
 30
0.0
 11
46.23949999999999
 21
12.046
 31
0.0
  0
LINE
  5
60
330
1E
100
AcDbEntity
  8
0
100
AcDbLine
 10
46.0895
 20
0.0459999999999815
 30
0.0
 11
46.1895
 21
0.0459999999999813
 31
0.0
  0
LINE
  5
61
330
1E
100
AcDbEntity
  8
0
100
AcDbLine
 10
45.88949999999999
 20
0.0459999999999817
 30
0.0
 11
46.0895
 21
0.0459999999999815
 31
0.0
  0
LINE
  5
62
330
1E
100
AcDbEntity
  8
0
100
AcDbLine
 10
45.6395
 20
0.0459999999999818
 30
0.0
 11
45.88949999999999
 21
0.0459999999999817
 31
0.0
  0
LINE
  5
63
330
1E
100
AcDbEntity
  8
0
100
AcDbLine
 10
45.2395
 20
0.045999999999982
 30
0.0
 11
45.6395
 21
0.0459999999999818
 31
0.0
  0
LINE
  5
64
330
1E
100
AcDbEntity
  8
0
100
AcDbLine
 10
44.4395
 20
0.0459999999999821
 30
0.0
 11
45.2395
 21
0.045999999999982
 31
0.0
  0
LINE
  5
65
330
1E
100
AcDbEntity
  8
0
100
AcDbLine
 10
43.23949999999999
 20
0.0459999999999822
 30
0.0
 11
44.4395
 21
0.0459999999999821
 31
0.0
  0
LINE
  5
66
330
1E
100
AcDbEntity
  8
0
100
AcDbLine
 10
41.5395
 20
0.0459999999999823
 30
0.0
 11
43.23949999999999
 21
0.0459999999999822
 31
0.0
  0
LINE
  5
67
330
1E
100
AcDbEntity
  8
0
100
AcDbLine
 10
5.23949999999999
 20
155.1539999999999
 30
0.0
 11
7.13949999999999
 21
155.668
 31
0.0
  0
LINE
  5
68
330
1E
100
AcDbEntity
  8
0
100
AcDbLine
 10
3.53949999999999
 20
154.3829999999999
 30
0.0
 11
5.23949999999999
 21
155.1539999999999
 31
0.0
  0
LINE
  5
69
330
1E
100
AcDbEntity
  8
0
100
AcDbLine
 10
39.6395
 20
0.0459999999999823
 30
0.0
 11
41.5395
 21
0.0459999999999823
 31
0.0
  0
LINE
  5
6A
330
1E
100
AcDbEntity
  8
0
100
AcDbLine
 10
37.53949999999999
 20
0.0459999999999823
 30
0.0
 11
39.6395
 21
0.0459999999999823
 31
0.0
  0
LINE
  5
6B
330
1E
100
AcDbEntity
  8
0
100
AcDbLine
 10
9.10801999999999
 20
156.0029999999999
 30
0.0
 11
11.3794
 21
156.3
 31
0.0
  0
LINE
  5
6C
330
1E
100
AcDbEntity
  8
0
100
AcDbLine
 10
7.13949999999999
 20
155.668
 30
0.0
 11
9.10801999999999
 21
156.0029999999999
 31
0.0
  0
LINE
  5
6D
330
1E
100
AcDbEntity
  8
0
100
AcDbLine
 10
35.2395
 20
0.0459999999999823
 30
0.0
 11
37.53949999999999
 21
0.0459999999999823
 31
0.0
  0
LINE
  5
6E
330
1E
100
AcDbEntity
  8
0
100
AcDbLine
 10
32.2395
 20
0.0459999999999824
 30
0.0
 11
35.2395
 21
0.0459999999999823
 31
0.0
  0
LINE
  5
6F
330
1E
100
AcDbEntity
  8
0
100
AcDbLine
 10
12.2395
 20
138.268
 30
0.0
 11
12.2395
 21
130.986
 31
0.0
  0
LINE
  5
70
330
1E
100
AcDbEntity
  8
0
100
AcDbLine
 10
12.2395
 20
138.268
 30
0.0
 11
12.6355
 21
140.8199999999999
 31
0.0
  0
LINE
  5
71
330
1E
100
AcDbEntity
  8
0
100
AcDbLine
 10
13.9555
 20
125.9979999999999
 30
0.0
 11
15.67149999999999
 21
123.964
 31
0.0
  0
LINE
  5
72
330
1E
100
AcDbEntity
  8
0
100
AcDbLine
 10
17.04749999999999
 20
124.7889999999999
 30
0.0
 11
18.8835
 21
123.516
 31
0.0
  0
LINE
  5
73
330
1E
100
AcDbEntity
  8
0
100
AcDbLine
 10
16.86749999999999
 20
124.788
 30
0.0
 11
18.7755
 21
123.4829999999999
 31
0.0
  0
LINE
  5
74
330
1E
100
AcDbEntity
  8
0
100
AcDbLine
 10
15.67149999999999
 20
123.964
 30
0.0
 11
17.9155
 21
122.4089999999999
 31
0.0
  0
LINE
  5
75
330
1E
100
AcDbEntity
  8
0
100
AcDbLine
 10
17.7835
 20
122.332
 30
0.0
 11
20.4235
 21
121.375
 31
0.0
  0
LINE
  5
76
330
1E
100
AcDbEntity
  8
0
100
AcDbLine
 10
15.4515
 20
123.9279999999999
 30
0.0
 11
17.7835
 21
122.332
 31
0.0
  0
LINE
  5
77
330
1E
100
AcDbEntity
  8
0
100
AcDbLine
 10
14.7795
 20
128.3449999999999
 30
0.0
 11
15.6435
 21
126.4529999999999
 31
0.0
  0
LINE
  5
78
330
1E
100
AcDbEntity
  8
0
100
AcDbLine
 10
15.6435
 20
126.4529999999999
 30
0.0
 11
17.04749999999999
 21
124.7889999999999
 31
0.0
  0
LINE
  5
79
330
1E
100
AcDbEntity
  8
0
100
AcDbLine
 10
15.4275
 20
126.5179999999999
 30
0.0
 11
16.86749999999999
 21
124.788
 31
0.0
  0
LINE
  5
7A
330
1E
100
AcDbEntity
  8
0
100
AcDbLine
 10
14.5635
 20
128.475
 30
0.0
 11
15.4275
 21
126.5179999999999
 31
0.0
  0
LINE
  5
7B
330
1E
100
AcDbEntity
  8
0
100
AcDbLine
 10
14.4555
 20
130.401
 30
0.0
 11
14.7795
 21
132.456
 31
0.0
  0
LINE
  5
7C
330
1E
100
AcDbEntity
  8
0
100
AcDbLine
 10
14.4555
 20
130.401
 30
0.0
 11
14.7795
 21
128.3449999999999
 31
0.0
  0
LINE
  5
7D
330
1E
100
AcDbEntity
  8
0
100
AcDbLine
 10
14.7795
 20
132.456
 30
0.0
 11
15.6435
 21
134.3489999999999
 31
0.0
  0
LINE
  5
7E
330
1E
100
AcDbEntity
  8
0
100
AcDbLine
 10
14.5635
 20
132.911
 30
0.0
 11
15.4275
 21
134.8689999999999
 31
0.0
  0
LINE
  5
7F
330
1E
100
AcDbEntity
  8
0
100
AcDbLine
 10
14.2395
 20
130.8229999999999
 30
0.0
 11
14.5635
 21
132.911
 31
0.0
  0
LINE
  5
80
330
1E
100
AcDbEntity
  8
0
100
AcDbLine
 10
14.2395
 20
130.8229999999999
 30
0.0
 11
14.2395
 21
130.5629999999999
 31
0.0
  0
LINE
  5
81
330
1E
100
AcDbEntity
  8
0
100
AcDbLine
 10
14.2395
 20
130.5629999999999
 30
0.0
 11
14.2395
 21
130.8229999999999
 31
0.0
  0
LINE
  5
82
330
1E
100
AcDbEntity
  8
0
100
AcDbLine
 10
14.2395
 20
130.5629999999999
 30
0.0
 11
14.5635
 21
128.475
 31
0.0
  0
LINE
  5
83
330
1E
100
AcDbEntity
  8
0
100
AcDbLine
 10
12.8995
 20
128.311
 30
0.0
 11
13.9555
 21
125.9979999999999
 31
0.0
  0
LINE
  5
84
330
1E
100
AcDbEntity
  8
0
100
AcDbLine
 10
13.6915
 20
126.041
 30
0.0
 11
15.4515
 21
123.9279999999999
 31
0.0
  0
LINE
  5
85
330
1E
100
AcDbEntity
  8
0
100
AcDbLine
 10
12.6355
 20
128.434
 30
0.0
 11
13.6915
 21
126.041
 31
0.0
  0
LINE
  5
86
330
1E
100
AcDbEntity
  8
0
100
AcDbLine
 10
12.8995
 20
133.336
 30
0.0
 11
13.9555
 21
135.6489999999999
 31
0.0
  0
LINE
  5
87
330
1E
100
AcDbEntity
  8
0
100
AcDbLine
 10
12.5035
 20
130.8229999999999
 30
0.0
 11
12.8995
 21
133.336
 31
0.0
  0
LINE
  5
88
330
1E
100
AcDbEntity
  8
0
100
AcDbLine
 10
12.5035
 20
130.8229999999999
 30
0.0
 11
12.8995
 21
128.311
 31
0.0
  0
LINE
  5
89
330
1E
100
AcDbEntity
  8
0
100
AcDbLine
 10
17.04749999999999
 20
136.013
 30
0.0
 11
18.8835
 21
137.2849999999999
 31
0.0
  0
LINE
  5
8A
330
1E
100
AcDbEntity
  8
0
100
AcDbLine
 10
15.6435
 20
134.3489999999999
 30
0.0
 11
17.04749999999999
 21
136.013
 31
0.0
  0
LINE
  5
8B
330
1E
100
AcDbEntity
  8
0
100
AcDbLine
 10
16.86749999999999
 20
136.5979999999999
 30
0.0
 11
18.7755
 21
137.9029999999999
 31
0.0
  0
LINE
  5
8C
330
1E
100
AcDbEntity
  8
0
100
AcDbLine
 10
15.4275
 20
134.8689999999999
 30
0.0
 11
16.86749999999999
 21
136.5979999999999
 31
0.0
  0
LINE
  5
8D
330
1E
100
AcDbEntity
  8
0
100
AcDbLine
 10
15.67149999999999
 20
137.682
 30
0.0
 11
17.9155
 21
139.2369999999999
 31
0.0
  0
LINE
  5
8E
330
1E
100
AcDbEntity
  8
0
100
AcDbLine
 10
13.9555
 20
135.6489999999999
 30
0.0
 11
15.67149999999999
 21
137.682
 31
0.0
  0
LINE
  5
8F
330
1E
100
AcDbEntity
  8
0
100
AcDbLine
 10
15.4515
 20
138.0439999999999
 30
0.0
 11
17.7835
 21
139.639
 31
0.0
  0
LINE
  5
90
330
1E
100
AcDbEntity
  8
0
100
AcDbLine
 10
13.6915
 20
135.931
 30
0.0
 11
15.4515
 21
138.0439999999999
 31
0.0
  0
LINE
  5
91
330
1E
100
AcDbEntity
  8
0
100
AcDbLine
 10
12.6355
 20
133.5379999999999
 30
0.0
 11
13.6915
 21
135.931
 31
0.0
  0
LINE
  5
92
330
1E
100
AcDbEntity
  8
0
100
AcDbLine
 10
12.2395
 20
130.986
 30
0.0
 11
12.6355
 21
133.5379999999999
 31
0.0
  0
LINE
  5
93
330
1E
100
AcDbEntity
  8
0
100
AcDbLine
 10
12.2395
 20
130.986
 30
0.0
 11
12.6355
 21
128.434
 31
0.0
  0
LINE
  5
94
330
1E
100
AcDbEntity
  8
0
100
AcDbLine
 10
12.2395
 20
130.986
 30
0.0
 11
12.2395
 21
138.268
 31
0.0
  0
LINE
  5
95
330
1E
100
AcDbEntity
  8
0
100
AcDbLine
 10
11.3794
 20
156.3
 30
0.0
 11
14.1676
 21
156.58
 31
0.0
  0
LINE
  5
96
330
1E
100
AcDbEntity
  8
0
100
AcDbLine
 10
17.7835
 20
139.639
 30
0.0
 11
20.4235
 21
140.596
 31
0.0
  0
LINE
  5
97
330
1E
100
AcDbEntity
  8
0
100
AcDbLine
 10
12.6355
 20
140.8199999999999
 30
0.0
 11
13.6915
 21
143.2129999999999
 31
0.0
  0
LINE
  5
98
330
1E
100
AcDbEntity
  8
0
100
AcDbLine
 10
13.6915
 20
143.2129999999999
 30
0.0
 11
15.4515
 21
145.326
 31
0.0
  0
LINE
  5
99
330
1E
100
AcDbEntity
  8
0
100
AcDbLine
 10
15.4515
 20
145.326
 30
0.0
 11
17.7835
 21
146.9209999999999
 31
0.0
  0
LINE
  5
9A
330
1E
100
AcDbEntity
  8
0
100
AcDbLine
 10
14.1676
 20
156.58
 30
0.0
 11
17.7854
 21
156.807
 31
0.0
  0
LINE
  5
9D
330
1E
100
AcDbEntity
  8
0
100
AcDbLine
 10
17.7835
 20
146.9209999999999
 30
0.0
 11
20.4235
 21
147.8779999999999
 31
0.0
  0
LINE
  5
A0
330
1E
100
AcDbEntity
  8
0
100
AcDbLine
 10
17.7854
 20
156.807
 30
0.0
 11
20.9409
 21
156.9029999999999
 31
0.0
  0
LINE
  5
A1
330
1E
100
AcDbEntity
  8
0
100
AcDbLine
 10
17.7835
 20
149.885
 30
0.0
 11
20.4235
 21
150.842
 31
0.0
  0
LINE
  5
A2
330
1E
100
AcDbEntity
  8
0
100
AcDbLine
 10
17.7835
 20
147.241
 30
0.0
 11
20.4235
 21
148.1979999999999
 31
0.0
  0
LINE
  5
A3
330
1E
100
AcDbEntity
  8
0
100
AcDbLine
 10
15.4515
 20
148.2899999999999
 30
0.0
 11
17.7835
 21
149.885
 31
0.0
  0
LINE
  5
A4
330
1E
100
AcDbEntity
  8
0
100
AcDbLine
 10
15.4515
 20
145.646
 30
0.0
 11
17.7835
 21
147.241
 31
0.0
  0
LINE
  5
A5
330
1E
100
AcDbEntity
  8
0
100
AcDbLine
 10
13.6915
 20
146.176
 30
0.0
 11
15.4515
 21
148.2899999999999
 31
0.0
  0
LINE
  5
A6
330
1E
100
AcDbEntity
  8
0
100
AcDbLine
 10
13.6915
 20
143.5329999999999
 30
0.0
 11
15.4515
 21
145.646
 31
0.0
  0
LINE
  5
A7
330
1E
100
AcDbEntity
  8
0
100
AcDbLine
 10
12.6355
 20
143.7829999999999
 30
0.0
 11
13.6915
 21
146.176
 31
0.0
  0
LINE
  5
A8
330
1E
100
AcDbEntity
  8
0
100
AcDbLine
 10
12.6355
 20
141.1399999999999
 30
0.0
 11
13.6915
 21
143.5329999999999
 31
0.0
  0
LINE
  5
A9
330
1E
100
AcDbEntity
  8
0
100
AcDbLine
 10
12.2395
 20
141.2309999999999
 30
0.0
 11
12.2395
 21
138.588
 31
0.0
  0
LINE
  5
AA
330
1E
100
AcDbEntity
  8
0
100
AcDbLine
 10
12.2395
 20
141.2309999999999
 30
0.0
 11
12.6355
 21
143.7829999999999
 31
0.0
  0
LINE
  5
AB
330
1E
100
AcDbEntity
  8
0
100
AcDbLine
 10
12.2395
 20
138.588
 30
0.0
 11
12.6355
 21
141.1399999999999
 31
0.0
  0
LINE
  5
AC
330
1E
100
AcDbEntity
  8
0
100
AcDbLine
 10
12.2395
 20
138.588
 30
0.0
 11
12.2643275862069
 21
138.4279999999999
 31
0.0
  0
LINE
  5
AD
330
1E
100
AcDbEntity
  8
0
100
AcDbLine
 10
12.2395
 20
138.588
 30
0.0
 11
12.2395
 21
141.2309999999999
 31
0.0
  0
LINE
  5
AE
330
1E
100
AcDbEntity
  8
0
100
AcDbLine
 10
28.6395
 20
0.0459999999999824
 30
0.0
 11
32.2395
 21
0.0459999999999824
 31
0.0
  0
LINE
  5
AF
330
1E
100
AcDbEntity
  8
0
100
AcDbLine
 10
25.5395
 20
0.0459999999999824
 30
0.0
 11
28.6395
 21
0.0459999999999824
 31
0.0
  0
LINE
  5
B0
330
1E
100
AcDbEntity
  8
0
100
AcDbLine
 10
23.23949999999999
 20
0.0459999999999824
 30
0.0
 11
25.5395
 21
0.0459999999999824
 31
0.0
  0
LINE
  5
B1
330
1E
100
AcDbEntity
  8
0
100
AcDbLine
 10
46.23949999999999
 20
12.046
 30
0.0
 11
46.5658
 21
15.2985
 31
0.0
  0
LINE
  5
B2
330
1E
100
AcDbEntity
  8
0
100
AcDbLine
 10
46.23949999999999
 20
12.046
 30
0.0
 11
46.23949999999999
 21
0.0459999999999809
 31
0.0
  0
LINE
  5
B3
330
1E
100
AcDbEntity
  8
0
100
AcDbLine
 10
46.5658
 20
15.2985
 30
0.0
 11
47.887
 21
21.8513
 31
0.0
  0
LINE
  5
B4
330
1E
100
AcDbEntity
  8
0
100
AcDbLine
 10
47.887
 20
21.8513
 30
0.0
 11
51.0189
 21
27.7425
 31
0.0
  0
LINE
  5
B5
330
1E
100
AcDbEntity
  8
0
100
AcDbLine
 10
51.0189
 20
27.7425
 30
0.0
 11
55.286
 21
32.5075
 31
0.0
  0
LINE
  5
B6
330
1E
100
AcDbEntity
  8
0
100
AcDbLine
 10
55.286
 20
32.5075
 30
0.0
 11
60.02349999999999
 21
35.8901
 31
0.0
  0
LINE
  5
B7
330
1E
100
AcDbEntity
  8
0
100
AcDbLine
 10
64.4786
 20
38.1601
 30
0.0
 11
72.5504
 21
42.2745
 31
0.0
  0
LINE
  5
B8
330
1E
100
AcDbEntity
  8
0
100
AcDbLine
 10
60.02349999999999
 20
35.8901
 30
0.0
 11
64.4786
 21
38.1601
 31
0.0
  0
LINE
  5
B9
330
1E
100
AcDbEntity
  8
0
100
AcDbLine
 10
74.33240000000001
 20
43.18249999999999
 30
0.0
 11
74.7728
 21
44.5209
 31
0.0
  0
LINE
  5
BA
330
1E
100
AcDbEntity
  8
0
100
AcDbLine
 10
74.33240000000001
 20
43.18249999999999
 30
0.0
 11
74.33240000000001
 21
43.18249999999999
 31
0.0
  0
LINE
  5
BB
330
1E
100
AcDbEntity
  8
0
100
AcDbLine
 10
72.5504
 20
42.2745
 30
0.0
 11
74.33240000000001
 21
43.18249999999999
 31
0.0
  0
LINE
  5
BD
330
1E
100
AcDbEntity
  8
0
100
AcDbLine
 10
74.71810000000001
 20
44.62839999999999
 30
0.0
 11
74.7526
 21
44.5605
 31
0.0
  0
LINE
  5
BE
330
1E
100
AcDbEntity
  8
0
100
AcDbLine
 10
74.6413
 20
44.77899999999999
 30
0.0
 11
74.71810000000001
 21
44.62839999999999
 31
0.0
  0
LINE
  5
BF
330
1E
100
AcDbEntity
  8
0
100
AcDbLine
 10
74.57989999999999
 20
44.89959999999999
 30
0.0
 11
74.6413
 21
44.77899999999999
 31
0.0
  0
LINE
  5
C2
330
1E
100
AcDbEntity
  8
0
100
AcDbLine
 10
76.58979999999999
 20
46.4968
 30
0.0
 11
78.28149999999999
 21
48.2179
 31
0.0
  0
LINE
  5
C3
330
1E
100
AcDbEntity
  8
0
100
AcDbLine
 10
74.42223287189659
 20
45.2089260864085
 30
0.0
 11
76.58979999999999
 21
46.4968
 31
0.0
  0
LINE
  5
C4
330
1E
100
AcDbEntity
  8
0
100
AcDbLine
 10
74.45699999999999
 20
45.1407
 30
0.0
 11
74.57989999999999
 21
44.89959999999999
 31
0.0
  0
LINE
  5
C5
330
1E
100
AcDbEntity
  8
0
100
AcDbLine
 10
74.31879999999999
 20
45.4119
 30
0.0
 11
74.45699999999999
 21
45.1407
 31
0.0
  0
LINE
  5
C6
330
1E
100
AcDbEntity
  8
0
100
AcDbLine
 10
78.28149999999999
 20
48.2179
 30
0.0
 11
79.30789298111871
 21
50.6375562325627
 31
0.0
  0
LINE
  5
C7
330
1E
100
AcDbEntity
  8
0
100
AcDbLine
 10
78.28149999999999
 20
48.2179
 30
0.0
 11
79.30789298111871
 21
50.6375562325627
 31
0.0
  0
LINE
  5
C8
330
1E
100
AcDbEntity
  8
0
100
AcDbLine
 10
73.61422360458741
 20
46.7678309560725
 30
0.0
 11
74.31879999999999
 21
45.4119
 31
0.0
  0
LINE
  5
C9
330
1E
100
AcDbEntity
  8
0
100
AcDbLine
 10
66.5305
 20
60.4
 30
0.0
 11
74.31879999999999
 21
45.4119
 31
0.0
  0
LINE
  5
CB
330
1E
100
AcDbEntity
  8
0
100
AcDbLine
 10
79.37692691069779
 20
50.57928717716739
 30
0.0
 11
82.7622
 21
47.7219
 31
0.0
  0
LINE
  5
CF
330
1E
100
AcDbEntity
  8
0
100
AcDbLine
 10
100.3565
 20
62.9718
 30
0.0
 11
101.2524999999999
 21
62.755
 31
0.0
  0
LINE
  5
D0
330
1E
100
AcDbEntity
  8
0
100
AcDbLine
 10
101.2524999999999
 20
62.755
 30
0.0
 11
102.1015
 21
62.8509
 31
0.0
  0
LINE
  5
D1
330
1E
100
AcDbEntity
  8
0
100
AcDbLine
 10
102.9945
 20
63.0812
 30
0.0
 11
127.4885
 21
76.684
 31
0.0
  0
LINE
  5
D2
330
1E
100
AcDbEntity
  8
0
100
AcDbLine
 10
102.1015
 20
62.8509
 30
0.0
 11
102.9945
 21
63.0812
 31
0.0
  0
LINE
  5
D4
330
1E
100
AcDbEntity
  8
0
100
AcDbLine
 10
99.50420000000001
 20
63.32309999999999
 30
0.0
 11
100.3565
 21
62.9718
 31
0.0
  0
LINE
  5
D5
330
1E
100
AcDbEntity
  8
0
100
AcDbLine
 10
98.8737
 20
63.8997
 30
0.0
 11
99.50420000000001
 21
63.32309999999999
 31
0.0
  0
LINE
  5
D6
330
1E
100
AcDbEntity
  8
0
100
AcDbLine
 10
98.28690000000001
 20
64.61079999999999
 30
0.0
 11
98.8737
 21
63.8997
 31
0.0
  0
LINE
  5
D7
330
1E
100
AcDbEntity
  8
0
100
AcDbLine
 10
46.2253
 20
81.50199999999999
 30
0.0
 11
46.5789
 21
79.3587
 31
0.0
  0
LINE
  5
D8
330
1E
100
AcDbEntity
  8
0
100
AcDbLine
 10
56.0798
 20
76.2069
 30
0.0
 11
57.20909999999999
 21
76.78889999999999
 31
0.0
  0
LINE
  5
DA
330
1E
100
AcDbEntity
  8
0
100
AcDbLine
 10
57.20909999999999
 20
76.78889999999999
 30
0.0
 11
58.5287
 21
76.4016
 31
0.0
  0
LINE
  5
DD
330
1E
100
AcDbEntity
  8
0
100
AcDbLine
 10
54.9704
 20
75.7645
 30
0.0
 11
56.0798
 21
76.2069
 31
0.0
  0
LINE
  5
DE
330
1E
100
AcDbEntity
  8
0
100
AcDbLine
 10
52.895
 20
75.35639999999999
 30
0.0
 11
54.9704
 21
75.7645
 31
0.0
  0
LINE
  5
DF
330
1E
100
AcDbEntity
  8
0
100
AcDbLine
 10
50.1884
 20
75.7219
 30
0.0
 11
52.895
 21
75.35639999999999
 31
0.0
  0
LINE
  5
E0
330
1E
100
AcDbEntity
  8
0
100
AcDbLine
 10
48.1611
 20
77.3567
 30
0.0
 11
50.1884
 21
75.7219
 31
0.0
  0
LINE
  5
E1
330
1E
100
AcDbEntity
  8
0
100
AcDbLine
 10
46.5789
 20
79.3587
 30
0.0
 11
48.1611
 21
77.3567
 31
0.0
  0
LINE
  5
E2
330
1E
100
AcDbEntity
  8
0
100
AcDbLine
 10
46.23949999999999
 20
81.50199999999999
 30
0.0
 11
46.5789
 21
79.3587
 31
0.0
  0
LINE
  5
E3
330
1E
100
AcDbEntity
  8
0
100
AcDbLine
 10
46.23949999999999
 20
81.50199999999999
 30
0.0
 11
46.23949999999999
 21
84.21799999999999
 31
0.0
  0
LINE
  5
E4
330
1E
100
AcDbEntity
  8
0
100
AcDbLine
 10
58.5287
 20
76.4016
 30
0.0
 11
58.5835
 21
76.2942
 31
0.0
  0
LINE
  5
E5
330
1E
100
AcDbEntity
  8
0
100
AcDbLine
 10
58.5835
 20
76.2942
 30
0.0
 11
58.6603
 21
76.1435
 31
0.0
  0
LINE
  5
E6
330
1E
100
AcDbEntity
  8
0
100
AcDbLine
 10
58.6603
 20
76.1435
 30
0.0
 11
58.7217
 21
76.0229
 31
0.0
  0
LINE
  5
E7
330
1E
100
AcDbEntity
  8
0
100
AcDbLine
 10
58.7217
 20
76.0229
 30
0.0
 11
58.8446
 21
75.7818
 31
0.0
  0
LINE
  5
E8
330
1E
100
AcDbEntity
  8
0
100
AcDbLine
 10
58.8446
 20
75.7818
 30
0.0
 11
58.98279999999999
 21
75.51059999999999
 31
0.0
  0
LINE
  5
E9
330
1E
100
AcDbEntity
  8
0
100
AcDbLine
 10
59.1551692534589
 20
75.16551436579141
 30
0.0
 11
59.677839334479
 21
75.4060512662792
 31
0.0
  0
LINE
  5
EA
330
1E
100
AcDbEntity
  8
0
100
AcDbLine
 10
59.1551711103397
 20
75.1655152203426
 30
0.0
 11
59.677839334479
 21
75.4060512662792
 31
0.0
  0
LINE
  5
EB
330
1E
100
AcDbEntity
  8
0
100
AcDbLine
 10
58.98279999999999
 20
75.51059999999999
 30
0.0
 11
66.5305
 21
60.4
 31
0.0
  0
LINE
  5
EC
330
1E
100
AcDbEntity
  8
0
100
AcDbLine
 10
58.98279999999999
 20
75.51059999999999
 30
0.0
 11
59.1551711103397
 21
75.1655152203426
 31
0.0
  0
LINE
  5
ED
330
1E
100
AcDbEntity
  8
0
100
AcDbLine
 10
58.98279999999999
 20
75.51059999999999
 30
0.0
 11
59.1551711103397
 21
75.1655152203426
 31
0.0
  0
LINE
  5
F1
330
1E
100
AcDbEntity
  8
0
100
AcDbLine
 10
58.3825
 20
77.94830000000001
 30
0.0
 11
114.0954999999999
 21
102.9689999999999
 31
0.0
  0
LINE
  5
F3
330
1E
100
AcDbEntity
  8
0
100
AcDbLine
 10
58.3825
 20
77.94830000000001
 30
0.0
 11
59.677839334479
 21
75.4060512662792
 31
0.0
  0
LINE
  5
F4
330
1E
100
AcDbEntity
  8
0
100
AcDbLine
 10
93.29299999999999
 20
74.4119
 30
0.0
 11
98.28690000000001
 21
64.61079999999999
 31
0.0
  0
LINE
  5
FF
330
1E
100
AcDbEntity
  8
0
100
AcDbLine
 10
128.1995
 20
77.27079999999999
 30
0.0
 11
128.7765
 21
77.90130000000001
 31
0.0
  0
LINE
  5
100
330
1E
100
AcDbEntity
  8
0
100
AcDbLine
 10
127.4885
 20
76.684
 30
0.0
 11
128.1995
 21
77.27079999999999
 31
0.0
  0
LINE
  5
102
330
1E
100
AcDbEntity
  8
0
100
AcDbLine
 10
129.1274999999999
 20
78.7537
 30
0.0
 11
129.3445
 21
79.6498
 31
0.0
  0
LINE
  5
103
330
1E
100
AcDbEntity
  8
0
100
AcDbLine
 10
128.7765
 20
77.90130000000001
 30
0.0
 11
129.1274999999999
 21
78.7537
 31
0.0
  0
LINE
  5
107
330
1E
100
AcDbEntity
  8
0
100
AcDbLine
 10
129.2485
 20
80.49879999999999
 30
0.0
 11
129.3445
 21
79.6498
 31
0.0
  0
LINE
  5
109
330
1E
100
AcDbEntity
  8
0
100
AcDbLine
 10
129.0184999999999
 20
81.39149999999998
 30
0.0
 11
129.2485
 21
80.49879999999999
 31
0.0
  0
LINE
  5
10E
330
1E
100
AcDbEntity
  8
0
100
AcDbLine
 10
46.23949999999999
 20
84.21799999999999
 30
0.0
 11
46.23949999999999
 21
94.15689999999999
 31
0.0
  0
LINE
  5
10F
330
1E
100
AcDbEntity
  8
0
100
AcDbLine
 10
46.23949999999999
 20
84.21799999999999
 30
0.0
 11
46.23949999999999
 21
81.50199999999999
 31
0.0
  0
LINE
  5
110
330
1E
100
AcDbEntity
  8
0
100
AcDbLine
 10
88.06870000000001
 20
85.10559999999999
 30
0.0
 11
88.29909999999999
 21
84.2129
 31
0.0
  0
LINE
  5
111
330
1E
100
AcDbEntity
  8
0
100
AcDbLine
 10
87.9728
 20
85.9546
 30
0.0
 11
88.1896
 21
86.85070000000001
 31
0.0
  0
LINE
  5
112
330
1E
100
AcDbEntity
  8
0
100
AcDbLine
 10
87.9728
 20
85.9546
 30
0.0
 11
88.06870000000001
 21
85.10559999999999
 31
0.0
  0
LINE
  5
119
330
1E
100
AcDbEntity
  8
0
100
AcDbLine
 10
88.29909999999999
 20
84.2129
 30
0.0
 11
93.29299999999999
 21
74.4119
 31
0.0
  0
LINE
  5
11A
330
1E
100
AcDbEntity
  8
0
100
AcDbLine
 10
88.1896
 20
86.85070000000001
 30
0.0
 11
88.54089999999999
 21
87.7031
 31
0.0
  0
LINE
  5
11B
330
1E
100
AcDbEntity
  8
0
100
AcDbLine
 10
88.54089999999999
 20
87.7031
 30
0.0
 11
89.11750000000001
 21
88.3336
 31
0.0
  0
LINE
  5
11E
330
1E
100
AcDbEntity
  8
0
100
AcDbLine
 10
89.11750000000001
 20
88.3336
 30
0.0
 11
89.8286
 21
88.92039999999999
 31
0.0
  0
LINE
  5
11F
330
1E
100
AcDbEntity
  8
0
100
AcDbLine
 10
46.23949999999999
 20
102.536
 30
0.0
 11
46.23949999999999
 21
108.9639999999999
 31
0.0
  0
LINE
  5
120
330
1E
100
AcDbEntity
  8
0
100
AcDbLine
 10
46.23949999999999
 20
102.536
 30
0.0
 11
46.23949999999999
 21
94.15689999999999
 31
0.0
  0
LINE
  5
121
330
1E
100
AcDbEntity
  8
0
100
AcDbLine
 10
46.23949999999999
 20
94.15689999999999
 30
0.0
 11
46.23949999999999
 21
102.536
 31
0.0
  0
LINE
  5
122
330
1E
100
AcDbEntity
  8
0
100
AcDbLine
 10
46.23949999999999
 20
94.15689999999999
 30
0.0
 11
46.23949999999999
 21
84.21799999999999
 31
0.0
  0
LINE
  5
123
330
1E
100
AcDbEntity
  8
0
100
AcDbLine
 10
115.2305
 20
100.7409999999999
 30
0.0
 11
116.1235
 21
100.972
 31
0.0
  0
LINE
  5
125
330
1E
100
AcDbEntity
  8
0
100
AcDbLine
 10
119.3515
 20
99.92270000000001
 30
0.0
 11
119.9385
 21
99.2116
 31
0.0
  0
LINE
  5
127
330
1E
100
AcDbEntity
  8
0
100
AcDbLine
 10
118.7215
 20
100.499
 30
0.0
 11
119.3515
 21
99.92270000000001
 31
0.0
  0
LINE
  5
12A
330
1E
100
AcDbEntity
  8
0
100
AcDbLine
 10
116.1235
 20
100.972
 30
0.0
 11
116.9724999999999
 21
101.067
 31
0.0
  0
LINE
  5
12B
330
1E
100
AcDbEntity
  8
0
100
AcDbLine
 10
116.9724999999999
 20
101.067
 30
0.0
 11
117.8684999999999
 21
100.851
 31
0.0
  0
LINE
  5
12C
330
1E
100
AcDbEntity
  8
0
100
AcDbLine
 10
117.8684999999999
 20
100.851
 30
0.0
 11
118.7215
 21
100.499
 31
0.0
  0
LINE
  5
130
330
1E
100
AcDbEntity
  8
0
100
AcDbLine
 10
20.4235
 20
121.375
 30
0.0
 11
23.23949999999999
 21
121.016
 31
0.0
  0
LINE
  5
131
330
1E
100
AcDbEntity
  8
0
100
AcDbLine
 10
23.23949999999999
 20
121.0929999999999
 30
0.0
 11
26.0115
 21
121.452
 31
0.0
  0
LINE
  5
132
330
1E
100
AcDbEntity
  8
0
100
AcDbLine
 10
23.23949999999999
 20
121.016
 30
0.0
 11
26.0555
 21
121.375
 31
0.0
  0
LINE
  5
133
330
1E
100
AcDbEntity
  8
0
100
AcDbLine
 10
20.4675
 20
121.452
 30
0.0
 11
23.23949999999999
 21
121.0929999999999
 31
0.0
  0
LINE
  5
134
330
1E
100
AcDbEntity
  8
0
100
AcDbLine
 10
20.9715
 20
122.733
 30
0.0
 11
23.23949999999999
 21
122.4399999999999
 31
0.0
  0
LINE
  5
135
330
1E
100
AcDbEntity
  8
0
100
AcDbLine
 10
20.9355
 20
122.7
 30
0.0
 11
23.23949999999999
 21
122.406
 31
0.0
  0
LINE
  5
136
330
1E
100
AcDbEntity
  8
0
100
AcDbLine
 10
18.7755
 20
123.4829999999999
 30
0.0
 11
20.9355
 21
122.7
 31
0.0
  0
LINE
  5
137
330
1E
100
AcDbEntity
  8
0
100
AcDbLine
 10
23.23949999999999
 20
122.4399999999999
 30
0.0
 11
25.5075
 21
122.733
 31
0.0
  0
LINE
  5
138
330
1E
100
AcDbEntity
  8
0
100
AcDbLine
 10
25.5075
 20
122.733
 30
0.0
 11
27.5955
 21
123.516
 31
0.0
  0
LINE
  5
139
330
1E
100
AcDbEntity
  8
0
100
AcDbLine
 10
23.23949999999999
 20
122.406
 30
0.0
 11
25.5435
 21
122.7
 31
0.0
  0
LINE
  5
13A
330
1E
100
AcDbEntity
  8
0
100
AcDbLine
 10
25.5435
 20
122.7
 30
0.0
 11
27.7035
 21
123.4829999999999
 31
0.0
  0
LINE
  5
13B
330
1E
100
AcDbEntity
  8
0
100
AcDbLine
 10
18.8835
 20
123.516
 30
0.0
 11
20.9715
 21
122.733
 31
0.0
  0
LINE
  5
13C
330
1E
100
AcDbEntity
  8
0
100
AcDbLine
 10
27.5955
 20
123.516
 30
0.0
 11
29.4315
 21
124.7889999999999
 31
0.0
  0
LINE
  5
13D
330
1E
100
AcDbEntity
  8
0
100
AcDbLine
 10
27.7035
 20
123.4829999999999
 30
0.0
 11
29.61149999999999
 21
124.788
 31
0.0
  0
LINE
  5
13E
330
1E
100
AcDbEntity
  8
0
100
AcDbLine
 10
17.9155
 20
122.4089999999999
 30
0.0
 11
20.4675
 21
121.452
 31
0.0
  0
LINE
  5
13F
330
1E
100
AcDbEntity
  8
0
100
AcDbLine
 10
26.0115
 20
121.452
 30
0.0
 11
28.5635
 21
122.4089999999999
 31
0.0
  0
LINE
  5
140
330
1E
100
AcDbEntity
  8
0
100
AcDbLine
 10
28.5635
 20
122.4089999999999
 30
0.0
 11
30.8075
 21
123.964
 31
0.0
  0
LINE
  5
141
330
1E
100
AcDbEntity
  8
0
100
AcDbLine
 10
26.0555
 20
121.375
 30
0.0
 11
28.6955
 21
122.332
 31
0.0
  0
LINE
  5
142
330
1E
100
AcDbEntity
  8
0
100
AcDbLine
 10
28.6955
 20
122.332
 30
0.0
 11
31.0275
 21
123.9279999999999
 31
0.0
  0
LINE
  5
143
330
1E
100
AcDbEntity
  8
0
100
AcDbLine
 10
29.4315
 20
124.7889999999999
 30
0.0
 11
30.8355
 21
126.4529999999999
 31
0.0
  0
LINE
  5
144
330
1E
100
AcDbEntity
  8
0
100
AcDbLine
 10
30.8355
 20
126.4529999999999
 30
0.0
 11
31.6995
 21
128.3449999999999
 31
0.0
  0
LINE
  5
145
330
1E
100
AcDbEntity
  8
0
100
AcDbLine
 10
29.61149999999999
 20
124.788
 30
0.0
 11
31.0515
 21
126.5179999999999
 31
0.0
  0
LINE
  5
146
330
1E
100
AcDbEntity
  8
0
100
AcDbLine
 10
31.6995
 20
128.3449999999999
 30
0.0
 11
32.0235
 21
130.401
 31
0.0
  0
LINE
  5
147
330
1E
100
AcDbEntity
  8
0
100
AcDbLine
 10
31.0515
 20
126.5179999999999
 30
0.0
 11
31.9155
 21
128.475
 31
0.0
  0
LINE
  5
148
330
1E
100
AcDbEntity
  8
0
100
AcDbLine
 10
32.2395
 20
130.5629999999999
 30
0.0
 11
32.2395
 21
130.8229999999999
 31
0.0
  0
LINE
  5
149
330
1E
100
AcDbEntity
  8
0
100
AcDbLine
 10
31.9155
 20
128.475
 30
0.0
 11
32.2395
 21
130.5629999999999
 31
0.0
  0
LINE
  5
14A
330
1E
100
AcDbEntity
  8
0
100
AcDbLine
 10
31.6995
 20
132.456
 30
0.0
 11
32.0235
 21
130.401
 31
0.0
  0
LINE
  5
14B
330
1E
100
AcDbEntity
  8
0
100
AcDbLine
 10
30.8355
 20
134.3489999999999
 30
0.0
 11
31.6995
 21
132.456
 31
0.0
  0
LINE
  5
14C
330
1E
100
AcDbEntity
  8
0
100
AcDbLine
 10
31.0515
 20
134.8689999999999
 30
0.0
 11
31.9155
 21
132.911
 31
0.0
  0
LINE
  5
14D
330
1E
100
AcDbEntity
  8
0
100
AcDbLine
 10
31.9155
 20
132.911
 30
0.0
 11
32.2395
 21
130.8229999999999
 31
0.0
  0
LINE
  5
14E
330
1E
100
AcDbEntity
  8
0
100
AcDbLine
 10
32.2395
 20
130.8229999999999
 30
0.0
 11
32.2395
 21
130.5629999999999
 31
0.0
  0
LINE
  5
14F
330
1E
100
AcDbEntity
  8
0
100
AcDbLine
 10
30.8075
 20
123.964
 30
0.0
 11
32.52349999999999
 21
125.9979999999999
 31
0.0
  0
LINE
  5
150
330
1E
100
AcDbEntity
  8
0
100
AcDbLine
 10
32.52349999999999
 20
125.9979999999999
 30
0.0
 11
33.5795
 21
128.311
 31
0.0
  0
LINE
  5
151
330
1E
100
AcDbEntity
  8
0
100
AcDbLine
 10
31.0275
 20
123.9279999999999
 30
0.0
 11
32.7875
 21
126.041
 31
0.0
  0
LINE
  5
152
330
1E
100
AcDbEntity
  8
0
100
AcDbLine
 10
33.5795
 20
128.311
 30
0.0
 11
33.97549999999999
 21
130.8229999999999
 31
0.0
  0
LINE
  5
153
330
1E
100
AcDbEntity
  8
0
100
AcDbLine
 10
32.7875
 20
126.041
 30
0.0
 11
33.84349999999999
 21
128.434
 31
0.0
  0
LINE
  5
154
330
1E
100
AcDbEntity
  8
0
100
AcDbLine
 10
32.52349999999999
 20
135.6489999999999
 30
0.0
 11
33.5795
 21
133.336
 31
0.0
  0
LINE
  5
155
330
1E
100
AcDbEntity
  8
0
100
AcDbLine
 10
33.84349999999999
 20
128.434
 30
0.0
 11
34.2395
 21
130.986
 31
0.0
  0
LINE
  5
156
330
1E
100
AcDbEntity
  8
0
100
AcDbLine
 10
33.5795
 20
133.336
 30
0.0
 11
33.97549999999999
 21
130.8229999999999
 31
0.0
  0
LINE
  5
157
330
1E
100
AcDbEntity
  8
0
100
AcDbLine
 10
29.4315
 20
136.013
 30
0.0
 11
30.8355
 21
134.3489999999999
 31
0.0
  0
LINE
  5
158
330
1E
100
AcDbEntity
  8
0
100
AcDbLine
 10
20.9715
 20
138.0679999999999
 30
0.0
 11
23.23949999999999
 21
138.362
 31
0.0
  0
LINE
  5
159
330
1E
100
AcDbEntity
  8
0
100
AcDbLine
 10
18.8835
 20
137.2849999999999
 30
0.0
 11
20.9715
 21
138.0679999999999
 31
0.0
  0
LINE
  5
15A
330
1E
100
AcDbEntity
  8
0
100
AcDbLine
 10
18.7755
 20
137.9029999999999
 30
0.0
 11
20.9355
 21
138.686
 31
0.0
  0
LINE
  5
15B
330
1E
100
AcDbEntity
  8
0
100
AcDbLine
 10
20.9355
 20
138.686
 30
0.0
 11
23.23949999999999
 21
138.9799999999999
 31
0.0
  0
LINE
  5
15C
330
1E
100
AcDbEntity
  8
0
100
AcDbLine
 10
23.23949999999999
 20
138.362
 30
0.0
 11
25.5075
 21
138.0679999999999
 31
0.0
  0
LINE
  5
15D
330
1E
100
AcDbEntity
  8
0
100
AcDbLine
 10
25.5075
 20
138.0679999999999
 30
0.0
 11
27.5955
 21
137.2849999999999
 31
0.0
  0
LINE
  5
15E
330
1E
100
AcDbEntity
  8
0
100
AcDbLine
 10
27.5955
 20
137.2849999999999
 30
0.0
 11
29.4315
 21
136.013
 31
0.0
  0
LINE
  5
15F
330
1E
100
AcDbEntity
  8
0
100
AcDbLine
 10
23.23949999999999
 20
138.9799999999999
 30
0.0
 11
25.5435
 21
138.686
 31
0.0
  0
LINE
  5
160
330
1E
100
AcDbEntity
  8
0
100
AcDbLine
 10
25.5435
 20
138.686
 30
0.0
 11
27.7035
 21
137.9029999999999
 31
0.0
  0
LINE
  5
161
330
1E
100
AcDbEntity
  8
0
100
AcDbLine
 10
27.7035
 20
137.9029999999999
 30
0.0
 11
29.61149999999999
 21
136.5979999999999
 31
0.0
  0
LINE
  5
162
330
1E
100
AcDbEntity
  8
0
100
AcDbLine
 10
29.61149999999999
 20
136.5979999999999
 30
0.0
 11
31.0515
 21
134.8689999999999
 31
0.0
  0
LINE
  5
163
330
1E
100
AcDbEntity
  8
0
100
AcDbLine
 10
17.9155
 20
139.2369999999999
 30
0.0
 11
20.4675
 21
140.195
 31
0.0
  0
LINE
  5
164
330
1E
100
AcDbEntity
  8
0
100
AcDbLine
 10
28.5635
 20
139.2369999999999
 30
0.0
 11
30.8075
 21
137.682
 31
0.0
  0
LINE
  5
165
330
1E
100
AcDbEntity
  8
0
100
AcDbLine
 10
30.8075
 20
137.682
 30
0.0
 11
32.52349999999999
 21
135.6489999999999
 31
0.0
  0
LINE
  5
166
330
1E
100
AcDbEntity
  8
0
100
AcDbLine
 10
20.4675
 20
140.195
 30
0.0
 11
23.23949999999999
 21
140.5529999999999
 31
0.0
  0
LINE
  5
167
330
1E
100
AcDbEntity
  8
0
100
AcDbLine
 10
20.4235
 20
140.596
 30
0.0
 11
23.23949999999999
 21
140.955
 31
0.0
  0
LINE
  5
168
330
1E
100
AcDbEntity
  8
0
100
AcDbLine
 10
23.23949999999999
 20
140.5529999999999
 30
0.0
 11
26.0115
 21
140.195
 31
0.0
  0
LINE
  5
169
330
1E
100
AcDbEntity
  8
0
100
AcDbLine
 10
26.0115
 20
140.195
 30
0.0
 11
28.5635
 21
139.2369999999999
 31
0.0
  0
LINE
  5
16A
330
1E
100
AcDbEntity
  8
0
100
AcDbLine
 10
26.0555
 20
140.596
 30
0.0
 11
28.6955
 21
139.639
 31
0.0
  0
LINE
  5
16B
330
1E
100
AcDbEntity
  8
0
100
AcDbLine
 10
28.6955
 20
139.639
 30
0.0
 11
31.0275
 21
138.0439999999999
 31
0.0
  0
LINE
  5
16C
330
1E
100
AcDbEntity
  8
0
100
AcDbLine
 10
31.0275
 20
138.0439999999999
 30
0.0
 11
32.7875
 21
135.931
 31
0.0
  0
LINE
  5
16D
330
1E
100
AcDbEntity
  8
0
100
AcDbLine
 10
32.7875
 20
135.931
 30
0.0
 11
33.84349999999999
 21
133.5379999999999
 31
0.0
  0
LINE
  5
16E
330
1E
100
AcDbEntity
  8
0
100
AcDbLine
 10
33.84349999999999
 20
133.5379999999999
 30
0.0
 11
34.2395
 21
130.986
 31
0.0
  0
LINE
  5
16F
330
1E
100
AcDbEntity
  8
0
100
AcDbLine
 10
23.23949999999999
 20
140.955
 30
0.0
 11
26.0555
 21
140.596
 31
0.0
  0
LINE
  5
170
330
1E
100
AcDbEntity
  8
0
100
AcDbLine
 10
33.84349999999999
 20
140.8199999999999
 30
0.0
 11
34.2395
 21
138.268
 31
0.0
  0
LINE
  5
171
330
1E
100
AcDbEntity
  8
0
100
AcDbLine
 10
34.2395
 20
138.268
 30
0.0
 11
34.2395
 21
130.986
 31
0.0
  0
LINE
  5
172
330
1E
100
AcDbEntity
  8
0
100
AcDbLine
 10
34.2395
 20
130.986
 30
0.0
 11
34.2395
 21
138.268
 31
0.0
  0
LINE
  5
173
330
1E
100
AcDbEntity
  8
0
100
AcDbLine
 10
34.2146724137931
 20
138.4279999999999
 30
0.0
 11
34.2395
 21
138.588
 31
0.0
  0
LINE
  5
174
330
1E
100
AcDbEntity
  8
0
100
AcDbLine
 10
32.7875
 20
143.2129999999999
 30
0.0
 11
33.84349999999999
 21
140.8199999999999
 31
0.0
  0
LINE
  5
175
330
1E
100
AcDbEntity
  8
0
100
AcDbLine
 10
34.2395
 20
141.2309999999999
 30
0.0
 11
34.2395
 21
138.588
 31
0.0
  0
LINE
  5
176
330
1E
100
AcDbEntity
  8
0
100
AcDbLine
 10
32.7875
 20
143.5329999999999
 30
0.0
 11
33.84349999999999
 21
141.1399999999999
 31
0.0
  0
LINE
  5
177
330
1E
100
AcDbEntity
  8
0
100
AcDbLine
 10
33.84349999999999
 20
141.1399999999999
 30
0.0
 11
34.2395
 21
138.588
 31
0.0
  0
LINE
  5
178
330
1E
100
AcDbEntity
  8
0
100
AcDbLine
 10
46.23949999999999
 20
141.1839999999999
 30
0.0
 11
46.23949999999999
 21
140.418
 31
0.0
  0
LINE
  5
179
330
1E
100
AcDbEntity
  8
0
100
AcDbLine
 10
46.23949999999999
 20
140.418
 30
0.0
 11
46.23949999999999
 21
141.1839999999999
 31
0.0
  0
LINE
  5
17A
330
1E
100
AcDbEntity
  8
0
100
AcDbLine
 10
46.23949999999999
 20
140.418
 30
0.0
 11
46.23949999999999
 21
108.9639999999999
 31
0.0
  0
LINE
  5
17B
330
1E
100
AcDbEntity
  8
0
100
AcDbLine
 10
46.2295
 20
142.6619999999999
 30
0.0
 11
46.23949999999999
 21
141.1839999999999
 31
0.0
  0
LINE
  5
17C
330
1E
100
AcDbEntity
  8
0
100
AcDbLine
 10
46.23949999999999
 20
108.9639999999999
 30
0.0
 11
46.23949999999999
 21
140.418
 31
0.0
  0
LINE
  5
17D
330
1E
100
AcDbEntity
  8
0
100
AcDbLine
 10
46.23949999999999
 20
108.9639999999999
 30
0.0
 11
46.23949999999999
 21
102.536
 31
0.0
  0
LINE
  5
17E
330
1E
100
AcDbEntity
  8
0
100
AcDbLine
 10
34.2395
 20
138.588
 30
0.0
 11
34.2395
 21
141.2309999999999
 31
0.0
  0
LINE
  5
17F
330
1E
100
AcDbEntity
  8
0
100
AcDbLine
 10
28.6955
 20
146.9209999999999
 30
0.0
 11
31.0275
 21
145.326
 31
0.0
  0
LINE
  5
180
330
1E
100
AcDbEntity
  8
0
100
AcDbLine
 10
31.0275
 20
145.326
 30
0.0
 11
32.7875
 21
143.2129999999999
 31
0.0
  0
LINE
  5
181
330
1E
100
AcDbEntity
  8
0
100
AcDbLine
 10
20.4235
 20
147.8779999999999
 30
0.0
 11
23.23949999999999
 21
148.2369999999999
 31
0.0
  0
LINE
  5
182
330
1E
100
AcDbEntity
  8
0
100
AcDbLine
 10
26.0555
 20
147.8779999999999
 30
0.0
 11
28.6955
 21
146.9209999999999
 31
0.0
  0
LINE
  5
183
330
1E
100
AcDbEntity
  8
0
100
AcDbLine
 10
23.23949999999999
 20
148.2369999999999
 30
0.0
 11
26.0555
 21
147.8779999999999
 31
0.0
  0
LINE
  5
184
330
1E
100
AcDbEntity
  8
0
100
AcDbLine
 10
20.4235
 20
148.1979999999999
 30
0.0
 11
23.23949999999999
 21
148.557
 31
0.0
  0
LINE
  5
185
330
1E
100
AcDbEntity
  8
0
100
AcDbLine
 10
26.0555
 20
148.1979999999999
 30
0.0
 11
28.6955
 21
147.241
 31
0.0
  0
LINE
  5
186
330
1E
100
AcDbEntity
  8
0
100
AcDbLine
 10
28.6955
 20
147.241
 30
0.0
 11
31.0275
 21
145.646
 31
0.0
  0
LINE
  5
187
330
1E
100
AcDbEntity
  8
0
100
AcDbLine
 10
31.0275
 20
145.646
 30
0.0
 11
32.7875
 21
143.5329999999999
 31
0.0
  0
LINE
  5
188
330
1E
100
AcDbEntity
  8
0
100
AcDbLine
 10
20.4235
 20
150.842
 30
0.0
 11
23.23949999999999
 21
151.201
 31
0.0
  0
LINE
  5
189
330
1E
100
AcDbEntity
  8
0
100
AcDbLine
 10
23.23949999999999
 20
148.557
 30
0.0
 11
26.0555
 21
148.1979999999999
 31
0.0
  0
LINE
  5
18A
330
1E
100
AcDbEntity
  8
0
100
AcDbLine
 10
23.23949999999999
 20
156.954
 30
0.0
 11
25.5381
 21
156.9029999999999
 31
0.0
  0
LINE
  5
18B
330
1E
100
AcDbEntity
  8
0
100
AcDbLine
 10
20.9409
 20
156.9029999999999
 30
0.0
 11
23.23949999999999
 21
156.954
 31
0.0
  0
LINE
  5
18C
330
1E
100
AcDbEntity
  8
0
100
AcDbLine
 10
25.5381
 20
156.9029999999999
 30
0.0
 11
28.6936
 21
156.807
 31
0.0
  0
LINE
  5
18D
330
1E
100
AcDbEntity
  8
0
100
AcDbLine
 10
28.6936
 20
156.807
 30
0.0
 11
32.31139999999999
 21
156.58
 31
0.0
  0
LINE
  5
190
330
1E
100
AcDbEntity
  8
0
100
AcDbLine
 10
23.23949999999999
 20
151.201
 30
0.0
 11
26.0555
 21
150.842
 31
0.0
  0
LINE
  5
191
330
1E
100
AcDbEntity
  8
0
100
AcDbLine
 10
26.0555
 20
150.842
 30
0.0
 11
28.6955
 21
149.885
 31
0.0
  0
LINE
  5
193
330
1E
100
AcDbEntity
  8
0
100
AcDbLine
 10
32.31139999999999
 20
156.58
 30
0.0
 11
35.0996
 21
156.3
 31
0.0
  0
LINE
  5
195
330
1E
100
AcDbEntity
  8
0
100
AcDbLine
 10
28.6955
 20
149.885
 30
0.0
 11
31.0275
 21
148.2899999999999
 31
0.0
  0
LINE
  5
196
330
1E
100
AcDbEntity
  8
0
100
AcDbLine
 10
31.0275
 20
148.2899999999999
 30
0.0
 11
32.7875
 21
146.176
 31
0.0
  0
LINE
  5
197
330
1E
100
AcDbEntity
  8
0
100
AcDbLine
 10
46.1895
 20
144.655
 30
0.0
 11
46.2295
 21
142.6619999999999
 31
0.0
  0
LINE
  5
198
330
1E
100
AcDbEntity
  8
0
100
AcDbLine
 10
46.0895
 20
146.9689999999999
 30
0.0
 11
46.1895
 21
144.655
 31
0.0
  0
LINE
  5
199
330
1E
100
AcDbEntity
  8
0
100
AcDbLine
 10
45.88949999999999
 20
148.897
 30
0.0
 11
46.0895
 21
146.9689999999999
 31
0.0
  0
LINE
  5
19A
330
1E
100
AcDbEntity
  8
0
100
AcDbLine
 10
45.6395
 20
150.375
 30
0.0
 11
45.88949999999999
 21
148.897
 31
0.0
  0
LINE
  5
19B
330
1E
100
AcDbEntity
  8
0
100
AcDbLine
 10
45.2395
 20
151.7249999999999
 30
0.0
 11
45.6395
 21
150.375
 31
0.0
  0
LINE
  5
19C
330
1E
100
AcDbEntity
  8
0
100
AcDbLine
 10
44.4395
 20
152.947
 30
0.0
 11
45.2395
 21
151.7249999999999
 31
0.0
  0
LINE
  5
19D
330
1E
100
AcDbEntity
  8
0
100
AcDbLine
 10
44.13949999999999
 20
153.2899999999999
 30
0.0
 11
44.4395
 21
152.947
 31
0.0
  0
LINE
  5
19E
330
1E
100
AcDbEntity
  8
0
100
AcDbLine
 10
35.0996
 20
156.3
 30
0.0
 11
37.371
 21
156.0029999999999
 31
0.0
  0
LINE
  5
19F
330
1E
100
AcDbEntity
  8
0
100
AcDbLine
 10
37.371
 20
156.0029999999999
 30
0.0
 11
39.3395
 21
155.668
 31
0.0
  0
LINE
  5
1A0
330
1E
100
AcDbEntity
  8
0
100
AcDbLine
 10
39.3395
 20
155.668
 30
0.0
 11
41.23949999999999
 21
155.1539999999999
 31
0.0
  0
LINE
  5
1A1
330
1E
100
AcDbEntity
  8
0
100
AcDbLine
 10
41.23949999999999
 20
155.1539999999999
 30
0.0
 11
42.9395
 21
154.3829999999999
 31
0.0
  0
LINE
  5
1A2
330
1E
100
AcDbEntity
  8
0
100
AcDbLine
 10
42.9395
 20
154.3829999999999
 30
0.0
 11
44.13949999999999
 21
153.2899999999999
 31
0.0
  0
LINE
  5
1A3
330
1E
100
AcDbEntity
  8
0
100
AcDbLine
 10
32.7875
 20
146.176
 30
0.0
 11
33.84349999999999
 21
143.7829999999999
 31
0.0
  0
LINE
  5
1A4
330
1E
100
AcDbEntity
  8
0
100
AcDbLine
 10
33.84349999999999
 20
143.7829999999999
 30
0.0
 11
34.2395
 21
141.2309999999999
 31
0.0
  0
LINE
  5
1A8
330
1E
100
AcDbEntity
  8
0
100
AcDbLine
 10
118.6555
 20
103.272
 30
0.0
 11
120.0474999999999
 21
102.522
 31
0.0
  0
LINE
  5
1A9
330
1E
100
AcDbEntity
  8
0
100
AcDbLine
 10
117.0884999999999
 20
103.4829999999999
 30
0.0
 11
118.6555
 21
103.272
 31
0.0
  0
LINE
  5
1AA
330
1E
100
AcDbEntity
  8
0
100
AcDbLine
 10
115.5685
 20
103.3819999999999
 30
0.0
 11
117.0884999999999
 21
103.4829999999999
 31
0.0
  0
LINE
  5
1AB
330
1E
100
AcDbEntity
  8
0
100
AcDbLine
 10
114.0954999999999
 20
102.9689999999999
 30
0.0
 11
115.5685
 21
103.3819999999999
 31
0.0
  0
LINE
  5
1AE
330
1E
100
AcDbEntity
  8
0
100
AcDbLine
 10
121.2175
 20
101.547
 30
0.0
 11
122.1654999999999
 21
100.347
 31
0.0
  0
LINE
  5
1AF
330
1E
100
AcDbEntity
  8
0
100
AcDbLine
 10
120.0474999999999
 20
102.522
 30
0.0
 11
121.2175
 21
101.547
 31
0.0
  0
LINE
  5
1B0
330
1E
100
AcDbEntity
  8
0
100
AcDbLine
 10
122.1654999999999
 20
100.347
 30
0.0
 11
126.7055
 21
91.43649999999999
 31
0.0
  0
LINE
  5
1B2
330
1E
100
AcDbEntity
  8
0
100
AcDbLine
 10
119.9385
 20
99.2116
 30
0.0
 11
124.4785
 21
90.3015
 31
0.0
  0
LINE
  5
1B4
330
1E
100
AcDbEntity
  8
0
100
AcDbLine
 10
89.8286
 20
88.92039999999999
 30
0.0
 11
115.2305
 21
100.7409999999999
 31
0.0
  0
LINE
  5
1B5
330
1E
100
AcDbEntity
  8
0
100
AcDbLine
 10
126.7055
 20
91.43649999999999
 30
0.0
 11
131.2454999999999
 21
82.52639999999999
 31
0.0
  0
LINE
  5
1B7
330
1E
100
AcDbEntity
  8
0
100
AcDbLine
 10
124.4785
 20
90.3015
 30
0.0
 11
129.0184999999999
 21
81.39149999999998
 31
0.0
  0
LINE
  5
1B9
330
1E
100
AcDbEntity
  8
0
100
AcDbLine
 10
131.2454999999999
 20
82.52639999999999
 30
0.0
 11
131.6595
 21
81.0537
 31
0.0
  0
LINE
  5
1BA
330
1E
100
AcDbEntity
  8
0
100
AcDbLine
 10
131.6595
 20
81.0537
 30
0.0
 11
131.7605
 21
79.5339
 31
0.0
  0
LINE
  5
1BB
330
1E
100
AcDbEntity
  8
0
100
AcDbLine
 10
20.93949999999999
 20
0.0459999999999824
 30
0.0
 11
23.23949999999999
 21
0.0459999999999824
 31
0.0
  0
LINE
  5
1BC
330
1E
100
AcDbEntity
  8
0
100
AcDbLine
 10
17.8395
 20
0.0459999999999824
 30
0.0
 11
20.93949999999999
 21
0.0459999999999824
 31
0.0
  0
LINE
  5
1BD
330
1E
100
AcDbEntity
  8
0
100
AcDbLine
 10
14.2395
 20
0.0459999999999824
 30
0.0
 11
17.8395
 21
0.0459999999999824
 31
0.0
  0
LINE
  5
1BE
330
1E
100
AcDbEntity
  8
0
100
AcDbLine
 10
11.2395
 20
0.0459999999999823
 30
0.0
 11
14.2395
 21
0.0459999999999824
 31
0.0
  0
LINE
  5
1BF
330
1E
100
AcDbEntity
  8
0
100
AcDbLine
 10
8.93949999999999
 20
0.0459999999999823
 30
0.0
 11
11.2395
 21
0.0459999999999823
 31
0.0
  0
LINE
  5
1C0
330
1E
100
AcDbEntity
  8
0
100
AcDbLine
 10
6.83949999999999
 20
0.0459999999999823
 30
0.0
 11
8.93949999999999
 21
0.0459999999999823
 31
0.0
  0
LINE
  5
1C1
330
1E
100
AcDbEntity
  8
0
100
AcDbLine
 10
4.93949999999999
 20
0.0459999999999823
 30
0.0
 11
6.83949999999999
 21
0.0459999999999823
 31
0.0
  0
LINE
  5
1C2
330
1E
100
AcDbEntity
  8
0
100
AcDbLine
 10
3.23949999999999
 20
0.0459999999999822
 30
0.0
 11
4.93949999999999
 21
0.0459999999999823
 31
0.0
  0
LINE
  5
1C7
330
1E
100
AcDbEntity
  8
0
100
AcDbLine
 10
131.7605
 20
79.5339
 30
0.0
 11
131.4773471239609
 21
78.00966068827614
 31
0.0
  0
LINE
  5
1C8
330
1E
100
AcDbEntity
  8
0
100
AcDbLine
 10
131.4773471239609
 20
78.00966068827614
 30
0.0
 11
130.8463075174848
 21
76.60369781947252
 31
0.0
  0
LINE
  5
1C9
330
1E
100
AcDbEntity
  8
0
100
AcDbLine
 10
130.8463075174848
 20
76.60369781947252
 30
0.0
 11
129.8734556350956
 21
75.4079723580719
 31
0.0
  0
LINE
  5
1CA
330
1E
100
AcDbEntity
  8
0
100
AcDbLine
 10
129.8734556350956
 20
75.4079723580719
 30
0.0
 11
128.6376710657765
 21
74.56702272845984
 31
0.0
  0
LINE
  5
1CB
330
1E
100
AcDbEntity
  8
0
100
AcDbLine
 10
128.6376710657765
 20
74.56702272845984
 30
0.0
 11
82.7622
 21
47.7219
 31
0.0
  0
LINE
  5
1CC
330
1E
100
AcDbEntity
  8
0
100
AcDbLine
 10
79.30789298111871
 20
50.6375562325627
 30
0.0
 11
67.2756
 21
61.15529999999999
 31
0.0
  0
LINE
  5
1CD
330
1E
100
AcDbEntity
  8
0
100
AcDbLine
 10
67.2756
 20
61.15529999999999
 30
0.0
 11
59.677839334479
 21
75.4060512662792
 31
0.0
  0
ENDSEC
  0
SECTION
  2
OBJECTS
  0
DICTIONARY
  5
C
330
0
100
AcDbDictionary
281
     1
  3
ACAD_GROUP
350
D
  3
ACAD_LAYOUT
350
19
  3
ACAD_MLINESTYLE
350
16
  3
ACAD_PLOTSETTINGS
350
18
  3
ACAD_PLOTSTYLENAME
350
E
  3
AcDbVariableDictionary
350
1CE
  0
DICTIONARY
  5
D
102
{ACAD_REACTORS
330
C
102
}
330
C
100
AcDbDictionary
281
     1
  0
DICTIONARY
  5
19
102
{ACAD_REACTORS
330
C
102
}
330
C
100
AcDbDictionary
281
     1
  3
Layout1
350
1D
  3
Model
350
21
  0
DICTIONARY
  5
16
102
{ACAD_REACTORS
330
C
102
}
330
C
100
AcDbDictionary
281
     1
  3
Standard
350
17
  0
DICTIONARY
  5
18
102
{ACAD_REACTORS
330
C
102
}
330
C
100
AcDbDictionary
281
     1
  0
ACDBDICTIONARYWDFLT
  5
E
102
{ACAD_REACTORS
330
C
102
}
330
C
100
AcDbDictionary
281
     1
  3
Normal
350
F
100
AcDbDictionaryWithDefault
340
F
  0
DICTIONARY
  5
1CE
102
{ACAD_REACTORS
330
C
102
}
330
C
100
AcDbDictionary
281
     1
  3
DIMASSOC
350
1CF
  0
LAYOUT
  5
1D
102
{ACAD_REACTORS
330
19
102
}
330
19
100
AcDbPlotSettings
  1

  2
hp deskjet 980c series
  4

  6

 40
0.0
 41
0.0
 42
0.0
 43
0.0
 44
0.0
 45
0.0
 46
0.0
 47
0.0
 48
0.0
 49
0.0
140
0.0
141
0.0
142
1.0
143
1.0
 70
   688
 72
     0
 73
     0
 74
     5
  7

 75
    16
147
1.0
148
0.0
149
0.0
100
AcDbLayout
  1
Layout1
 70
     1
 71
     1
 10
0.0
 20
0.0
 11
12.0
 21
9.0
 12
0.0
 22
0.0
 32
0.0
 14
1.000000000000000E+20
 24
1.000000000000000E+20
 34
1.000000000000000E+20
 15
-1.000000000000000E+20
 25
-1.000000000000000E+20
 35
-1.000000000000000E+20
146
0.0
 13
0.0
 23
0.0
 33
0.0
 16
1.0
 26
0.0
 36
0.0
 17
0.0
 27
1.0
 37
0.0
 76
     0
330
1A
  0
LAYOUT
  5
21
102
{ACAD_REACTORS
330
19
102
}
330
19
100
AcDbPlotSettings
  1

  2
hp deskjet 980c series
  4

  6

 40
0.0
 41
0.0
 42
0.0
 43
0.0
 44
0.0
 45
0.0
 46
0.0
 47
0.0
 48
0.0
 49
0.0
140
0.0
141
0.0
142
1.0
143
1.0
 70
  1712
 72
     0
 73
     0
 74
     0
  7

 75
     0
147
1.0
148
0.0
149
0.0
100
AcDbLayout
  1
Model
 70
     1
 71
     0
 10
0.0
 20
0.0
 11
12.0
 21
9.0
 12
0.0
 22
0.0
 32
0.0
 14
0.0
 24
0.0
 34
0.0
 15
0.0
 25
0.0
 35
0.0
146
0.0
 13
0.0
 23
0.0
 33
0.0
 16
1.0
 26
0.0
 36
0.0
 17
0.0
 27
1.0
 37
0.0
 76
     0
330
1E
  0
MLINESTYLE
  5
17
102
{ACAD_REACTORS
330
16
102
}
330
16
100
AcDbMlineStyle
  2
STANDARD
 70
     0
  3

 62
   256
 51
90.0
 52
90.0
 71
     2
 49
0.5
 62
   256
  6
BYLAYER
 49
-0.5
 62
   256
  6
BYLAYER
  0
ACDBPLACEHOLDER
  5
F
102
{ACAD_REACTORS
330
E
102
}
330
E
  0
DICTIONARYVAR
  5
1CF
102
{ACAD_REACTORS
330
1CE
102
}
330
1CE
100
DictionaryVariables
280
     0
  1
1
  0
ENDSEC
  0
EOF
