  0
SECTION
  2
HEADER
  9
$ACADVER
  1
AC1015
  9
$ACADMAINTVER
 70
    13
  9
$DWGCODEPAGE
  3
ANSI_1252
  9
$INSBASE
 10
0.0
 20
0.0
 30
0.0
  9
$EXTMIN
 10
0.0000225000000025
 20
0.0000000000000089
 30
0.0
  9
$EXTMAX
 10
244.9999775
 20
106.0
 30
0.0
  9
$LIMMIN
 10
0.0
 20
0.0
  9
$LIMMAX
 10
12.0
 20
9.0
  9
$ORTHOMODE
 70
     0
  9
$REGENMODE
 70
     1
  9
$FILLMODE
 70
     1
  9
$QTEXTMODE
 70
     0
  9
$MIRRTEXT
 70
     1
  9
$LTSCALE
 40
1.0
  9
$ATTMODE
 70
     1
  9
$TEXTSIZE
 40
0.2
  9
$TRACEWID
 40
0.05
  9
$TEXTSTYLE
  7
Standard
  9
$CLAYER
  8
0
  9
$CELTYPE
  6
Continuous
  9
$CECOLOR
 62
   256
  9
$CELTSCALE
 40
1.0
  9
$DISPSILH
 70
     0
  9
$DIMSCALE
 40
1.0
  9
$DIMASZ
 40
0.18
  9
$DIMEXO
 40
0.0625
  9
$DIMDLI
 40
0.38
  9
$DIMRND
 40
0.0
  9
$DIMDLE
 40
0.0
  9
$DIMEXE
 40
0.18
  9
$DIMTP
 40
0.0
  9
$DIMTM
 40
0.0
  9
$DIMTXT
 40
0.18
  9
$DIMCEN
 40
0.09
  9
$DIMTSZ
 40
0.0
  9
$DIMTOL
 70
     0
  9
$DIMLIM
 70
     0
  9
$DIMTIH
 70
     1
  9
$DIMTOH
 70
     1
  9
$DIMSE1
 70
     0
  9
$DIMSE2
 70
     0
  9
$DIMTAD
 70
     0
  9
$DIMZIN
 70
     0
  9
$DIMBLK
  1

  9
$DIMASO
 70
     1
  9
$DIMSHO
 70
     1
  9
$DIMPOST
  1

  9
$DIMAPOST
  1

  9
$DIMALT
 70
     0
  9
$DIMALTD
 70
     2
  9
$DIMALTF
 40
25.4
  9
$DIMLFAC
 40
1.0
  9
$DIMTOFL
 70
     0
  9
$DIMTVP
 40
0.0
  9
$DIMTIX
 70
     0
  9
$DIMSOXD
 70
     0
  9
$DIMSAH
 70
     0
  9
$DIMBLK1
  1

  9
$DIMBLK2
  1

  9
$DIMSTYLE
  2
Standard
  9
$DIMCLRD
 70
     0
  9
$DIMCLRE
 70
     0
  9
$DIMCLRT
 70
     0
  9
$DIMTFAC
 40
1.0
  9
$DIMGAP
 40
0.09
  9
$DIMJUST
 70
     0
  9
$DIMSD1
 70
     0
  9
$DIMSD2
 70
     0
  9
$DIMTOLJ
 70
     1
  9
$DIMTZIN
 70
     0
  9
$DIMALTZ
 70
     0
  9
$DIMALTTZ
 70
     0
  9
$DIMUPT
 70
     0
  9
$DIMDEC
 70
     4
  9
$DIMTDEC
 70
     4
  9
$DIMALTU
 70
     2
  9
$DIMALTTD
 70
     2
  9
$DIMTXSTY
  7
Standard
  9
$DIMAUNIT
 70
     0
  9
$DIMADEC
 70
     0
  9
$DIMALTRND
 40
0.0
  9
$DIMAZIN
 70
     0
  9
$DIMDSEP
 70
    46
  9
$DIMATFIT
 70
     3
  9
$DIMFRAC
 70
     0
  9
$DIMLDRBLK
  1

  9
$DIMLUNIT
 70
     2
  9
$DIMLWD
 70
    -2
  9
$DIMLWE
 70
    -2
  9
$DIMTMOVE
 70
     0
  9
$LUNITS
 70
     2
  9
$LUPREC
 70
     4
  9
$SKETCHINC
 40
0.1
  9
$FILLETRAD
 40
0.0
  9
$AUNITS
 70
     0
  9
$AUPREC
 70
     0
  9
$MENU
  1
.
  9
$ELEVATION
 40
0.0
  9
$PELEVATION
 40
0.0
  9
$THICKNESS
 40
0.0
  9
$LIMCHECK
 70
     0
  9
$CHAMFERA
 40
0.0
  9
$CHAMFERB
 40
0.0
  9
$CHAMFERC
 40
0.0
  9
$CHAMFERD
 40
0.0
  9
$SKPOLY
 70
     0
  9
$TDCREATE
 40
2454873.879141886
  9
$TDUCREATE
 40
2454873.837475219
  9
$TDUPDATE
 40
2454873.891769560
  9
$TDUUPDATE
 40
2454873.850102893
  9
$TDINDWG
 40
0.0039085995
  9
$TDUSRTIMER
 40
0.0039085995
  9
$USRTIMER
 70
     1
  9
$ANGBASE
 50
0.0
  9
$ANGDIR
 70
     0
  9
$PDMODE
 70
     0
  9
$PDSIZE
 40
0.0
  9
$PLINEWID
 40
0.0
  9
$SPLFRAME
 70
     0
  9
$SPLINETYPE
 70
     6
  9
$SPLINESEGS
 70
     8
  9
$HANDSEED
  5
27C
  9
$SURFTAB1
 70
     6
  9
$SURFTAB2
 70
     6
  9
$SURFTYPE
 70
     6
  9
$SURFU
 70
     6
  9
$SURFV
 70
     6
  9
$UCSBASE
  2

  9
$UCSNAME
  2

  9
$UCSORG
 10
0.0
 20
0.0
 30
0.0
  9
$UCSXDIR
 10
1.0
 20
0.0
 30
0.0
  9
$UCSYDIR
 10
0.0
 20
1.0
 30
0.0
  9
$UCSORTHOREF
  2

  9
$UCSORTHOVIEW
 70
     1
  9
$UCSORGTOP
 10
0.0
 20
0.0
 30
0.0
  9
$UCSORGBOTTOM
 10
0.0
 20
0.0
 30
0.0
  9
$UCSORGLEFT
 10
0.0
 20
0.0
 30
0.0
  9
$UCSORGRIGHT
 10
0.0
 20
0.0
 30
0.0
  9
$UCSORGFRONT
 10
0.0
 20
0.0
 30
0.0
  9
$UCSORGBACK
 10
0.0
 20
0.0
 30
0.0
  9
$PUCSBASE
  2

  9
$PUCSNAME
  2

  9
$PUCSORG
 10
0.0
 20
0.0
 30
0.0
  9
$PUCSXDIR
 10
1.0
 20
0.0
 30
0.0
  9
$PUCSYDIR
 10
0.0
 20
1.0
 30
0.0
  9
$PUCSORTHOREF
  2

  9
$PUCSORTHOVIEW
 70
     0
  9
$PUCSORGTOP
 10
0.0
 20
0.0
 30
0.0
  9
$PUCSORGBOTTOM
 10
0.0
 20
0.0
 30
0.0
  9
$PUCSORGLEFT
 10
0.0
 20
0.0
 30
0.0
  9
$PUCSORGRIGHT
 10
0.0
 20
0.0
 30
0.0
  9
$PUCSORGFRONT
 10
0.0
 20
0.0
 30
0.0
  9
$PUCSORGBACK
 10
0.0
 20
0.0
 30
0.0
  9
$USERI1
 70
     0
  9
$USERI2
 70
     0
  9
$USERI3
 70
     0
  9
$USERI4
 70
     0
  9
$USERI5
 70
     0
  9
$USERR1
 40
0.0
  9
$USERR2
 40
0.0
  9
$USERR3
 40
0.0
  9
$USERR4
 40
0.0
  9
$USERR5
 40
0.0
  9
$WORLDVIEW
 70
     1
  9
$SHADEDGE
 70
     3
  9
$SHADEDIF
 70
    70
  9
$TILEMODE
 70
     1
  9
$MAXACTVP
 70
    64
  9
$PINSBASE
 10
0.0
 20
0.0
 30
0.0
  9
$PLIMCHECK
 70
     0
  9
$PEXTMIN
 10
1.000000000000000E+20
 20
1.000000000000000E+20
 30
1.000000000000000E+20
  9
$PEXTMAX
 10
-1.000000000000000E+20
 20
-1.000000000000000E+20
 30
-1.000000000000000E+20
  9
$PLIMMIN
 10
0.0
 20
0.0
  9
$PLIMMAX
 10
12.0
 20
9.0
  9
$UNITMODE
 70
     0
  9
$VISRETAIN
 70
     1
  9
$PLINEGEN
 70
     0
  9
$PSLTSCALE
 70
     1
  9
$TREEDEPTH
 70
  3020
  9
$CMLSTYLE
  2
Standard
  9
$CMLJUST
 70
     0
  9
$CMLSCALE
 40
1.0
  9
$PROXYGRAPHICS
 70
     1
  9
$MEASUREMENT
 70
     0
  9
$CELWEIGHT
370
    -1
  9
$ENDCAPS
280
     0
  9
$JOINSTYLE
280
     0
  9
$LWDISPLAY
290
     0
  9
$INSUNITS
 70
     0
  9
$HYPERLINKBASE
  1

  9
$STYLESHEET
  1

  9
$XEDIT
290
     1
  9
$CEPSNTYPE
380
     0
  9
$PSTYLEMODE
290
     1
  9
$FINGERPRINTGUID
  2
{E36E5F5C-91BE-4351-A360-D6F1F292901E}
  9
$VERSIONGUID
  2
{0AC5D6DD-B6B6-4709-843D-8B0798BC220A}
  9
$EXTNAMES
290
     1
  9
$PSVPSCALE
 40
0.0
  9
$OLESTARTUP
290
     0
  0
ENDSEC
  0
SECTION
  2
CLASSES
  0
CLASS
  1
ACDBDICTIONARYWDFLT
  2
AcDbDictionaryWithDefault
  3
AutoCAD 2000
 90
        0
280
     0
281
     0
  0
CLASS
  1
ACDBPLACEHOLDER
  2
AcDbPlaceHolder
  3
AutoCAD 2000
 90
        0
280
     0
281
     0
  0
CLASS
  1
LAYOUT
  2
AcDbLayout
  3
AutoCAD 2000
 90
        0
280
     0
281
     0
  0
CLASS
  1
DICTIONARYVAR
  2
AcDbDictionaryVar
  3
AutoCAD 2000
 90
        0
280
     0
281
     0
  0
ENDSEC
  0
SECTION
  2
TABLES
  0
TABLE
  2
VPORT
  5
8
330
0
100
AcDbSymbolTable
 70
     3
  0
VPORT
  5
27B
330
8
100
AcDbSymbolTableRecord
100
AcDbViewportTableRecord
  2
*Active
 70
     0
 10
0.0
 20
0.0
 11
1.0
 21
1.0
 12
122.5
 22
53.0
 13
0.0
 23
0.0
 14
1.0
 24
1.0
 15
0.0
 25
0.0
 16
0.0
 26
0.0
 36
1.0
 17
0.0
 27
0.0
 37
0.0
 40
124.8668959594686
 41
1.968387776606954
 42
50.0
 43
0.0
 44
0.0
 50
0.0
 51
0.0
 71
     0
 72
   100
 73
     1
 74
     3
 75
     0
 76
     0
 77
     0
 78
     0
281
     0
 65
     1
110
0.0
120
0.0
130
0.0
111
1.0
121
0.0
131
0.0
112
0.0
122
1.0
132
0.0
 79
     1
146
0.0
  0
ENDTAB
  0
TABLE
  2
LTYPE
  5
5
330
0
100
AcDbSymbolTable
 70
     1
  0
LTYPE
  5
13
330
5
100
AcDbSymbolTableRecord
100
AcDbLinetypeTableRecord
  2
ByBlock
 70
     0
  3

 72
    65
 73
     0
 40
0.0
  0
LTYPE
  5
14
330
5
100
AcDbSymbolTableRecord
100
AcDbLinetypeTableRecord
  2
ByLayer
 70
     0
  3

 72
    65
 73
     0
 40
0.0
  0
LTYPE
  5
15
330
5
100
AcDbSymbolTableRecord
100
AcDbLinetypeTableRecord
  2
Continuous
 70
     0
  3
Solid line
 72
    65
 73
     0
 40
0.0
  0
ENDTAB
  0
TABLE
  2
LAYER
  5
2
330
0
100
AcDbSymbolTable
 70
     1
  0
LAYER
  5
10
330
2
100
AcDbSymbolTableRecord
100
AcDbLayerTableRecord
  2
0
 70
     0
 62
     7
  6
Continuous
370
    -3
390
F
  0
ENDTAB
  0
TABLE
  2
STYLE
  5
3
330
0
100
AcDbSymbolTable
 70
     1
  0
STYLE
  5
11
330
3
100
AcDbSymbolTableRecord
100
AcDbTextStyleTableRecord
  2
Standard
 70
     0
 40
0.0
 41
1.0
 50
0.0
 71
     0
 42
0.2
  3
txt
  4

  0
ENDTAB
  0
TABLE
  2
VIEW
  5
6
330
0
100
AcDbSymbolTable
 70
     0
  0
ENDTAB
  0
TABLE
  2
UCS
  5
7
330
0
100
AcDbSymbolTable
 70
     0
  0
ENDTAB
  0
TABLE
  2
APPID
  5
9
330
0
100
AcDbSymbolTable
 70
     1
  0
APPID
  5
12
330
9
100
AcDbSymbolTableRecord
100
AcDbRegAppTableRecord
  2
ACAD
 70
     0
  0
ENDTAB
  0
TABLE
  2
DIMSTYLE
  5
A
330
0
100
AcDbSymbolTable
 70
     1
100
AcDbDimStyleTable
 71
     0
  0
DIMSTYLE
105
267
330
A
100
AcDbSymbolTableRecord
100
AcDbDimStyleTableRecord
  2
Standard
 70
     0
340
11
  0
ENDTAB
  0
TABLE
  2
BLOCK_RECORD
  5
1
330
0
100
AcDbSymbolTable
 70
     0
  0
BLOCK_RECORD
  5
1E
330
1
100
AcDbSymbolTableRecord
100
AcDbBlockTableRecord
  2
*Model_Space
340
21
  0
BLOCK_RECORD
  5
1A
330
1
100
AcDbSymbolTableRecord
100
AcDbBlockTableRecord
  2
*Paper_Space
340
1D
  0
ENDTAB
  0
ENDSEC
  0
SECTION
  2
BLOCKS
  0
BLOCK
  5
1F
330
1E
100
AcDbEntity
  8
0
100
AcDbBlockBegin
  2
*Model_Space
 70
     0
 10
0.0
 20
0.0
 30
0.0
  3
*Model_Space
  1

  0
ENDBLK
  5
20
330
1E
100
AcDbEntity
  8
0
100
AcDbBlockEnd
  0
BLOCK
  5
1B
330
1A
100
AcDbEntity
 67
     1
  8
0
100
AcDbBlockBegin
  2
*Paper_Space
 70
     0
 10
0.0
 20
0.0
 30
0.0
  3
*Paper_Space
  1

  0
ENDBLK
  5
1C
330
1A
100
AcDbEntity
 67
     1
  8
0
100
AcDbBlockEnd
  0
ENDSEC
  0
SECTION
  2
ENTITIES
  0
LINE
  5
22
330
1E
100
AcDbEntity
  8
0
100
AcDbLine
 10
2.813267499999998
 20
6.251930000000008
 30
0.0
 11
4.966007499999999
 21
4.882370000000008
 31
0.0
  0
LINE
  5
23
330
1E
100
AcDbEntity
  8
0
100
AcDbLine
 10
5.2639775
 20
0.0000000000000102
 30
0.0
 11
5.6599775
 21
0.0000000000000102
 31
0.0
  0
LINE
  5
24
330
1E
100
AcDbEntity
  8
0
100
AcDbLine
 10
5.6599775
 20
0.0000000000000102
 30
0.0
 11
6.715977499999998
 21
0.0000000000000101
 31
0.0
  0
LINE
  5
25
330
1E
100
AcDbEntity
  8
0
100
AcDbLine
 10
6.715977499999998
 20
0.0000000000000101
 30
0.0
 11
8.431977499999996
 21
0.00000000000001
 31
0.0
  0
LINE
  5
26
330
1E
100
AcDbEntity
  8
0
100
AcDbLine
 10
8.431977499999996
 20
0.00000000000001
 30
0.0
 11
10.6759775
 21
0.0000000000000099
 31
0.0
  0
LINE
  5
27
330
1E
100
AcDbEntity
  8
0
100
AcDbLine
 10
10.6759775
 20
0.0000000000000099
 30
0.0
 11
13.2279775
 21
0.0000000000000097
 31
0.0
  0
LINE
  5
28
330
1E
100
AcDbEntity
  8
0
100
AcDbLine
 10
26.7359775
 20
0.0000000000000089
 30
0.0
 11
26.9999775
 21
0.300000000000009
 31
0.0
  0
LINE
  5
29
330
1E
100
AcDbEntity
  8
0
100
AcDbLine
 10
26.3399775
 20
0.0000000000000089
 30
0.0
 11
26.7359775
 21
0.0000000000000089
 31
0.0
  0
LINE
  5
2A
330
1E
100
AcDbEntity
  8
0
100
AcDbLine
 10
26.7359775
 20
0.0000000000000089
 30
0.0
 11
26.9999775
 21
0.300000000000009
 31
0.0
  0
LINE
  5
2B
330
1E
100
AcDbEntity
  8
0
100
AcDbLine
 10
25.28397749999999
 20
0.000000000000009
 30
0.0
 11
26.3399775
 21
0.0000000000000089
 31
0.0
  0
LINE
  5
2C
330
1E
100
AcDbEntity
  8
0
100
AcDbLine
 10
23.56797749999999
 20
0.0000000000000091
 30
0.0
 11
25.28397749999999
 21
0.000000000000009
 31
0.0
  0
LINE
  5
2D
330
1E
100
AcDbEntity
  8
0
100
AcDbLine
 10
18.77197749999998
 20
0.0000000000000094
 30
0.0
 11
21.32397749999998
 21
0.0000000000000092
 31
0.0
  0
LINE
  5
2E
330
1E
100
AcDbEntity
  8
0
100
AcDbLine
 10
26.6039775
 20
0.300000000000009
 30
0.0
 11
26.9999775
 21
0.300000000000009
 31
0.0
  0
LINE
  5
2F
330
1E
100
AcDbEntity
  8
0
100
AcDbLine
 10
21.32397749999998
 20
0.0000000000000092
 30
0.0
 11
23.56797749999999
 21
0.0000000000000091
 31
0.0
  0
LINE
  5
30
330
1E
100
AcDbEntity
  8
0
100
AcDbLine
 10
15.99997749999999
 20
0.0000000000000096
 30
0.0
 11
18.77197749999998
 21
0.0000000000000094
 31
0.0
  0
LINE
  5
31
330
1E
100
AcDbEntity
  8
0
100
AcDbLine
 10
25.5479775
 20
0.300000000000009
 30
0.0
 11
26.6039775
 21
0.300000000000009
 31
0.0
  0
LINE
  5
32
330
1E
100
AcDbEntity
  8
0
100
AcDbLine
 10
23.78797749999999
 20
0.300000000000009
 30
0.0
 11
25.5479775
 21
0.300000000000009
 31
0.0
  0
LINE
  5
33
330
1E
100
AcDbEntity
  8
0
100
AcDbLine
 10
21.45597749999998
 20
0.300000000000009
 30
0.0
 11
23.78797749999999
 21
0.300000000000009
 31
0.0
  0
LINE
  5
34
330
1E
100
AcDbEntity
  8
0
100
AcDbLine
 10
18.8159775
 20
0.300000000000009
 30
0.0
 11
21.45597749999998
 21
0.300000000000009
 31
0.0
  0
LINE
  5
35
330
1E
100
AcDbEntity
  8
0
100
AcDbLine
 10
15.99997749999999
 20
0.30000000000001
 30
0.0
 11
18.8159775
 21
0.300000000000009
 31
0.0
  0
LINE
  5
36
330
1E
100
AcDbEntity
  8
0
100
AcDbLine
 10
26.9999775
 20
0.300000000000009
 30
0.0
 11
26.9999775
 21
7.56577531537917
 31
0.0
  0
LINE
  5
37
330
1E
100
AcDbEntity
  8
0
100
AcDbLine
 10
13.2279775
 20
0.0000000000000097
 30
0.0
 11
15.99997749999999
 21
0.0000000000000096
 31
0.0
  0
LINE
  5
38
330
1E
100
AcDbEntity
  8
0
100
AcDbLine
 10
4.999977499999999
 20
4.8697661524012
 30
0.0
 11
4.999977499999999
 21
0.300000000000011
 31
0.0
  0
LINE
  5
39
330
1E
100
AcDbEntity
  8
0
100
AcDbLine
 10
4.999977499999999
 20
0.30000000000001
 30
0.0
 11
5.395977499999998
 21
0.30000000000001
 31
0.0
  0
LINE
  5
3A
330
1E
100
AcDbEntity
  8
0
100
AcDbLine
 10
4.999977499999999
 20
0.30000000000001
 30
0.0
 11
4.999977499999999
 21
4.8697661524012
 31
0.0
  0
LINE
  5
3B
330
1E
100
AcDbEntity
  8
0
100
AcDbLine
 10
4.999977499999999
 20
0.30000000000001
 30
0.0
 11
5.2639775
 21
0.0000000000000102
 31
0.0
  0
LINE
  5
3C
330
1E
100
AcDbEntity
  8
0
100
AcDbLine
 10
4.999977499999999
 20
0.30000000000001
 30
0.0
 11
5.2639775
 21
0.0000000000000102
 31
0.0
  0
LINE
  5
3D
330
1E
100
AcDbEntity
  8
0
100
AcDbLine
 10
5.395977499999998
 20
0.30000000000001
 30
0.0
 11
6.451977499999999
 21
0.30000000000001
 31
0.0
  0
LINE
  5
3E
330
1E
100
AcDbEntity
  8
0
100
AcDbLine
 10
6.451977499999999
 20
0.30000000000001
 30
0.0
 11
8.211977499999997
 21
0.30000000000001
 31
0.0
  0
LINE
  5
3F
330
1E
100
AcDbEntity
  8
0
100
AcDbLine
 10
8.211977499999997
 20
0.30000000000001
 30
0.0
 11
10.54397749999999
 21
0.30000000000001
 31
0.0
  0
LINE
  5
40
330
1E
100
AcDbEntity
  8
0
100
AcDbLine
 10
26.9999775
 20
7.56577531537917
 30
0.0
 11
26.9999775
 21
0.300000000000008
 31
0.0
  0
LINE
  5
41
330
1E
100
AcDbEntity
  8
0
100
AcDbLine
 10
10.54397749999999
 20
0.30000000000001
 30
0.0
 11
13.18397749999999
 21
0.30000000000001
 31
0.0
  0
LINE
  5
42
330
1E
100
AcDbEntity
  8
0
100
AcDbLine
 10
13.18397749999999
 20
0.30000000000001
 30
0.0
 11
15.99997749999999
 21
0.30000000000001
 31
0.0
  0
LINE
  5
43
330
1E
100
AcDbEntity
  8
0
100
AcDbLine
 10
0.0000225000000025
 20
10.0946
 30
0.0
 11
0.4562405000000032
 21
10.7044
 31
0.0
  0
LINE
  5
44
330
1E
100
AcDbEntity
  8
0
100
AcDbLine
 10
0.0000225000000026
 20
10.0946
 30
0.0
 11
0.0902145000000026
 21
9.338390000000007
 31
0.0
  0
LINE
  5
47
330
1E
100
AcDbEntity
  8
0
100
AcDbLine
 10
0.0000225000000026
 20
10.0946
 30
0.0
 11
0.4562405000000032
 21
10.7044
 31
0.0
  0
LINE
  5
49
330
1E
100
AcDbEntity
  8
0
100
AcDbLine
 10
0.0000225000000026
 20
10.0946
 30
0.0
 11
0.0902145000000026
 21
9.338390000000007
 31
0.0
  0
LINE
  5
4C
330
1E
100
AcDbEntity
  8
0
100
AcDbLine
 10
0.0902145000000026
 20
9.338390000000007
 30
0.0
 11
0.5902145000000021
 21
8.472360000000008
 31
0.0
  0
LINE
  5
52
330
1E
100
AcDbEntity
  8
0
100
AcDbLine
 10
0.5902145000000021
 20
8.472360000000008
 30
0.0
 11
2.813267499999998
 21
6.251930000000008
 31
0.0
  0
LINE
  5
53
330
1E
100
AcDbEntity
  8
0
100
AcDbLine
 10
0.4562405000000032
 20
10.7044
 30
0.0
 11
0.707158500000003
 21
10.84929999999999
 31
0.0
  0
LINE
  5
54
330
1E
100
AcDbEntity
  8
0
100
AcDbLine
 10
0.707158500000003
 20
10.84929999999999
 30
0.0
 11
0.9778725000000028
 21
11.00559999999999
 31
0.0
  0
LINE
  5
5B
330
1E
100
AcDbEntity
  8
0
100
AcDbLine
 10
0.9778725000000028
 20
11.00559999999999
 30
0.0
 11
1.3074375
 21
11.1959
 31
0.0
  0
LINE
  5
68
330
1E
100
AcDbEntity
  8
0
100
AcDbLine
 10
0.0902145000000025
 20
9.338390000000007
 30
0.0
 11
0.5902145000000021
 21
8.472360000000008
 31
0.0
  0
LINE
  5
71
330
1E
100
AcDbEntity
  8
0
100
AcDbLine
 10
97.38497750000002
 20
67.9229
 30
0.0
 11
100.2073775
 21
70.15550000000001
 31
0.0
  0
LINE
  5
72
330
1E
100
AcDbEntity
  8
0
100
AcDbLine
 10
100.2073775
 20
70.15550000000001
 30
0.0
 11
102.0370775
 21
72.0659
 31
0.0
  0
LINE
  5
73
330
1E
100
AcDbEntity
  8
0
100
AcDbLine
 10
102.0370775
 20
72.0659
 30
0.0
 11
103.6237774999999
 21
74.13389999999998
 31
0.0
  0
LINE
  5
76
330
1E
100
AcDbEntity
  8
0
100
AcDbLine
 10
26.9999775
 20
7.56577531537917
 30
0.0
 11
103.2018775
 21
53.5721
 31
0.0
  0
LINE
  5
77
330
1E
100
AcDbEntity
  8
0
100
AcDbLine
 10
103.6237774999999
 20
74.13389999999998
 30
0.0
 11
104.9741774999999
 21
76.0141
 31
0.0
  0
LINE
  5
78
330
1E
100
AcDbEntity
  8
0
100
AcDbLine
 10
104.9741774999999
 20
76.0141
 30
0.0
 11
106.2441775
 21
78.2231
 31
0.0
  0
LINE
  5
79
330
1E
100
AcDbEntity
  8
0
100
AcDbLine
 10
106.2441775
 20
78.2231
 30
0.0
 11
107.4905774999999
 21
81.7012
 31
0.0
  0
LINE
  5
7A
330
1E
100
AcDbEntity
  8
0
100
AcDbLine
 10
107.4905774999999
 20
81.7012
 30
0.0
 11
108.0785775
 21
84.68580000000001
 31
0.0
  0
LINE
  5
8F
330
1E
100
AcDbEntity
  8
0
100
AcDbLine
 10
106.4324775
 20
54.8653
 30
0.0
 11
109.3792775
 21
55.6159
 31
0.0
  0
LINE
  5
92
330
1E
100
AcDbEntity
  8
0
100
AcDbLine
 10
237.9999774999999
 20
47.3765
 30
0.0
 11
237.9999774999999
 21
47.79999999999999
 31
0.0
  0
LINE
  5
93
330
1E
100
AcDbEntity
  8
0
100
AcDbLine
 10
237.9999774999999
 20
47.3765
 30
0.0
 11
237.9999774999999
 21
47.0235
 31
0.0
  0
LINE
  5
94
330
1E
100
AcDbEntity
  8
0
100
AcDbLine
 10
237.9999774999999
 20
47.0235
 30
0.0
 11
237.9999774999999
 21
47.3765
 31
0.0
  0
LINE
  5
95
330
1E
100
AcDbEntity
  8
0
100
AcDbLine
 10
237.9999774999999
 20
47.0235
 30
0.0
 11
237.9999774999999
 21
46.7412
 31
0.0
  0
LINE
  5
96
330
1E
100
AcDbEntity
  8
0
100
AcDbLine
 10
237.9999774999999
 20
46.7412
 30
0.0
 11
237.9999774999999
 21
47.0235
 31
0.0
  0
LINE
  5
97
330
1E
100
AcDbEntity
  8
0
100
AcDbLine
 10
237.9999774999999
 20
46.7412
 30
0.0
 11
237.9999774999999
 21
46.5294
 31
0.0
  0
LINE
  5
98
330
1E
100
AcDbEntity
  8
0
100
AcDbLine
 10
237.9999774999999
 20
46.5294
 30
0.0
 11
237.9999774999999
 21
46.7412
 31
0.0
  0
LINE
  5
99
330
1E
100
AcDbEntity
  8
0
100
AcDbLine
 10
237.9999774999999
 20
46.5294
 30
0.0
 11
237.9999774999999
 21
46.3529
 31
0.0
  0
LINE
  5
9A
330
1E
100
AcDbEntity
  8
0
100
AcDbLine
 10
237.9999774999999
 20
46.3529
 30
0.0
 11
237.9999774999999
 21
46.5294
 31
0.0
  0
LINE
  5
9B
330
1E
100
AcDbEntity
  8
0
100
AcDbLine
 10
237.9999774999999
 20
46.3529
 30
0.0
 11
238.2099774999999
 21
46.10589999999999
 31
0.0
  0
LINE
  5
9C
330
1E
100
AcDbEntity
  8
0
100
AcDbLine
 10
237.9999774999999
 20
47.79999999999999
 30
0.0
 11
237.9999774999999
 21
48.2941
 31
0.0
  0
LINE
  5
9D
330
1E
100
AcDbEntity
  8
0
100
AcDbLine
 10
237.9999774999999
 20
47.79999999999999
 30
0.0
 11
237.9999774999999
 21
47.3765
 31
0.0
  0
LINE
  5
9E
330
1E
100
AcDbEntity
  8
0
100
AcDbLine
 10
237.9999774999999
 20
48.2941
 30
0.0
 11
237.9999774999999
 21
48.8235
 31
0.0
  0
LINE
  5
9F
330
1E
100
AcDbEntity
  8
0
100
AcDbLine
 10
237.9999774999999
 20
48.2941
 30
0.0
 11
237.9999774999999
 21
47.79999999999999
 31
0.0
  0
LINE
  5
A0
330
1E
100
AcDbEntity
  8
0
100
AcDbLine
 10
237.9999774999999
 20
48.8235
 30
0.0
 11
237.9999774999999
 21
49.42349999999999
 31
0.0
  0
LINE
  5
A1
330
1E
100
AcDbEntity
  8
0
100
AcDbLine
 10
237.9999774999999
 20
48.8235
 30
0.0
 11
237.9999774999999
 21
48.2941
 31
0.0
  0
LINE
  5
A2
330
1E
100
AcDbEntity
  8
0
100
AcDbLine
 10
237.9999774999999
 20
49.42349999999999
 30
0.0
 11
237.9999774999999
 21
50.02349999999999
 31
0.0
  0
LINE
  5
A3
330
1E
100
AcDbEntity
  8
0
100
AcDbLine
 10
237.9999774999999
 20
49.42349999999999
 30
0.0
 11
237.9999774999999
 21
48.8235
 31
0.0
  0
LINE
  5
A4
330
1E
100
AcDbEntity
  8
0
100
AcDbLine
 10
237.9999774999999
 20
50.02349999999999
 30
0.0
 11
237.9999774999999
 21
50.65879999999999
 31
0.0
  0
LINE
  5
A5
330
1E
100
AcDbEntity
  8
0
100
AcDbLine
 10
237.9999774999999
 20
50.02349999999999
 30
0.0
 11
237.9999774999999
 21
49.42349999999999
 31
0.0
  0
LINE
  5
A6
330
1E
100
AcDbEntity
  8
0
100
AcDbLine
 10
237.9999774999999
 20
50.65879999999999
 30
0.0
 11
237.9999774999999
 21
51.2941
 31
0.0
  0
LINE
  5
A7
330
1E
100
AcDbEntity
  8
0
100
AcDbLine
 10
237.9999774999999
 20
50.65879999999999
 30
0.0
 11
237.9999774999999
 21
50.02349999999999
 31
0.0
  0
LINE
  5
D1
330
1E
100
AcDbEntity
  8
0
100
AcDbLine
 10
238.6999774999999
 20
46.0
 30
0.0
 11
244.9999775
 21
46.0
 31
0.0
  0
LINE
  5
E9
330
1E
100
AcDbEntity
  8
0
100
AcDbLine
 10
244.9999775
 20
47.09409999999999
 30
0.0
 11
244.9999775
 21
46.70589999999999
 31
0.0
  0
LINE
  5
EA
330
1E
100
AcDbEntity
  8
0
100
AcDbLine
 10
244.9999775
 20
47.09409999999999
 30
0.0
 11
244.9999775
 21
47.5529
 31
0.0
  0
LINE
  5
EB
330
1E
100
AcDbEntity
  8
0
100
AcDbLine
 10
244.9999775
 20
46.70589999999999
 30
0.0
 11
244.9999775
 21
46.42349999999999
 31
0.0
  0
LINE
  5
EC
330
1E
100
AcDbEntity
  8
0
100
AcDbLine
 10
244.9999775
 20
46.70589999999999
 30
0.0
 11
244.9999775
 21
47.09409999999999
 31
0.0
  0
LINE
  5
ED
330
1E
100
AcDbEntity
  8
0
100
AcDbLine
 10
244.9999775
 20
46.42349999999999
 30
0.0
 11
244.9999775
 21
46.17649999999999
 31
0.0
  0
LINE
  5
EE
330
1E
100
AcDbEntity
  8
0
100
AcDbLine
 10
244.9999775
 20
46.42349999999999
 30
0.0
 11
244.9999775
 21
46.70589999999999
 31
0.0
  0
LINE
  5
EF
330
1E
100
AcDbEntity
  8
0
100
AcDbLine
 10
244.9999775
 20
46.17649999999999
 30
0.0
 11
244.9999775
 21
46.07059999999999
 31
0.0
  0
LINE
  5
F0
330
1E
100
AcDbEntity
  8
0
100
AcDbLine
 10
244.9999775
 20
46.17649999999999
 30
0.0
 11
244.9999775
 21
46.42349999999999
 31
0.0
  0
LINE
  5
F1
330
1E
100
AcDbEntity
  8
0
100
AcDbLine
 10
244.9999775
 20
46.07059999999999
 30
0.0
 11
244.9999775
 21
46.0
 31
0.0
  0
LINE
  5
F2
330
1E
100
AcDbEntity
  8
0
100
AcDbLine
 10
244.9999775
 20
46.07059999999999
 30
0.0
 11
244.9999775
 21
46.17649999999999
 31
0.0
  0
LINE
  5
F3
330
1E
100
AcDbEntity
  8
0
100
AcDbLine
 10
244.9999775
 20
47.5529
 30
0.0
 11
244.9999775
 21
48.0824
 31
0.0
  0
LINE
  5
F4
330
1E
100
AcDbEntity
  8
0
100
AcDbLine
 10
244.9999775
 20
47.5529
 30
0.0
 11
244.9999775
 21
47.09409999999999
 31
0.0
  0
LINE
  5
F5
330
1E
100
AcDbEntity
  8
0
100
AcDbLine
 10
244.9999775
 20
48.0824
 30
0.0
 11
244.9999775
 21
47.5529
 31
0.0
  0
LINE
  5
F6
330
1E
100
AcDbEntity
  8
0
100
AcDbLine
 10
244.9999775
 20
48.0824
 30
0.0
 11
244.9999775
 21
48.6471
 31
0.0
  0
LINE
  5
F7
330
1E
100
AcDbEntity
  8
0
100
AcDbLine
 10
244.9999775
 20
48.6471
 30
0.0
 11
244.9999775
 21
48.0824
 31
0.0
  0
LINE
  5
F8
330
1E
100
AcDbEntity
  8
0
100
AcDbLine
 10
244.9999775
 20
48.6471
 30
0.0
 11
244.9999775
 21
49.2824
 31
0.0
  0
LINE
  5
F9
330
1E
100
AcDbEntity
  8
0
100
AcDbLine
 10
244.9999775
 20
49.2824
 30
0.0
 11
244.9999775
 21
48.6471
 31
0.0
  0
LINE
  5
FA
330
1E
100
AcDbEntity
  8
0
100
AcDbLine
 10
244.9999775
 20
49.2824
 30
0.0
 11
244.9999775
 21
49.9176
 31
0.0
  0
LINE
  5
FB
330
1E
100
AcDbEntity
  8
0
100
AcDbLine
 10
244.9999775
 20
49.9176
 30
0.0
 11
244.9999775
 21
49.2824
 31
0.0
  0
LINE
  5
FC
330
1E
100
AcDbEntity
  8
0
100
AcDbLine
 10
244.9999775
 20
49.9176
 30
0.0
 11
244.9999775
 21
50.58829999999999
 31
0.0
  0
LINE
  5
108
330
1E
100
AcDbEntity
  8
0
100
AcDbLine
 10
244.9999775
 20
50.58829999999999
 30
0.0
 11
244.9999775
 21
49.9176
 31
0.0
  0
LINE
  5
109
330
1E
100
AcDbEntity
  8
0
100
AcDbLine
 10
244.9999775
 20
50.58829999999999
 30
0.0
 11
244.9999775
 21
51.2941
 31
0.0
  0
LINE
  5
11A
330
1E
100
AcDbEntity
  8
0
100
AcDbLine
 10
244.9999775
 20
51.2941
 30
0.0
 11
244.9999775
 21
50.58829999999999
 31
0.0
  0
LINE
  5
11B
330
1E
100
AcDbEntity
  8
0
100
AcDbLine
 10
244.9999775
 20
51.2941
 30
0.0
 11
244.9999775
 21
76.0
 31
0.0
  0
LINE
  5
11C
330
1E
100
AcDbEntity
  8
0
100
AcDbLine
 10
238.2099774999999
 20
46.10589999999999
 30
0.0
 11
238.6999774999999
 21
46.0
 31
0.0
  0
LINE
  5
11D
330
1E
100
AcDbEntity
  8
0
100
AcDbLine
 10
244.9999775
 20
46.0
 30
0.0
 11
244.9999775
 21
46.07059999999999
 31
0.0
  0
LINE
  5
11E
330
1E
100
AcDbEntity
  8
0
100
AcDbLine
 10
237.9999774999999
 20
51.2941
 30
0.0
 11
237.9999774999999
 21
56.0
 31
0.0
  0
LINE
  5
11F
330
1E
100
AcDbEntity
  8
0
100
AcDbLine
 10
237.9999774999999
 20
51.2941
 30
0.0
 11
237.9999774999999
 21
50.65879999999999
 31
0.0
  0
LINE
  5
120
330
1E
100
AcDbEntity
  8
0
100
AcDbLine
 10
237.9999774999999
 20
51.2941
 30
0.0
 11
237.9999774999999
 21
60.0
 31
0.0
  0
LINE
  5
121
330
1E
100
AcDbEntity
  8
0
100
AcDbLine
 10
237.9999774999999
 20
56.0
 30
0.0
 11
237.9999774999999
 21
51.2941
 31
0.0
  0
LINE
  5
122
330
1E
100
AcDbEntity
  8
0
100
AcDbLine
 10
112.0641774999999
 20
55.9009
 30
0.0
 11
113.9999774999999
 21
56.0
 31
0.0
  0
LINE
  5
123
330
1E
100
AcDbEntity
  8
0
100
AcDbLine
 10
109.3792775
 20
55.6159
 30
0.0
 11
112.0641774999999
 21
55.9009
 31
0.0
  0
LINE
  5
124
330
1E
100
AcDbEntity
  8
0
100
AcDbLine
 10
108.2999775
 20
87.0
 30
0.0
 11
108.2999775
 21
89.09999999999998
 31
0.0
  0
LINE
  5
125
330
1E
100
AcDbEntity
  8
0
100
AcDbLine
 10
108.0785775
 20
84.68580000000001
 30
0.0
 11
108.2999775
 21
87.0
 31
0.0
  0
LINE
  5
126
330
1E
100
AcDbEntity
  8
0
100
AcDbLine
 10
108.2999775
 20
89.09999999999998
 30
0.0
 11
108.2999775
 21
87.0
 31
0.0
  0
LINE
  5
127
330
1E
100
AcDbEntity
  8
0
100
AcDbLine
 10
108.2999775
 20
89.09999999999998
 30
0.0
 11
108.2999775
 21
91.0
 31
0.0
  0
LINE
  5
128
330
1E
100
AcDbEntity
  8
0
100
AcDbLine
 10
108.2999775
 20
91.0
 30
0.0
 11
108.2999775
 21
89.09999999999998
 31
0.0
  0
LINE
  5
129
330
1E
100
AcDbEntity
  8
0
100
AcDbLine
 10
108.2999775
 20
91.0
 30
0.0
 11
108.2999775
 21
92.70000000000001
 31
0.0
  0
LINE
  5
12A
330
1E
100
AcDbEntity
  8
0
100
AcDbLine
 10
108.2999775
 20
92.70000000000001
 30
0.0
 11
108.2999775
 21
93.90000000000002
 31
0.0
  0
LINE
  5
12B
330
1E
100
AcDbEntity
  8
0
100
AcDbLine
 10
108.2999775
 20
92.70000000000001
 30
0.0
 11
108.2999775
 21
91.0
 31
0.0
  0
LINE
  5
12C
330
1E
100
AcDbEntity
  8
0
100
AcDbLine
 10
108.2999775
 20
95.61409999999998
 30
0.0
 11
108.2999775
 21
95.5239
 31
0.0
  0
LINE
  5
12D
330
1E
100
AcDbEntity
  8
0
100
AcDbLine
 10
108.2999775
 20
95.61409999999998
 30
0.0
 11
108.2999775
 21
95.68640000000002
 31
0.0
  0
LINE
  5
12E
330
1E
100
AcDbEntity
  8
0
100
AcDbLine
 10
108.2999775
 20
95.5239
 30
0.0
 11
108.2999775
 21
95.34999999999998
 31
0.0
  0
LINE
  5
12F
330
1E
100
AcDbEntity
  8
0
100
AcDbLine
 10
108.2999775
 20
95.5239
 30
0.0
 11
108.2999775
 21
95.61409999999998
 31
0.0
  0
LINE
  5
130
330
1E
100
AcDbEntity
  8
0
100
AcDbLine
 10
108.2999775
 20
95.34999999999998
 30
0.0
 11
108.2999775
 21
95.09999999999998
 31
0.0
  0
LINE
  5
131
330
1E
100
AcDbEntity
  8
0
100
AcDbLine
 10
108.2999775
 20
95.34999999999998
 30
0.0
 11
108.2999775
 21
95.5239
 31
0.0
  0
LINE
  5
132
330
1E
100
AcDbEntity
  8
0
100
AcDbLine
 10
108.2999775
 20
95.09999999999998
 30
0.0
 11
108.2999775
 21
94.69999999999997
 31
0.0
  0
LINE
  5
133
330
1E
100
AcDbEntity
  8
0
100
AcDbLine
 10
108.2999775
 20
95.09999999999998
 30
0.0
 11
108.2999775
 21
95.34999999999998
 31
0.0
  0
LINE
  5
134
330
1E
100
AcDbEntity
  8
0
100
AcDbLine
 10
108.2999775
 20
94.69999999999997
 30
0.0
 11
108.2999775
 21
93.90000000000002
 31
0.0
  0
LINE
  5
135
330
1E
100
AcDbEntity
  8
0
100
AcDbLine
 10
108.2999775
 20
94.69999999999997
 30
0.0
 11
108.2999775
 21
95.09999999999998
 31
0.0
  0
LINE
  5
136
330
1E
100
AcDbEntity
  8
0
100
AcDbLine
 10
237.9999774999999
 20
56.04999999999999
 30
0.0
 11
237.9999774999999
 21
56.15
 31
0.0
  0
LINE
  5
137
330
1E
100
AcDbEntity
  8
0
100
AcDbLine
 10
237.9999774999999
 20
56.15
 30
0.0
 11
237.9999774999999
 21
56.34999999999998
 31
0.0
  0
LINE
  5
138
330
1E
100
AcDbEntity
  8
0
100
AcDbLine
 10
237.9999774999999
 20
56.15
 30
0.0
 11
237.9999774999999
 21
56.04999999999999
 31
0.0
  0
LINE
  5
139
330
1E
100
AcDbEntity
  8
0
100
AcDbLine
 10
237.9999774999999
 20
56.34999999999998
 30
0.0
 11
237.9999774999999
 21
56.6
 31
0.0
  0
LINE
  5
13A
330
1E
100
AcDbEntity
  8
0
100
AcDbLine
 10
237.9999774999999
 20
56.34999999999998
 30
0.0
 11
237.9999774999999
 21
56.15
 31
0.0
  0
LINE
  5
13B
330
1E
100
AcDbEntity
  8
0
100
AcDbLine
 10
237.9999774999999
 20
56.6
 30
0.0
 11
237.9999774999999
 21
57.0
 31
0.0
  0
LINE
  5
13C
330
1E
100
AcDbEntity
  8
0
100
AcDbLine
 10
237.9999774999999
 20
56.6
 30
0.0
 11
237.9999774999999
 21
56.34999999999998
 31
0.0
  0
LINE
  5
13D
330
1E
100
AcDbEntity
  8
0
100
AcDbLine
 10
237.9999774999999
 20
57.0
 30
0.0
 11
237.9999774999999
 21
57.79999999999999
 31
0.0
  0
LINE
  5
13E
330
1E
100
AcDbEntity
  8
0
100
AcDbLine
 10
237.9999774999999
 20
57.0
 30
0.0
 11
237.9999774999999
 21
56.6
 31
0.0
  0
LINE
  5
13F
330
1E
100
AcDbEntity
  8
0
100
AcDbLine
 10
197.9999774999999
 20
60.0
 30
0.0
 11
197.9999774999999
 21
92.0
 31
0.0
  0
LINE
  5
140
330
1E
100
AcDbEntity
  8
0
100
AcDbLine
 10
197.9999774999999
 20
60.0
 30
0.0
 11
198.2999774999998
 21
59.29999999999999
 31
0.0
  0
LINE
  5
141
330
1E
100
AcDbEntity
  8
0
100
AcDbLine
 10
198.9999774999999
 20
59.0
 30
0.0
 11
199.1999774999999
 21
59.0
 31
0.0
  0
LINE
  5
142
330
1E
100
AcDbEntity
  8
0
100
AcDbLine
 10
199.1999774999999
 20
59.0
 30
0.0
 11
199.6999774999999
 21
59.0
 31
0.0
  0
LINE
  5
143
330
1E
100
AcDbEntity
  8
0
100
AcDbLine
 10
201.5809774999999
 20
59.0
 30
0.0
 11
201.8319775
 21
59.0
 31
0.0
  0
LINE
  5
144
330
1E
100
AcDbEntity
  8
0
100
AcDbLine
 10
199.6999774999999
 20
59.0
 30
0.0
 11
200.4999774999999
 21
59.0
 31
0.0
  0
LINE
  5
145
330
1E
100
AcDbEntity
  8
0
100
AcDbLine
 10
200.4999774999999
 20
59.0
 30
0.0
 11
201.5999775
 21
59.0
 31
0.0
  0
LINE
  5
146
330
1E
100
AcDbEntity
  8
0
100
AcDbLine
 10
203.3489774999999
 20
59.0
 30
0.0
 11
203.9999775
 21
59.0
 31
0.0
  0
LINE
  5
147
330
1E
100
AcDbEntity
  8
0
100
AcDbLine
 10
202.7999774999999
 20
59.0
 30
0.0
 11
203.9999775
 21
59.0
 31
0.0
  0
LINE
  5
148
330
1E
100
AcDbEntity
  8
0
100
AcDbLine
 10
202.2309775
 20
59.0
 30
0.0
 11
202.7599774999999
 21
59.0
 31
0.0
  0
LINE
  5
149
330
1E
100
AcDbEntity
  8
0
100
AcDbLine
 10
202.7599774999999
 20
59.0
 30
0.0
 11
203.3489774999999
 21
59.0
 31
0.0
  0
LINE
  5
14A
330
1E
100
AcDbEntity
  8
0
100
AcDbLine
 10
201.5999775
 20
59.0
 30
0.0
 11
202.7999774999999
 21
59.0
 31
0.0
  0
LINE
  5
14B
330
1E
100
AcDbEntity
  8
0
100
AcDbLine
 10
201.8319775
 20
59.0
 30
0.0
 11
202.2309775
 21
59.0
 31
0.0
  0
LINE
  5
14C
330
1E
100
AcDbEntity
  8
0
100
AcDbLine
 10
232.6509774999999
 20
59.0
 30
0.0
 11
233.2399774999999
 21
59.0
 31
0.0
  0
LINE
  5
14D
330
1E
100
AcDbEntity
  8
0
100
AcDbLine
 10
233.1999774999999
 20
59.0
 30
0.0
 11
234.3999774999999
 21
59.0
 31
0.0
  0
LINE
  5
14E
330
1E
100
AcDbEntity
  8
0
100
AcDbLine
 10
233.2399774999999
 20
59.0
 30
0.0
 11
233.7689774999999
 21
59.0
 31
0.0
  0
LINE
  5
14F
330
1E
100
AcDbEntity
  8
0
100
AcDbLine
 10
234.3999774999999
 20
59.0
 30
0.0
 11
235.4999774999999
 21
59.0
 31
0.0
  0
LINE
  5
150
330
1E
100
AcDbEntity
  8
0
100
AcDbLine
 10
233.7689774999999
 20
59.0
 30
0.0
 11
234.1679774999999
 21
59.0
 31
0.0
  0
LINE
  5
151
330
1E
100
AcDbEntity
  8
0
100
AcDbLine
 10
234.4189774999999
 20
59.0
 30
0.0
 11
234.4999774999999
 21
59.0
 31
0.0
  0
LINE
  5
152
330
1E
100
AcDbEntity
  8
0
100
AcDbLine
 10
234.1679774999999
 20
59.0
 30
0.0
 11
234.4189774999999
 21
59.0
 31
0.0
  0
LINE
  5
153
330
1E
100
AcDbEntity
  8
0
100
AcDbLine
 10
231.9999774999999
 20
59.0
 30
0.0
 11
232.6509774999999
 21
59.0
 31
0.0
  0
LINE
  5
154
330
1E
100
AcDbEntity
  8
0
100
AcDbLine
 10
231.9999774999999
 20
59.0
 30
0.0
 11
233.1999774999999
 21
59.0
 31
0.0
  0
LINE
  5
155
330
1E
100
AcDbEntity
  8
0
100
AcDbLine
 10
217.9999775
 20
59.0
 30
0.0
 11
231.9999774999999
 21
59.0
 31
0.0
  0
LINE
  5
156
330
1E
100
AcDbEntity
  8
0
100
AcDbLine
 10
235.4999774999999
 20
59.0
 30
0.0
 11
236.2999774999999
 21
59.0
 31
0.0
  0
LINE
  5
157
330
1E
100
AcDbEntity
  8
0
100
AcDbLine
 10
236.7999774999999
 20
59.0
 30
0.0
 11
236.9999775
 21
59.0
 31
0.0
  0
LINE
  5
158
330
1E
100
AcDbEntity
  8
0
100
AcDbLine
 10
236.2999774999999
 20
59.0
 30
0.0
 11
236.7999774999999
 21
59.0
 31
0.0
  0
LINE
  5
159
330
1E
100
AcDbEntity
  8
0
100
AcDbLine
 10
236.9999775
 20
59.0
 30
0.0
 11
237.6999774999999
 21
59.29999999999999
 31
0.0
  0
LINE
  5
15A
330
1E
100
AcDbEntity
  8
0
100
AcDbLine
 10
203.9999775
 20
59.0
 30
0.0
 11
217.9999775
 21
59.0
 31
0.0
  0
LINE
  5
167
330
1E
100
AcDbEntity
  8
0
100
AcDbLine
 10
237.6999774999999
 20
59.29999999999999
 30
0.0
 11
237.9999774999999
 21
60.0
 31
0.0
  0
LINE
  5
169
330
1E
100
AcDbEntity
  8
0
100
AcDbLine
 10
201.4999775
 20
59.0
 30
0.0
 11
201.5809774999999
 21
59.0
 31
0.0
  0
LINE
  5
16A
330
1E
100
AcDbEntity
  8
0
100
AcDbLine
 10
198.2999774999998
 20
59.29999999999999
 30
0.0
 11
198.9999774999999
 21
59.0
 31
0.0
  0
LINE
  5
16C
330
1E
100
AcDbEntity
  8
0
100
AcDbLine
 10
197.9999774999999
 20
92.0
 30
0.0
 11
197.9999774999999
 21
60.0
 31
0.0
  0
LINE
  5
16D
330
1E
100
AcDbEntity
  8
0
100
AcDbLine
 10
197.9999774999999
 20
92.0
 30
0.0
 11
198.2999774999998
 21
92.70000000000001
 31
0.0
  0
LINE
  5
16E
330
1E
100
AcDbEntity
  8
0
100
AcDbLine
 10
237.9999774999999
 20
60.0
 30
0.0
 11
237.9999774999999
 21
59.0
 31
0.0
  0
LINE
  5
16F
330
1E
100
AcDbEntity
  8
0
100
AcDbLine
 10
237.9999774999999
 20
60.0
 30
0.0
 11
237.9999774999999
 21
51.2941
 31
0.0
  0
LINE
  5
170
330
1E
100
AcDbEntity
  8
0
100
AcDbLine
 10
237.9999774999999
 20
60.0
 30
0.0
 11
237.9999774999999
 21
92.0
 31
0.0
  0
LINE
  5
171
330
1E
100
AcDbEntity
  8
0
100
AcDbLine
 10
237.9999774999999
 20
57.79999999999999
 30
0.0
 11
237.9999774999999
 21
59.0
 31
0.0
  0
LINE
  5
172
330
1E
100
AcDbEntity
  8
0
100
AcDbLine
 10
237.9999774999999
 20
57.79999999999999
 30
0.0
 11
237.9999774999999
 21
57.0
 31
0.0
  0
LINE
  5
1AB
330
1E
100
AcDbEntity
  8
0
100
AcDbLine
 10
244.9999775
 20
76.0
 30
0.0
 11
244.9999775
 21
100.7058999999999
 31
0.0
  0
LINE
  5
1AC
330
1E
100
AcDbEntity
  8
0
100
AcDbLine
 10
244.9999775
 20
76.0
 30
0.0
 11
244.9999775
 21
51.2941
 31
0.0
  0
LINE
  5
1AD
330
1E
100
AcDbEntity
  8
0
100
AcDbLine
 10
237.9999774999999
 20
59.0
 30
0.0
 11
237.9999774999999
 21
60.0
 31
0.0
  0
LINE
  5
1AE
330
1E
100
AcDbEntity
  8
0
100
AcDbLine
 10
237.9999774999999
 20
59.0
 30
0.0
 11
237.9999774999999
 21
57.79999999999999
 31
0.0
  0
LINE
  5
1B2
330
1E
100
AcDbEntity
  8
0
100
AcDbLine
 10
198.2999774999998
 20
92.70000000000001
 30
0.0
 11
198.9999774999999
 21
93.0
 31
0.0
  0
LINE
  5
1B3
330
1E
100
AcDbEntity
  8
0
100
AcDbLine
 10
199.6999774999999
 20
93.0
 30
0.0
 11
200.4999774999999
 21
93.0
 31
0.0
  0
LINE
  5
1B4
330
1E
100
AcDbEntity
  8
0
100
AcDbLine
 10
199.1999774999999
 20
93.0
 30
0.0
 11
199.6999774999999
 21
93.0
 31
0.0
  0
LINE
  5
1B5
330
1E
100
AcDbEntity
  8
0
100
AcDbLine
 10
198.9999774999999
 20
93.0
 30
0.0
 11
199.1999774999999
 21
93.0
 31
0.0
  0
LINE
  5
1B8
330
1E
100
AcDbEntity
  8
0
100
AcDbLine
 10
200.4999774999999
 20
93.0
 30
0.0
 11
201.5999775
 21
93.0
 31
0.0
  0
LINE
  5
1C0
330
1E
100
AcDbEntity
  8
0
100
AcDbLine
 10
237.6999774999999
 20
92.70000000000001
 30
0.0
 11
237.9999774999999
 21
92.0
 31
0.0
  0
LINE
  5
1C2
330
1E
100
AcDbEntity
  8
0
100
AcDbLine
 10
234.3999774999999
 20
93.0
 30
0.0
 11
235.4999774999999
 21
93.0
 31
0.0
  0
LINE
  5
1C3
330
1E
100
AcDbEntity
  8
0
100
AcDbLine
 10
233.1999774999999
 20
93.0
 30
0.0
 11
234.3999774999999
 21
93.0
 31
0.0
  0
LINE
  5
1C4
330
1E
100
AcDbEntity
  8
0
100
AcDbLine
 10
235.4999774999999
 20
93.0
 30
0.0
 11
236.2999774999999
 21
93.0
 31
0.0
  0
LINE
  5
1C5
330
1E
100
AcDbEntity
  8
0
100
AcDbLine
 10
236.7999774999999
 20
93.0
 30
0.0
 11
236.9999775
 21
93.0
 31
0.0
  0
LINE
  5
1C6
330
1E
100
AcDbEntity
  8
0
100
AcDbLine
 10
236.2999774999999
 20
93.0
 30
0.0
 11
236.7999774999999
 21
93.0
 31
0.0
  0
LINE
  5
1C7
330
1E
100
AcDbEntity
  8
0
100
AcDbLine
 10
231.9999774999999
 20
93.0
 30
0.0
 11
233.1999774999999
 21
93.0
 31
0.0
  0
LINE
  5
1C8
330
1E
100
AcDbEntity
  8
0
100
AcDbLine
 10
217.9999775
 20
93.0
 30
0.0
 11
231.9999774999999
 21
93.0
 31
0.0
  0
LINE
  5
1C9
330
1E
100
AcDbEntity
  8
0
100
AcDbLine
 10
236.9999775
 20
93.0
 30
0.0
 11
237.6999774999999
 21
92.70000000000001
 31
0.0
  0
LINE
  5
1CA
330
1E
100
AcDbEntity
  8
0
100
AcDbLine
 10
203.9999775
 20
93.0
 30
0.0
 11
217.9999775
 21
93.0
 31
0.0
  0
LINE
  5
1CC
330
1E
100
AcDbEntity
  8
0
100
AcDbLine
 10
201.5999775
 20
93.0
 30
0.0
 11
202.7999774999999
 21
93.0
 31
0.0
  0
LINE
  5
1CD
330
1E
100
AcDbEntity
  8
0
100
AcDbLine
 10
202.7999774999999
 20
93.0
 30
0.0
 11
203.9999775
 21
93.0
 31
0.0
  0
LINE
  5
1CE
330
1E
100
AcDbEntity
  8
0
100
AcDbLine
 10
237.9999774999999
 20
93.0
 30
0.0
 11
237.9999774999999
 21
92.0
 31
0.0
  0
LINE
  5
1CF
330
1E
100
AcDbEntity
  8
0
100
AcDbLine
 10
237.9999774999999
 20
93.0
 30
0.0
 11
237.9999774999999
 21
94.19999999999999
 31
0.0
  0
LINE
  5
1D0
330
1E
100
AcDbEntity
  8
0
100
AcDbLine
 10
237.9999774999999
 20
94.19999999999999
 30
0.0
 11
237.9999774999999
 21
93.0
 31
0.0
  0
LINE
  5
1D1
330
1E
100
AcDbEntity
  8
0
100
AcDbLine
 10
237.9999774999999
 20
94.19999999999999
 30
0.0
 11
237.9999774999999
 21
95.0
 31
0.0
  0
LINE
  5
1D2
330
1E
100
AcDbEntity
  8
0
100
AcDbLine
 10
237.9999774999999
 20
95.0
 30
0.0
 11
237.9999774999999
 21
94.19999999999999
 31
0.0
  0
LINE
  5
1D3
330
1E
100
AcDbEntity
  8
0
100
AcDbLine
 10
237.9999774999999
 20
95.0
 30
0.0
 11
237.9999774999999
 21
95.4
 31
0.0
  0
LINE
  5
1D4
330
1E
100
AcDbEntity
  8
0
100
AcDbLine
 10
237.9999774999999
 20
95.4
 30
0.0
 11
237.9999774999999
 21
95.0
 31
0.0
  0
LINE
  5
1D5
330
1E
100
AcDbEntity
  8
0
100
AcDbLine
 10
237.9999774999999
 20
95.4
 30
0.0
 11
237.9999774999999
 21
95.65000000000001
 31
0.0
  0
LINE
  5
1D6
330
1E
100
AcDbEntity
  8
0
100
AcDbLine
 10
237.9999774999999
 20
95.65000000000001
 30
0.0
 11
237.9999774999999
 21
95.4
 31
0.0
  0
LINE
  5
1D7
330
1E
100
AcDbEntity
  8
0
100
AcDbLine
 10
237.9999774999999
 20
95.65000000000001
 30
0.0
 11
237.9999774999999
 21
95.84999999999999
 31
0.0
  0
LINE
  5
1D8
330
1E
100
AcDbEntity
  8
0
100
AcDbLine
 10
237.9999774999999
 20
92.0
 30
0.0
 11
237.9999774999999
 21
93.0
 31
0.0
  0
LINE
  5
1D9
330
1E
100
AcDbEntity
  8
0
100
AcDbLine
 10
237.9999774999999
 20
92.0
 30
0.0
 11
237.9999774999999
 21
100.7058999999999
 31
0.0
  0
LINE
  5
1DA
330
1E
100
AcDbEntity
  8
0
100
AcDbLine
 10
237.9999774999999
 20
92.0
 30
0.0
 11
237.9999774999999
 21
60.0
 31
0.0
  0
LINE
  5
1DB
330
1E
100
AcDbEntity
  8
0
100
AcDbLine
 10
108.2999775
 20
93.90000000000002
 30
0.0
 11
108.2999775
 21
92.70000000000001
 31
0.0
  0
LINE
  5
1DC
330
1E
100
AcDbEntity
  8
0
100
AcDbLine
 10
108.2999775
 20
93.90000000000002
 30
0.0
 11
108.2999775
 21
94.69999999999997
 31
0.0
  0
LINE
  5
1DD
330
1E
100
AcDbEntity
  8
0
100
AcDbLine
 10
113.9999774999999
 20
56.0
 30
0.0
 11
237.9999774999999
 21
56.0
 31
0.0
  0
LINE
  5
1E0
330
1E
100
AcDbEntity
  8
0
100
AcDbLine
 10
237.9999774999999
 20
95.84999999999999
 30
0.0
 11
237.9999774999999
 21
95.65000000000001
 31
0.0
  0
LINE
  5
1E1
330
1E
100
AcDbEntity
  8
0
100
AcDbLine
 10
237.9999774999999
 20
95.84999999999999
 30
0.0
 11
237.9999774999999
 21
95.94999999999997
 31
0.0
  0
LINE
  5
1E2
330
1E
100
AcDbEntity
  8
0
100
AcDbLine
 10
237.9999774999999
 20
95.94999999999997
 30
0.0
 11
237.9999774999999
 21
95.84999999999999
 31
0.0
  0
LINE
  5
1E3
330
1E
100
AcDbEntity
  8
0
100
AcDbLine
 10
237.9999774999999
 20
96.0
 30
0.0
 11
237.9999774999999
 21
100.7058999999999
 31
0.0
  0
LINE
  5
1E4
330
1E
100
AcDbEntity
  8
0
100
AcDbLine
 10
237.9999774999999
 20
104.6235
 30
0.0
 11
237.9999774999999
 21
104.9765
 31
0.0
  0
LINE
  5
1E5
330
1E
100
AcDbEntity
  8
0
100
AcDbLine
 10
237.9999774999999
 20
104.6235
 30
0.0
 11
237.9999774999999
 21
104.2
 31
0.0
  0
LINE
  5
1E6
330
1E
100
AcDbEntity
  8
0
100
AcDbLine
 10
237.9999774999999
 20
104.9765
 30
0.0
 11
237.9999774999999
 21
105.2587999999999
 31
0.0
  0
LINE
  5
1E7
330
1E
100
AcDbEntity
  8
0
100
AcDbLine
 10
237.9999774999999
 20
104.9765
 30
0.0
 11
237.9999774999999
 21
104.6235
 31
0.0
  0
LINE
  5
1E8
330
1E
100
AcDbEntity
  8
0
100
AcDbLine
 10
237.9999774999999
 20
105.2587999999999
 30
0.0
 11
237.9999774999999
 21
105.4706
 31
0.0
  0
LINE
  5
1E9
330
1E
100
AcDbEntity
  8
0
100
AcDbLine
 10
237.9999774999999
 20
105.2587999999999
 30
0.0
 11
237.9999774999999
 21
104.9765
 31
0.0
  0
LINE
  5
1EA
330
1E
100
AcDbEntity
  8
0
100
AcDbLine
 10
237.9999774999999
 20
105.4706
 30
0.0
 11
237.9999774999999
 21
105.6116999999999
 31
0.0
  0
LINE
  5
1EB
330
1E
100
AcDbEntity
  8
0
100
AcDbLine
 10
237.9999774999999
 20
105.4706
 30
0.0
 11
237.9999774999999
 21
105.2587999999999
 31
0.0
  0
LINE
  5
1EC
330
1E
100
AcDbEntity
  8
0
100
AcDbLine
 10
237.9999774999999
 20
105.6470999999999
 30
0.0
 11
237.9999774999999
 21
105.4706
 31
0.0
  0
LINE
  5
1ED
330
1E
100
AcDbEntity
  8
0
100
AcDbLine
 10
237.9999774999999
 20
105.6470999999999
 30
0.0
 11
238.2099774999999
 21
105.8940999999999
 31
0.0
  0
LINE
  5
1EE
330
1E
100
AcDbEntity
  8
0
100
AcDbLine
 10
237.9999774999999
 20
104.2
 30
0.0
 11
237.9999774999999
 21
103.7058999999999
 31
0.0
  0
LINE
  5
1EF
330
1E
100
AcDbEntity
  8
0
100
AcDbLine
 10
237.9999774999999
 20
104.2
 30
0.0
 11
237.9999774999999
 21
104.6235
 31
0.0
  0
LINE
  5
1F0
330
1E
100
AcDbEntity
  8
0
100
AcDbLine
 10
237.9999774999999
 20
103.7058999999999
 30
0.0
 11
237.9999774999999
 21
104.2
 31
0.0
  0
LINE
  5
1F1
330
1E
100
AcDbEntity
  8
0
100
AcDbLine
 10
237.9999774999999
 20
103.7058999999999
 30
0.0
 11
237.9999774999999
 21
103.1765
 31
0.0
  0
LINE
  5
1F2
330
1E
100
AcDbEntity
  8
0
100
AcDbLine
 10
237.9999774999999
 20
103.1765
 30
0.0
 11
237.9999774999999
 21
103.7058999999999
 31
0.0
  0
LINE
  5
1F3
330
1E
100
AcDbEntity
  8
0
100
AcDbLine
 10
237.9999774999999
 20
103.1765
 30
0.0
 11
237.9999774999999
 21
102.5764999999999
 31
0.0
  0
LINE
  5
1F4
330
1E
100
AcDbEntity
  8
0
100
AcDbLine
 10
237.9999774999999
 20
102.5764999999999
 30
0.0
 11
237.9999774999999
 21
103.1765
 31
0.0
  0
LINE
  5
1F5
330
1E
100
AcDbEntity
  8
0
100
AcDbLine
 10
237.9999774999999
 20
102.5764999999999
 30
0.0
 11
237.9999774999999
 21
101.9765
 31
0.0
  0
LINE
  5
1F6
330
1E
100
AcDbEntity
  8
0
100
AcDbLine
 10
237.9999774999999
 20
101.9765
 30
0.0
 11
237.9999774999999
 21
102.5764999999999
 31
0.0
  0
LINE
  5
1F7
330
1E
100
AcDbEntity
  8
0
100
AcDbLine
 10
237.9999774999999
 20
101.9765
 30
0.0
 11
237.9999774999999
 21
101.3411999999999
 31
0.0
  0
LINE
  5
1F8
330
1E
100
AcDbEntity
  8
0
100
AcDbLine
 10
237.9999774999999
 20
101.3411999999999
 30
0.0
 11
237.9999774999999
 21
101.9765
 31
0.0
  0
LINE
  5
1F9
330
1E
100
AcDbEntity
  8
0
100
AcDbLine
 10
237.9999774999999
 20
101.3411999999999
 30
0.0
 11
237.9999774999999
 21
100.7058999999999
 31
0.0
  0
LINE
  5
20C
330
1E
100
AcDbEntity
  8
0
100
AcDbLine
 10
244.9999775
 20
104.9058999999999
 30
0.0
 11
244.9999775
 21
104.4471
 31
0.0
  0
LINE
  5
20D
330
1E
100
AcDbEntity
  8
0
100
AcDbLine
 10
244.9999775
 20
104.9058999999999
 30
0.0
 11
244.9999775
 21
105.2941
 31
0.0
  0
LINE
  5
20E
330
1E
100
AcDbEntity
  8
0
100
AcDbLine
 10
244.9999775
 20
105.2941
 30
0.0
 11
244.9999775
 21
104.9058999999999
 31
0.0
  0
LINE
  5
20F
330
1E
100
AcDbEntity
  8
0
100
AcDbLine
 10
244.9999775
 20
105.2941
 30
0.0
 11
244.9999775
 21
105.5765
 31
0.0
  0
LINE
  5
213
330
1E
100
AcDbEntity
  8
0
100
AcDbLine
 10
244.9999775
 20
105.5765
 30
0.0
 11
244.9999775
 21
105.2941
 31
0.0
  0
LINE
  5
214
330
1E
100
AcDbEntity
  8
0
100
AcDbLine
 10
244.9999775
 20
105.5765
 30
0.0
 11
244.9999775
 21
105.8235
 31
0.0
  0
LINE
  5
215
330
1E
100
AcDbEntity
  8
0
100
AcDbLine
 10
244.9999775
 20
105.8235
 30
0.0
 11
244.9999775
 21
105.5765
 31
0.0
  0
LINE
  5
216
330
1E
100
AcDbEntity
  8
0
100
AcDbLine
 10
244.9999775
 20
105.8235
 30
0.0
 11
244.9999775
 21
105.9293999999999
 31
0.0
  0
LINE
  5
219
330
1E
100
AcDbEntity
  8
0
100
AcDbLine
 10
244.9999775
 20
104.4471
 30
0.0
 11
244.9999775
 21
103.9175999999999
 31
0.0
  0
LINE
  5
21A
330
1E
100
AcDbEntity
  8
0
100
AcDbLine
 10
244.9999775
 20
104.4471
 30
0.0
 11
244.9999775
 21
104.9058999999999
 31
0.0
  0
LINE
  5
21B
330
1E
100
AcDbEntity
  8
0
100
AcDbLine
 10
244.9999775
 20
103.9175999999999
 30
0.0
 11
244.9999775
 21
103.3529
 31
0.0
  0
LINE
  5
21C
330
1E
100
AcDbEntity
  8
0
100
AcDbLine
 10
244.9999775
 20
103.9175999999999
 30
0.0
 11
244.9999775
 21
104.4471
 31
0.0
  0
LINE
  5
21D
330
1E
100
AcDbEntity
  8
0
100
AcDbLine
 10
244.9999775
 20
103.3529
 30
0.0
 11
244.9999775
 21
102.7176
 31
0.0
  0
LINE
  5
21E
330
1E
100
AcDbEntity
  8
0
100
AcDbLine
 10
244.9999775
 20
103.3529
 30
0.0
 11
244.9999775
 21
103.9175999999999
 31
0.0
  0
LINE
  5
21F
330
1E
100
AcDbEntity
  8
0
100
AcDbLine
 10
244.9999775
 20
102.7176
 30
0.0
 11
244.9999775
 21
102.0824
 31
0.0
  0
LINE
  5
220
330
1E
100
AcDbEntity
  8
0
100
AcDbLine
 10
244.9999775
 20
102.7176
 30
0.0
 11
244.9999775
 21
103.3529
 31
0.0
  0
LINE
  5
221
330
1E
100
AcDbEntity
  8
0
100
AcDbLine
 10
244.9999775
 20
102.0824
 30
0.0
 11
244.9999775
 21
101.4116999999999
 31
0.0
  0
LINE
  5
222
330
1E
100
AcDbEntity
  8
0
100
AcDbLine
 10
244.9999775
 20
102.0824
 30
0.0
 11
244.9999775
 21
102.7176
 31
0.0
  0
LINE
  5
223
330
1E
100
AcDbEntity
  8
0
100
AcDbLine
 10
244.9999775
 20
101.4116999999999
 30
0.0
 11
244.9999775
 21
100.7058999999999
 31
0.0
  0
LINE
  5
224
330
1E
100
AcDbEntity
  8
0
100
AcDbLine
 10
244.9999775
 20
101.4116999999999
 30
0.0
 11
244.9999775
 21
102.0824
 31
0.0
  0
LINE
  5
242
330
1E
100
AcDbEntity
  8
0
100
AcDbLine
 10
244.9999775
 20
100.7058999999999
 30
0.0
 11
244.9999775
 21
76.0
 31
0.0
  0
LINE
  5
243
330
1E
100
AcDbEntity
  8
0
100
AcDbLine
 10
244.9999775
 20
100.7058999999999
 30
0.0
 11
244.9999775
 21
101.4116999999999
 31
0.0
  0
LINE
  5
244
330
1E
100
AcDbEntity
  8
0
100
AcDbLine
 10
238.6999774999999
 20
106.0
 30
0.0
 11
244.9999775
 21
106.0
 31
0.0
  0
LINE
  5
245
330
1E
100
AcDbEntity
  8
0
100
AcDbLine
 10
244.9999775
 20
105.9293999999999
 30
0.0
 11
244.9999775
 21
105.8235
 31
0.0
  0
LINE
  5
246
330
1E
100
AcDbEntity
  8
0
100
AcDbLine
 10
244.9999775
 20
105.9293999999999
 30
0.0
 11
244.9999775
 21
106.0
 31
0.0
  0
LINE
  5
25E
330
1E
100
AcDbEntity
  8
0
100
AcDbLine
 10
244.9999775
 20
106.0
 30
0.0
 11
244.9999775
 21
105.9293999999999
 31
0.0
  0
LINE
  5
25F
330
1E
100
AcDbEntity
  8
0
100
AcDbLine
 10
238.2099774999999
 20
105.8940999999999
 30
0.0
 11
238.6999774999999
 21
106.0
 31
0.0
  0
LINE
  5
260
330
1E
100
AcDbEntity
  8
0
100
AcDbLine
 10
237.9999774999999
 20
100.7058999999999
 30
0.0
 11
237.9999774999999
 21
101.3411999999999
 31
0.0
  0
LINE
  5
261
330
1E
100
AcDbEntity
  8
0
100
AcDbLine
 10
237.9999774999999
 20
100.7058999999999
 30
0.0
 11
237.9999774999999
 21
96.0
 31
0.0
  0
LINE
  5
262
330
1E
100
AcDbEntity
  8
0
100
AcDbLine
 10
237.9999774999999
 20
100.7058999999999
 30
0.0
 11
237.9999774999999
 21
92.0
 31
0.0
  0
LINE
  5
263
330
1E
100
AcDbEntity
  8
0
100
AcDbLine
 10
108.9999775
 20
96.0
 30
0.0
 11
237.9999774999999
 21
96.0
 31
0.0
  0
LINE
  5
264
330
1E
100
AcDbEntity
  8
0
100
AcDbLine
 10
108.2999775
 20
95.70000000000002
 30
0.0
 11
108.9999775
 21
96.0
 31
0.0
  0
LINE
  5
265
330
1E
100
AcDbEntity
  8
0
100
AcDbLine
 10
108.2999775
 20
95.68640000000002
 30
0.0
 11
108.2999775
 21
95.61409999999998
 31
0.0
  0
LINE
  5
266
330
1E
100
AcDbEntity
  8
0
100
AcDbLine
 10
103.2018775
 20
53.5721
 30
0.0
 11
106.4324775
 21
54.8653
 31
0.0
  0
LINE
  5
26B
330
1E
100
AcDbEntity
  8
0
100
AcDbLine
 10
97.38497750000002
 20
67.9229
 30
0.0
 11
1.307437499999998
 21
11.1959
 31
0.0
  0
LINE
  5
26D
330
1E
100
AcDbEntity
  8
0
100
AcDbLine
 10
4.999977499999999
 20
4.8697661524012
 30
0.0
 11
7.62307478928534
 21
4.380296970835189
 31
0.0
  0
LINE
  5
26E
330
1E
100
AcDbEntity
  8
0
100
AcDbLine
 10
7.62307478928534
 20
4.380296970835189
 30
0.0
 11
10.9631951352199
 21
4.154730071020735
 31
0.0
  0
LINE
  5
26F
330
1E
100
AcDbEntity
  8
0
100
AcDbLine
 10
10.9631951352199
 20
4.154730071020735
 30
0.0
 11
14.79982007804311
 21
4.470523891670238
 31
0.0
  0
LINE
  5
270
330
1E
100
AcDbEntity
  8
0
100
AcDbLine
 10
14.79982007804311
 20
4.470523891670238
 30
0.0
 11
19.85513725850614
 21
5.417904817254452
 31
0.0
  0
LINE
  5
271
330
1E
100
AcDbEntity
  8
0
100
AcDbLine
 10
19.85513725850614
 20
5.417904817254452
 30
0.0
 11
24.09799294720926
 21
6.500626258182307
 31
0.0
  0
LINE
  5
272
330
1E
100
AcDbEntity
  8
0
100
AcDbLine
 10
24.09799294720926
 20
6.500626258182307
 30
0.0
 11
26.9999775
 21
7.56577531537917
 31
0.0
  0
ENDSEC
  0
SECTION
  2
OBJECTS
  0
DICTIONARY
  5
C
330
0
100
AcDbDictionary
281
     1
  3
ACAD_GROUP
350
D
  3
ACAD_LAYOUT
350
19
  3
ACAD_MLINESTYLE
350
16
  3
ACAD_PLOTSETTINGS
350
18
  3
ACAD_PLOTSTYLENAME
350
E
  3
AcDbVariableDictionary
350
273
  0
DICTIONARY
  5
D
102
{ACAD_REACTORS
330
C
102
}
330
C
100
AcDbDictionary
281
     1
  0
DICTIONARY
  5
19
102
{ACAD_REACTORS
330
C
102
}
330
C
100
AcDbDictionary
281
     1
  3
Layout1
350
1D
  3
Model
350
21
  0
DICTIONARY
  5
16
102
{ACAD_REACTORS
330
C
102
}
330
C
100
AcDbDictionary
281
     1
  3
Standard
350
17
  0
DICTIONARY
  5
18
102
{ACAD_REACTORS
330
C
102
}
330
C
100
AcDbDictionary
281
     1
  0
ACDBDICTIONARYWDFLT
  5
E
102
{ACAD_REACTORS
330
C
102
}
330
C
100
AcDbDictionary
281
     1
  3
Normal
350
F
100
AcDbDictionaryWithDefault
340
F
  0
DICTIONARY
  5
273
102
{ACAD_REACTORS
330
C
102
}
330
C
100
AcDbDictionary
281
     1
  3
DIMASSOC
350
274
  0
LAYOUT
  5
1D
102
{ACAD_REACTORS
330
19
102
}
330
19
100
AcDbPlotSettings
  1

  2
hp deskjet 980c series
  4

  6

 40
0.0
 41
0.0
 42
0.0
 43
0.0
 44
0.0
 45
0.0
 46
0.0
 47
0.0
 48
0.0
 49
0.0
140
0.0
141
0.0
142
1.0
143
1.0
 70
   688
 72
     0
 73
     0
 74
     5
  7

 75
    16
147
1.0
148
0.0
149
0.0
100
AcDbLayout
  1
Layout1
 70
     1
 71
     1
 10
0.0
 20
0.0
 11
12.0
 21
9.0
 12
0.0
 22
0.0
 32
0.0
 14
1.000000000000000E+20
 24
1.000000000000000E+20
 34
1.000000000000000E+20
 15
-1.000000000000000E+20
 25
-1.000000000000000E+20
 35
-1.000000000000000E+20
146
0.0
 13
0.0
 23
0.0
 33
0.0
 16
1.0
 26
0.0
 36
0.0
 17
0.0
 27
1.0
 37
0.0
 76
     0
330
1A
  0
LAYOUT
  5
21
102
{ACAD_REACTORS
330
19
102
}
330
19
100
AcDbPlotSettings
  1

  2
hp deskjet 980c series
  4

  6

 40
0.0
 41
0.0
 42
0.0
 43
0.0
 44
0.0
 45
0.0
 46
0.0
 47
0.0
 48
0.0
 49
0.0
140
0.0
141
0.0
142
1.0
143
1.0
 70
  1712
 72
     0
 73
     0
 74
     0
  7

 75
     0
147
1.0
148
0.0
149
0.0
100
AcDbLayout
  1
Model
 70
     1
 71
     0
 10
0.0
 20
0.0
 11
12.0
 21
9.0
 12
0.0
 22
0.0
 32
0.0
 14
0.0
 24
0.0
 34
0.0
 15
0.0
 25
0.0
 35
0.0
146
0.0
 13
0.0
 23
0.0
 33
0.0
 16
1.0
 26
0.0
 36
0.0
 17
0.0
 27
1.0
 37
0.0
 76
     0
330
1E
  0
MLINESTYLE
  5
17
102
{ACAD_REACTORS
330
16
102
}
330
16
100
AcDbMlineStyle
  2
STANDARD
 70
     0
  3

 62
   256
 51
90.0
 52
90.0
 71
     2
 49
0.5
 62
   256
  6
BYLAYER
 49
-0.5
 62
   256
  6
BYLAYER
  0
ACDBPLACEHOLDER
  5
F
102
{ACAD_REACTORS
330
E
102
}
330
E
  0
DICTIONARYVAR
  5
274
102
{ACAD_REACTORS
330
273
102
}
330
273
100
DictionaryVariables
280
     0
  1
1
  0
ENDSEC
  0
EOF
