  0
SECTION
  2
HEADER
  9
$ACADVER
  1
AC1015
  9
$ACADMAINTVER
 70
    13
  9
$DWGCODEPAGE
  3
ANSI_1252
  9
$INSBASE
 10
0.0
 20
0.0
 30
0.0
  9
$EXTMIN
 10
0.179500000000007
 20
-0.0000000000000044
 30
0.0
  9
$EXTMAX
 10
200.8205
 20
60.0
 30
0.0
  9
$LIMMIN
 10
0.0
 20
0.0
  9
$LIMMAX
 10
12.0
 20
9.0
  9
$ORTHOMODE
 70
     0
  9
$REGENMODE
 70
     1
  9
$FILLMODE
 70
     1
  9
$QTEXTMODE
 70
     0
  9
$MIRRTEXT
 70
     1
  9
$LTSCALE
 40
1.0
  9
$ATTMODE
 70
     1
  9
$TEXTSIZE
 40
0.2
  9
$TRACEWID
 40
0.05
  9
$TEXTSTYLE
  7
Standard
  9
$CLAYER
  8
0
  9
$CELTYPE
  6
Continuous
  9
$CECOLOR
 62
   256
  9
$CELTSCALE
 40
1.0
  9
$DISPSILH
 70
     0
  9
$DIMSCALE
 40
1.0
  9
$DIMASZ
 40
0.18
  9
$DIMEXO
 40
0.0625
  9
$DIMDLI
 40
0.38
  9
$DIMRND
 40
0.0
  9
$DIMDLE
 40
0.0
  9
$DIMEXE
 40
0.18
  9
$DIMTP
 40
0.0
  9
$DIMTM
 40
0.0
  9
$DIMTXT
 40
0.18
  9
$DIMCEN
 40
0.09
  9
$DIMTSZ
 40
0.0
  9
$DIMTOL
 70
     0
  9
$DIMLIM
 70
     0
  9
$DIMTIH
 70
     1
  9
$DIMTOH
 70
     1
  9
$DIMSE1
 70
     0
  9
$DIMSE2
 70
     0
  9
$DIMTAD
 70
     0
  9
$DIMZIN
 70
     0
  9
$DIMBLK
  1

  9
$DIMASO
 70
     1
  9
$DIMSHO
 70
     1
  9
$DIMPOST
  1

  9
$DIMAPOST
  1

  9
$DIMALT
 70
     0
  9
$DIMALTD
 70
     2
  9
$DIMALTF
 40
25.4
  9
$DIMLFAC
 40
1.0
  9
$DIMTOFL
 70
     0
  9
$DIMTVP
 40
0.0
  9
$DIMTIX
 70
     0
  9
$DIMSOXD
 70
     0
  9
$DIMSAH
 70
     0
  9
$DIMBLK1
  1

  9
$DIMBLK2
  1

  9
$DIMSTYLE
  2
Standard
  9
$DIMCLRD
 70
     0
  9
$DIMCLRE
 70
     0
  9
$DIMCLRT
 70
     0
  9
$DIMTFAC
 40
1.0
  9
$DIMGAP
 40
0.09
  9
$DIMJUST
 70
     0
  9
$DIMSD1
 70
     0
  9
$DIMSD2
 70
     0
  9
$DIMTOLJ
 70
     1
  9
$DIMTZIN
 70
     0
  9
$DIMALTZ
 70
     0
  9
$DIMALTTZ
 70
     0
  9
$DIMUPT
 70
     0
  9
$DIMDEC
 70
     4
  9
$DIMTDEC
 70
     4
  9
$DIMALTU
 70
     2
  9
$DIMALTTD
 70
     2
  9
$DIMTXSTY
  7
Standard
  9
$DIMAUNIT
 70
     0
  9
$DIMADEC
 70
     0
  9
$DIMALTRND
 40
0.0
  9
$DIMAZIN
 70
     0
  9
$DIMDSEP
 70
    46
  9
$DIMATFIT
 70
     3
  9
$DIMFRAC
 70
     0
  9
$DIMLDRBLK
  1

  9
$DIMLUNIT
 70
     2
  9
$DIMLWD
 70
    -2
  9
$DIMLWE
 70
    -2
  9
$DIMTMOVE
 70
     0
  9
$LUNITS
 70
     2
  9
$LUPREC
 70
     4
  9
$SKETCHINC
 40
0.1
  9
$FILLETRAD
 40
0.0
  9
$AUNITS
 70
     0
  9
$AUPREC
 70
     0
  9
$MENU
  1
.
  9
$ELEVATION
 40
0.0
  9
$PELEVATION
 40
0.0
  9
$THICKNESS
 40
0.0
  9
$LIMCHECK
 70
     0
  9
$CHAMFERA
 40
0.0
  9
$CHAMFERB
 40
0.0
  9
$CHAMFERC
 40
0.0
  9
$CHAMFERD
 40
0.0
  9
$SKPOLY
 70
     0
  9
$TDCREATE
 40
2454874.808285949
  9
$TDUCREATE
 40
2454874.766619282
  9
$TDUPDATE
 40
2454874.809964548
  9
$TDUUPDATE
 40
2454874.768297881
  9
$TDINDWG
 40
0.0016785995
  9
$TDUSRTIMER
 40
0.0016785995
  9
$USRTIMER
 70
     1
  9
$ANGBASE
 50
0.0
  9
$ANGDIR
 70
     0
  9
$PDMODE
 70
     0
  9
$PDSIZE
 40
0.0
  9
$PLINEWID
 40
0.0
  9
$SPLFRAME
 70
     0
  9
$SPLINETYPE
 70
     6
  9
$SPLINESEGS
 70
     8
  9
$HANDSEED
  5
1B2
  9
$SURFTAB1
 70
     6
  9
$SURFTAB2
 70
     6
  9
$SURFTYPE
 70
     6
  9
$SURFU
 70
     6
  9
$SURFV
 70
     6
  9
$UCSBASE
  2

  9
$UCSNAME
  2

  9
$UCSORG
 10
0.0
 20
0.0
 30
0.0
  9
$UCSXDIR
 10
1.0
 20
0.0
 30
0.0
  9
$UCSYDIR
 10
0.0
 20
1.0
 30
0.0
  9
$UCSORTHOREF
  2

  9
$UCSORTHOVIEW
 70
     1
  9
$UCSORGTOP
 10
0.0
 20
0.0
 30
0.0
  9
$UCSORGBOTTOM
 10
0.0
 20
0.0
 30
0.0
  9
$UCSORGLEFT
 10
0.0
 20
0.0
 30
0.0
  9
$UCSORGRIGHT
 10
0.0
 20
0.0
 30
0.0
  9
$UCSORGFRONT
 10
0.0
 20
0.0
 30
0.0
  9
$UCSORGBACK
 10
0.0
 20
0.0
 30
0.0
  9
$PUCSBASE
  2

  9
$PUCSNAME
  2

  9
$PUCSORG
 10
0.0
 20
0.0
 30
0.0
  9
$PUCSXDIR
 10
1.0
 20
0.0
 30
0.0
  9
$PUCSYDIR
 10
0.0
 20
1.0
 30
0.0
  9
$PUCSORTHOREF
  2

  9
$PUCSORTHOVIEW
 70
     0
  9
$PUCSORGTOP
 10
0.0
 20
0.0
 30
0.0
  9
$PUCSORGBOTTOM
 10
0.0
 20
0.0
 30
0.0
  9
$PUCSORGLEFT
 10
0.0
 20
0.0
 30
0.0
  9
$PUCSORGRIGHT
 10
0.0
 20
0.0
 30
0.0
  9
$PUCSORGFRONT
 10
0.0
 20
0.0
 30
0.0
  9
$PUCSORGBACK
 10
0.0
 20
0.0
 30
0.0
  9
$USERI1
 70
     0
  9
$USERI2
 70
     0
  9
$USERI3
 70
     0
  9
$USERI4
 70
     0
  9
$USERI5
 70
     0
  9
$USERR1
 40
0.0
  9
$USERR2
 40
0.0
  9
$USERR3
 40
0.0
  9
$USERR4
 40
0.0
  9
$USERR5
 40
0.0
  9
$WORLDVIEW
 70
     1
  9
$SHADEDGE
 70
     3
  9
$SHADEDIF
 70
    70
  9
$TILEMODE
 70
     1
  9
$MAXACTVP
 70
    64
  9
$PINSBASE
 10
0.0
 20
0.0
 30
0.0
  9
$PLIMCHECK
 70
     0
  9
$PEXTMIN
 10
1.000000000000000E+20
 20
1.000000000000000E+20
 30
1.000000000000000E+20
  9
$PEXTMAX
 10
-1.000000000000000E+20
 20
-1.000000000000000E+20
 30
-1.000000000000000E+20
  9
$PLIMMIN
 10
0.0
 20
0.0
  9
$PLIMMAX
 10
12.0
 20
9.0
  9
$UNITMODE
 70
     0
  9
$VISRETAIN
 70
     1
  9
$PLINEGEN
 70
     0
  9
$PSLTSCALE
 70
     1
  9
$TREEDEPTH
 70
  3020
  9
$CMLSTYLE
  2
Standard
  9
$CMLJUST
 70
     0
  9
$CMLSCALE
 40
1.0
  9
$PROXYGRAPHICS
 70
     1
  9
$MEASUREMENT
 70
     0
  9
$CELWEIGHT
370
    -1
  9
$ENDCAPS
280
     0
  9
$JOINSTYLE
280
     0
  9
$LWDISPLAY
290
     0
  9
$INSUNITS
 70
     0
  9
$HYPERLINKBASE
  1

  9
$STYLESHEET
  1

  9
$XEDIT
290
     1
  9
$CEPSNTYPE
380
     0
  9
$PSTYLEMODE
290
     1
  9
$FINGERPRINTGUID
  2
{38C1AC04-7927-43FE-AC38-5B291CF97420}
  9
$VERSIONGUID
  2
{1693DBAF-5EFB-4CD7-A462-6C3126C9A4C0}
  9
$EXTNAMES
290
     1
  9
$PSVPSCALE
 40
0.0
  9
$OLESTARTUP
290
     0
  0
ENDSEC
  0
SECTION
  2
CLASSES
  0
CLASS
  1
ACDBDICTIONARYWDFLT
  2
AcDbDictionaryWithDefault
  3
AutoCAD 2000
 90
        0
280
     0
281
     0
  0
CLASS
  1
ACDBPLACEHOLDER
  2
AcDbPlaceHolder
  3
AutoCAD 2000
 90
        0
280
     0
281
     0
  0
CLASS
  1
LAYOUT
  2
AcDbLayout
  3
AutoCAD 2000
 90
        0
280
     0
281
     0
  0
CLASS
  1
DICTIONARYVAR
  2
AcDbDictionaryVar
  3
AutoCAD 2000
 90
        0
280
     0
281
     0
  0
ENDSEC
  0
SECTION
  2
TABLES
  0
TABLE
  2
VPORT
  5
8
330
0
100
AcDbSymbolTable
 70
     2
  0
VPORT
  5
1B1
330
8
100
AcDbSymbolTableRecord
100
AcDbViewportTableRecord
  2
*Active
 70
     0
 10
0.0
 20
0.0
 11
1.0
 21
1.0
 12
100.5
 22
30.0
 13
0.0
 23
0.0
 14
1.0
 24
1.0
 15
0.0
 25
0.0
 16
0.0
 26
0.0
 36
1.0
 17
0.0
 27
0.0
 37
0.0
 40
102.2588713218487
 41
1.968387776606954
 42
50.0
 43
0.0
 44
0.0
 50
0.0
 51
0.0
 71
     0
 72
   100
 73
     1
 74
     3
 75
     0
 76
     0
 77
     0
 78
     0
281
     0
 65
     1
110
0.0
120
0.0
130
0.0
111
1.0
121
0.0
131
0.0
112
0.0
122
1.0
132
0.0
 79
     1
146
0.0
  0
ENDTAB
  0
TABLE
  2
LTYPE
  5
5
330
0
100
AcDbSymbolTable
 70
     1
  0
LTYPE
  5
13
330
5
100
AcDbSymbolTableRecord
100
AcDbLinetypeTableRecord
  2
ByBlock
 70
     0
  3

 72
    65
 73
     0
 40
0.0
  0
LTYPE
  5
14
330
5
100
AcDbSymbolTableRecord
100
AcDbLinetypeTableRecord
  2
ByLayer
 70
     0
  3

 72
    65
 73
     0
 40
0.0
  0
LTYPE
  5
15
330
5
100
AcDbSymbolTableRecord
100
AcDbLinetypeTableRecord
  2
Continuous
 70
     0
  3
Solid line
 72
    65
 73
     0
 40
0.0
  0
ENDTAB
  0
TABLE
  2
LAYER
  5
2
330
0
100
AcDbSymbolTable
 70
     1
  0
LAYER
  5
10
330
2
100
AcDbSymbolTableRecord
100
AcDbLayerTableRecord
  2
0
 70
     0
 62
     7
  6
Continuous
370
    -3
390
F
  0
ENDTAB
  0
TABLE
  2
STYLE
  5
3
330
0
100
AcDbSymbolTable
 70
     1
  0
STYLE
  5
11
330
3
100
AcDbSymbolTableRecord
100
AcDbTextStyleTableRecord
  2
Standard
 70
     0
 40
0.0
 41
1.0
 50
0.0
 71
     0
 42
0.2
  3
txt
  4

  0
ENDTAB
  0
TABLE
  2
VIEW
  5
6
330
0
100
AcDbSymbolTable
 70
     0
  0
ENDTAB
  0
TABLE
  2
UCS
  5
7
330
0
100
AcDbSymbolTable
 70
     0
  0
ENDTAB
  0
TABLE
  2
APPID
  5
9
330
0
100
AcDbSymbolTable
 70
     1
  0
APPID
  5
12
330
9
100
AcDbSymbolTableRecord
100
AcDbRegAppTableRecord
  2
ACAD
 70
     0
  0
ENDTAB
  0
TABLE
  2
DIMSTYLE
  5
A
330
0
100
AcDbSymbolTable
 70
     1
100
AcDbDimStyleTable
 71
     0
  0
DIMSTYLE
105
19F
330
A
100
AcDbSymbolTableRecord
100
AcDbDimStyleTableRecord
  2
Standard
 70
     0
340
11
  0
ENDTAB
  0
TABLE
  2
BLOCK_RECORD
  5
1
330
0
100
AcDbSymbolTable
 70
     0
  0
BLOCK_RECORD
  5
1E
330
1
100
AcDbSymbolTableRecord
100
AcDbBlockTableRecord
  2
*Model_Space
340
21
  0
BLOCK_RECORD
  5
1A
330
1
100
AcDbSymbolTableRecord
100
AcDbBlockTableRecord
  2
*Paper_Space
340
1D
  0
ENDTAB
  0
ENDSEC
  0
SECTION
  2
BLOCKS
  0
BLOCK
  5
1F
330
1E
100
AcDbEntity
  8
0
100
AcDbBlockBegin
  2
*Model_Space
 70
     0
 10
0.0
 20
0.0
 30
0.0
  3
*Model_Space
  1

  0
ENDBLK
  5
20
330
1E
100
AcDbEntity
  8
0
100
AcDbBlockEnd
  0
BLOCK
  5
1B
330
1A
100
AcDbEntity
 67
     1
  8
0
100
AcDbBlockBegin
  2
*Paper_Space
 70
     0
 10
0.0
 20
0.0
 30
0.0
  3
*Paper_Space
  1

  0
ENDBLK
  5
1C
330
1A
100
AcDbEntity
 67
     1
  8
0
100
AcDbBlockEnd
  0
ENDSEC
  0
SECTION
  2
ENTITIES
  0
LINE
  5
22
330
1E
100
AcDbEntity
  8
0
100
AcDbLine
 10
134.1794999999999
 20
8.0
 30
0.0
 11
134.1794999999999
 21
20.0
 31
0.0
  0
LINE
  5
23
330
1E
100
AcDbEntity
  8
0
100
AcDbLine
 10
134.1794999999999
 20
8.0
 30
0.0
 11
134.4794999999999
 21
7.299999999999999
 31
0.0
  0
LINE
  5
24
330
1E
100
AcDbEntity
  8
0
100
AcDbLine
 10
134.1794999999999
 20
8.0
 30
0.0
 11
134.1794999999999
 21
27.0
 31
0.0
  0
LINE
  5
25
330
1E
100
AcDbEntity
  8
0
100
AcDbLine
 10
134.1794999999999
 20
8.199999999999999
 30
0.0
 11
134.1794999999999
 21
8.699999999999999
 31
0.0
  0
LINE
  5
26
330
1E
100
AcDbEntity
  8
0
100
AcDbLine
 10
134.1794999999999
 20
11.7596
 30
0.0
 11
134.1794999999999
 21
12.3488
 31
0.0
  0
LINE
  5
27
330
1E
100
AcDbEntity
  8
0
100
AcDbLine
 10
134.1794999999999
 20
11.7596
 30
0.0
 11
134.1794999999999
 21
11.23099999999999
 31
0.0
  0
LINE
  5
28
330
1E
100
AcDbEntity
  8
0
100
AcDbLine
 10
134.1794999999999
 20
11.23099999999999
 30
0.0
 11
134.1794999999999
 21
11.7596
 31
0.0
  0
LINE
  5
29
330
1E
100
AcDbEntity
  8
0
100
AcDbLine
 10
134.1794999999999
 20
11.23099999999999
 30
0.0
 11
134.1794999999999
 21
10.83239999999999
 31
0.0
  0
LINE
  5
2A
330
1E
100
AcDbEntity
  8
0
100
AcDbLine
 10
134.1794999999999
 20
10.83239999999999
 30
0.0
 11
134.1794999999999
 21
11.23099999999999
 31
0.0
  0
LINE
  5
2B
330
1E
100
AcDbEntity
  8
0
100
AcDbLine
 10
134.1794999999999
 20
10.83239999999999
 30
0.0
 11
134.1794999999999
 21
10.58109999999999
 31
0.0
  0
LINE
  5
2C
330
1E
100
AcDbEntity
  8
0
100
AcDbLine
 10
134.1794999999999
 20
10.58109999999999
 30
0.0
 11
134.1794999999999
 21
10.83239999999999
 31
0.0
  0
LINE
  5
2D
330
1E
100
AcDbEntity
  8
0
100
AcDbLine
 10
134.1794999999999
 20
10.58109999999999
 30
0.0
 11
134.1794999999999
 21
10.5
 31
0.0
  0
LINE
  5
2E
330
1E
100
AcDbEntity
  8
0
100
AcDbLine
 10
134.1794999999999
 20
8.699999999999999
 30
0.0
 11
134.1794999999999
 21
8.199999999999999
 31
0.0
  0
LINE
  5
2F
330
1E
100
AcDbEntity
  8
0
100
AcDbLine
 10
134.1794999999999
 20
12.3488
 30
0.0
 11
134.1794999999999
 21
13.0
 31
0.0
  0
LINE
  5
30
330
1E
100
AcDbEntity
  8
0
100
AcDbLine
 10
134.1794999999999
 20
12.3488
 30
0.0
 11
134.1794999999999
 21
11.7596
 31
0.0
  0
LINE
  5
31
330
1E
100
AcDbEntity
  8
0
100
AcDbLine
 10
134.1794999999999
 20
13.0
 30
0.0
 11
134.1794999999999
 21
20.0
 31
0.0
  0
LINE
  5
32
330
1E
100
AcDbEntity
  8
0
100
AcDbLine
 10
134.1794999999999
 20
13.0
 30
0.0
 11
134.1794999999999
 21
12.3488
 31
0.0
  0
LINE
  5
33
330
1E
100
AcDbEntity
  8
0
100
AcDbLine
 10
134.1794999999999
 20
13.0
 30
0.0
 11
134.1794999999999
 21
27.0
 31
0.0
  0
LINE
  5
34
330
1E
100
AcDbEntity
  8
0
100
AcDbLine
 10
25.7255
 20
37.1411
 30
0.0
 11
26.0977
 21
37.00569999999999
 31
0.0
  0
LINE
  5
35
330
1E
100
AcDbEntity
  8
0
100
AcDbLine
 10
26.0977
 20
37.00569999999999
 30
0.0
 11
26.4483
 21
37.1973
 31
0.0
  0
LINE
  5
36
330
1E
100
AcDbEntity
  8
0
100
AcDbLine
 10
23.12069999999999
 20
38.0892
 30
0.0
 11
24.7332
 21
37.5023
 31
0.0
  0
LINE
  5
37
330
1E
100
AcDbEntity
  8
0
100
AcDbLine
 10
24.7332
 20
37.5023
 30
0.0
 11
25.7255
 21
37.1411
 31
0.0
  0
LINE
  5
38
330
1E
100
AcDbEntity
  8
0
100
AcDbLine
 10
18.6139
 20
39.7295
 30
0.0
 11
21.01199999999999
 21
38.85669999999999
 31
0.0
  0
LINE
  5
39
330
1E
100
AcDbEntity
  8
0
100
AcDbLine
 10
21.01199999999999
 20
38.85669999999999
 30
0.0
 11
23.12069999999999
 21
38.0892
 31
0.0
  0
LINE
  5
3A
330
1E
100
AcDbEntity
  8
0
100
AcDbLine
 10
16.0091
 20
40.67759999999999
 30
0.0
 11
18.6139
 21
39.7295
 31
0.0
  0
LINE
  5
3B
330
1E
100
AcDbEntity
  8
0
100
AcDbLine
 10
16.11169999999999
 20
40.9595
 30
0.0
 11
18.7579
 21
39.9964
 31
0.0
  0
LINE
  5
3C
330
1E
100
AcDbEntity
  8
0
100
AcDbLine
 10
18.7579
 20
39.9964
 30
0.0
 11
21.2387
 21
39.09349999999999
 31
0.0
  0
LINE
  5
3D
330
1E
100
AcDbEntity
  8
0
100
AcDbLine
 10
21.2387
 20
39.09349999999999
 30
0.0
 11
23.4301
 21
38.2959
 31
0.0
  0
LINE
  5
3E
330
1E
100
AcDbEntity
  8
0
100
AcDbLine
 10
23.4301
 20
38.2959
 30
0.0
 11
25.0839
 21
37.6939
 31
0.0
  0
LINE
  5
3F
330
1E
100
AcDbEntity
  8
0
100
AcDbLine
 10
25.0839
 20
37.6939
 30
0.0
 11
26.0762
 21
37.3327
 31
0.0
  0
LINE
  5
40
330
1E
100
AcDbEntity
  8
0
100
AcDbLine
 10
26.0762
 20
37.3327
 30
0.0
 11
26.4483
 21
37.1973
 31
0.0
  0
LINE
  5
41
330
1E
100
AcDbEntity
  8
0
100
AcDbLine
 10
130.9644999999999
 20
32.0
 30
0.0
 11
133.3614999999999
 21
26.2117
 31
0.0
  0
LINE
  5
42
330
1E
100
AcDbEntity
  8
0
100
AcDbLine
 10
133.3614999999999
 20
26.2117
 30
0.0
 11
134.1794999999999
 21
20.0
 31
0.0
  0
LINE
  5
43
330
1E
100
AcDbEntity
  8
0
100
AcDbLine
 10
122.1794999999999
 20
40.78459999999999
 30
0.0
 11
127.1504999999999
 21
36.9706
 31
0.0
  0
LINE
  5
44
330
1E
100
AcDbEntity
  8
0
100
AcDbLine
 10
127.1504999999999
 20
36.9706
 30
0.0
 11
130.9644999999999
 21
32.0
 31
0.0
  0
LINE
  5
45
330
1E
100
AcDbEntity
  8
0
100
AcDbLine
 10
26.4483
 20
37.1973
 30
0.0
 11
28.92792847174989
 21
44.00999999999999
 31
0.0
  0
LINE
  5
46
330
1E
100
AcDbEntity
  8
0
100
AcDbLine
 10
13.4043
 20
41.6257
 30
0.0
 11
16.0091
 21
40.67759999999999
 31
0.0
  0
LINE
  5
47
330
1E
100
AcDbEntity
  8
0
100
AcDbLine
 10
13.4655
 20
41.9226
 30
0.0
 11
16.11169999999999
 21
40.9595
 31
0.0
  0
LINE
  5
48
330
1E
100
AcDbEntity
  8
0
100
AcDbLine
 10
11.00619999999999
 20
42.4985
 30
0.0
 11
13.4043
 21
41.6257
 31
0.0
  0
LINE
  5
49
330
1E
100
AcDbEntity
  8
0
100
AcDbLine
 10
116.3915
 20
43.1822
 30
0.0
 11
122.1794999999999
 21
40.78459999999999
 31
0.0
  0
LINE
  5
4A
330
1E
100
AcDbEntity
  8
0
100
AcDbLine
 10
8.89753000000001
 20
43.266
 30
0.0
 11
11.00619999999999
 21
42.4985
 31
0.0
  0
LINE
  5
4B
330
1E
100
AcDbEntity
  8
0
100
AcDbLine
 10
10.9848
 20
42.8256
 30
0.0
 11
13.4655
 21
41.9226
 31
0.0
  0
LINE
  5
4C
330
1E
100
AcDbEntity
  8
0
100
AcDbLine
 10
134.1794999999999
 20
43.4189
 30
0.0
 11
134.1794999999999
 21
43.5
 31
0.0
  0
LINE
  5
4D
330
1E
100
AcDbEntity
  8
0
100
AcDbLine
 10
134.1794999999999
 20
43.4189
 30
0.0
 11
134.1794999999999
 21
43.1676
 31
0.0
  0
LINE
  5
4E
330
1E
100
AcDbEntity
  8
0
100
AcDbLine
 10
134.1794999999999
 20
42.2404
 30
0.0
 11
134.1794999999999
 21
42.769
 31
0.0
  0
LINE
  5
4F
330
1E
100
AcDbEntity
  8
0
100
AcDbLine
 10
134.1794999999999
 20
42.2404
 30
0.0
 11
134.1794999999999
 21
41.6512
 31
0.0
  0
LINE
  5
50
330
1E
100
AcDbEntity
  8
0
100
AcDbLine
 10
134.1794999999999
 20
42.769
 30
0.0
 11
134.1794999999999
 21
42.2404
 31
0.0
  0
LINE
  5
51
330
1E
100
AcDbEntity
  8
0
100
AcDbLine
 10
134.1794999999999
 20
42.769
 30
0.0
 11
134.1794999999999
 21
43.1676
 31
0.0
  0
LINE
  5
52
330
1E
100
AcDbEntity
  8
0
100
AcDbLine
 10
134.1794999999999
 20
41.6512
 30
0.0
 11
134.1794999999999
 21
42.2404
 31
0.0
  0
LINE
  5
53
330
1E
100
AcDbEntity
  8
0
100
AcDbLine
 10
134.1794999999999
 20
41.6512
 30
0.0
 11
134.1794999999999
 21
41.0
 31
0.0
  0
LINE
  5
54
330
1E
100
AcDbEntity
  8
0
100
AcDbLine
 10
134.1794999999999
 20
43.1676
 30
0.0
 11
134.1794999999999
 21
42.769
 31
0.0
  0
LINE
  5
55
330
1E
100
AcDbEntity
  8
0
100
AcDbLine
 10
134.1794999999999
 20
43.1676
 30
0.0
 11
134.1794999999999
 21
43.4189
 31
0.0
  0
LINE
  5
56
330
1E
100
AcDbEntity
  8
0
100
AcDbLine
 10
134.1794999999999
 20
41.0
 30
0.0
 11
134.1794999999999
 21
27.0
 31
0.0
  0
LINE
  5
57
330
1E
100
AcDbEntity
  8
0
100
AcDbLine
 10
134.1794999999999
 20
41.0
 30
0.0
 11
134.1794999999999
 21
41.6512
 31
0.0
  0
LINE
  5
58
330
1E
100
AcDbEntity
  8
0
100
AcDbLine
 10
134.1794999999999
 20
27.0
 30
0.0
 11
134.1794999999999
 21
41.0
 31
0.0
  0
LINE
  5
59
330
1E
100
AcDbEntity
  8
0
100
AcDbLine
 10
134.1794999999999
 20
27.0
 30
0.0
 11
134.1794999999999
 21
46.0
 31
0.0
  0
LINE
  5
5A
330
1E
100
AcDbEntity
  8
0
100
AcDbLine
 10
134.1794999999999
 20
27.0
 30
0.0
 11
134.1794999999999
 21
13.0
 31
0.0
  0
LINE
  5
5B
330
1E
100
AcDbEntity
  8
0
100
AcDbLine
 10
134.1794999999999
 20
27.0
 30
0.0
 11
134.1794999999999
 21
8.0
 31
0.0
  0
LINE
  5
5C
330
1E
100
AcDbEntity
  8
0
100
AcDbLine
 10
6.292700000000009
 20
44.2141
 30
0.0
 11
7.28501
 21
43.8529
 31
0.0
  0
LINE
  5
5D
330
1E
100
AcDbEntity
  8
0
100
AcDbLine
 10
5.920580000000009
 20
44.34949999999999
 30
0.0
 11
6.292700000000009
 21
44.2141
 31
0.0
  0
LINE
  5
5E
330
1E
100
AcDbEntity
  8
0
100
AcDbLine
 10
28.92428875699399
 20
44.0
 30
0.0
 11
110.1795
 21
44.0
 31
0.0
  0
LINE
  5
5F
330
1E
100
AcDbEntity
  8
0
100
AcDbLine
 10
28.92428875699399
 20
44.0
 30
0.0
 11
110.1795
 21
44.0
 31
0.0
  0
LINE
  5
60
330
1E
100
AcDbEntity
  8
0
100
AcDbLine
 10
110.1795
 20
44.0
 30
0.0
 11
116.3915
 21
43.1822
 31
0.0
  0
LINE
  5
61
330
1E
100
AcDbEntity
  8
0
100
AcDbLine
 10
7.28501
 20
43.8529
 30
0.0
 11
8.89753000000001
 21
43.266
 31
0.0
  0
LINE
  5
62
330
1E
100
AcDbEntity
  8
0
100
AcDbLine
 10
8.793400000000008
 20
43.62319999999999
 30
0.0
 11
10.9848
 21
42.8256
 31
0.0
  0
LINE
  5
63
330
1E
100
AcDbEntity
  8
0
100
AcDbLine
 10
7.139540000000009
 20
44.22509999999999
 30
0.0
 11
8.793400000000008
 21
43.62319999999999
 31
0.0
  0
LINE
  5
64
330
1E
100
AcDbEntity
  8
0
100
AcDbLine
 10
6.147220000000009
 20
44.5863
 30
0.0
 11
7.139540000000009
 21
44.22509999999999
 31
0.0
  0
LINE
  5
65
330
1E
100
AcDbEntity
  8
0
100
AcDbLine
 10
0.179500000000007
 20
58.0
 30
0.0
 11
0.9945090000000071
 21
54.9655
 31
0.0
  0
LINE
  5
71
330
1E
100
AcDbEntity
  8
0
100
AcDbLine
 10
0.9945090000000071
 20
54.9655
 30
0.0
 11
2.17405000000001
 21
52.7031
 31
0.0
  0
LINE
  5
72
330
1E
100
AcDbEntity
  8
0
100
AcDbLine
 10
2.17405000000001
 20
52.7031
 30
0.0
 11
3.835240000000009
 21
50.598
 31
0.0
  0
LINE
  5
7C
330
1E
100
AcDbEntity
  8
0
100
AcDbLine
 10
133.7615
 20
58.1052
 30
0.0
 11
137.1585
 21
57.5597
 31
0.0
  0
LINE
  5
7E
330
1E
100
AcDbEntity
  8
0
100
AcDbLine
 10
130.4594999999999
 20
58.85419999999999
 30
0.0
 11
133.7615
 21
58.1052
 31
0.0
  0
LINE
  5
81
330
1E
100
AcDbEntity
  8
0
100
AcDbLine
 10
126.3724999999999
 20
59.5436
 30
0.0
 11
130.4594999999999
 21
58.85419999999999
 31
0.0
  0
LINE
  5
85
330
1E
100
AcDbEntity
  8
0
100
AcDbLine
 10
3.835240000000009
 20
50.598
 30
0.0
 11
5.972180000000009
 21
48.7015
 31
0.0
  0
LINE
  5
86
330
1E
100
AcDbEntity
  8
0
100
AcDbLine
 10
5.972180000000009
 20
48.7015
 30
0.0
 11
6.978966198941709
 21
48.02930269924059
 31
0.0
  0
LINE
  5
87
330
1E
100
AcDbEntity
  8
0
100
AcDbLine
 10
0.179500000000007
 20
59.0
 30
0.0
 11
0.479500000000007
 21
59.7
 31
0.0
  0
LINE
  5
88
330
1E
100
AcDbEntity
  8
0
100
AcDbLine
 10
1.179500000000009
 20
60.0
 30
0.0
 11
1.265370000000009
 21
60.0
 31
0.0
  0
LINE
  5
89
330
1E
100
AcDbEntity
  8
0
100
AcDbLine
 10
1.265370000000009
 20
60.0
 30
0.0
 11
1.46923000000001
 21
60.0
 31
0.0
  0
LINE
  5
8A
330
1E
100
AcDbEntity
  8
0
100
AcDbLine
 10
1.46923000000001
 20
60.0
 30
0.0
 11
1.78183000000001
 21
60.0
 31
0.0
  0
LINE
  5
8B
330
1E
100
AcDbEntity
  8
0
100
AcDbLine
 10
1.78183000000001
 20
60.0
 30
0.0
 11
2.162380000000009
 21
60.0
 31
0.0
  0
LINE
  5
8C
330
1E
100
AcDbEntity
  8
0
100
AcDbLine
 10
2.162380000000009
 20
60.0
 30
0.0
 11
2.624470000000009
 21
60.0
 31
0.0
  0
LINE
  5
8D
330
1E
100
AcDbEntity
  8
0
100
AcDbLine
 10
2.624470000000009
 20
60.0
 30
0.0
 11
3.172430000000009
 21
60.0
 31
0.0
  0
LINE
  5
8E
330
1E
100
AcDbEntity
  8
0
100
AcDbLine
 10
3.172430000000009
 20
60.0
 30
0.0
 11
3.979500000000009
 21
60.0
 31
0.0
  0
LINE
  5
8F
330
1E
100
AcDbEntity
  8
0
100
AcDbLine
 10
3.979500000000009
 20
60.0
 30
0.0
 11
5.179500000000009
 21
60.0
 31
0.0
  0
LINE
  5
90
330
1E
100
AcDbEntity
  8
0
100
AcDbLine
 10
21.9062
 20
60.0
 30
0.0
 11
24.1795
 21
60.0
 31
0.0
  0
LINE
  5
91
330
1E
100
AcDbEntity
  8
0
100
AcDbLine
 10
18.85679999999999
 20
60.0
 30
0.0
 11
21.9062
 21
60.0
 31
0.0
  0
LINE
  5
92
330
1E
100
AcDbEntity
  8
0
100
AcDbLine
 10
15.42839999999999
 20
60.0
 30
0.0
 11
18.85679999999999
 21
60.0
 31
0.0
  0
LINE
  5
93
330
1E
100
AcDbEntity
  8
0
100
AcDbLine
 10
12.8698
 20
60.0
 30
0.0
 11
15.42839999999999
 21
60.0
 31
0.0
  0
LINE
  5
94
330
1E
100
AcDbEntity
  8
0
100
AcDbLine
 10
10.6685
 20
60.0
 30
0.0
 11
12.8698
 21
60.0
 31
0.0
  0
LINE
  5
95
330
1E
100
AcDbEntity
  8
0
100
AcDbLine
 10
8.68362000000001
 20
60.0
 30
0.0
 11
10.6685
 21
60.0
 31
0.0
  0
LINE
  5
96
330
1E
100
AcDbEntity
  8
0
100
AcDbLine
 10
6.879500000000009
 20
60.0
 30
0.0
 11
8.68362000000001
 21
60.0
 31
0.0
  0
LINE
  5
97
330
1E
100
AcDbEntity
  8
0
100
AcDbLine
 10
5.179500000000009
 20
60.0
 30
0.0
 11
6.879500000000009
 21
60.0
 31
0.0
  0
LINE
  5
98
330
1E
100
AcDbEntity
  8
0
100
AcDbLine
 10
110.1795
 20
60.0
 30
0.0
 11
118.1795
 21
60.0
 31
0.0
  0
LINE
  5
99
330
1E
100
AcDbEntity
  8
0
100
AcDbLine
 10
123.3204999999999
 20
59.788
 30
0.0
 11
126.3724999999999
 21
59.5436
 31
0.0
  0
LINE
  5
9A
330
1E
100
AcDbEntity
  8
0
100
AcDbLine
 10
118.1795
 20
60.0
 30
0.0
 11
123.3204999999999
 21
59.788
 31
0.0
  0
LINE
  5
9B
330
1E
100
AcDbEntity
  8
0
100
AcDbLine
 10
24.1795
 20
60.0
 30
0.0
 11
110.1795
 21
60.0
 31
0.0
  0
LINE
  5
9C
330
1E
100
AcDbEntity
  8
0
100
AcDbLine
 10
0.479500000000007
 20
59.7
 30
0.0
 11
1.179500000000009
 21
60.0
 31
0.0
  0
LINE
  5
9E
330
1E
100
AcDbEntity
  8
0
100
AcDbLine
 10
0.179500000000007
 20
58.0
 30
0.0
 11
0.179500000000007
 21
59.0
 31
0.0
  0
LINE
  5
9F
330
1E
100
AcDbEntity
  8
0
100
AcDbLine
 10
0.179500000000007
 20
58.0
 30
0.0
 11
0.9945090000000071
 21
54.9655
 31
0.0
  0
LINE
  5
A0
330
1E
100
AcDbEntity
  8
0
100
AcDbLine
 10
5.775110000000009
 20
44.7217
 30
0.0
 11
6.147220000000009
 21
44.5863
 31
0.0
  0
LINE
  5
A1
330
1E
100
AcDbEntity
  8
0
100
AcDbLine
 10
5.775110000000009
 20
44.7217
 30
0.0
 11
6.985771136100839
 21
48.0479993081342
 31
0.0
  0
LINE
  5
A2
330
1E
100
AcDbEntity
  8
0
100
AcDbLine
 10
5.775110000000009
 20
44.7217
 30
0.0
 11
5.920580000000009
 21
44.34949999999999
 31
0.0
  0
LINE
  5
A3
330
1E
100
AcDbEntity
  8
0
100
AcDbLine
 10
5.775110000000009
 20
44.7217
 30
0.0
 11
6.98577113610085
 21
48.0479993081342
 31
0.0
  0
LINE
  5
A4
330
1E
100
AcDbEntity
  8
0
100
AcDbLine
 10
134.1794999999999
 20
45.8
 30
0.0
 11
134.1794999999999
 21
46.0
 31
0.0
  0
LINE
  5
A5
330
1E
100
AcDbEntity
  8
0
100
AcDbLine
 10
134.1794999999999
 20
44.5
 30
0.0
 11
134.1794999999999
 21
45.3
 31
0.0
  0
LINE
  5
A6
330
1E
100
AcDbEntity
  8
0
100
AcDbLine
 10
134.1794999999999
 20
45.3
 30
0.0
 11
134.1794999999999
 21
44.5
 31
0.0
  0
LINE
  5
A7
330
1E
100
AcDbEntity
  8
0
100
AcDbLine
 10
134.1794999999999
 20
43.5
 30
0.0
 11
134.1794999999999
 21
43.4189
 31
0.0
  0
LINE
  5
A8
330
1E
100
AcDbEntity
  8
0
100
AcDbLine
 10
134.1794999999999
 20
46.0
 30
0.0
 11
134.1794999999999
 21
27.0
 31
0.0
  0
LINE
  5
A9
330
1E
100
AcDbEntity
  8
0
100
AcDbLine
 10
134.1794999999999
 20
46.0
 30
0.0
 11
134.4794999999999
 21
46.7
 31
0.0
  0
LINE
  5
AA
330
1E
100
AcDbEntity
  8
0
100
AcDbLine
 10
134.1794999999999
 20
46.0
 30
0.0
 11
134.1794999999999
 21
45.8
 31
0.0
  0
LINE
  5
AB
330
1E
100
AcDbEntity
  8
0
100
AcDbLine
 10
134.1794999999999
 20
20.0
 30
0.0
 11
134.1794999999999
 21
13.0
 31
0.0
  0
LINE
  5
AC
330
1E
100
AcDbEntity
  8
0
100
AcDbLine
 10
134.1794999999999
 20
20.0
 30
0.0
 11
134.1794999999999
 21
8.0
 31
0.0
  0
LINE
  5
AD
330
1E
100
AcDbEntity
  8
0
100
AcDbLine
 10
134.1794999999999
 20
20.0
 30
0.0
 11
134.1794999999999
 21
0.0
 31
0.0
  0
LINE
  5
AE
330
1E
100
AcDbEntity
  8
0
100
AcDbLine
 10
134.1794999999999
 20
10.5
 30
0.0
 11
134.1794999999999
 21
10.58109999999999
 31
0.0
  0
LINE
  5
AF
330
1E
100
AcDbEntity
  8
0
100
AcDbLine
 10
134.1794999999999
 20
6.5
 30
0.0
 11
134.1794999999999
 21
-0.0000000000000017
 31
0.0
  0
LINE
  5
B0
330
1E
100
AcDbEntity
  8
0
100
AcDbLine
 10
134.1794999999999
 20
6.5
 30
0.0
 11
134.3035
 21
6.849999999999999
 31
0.0
  0
LINE
  5
B1
330
1E
100
AcDbEntity
  8
0
100
AcDbLine
 10
134.3294999999999
 20
-0.0000000000000016
 30
0.0
 11
134.5295
 21
-0.0000000000000016
 31
0.0
  0
LINE
  5
B2
330
1E
100
AcDbEntity
  8
0
100
AcDbLine
 10
135.1794999999999
 20
-0.0000000000000016
 30
0.0
 11
135.9795
 21
-0.0000000000000017
 31
0.0
  0
LINE
  5
B3
330
1E
100
AcDbEntity
  8
0
100
AcDbLine
 10
134.7795
 20
-0.0000000000000016
 30
0.0
 11
135.1794999999999
 21
-0.0000000000000016
 31
0.0
  0
LINE
  5
B4
330
1E
100
AcDbEntity
  8
0
100
AcDbLine
 10
135.0035
 20
-0.0000000000000016
 30
0.0
 11
135.1794999999999
 21
-0.0000000000000016
 31
0.0
  0
LINE
  5
B5
330
1E
100
AcDbEntity
  8
0
100
AcDbLine
 10
135.0035
 20
-0.0000000000000016
 30
0.0
 11
135.4554999999999
 21
-0.0000000000000016
 31
0.0
  0
LINE
  5
B6
330
1E
100
AcDbEntity
  8
0
100
AcDbLine
 10
179.8294999999999
 20
-0.0000000000000043
 30
0.0
 11
180.0295
 21
-0.0000000000000044
 31
0.0
  0
LINE
  5
B7
330
1E
100
AcDbEntity
  8
0
100
AcDbLine
 10
173.5794999999999
 20
-0.000000000000004
 30
0.0
 11
174.8265
 21
-0.000000000000004
 31
0.0
  0
LINE
  5
B8
330
1E
100
AcDbEntity
  8
0
100
AcDbLine
 10
174.8265
 20
-0.000000000000004
 30
0.0
 11
175.6084999999999
 21
-0.0000000000000041
 31
0.0
  0
LINE
  5
B9
330
1E
100
AcDbEntity
  8
0
100
AcDbLine
 10
174.0034999999999
 20
-0.000000000000004
 30
0.0
 11
174.8265
 21
-0.000000000000004
 31
0.0
  0
LINE
  5
BA
330
1E
100
AcDbEntity
  8
0
100
AcDbLine
 10
166.1794999999999
 20
-0.0000000000000035
 30
0.0
 11
169.1794999999999
 21
-0.0000000000000037
 31
0.0
  0
LINE
  5
BB
330
1E
100
AcDbEntity
  8
0
100
AcDbLine
 10
169.1794999999999
 20
-0.0000000000000037
 30
0.0
 11
171.4795
 21
-0.0000000000000038
 31
0.0
  0
LINE
  5
BC
330
1E
100
AcDbEntity
  8
0
100
AcDbLine
 10
171.4795
 20
-0.0000000000000038
 30
0.0
 11
173.5794999999999
 21
-0.000000000000004
 31
0.0
  0
LINE
  5
BD
330
1E
100
AcDbEntity
  8
0
100
AcDbLine
 10
173.5794999999999
 20
-0.000000000000004
 30
0.0
 11
174.0034999999999
 21
-0.000000000000004
 31
0.0
  0
LINE
  5
BE
330
1E
100
AcDbEntity
  8
0
100
AcDbLine
 10
177.1795
 20
-0.0000000000000042
 30
0.0
 11
178.3795
 21
-0.0000000000000042
 31
0.0
  0
LINE
  5
BF
330
1E
100
AcDbEntity
  8
0
100
AcDbLine
 10
177.7504999999999
 20
-0.0000000000000042
 30
0.0
 11
178.3675
 21
-0.0000000000000042
 31
0.0
  0
LINE
  5
C0
330
1E
100
AcDbEntity
  8
0
100
AcDbLine
 10
176.3505
 20
-0.0000000000000041
 30
0.0
 11
177.1795
 21
-0.0000000000000042
 31
0.0
  0
LINE
  5
C1
330
1E
100
AcDbEntity
  8
0
100
AcDbLine
 10
177.0915
 20
-0.0000000000000042
 30
0.0
 11
177.7504999999999
 21
-0.0000000000000042
 31
0.0
  0
LINE
  5
C2
330
1E
100
AcDbEntity
  8
0
100
AcDbLine
 10
176.3505
 20
-0.0000000000000041
 30
0.0
 11
177.0915
 21
-0.0000000000000042
 31
0.0
  0
LINE
  5
C3
330
1E
100
AcDbEntity
  8
0
100
AcDbLine
 10
175.6084999999999
 20
-0.0000000000000041
 30
0.0
 11
176.3505
 21
-0.0000000000000041
 31
0.0
  0
LINE
  5
C4
330
1E
100
AcDbEntity
  8
0
100
AcDbLine
 10
177.1795
 20
-0.0000000000000042
 30
0.0
 11
177.7504999999999
 21
-0.0000000000000042
 31
0.0
  0
LINE
  5
C5
330
1E
100
AcDbEntity
  8
0
100
AcDbLine
 10
175.4795
 20
-0.0000000000000041
 30
0.0
 11
175.6084999999999
 21
-0.0000000000000041
 31
0.0
  0
LINE
  5
C6
330
1E
100
AcDbEntity
  8
0
100
AcDbLine
 10
151.7795
 20
-0.0000000000000026
 30
0.0
 11
154.8795
 21
-0.0000000000000028
 31
0.0
  0
LINE
  5
C7
330
1E
100
AcDbEntity
  8
0
100
AcDbLine
 10
148.1794999999999
 20
-0.0000000000000024
 30
0.0
 11
151.7795
 21
-0.0000000000000026
 31
0.0
  0
LINE
  5
C8
330
1E
100
AcDbEntity
  8
0
100
AcDbLine
 10
145.1794999999999
 20
-0.0000000000000022
 30
0.0
 11
148.1794999999999
 21
-0.0000000000000024
 31
0.0
  0
LINE
  5
C9
330
1E
100
AcDbEntity
  8
0
100
AcDbLine
 10
157.1794999999999
 20
-0.000000000000003
 30
0.0
 11
174.0034999999999
 21
-0.000000000000004
 31
0.0
  0
LINE
  5
CA
330
1E
100
AcDbEntity
  8
0
100
AcDbLine
 10
157.1794999999999
 20
-0.000000000000003
 30
0.0
 11
171.4795
 21
-0.0000000000000038
 31
0.0
  0
LINE
  5
CB
330
1E
100
AcDbEntity
  8
0
100
AcDbLine
 10
157.1794999999999
 20
-0.000000000000003
 30
0.0
 11
159.4794999999999
 21
-0.0000000000000031
 31
0.0
  0
LINE
  5
CC
330
1E
100
AcDbEntity
  8
0
100
AcDbLine
 10
178.3795
 20
-0.0000000000000042
 30
0.0
 11
179.1795
 21
-0.0000000000000043
 31
0.0
  0
LINE
  5
CD
330
1E
100
AcDbEntity
  8
0
100
AcDbLine
 10
178.9035
 20
-0.0000000000000043
 30
0.0
 11
179.3555
 21
-0.0000000000000043
 31
0.0
  0
LINE
  5
CE
330
1E
100
AcDbEntity
  8
0
100
AcDbLine
 10
178.3675
 20
-0.0000000000000042
 30
0.0
 11
178.9035
 21
-0.0000000000000043
 31
0.0
  0
LINE
  5
CF
330
1E
100
AcDbEntity
  8
0
100
AcDbLine
 10
179.1795
 20
-0.0000000000000043
 30
0.0
 11
179.3555
 21
-0.0000000000000043
 31
0.0
  0
LINE
  5
D0
330
1E
100
AcDbEntity
  8
0
100
AcDbLine
 10
179.1795
 20
-0.0000000000000043
 30
0.0
 11
179.3555
 21
-0.0000000000000043
 31
0.0
  0
LINE
  5
D1
330
1E
100
AcDbEntity
  8
0
100
AcDbLine
 10
179.3555
 20
-0.0000000000000043
 30
0.0
 11
179.6854999999999
 21
-0.0000000000000043
 31
0.0
  0
LINE
  5
D2
330
1E
100
AcDbEntity
  8
0
100
AcDbLine
 10
179.6854999999999
 20
-0.0000000000000043
 30
0.0
 11
179.8294999999999
 21
-0.0000000000000043
 31
0.0
  0
LINE
  5
D3
330
1E
100
AcDbEntity
  8
0
100
AcDbLine
 10
179.6854999999999
 20
-0.0000000000000043
 30
0.0
 11
179.9735
 21
-0.0000000000000043
 31
0.0
  0
LINE
  5
D4
330
1E
100
AcDbEntity
  8
0
100
AcDbLine
 10
180.0295
 20
-0.0000000000000044
 30
0.0
 11
180.0975
 21
-0.0000000000000044
 31
0.0
  0
LINE
  5
D5
330
1E
100
AcDbEntity
  8
0
100
AcDbLine
 10
179.9735
 20
-0.0000000000000043
 30
0.0
 11
180.0975
 21
-0.0000000000000044
 31
0.0
  0
LINE
  5
D6
330
1E
100
AcDbEntity
  8
0
100
AcDbLine
 10
180.0975
 20
-0.0000000000000044
 30
0.0
 11
180.1795
 21
-0.0000000000000044
 31
0.0
  0
LINE
  5
D7
330
1E
100
AcDbEntity
  8
0
100
AcDbLine
 10
180.1795
 20
-0.0000000000000044
 30
0.0
 11
180.1795
 21
6.5
 31
0.0
  0
LINE
  5
D8
330
1E
100
AcDbEntity
  8
0
100
AcDbLine
 10
137.1794999999999
 20
-0.0000000000000017
 30
0.0
 11
138.8795
 21
-0.0000000000000018
 31
0.0
  0
LINE
  5
D9
330
1E
100
AcDbEntity
  8
0
100
AcDbLine
 10
137.1794999999999
 20
-0.0000000000000017
 30
0.0
 11
137.2675
 21
-0.0000000000000017
 31
0.0
  0
LINE
  5
DA
330
1E
100
AcDbEntity
  8
0
100
AcDbLine
 10
135.9914999999999
 20
-0.0000000000000017
 30
0.0
 11
136.6084999999999
 21
-0.0000000000000017
 31
0.0
  0
LINE
  5
DB
330
1E
100
AcDbEntity
  8
0
100
AcDbLine
 10
136.6084999999999
 20
-0.0000000000000017
 30
0.0
 11
137.2675
 21
-0.0000000000000017
 31
0.0
  0
LINE
  5
DC
330
1E
100
AcDbEntity
  8
0
100
AcDbLine
 10
136.6084999999999
 20
-0.0000000000000017
 30
0.0
 11
137.1794999999999
 21
-0.0000000000000017
 31
0.0
  0
LINE
  5
DD
330
1E
100
AcDbEntity
  8
0
100
AcDbLine
 10
137.2675
 20
-0.0000000000000017
 30
0.0
 11
138.0085
 21
-0.0000000000000018
 31
0.0
  0
LINE
  5
DE
330
1E
100
AcDbEntity
  8
0
100
AcDbLine
 10
138.0085
 20
-0.0000000000000018
 30
0.0
 11
138.7504999999999
 21
-0.0000000000000018
 31
0.0
  0
LINE
  5
DF
330
1E
100
AcDbEntity
  8
0
100
AcDbLine
 10
138.8795
 20
-0.0000000000000018
 30
0.0
 11
140.3555
 21
-0.0000000000000019
 31
0.0
  0
LINE
  5
E0
330
1E
100
AcDbEntity
  8
0
100
AcDbLine
 10
138.7504999999999
 20
-0.0000000000000018
 30
0.0
 11
139.5324999999999
 21
-0.0000000000000019
 31
0.0
  0
LINE
  5
E1
330
1E
100
AcDbEntity
  8
0
100
AcDbLine
 10
139.5324999999999
 20
-0.0000000000000019
 30
0.0
 11
140.3555
 21
-0.0000000000000019
 31
0.0
  0
LINE
  5
E2
330
1E
100
AcDbEntity
  8
0
100
AcDbLine
 10
142.8795
 20
-0.0000000000000021
 30
0.0
 11
145.1794999999999
 21
-0.0000000000000022
 31
0.0
  0
LINE
  5
E3
330
1E
100
AcDbEntity
  8
0
100
AcDbLine
 10
140.7795
 20
-0.0000000000000019
 30
0.0
 11
142.8795
 21
-0.0000000000000021
 31
0.0
  0
LINE
  5
E4
330
1E
100
AcDbEntity
  8
0
100
AcDbLine
 10
140.3555
 20
-0.0000000000000019
 30
0.0
 11
142.8795
 21
-0.0000000000000021
 31
0.0
  0
LINE
  5
E5
330
1E
100
AcDbEntity
  8
0
100
AcDbLine
 10
140.3555
 20
-0.0000000000000019
 30
0.0
 11
157.1794999999999
 21
-0.000000000000003
 31
0.0
  0
LINE
  5
E6
330
1E
100
AcDbEntity
  8
0
100
AcDbLine
 10
145.1794999999999
 20
-0.0000000000000022
 30
0.0
 11
157.1794999999999
 21
-0.000000000000003
 31
0.0
  0
LINE
  5
E7
330
1E
100
AcDbEntity
  8
0
100
AcDbLine
 10
135.4554999999999
 20
-0.0000000000000016
 30
0.0
 11
135.9914999999999
 21
-0.0000000000000017
 31
0.0
  0
LINE
  5
E8
330
1E
100
AcDbEntity
  8
0
100
AcDbLine
 10
134.5295
 20
-0.0000000000000016
 30
0.0
 11
134.7795
 21
-0.0000000000000016
 31
0.0
  0
LINE
  5
E9
330
1E
100
AcDbEntity
  8
0
100
AcDbLine
 10
134.6735
 20
-0.0000000000000016
 30
0.0
 11
134.7795
 21
-0.0000000000000016
 31
0.0
  0
LINE
  5
EA
330
1E
100
AcDbEntity
  8
0
100
AcDbLine
 10
134.6735
 20
-0.0000000000000016
 30
0.0
 11
134.7795
 21
-0.0000000000000016
 31
0.0
  0
LINE
  5
EB
330
1E
100
AcDbEntity
  8
0
100
AcDbLine
 10
134.6735
 20
-0.0000000000000016
 30
0.0
 11
135.0035
 21
-0.0000000000000016
 31
0.0
  0
LINE
  5
EC
330
1E
100
AcDbEntity
  8
0
100
AcDbLine
 10
134.3855
 20
-0.0000000000000016
 30
0.0
 11
134.6735
 21
-0.0000000000000016
 31
0.0
  0
LINE
  5
ED
330
1E
100
AcDbEntity
  8
0
100
AcDbLine
 10
134.2295
 20
-0.0000000000000015
 30
0.0
 11
134.3294999999999
 21
-0.0000000000000016
 31
0.0
  0
LINE
  5
EE
330
1E
100
AcDbEntity
  8
0
100
AcDbLine
 10
134.3445
 20
6.849999999999999
 30
0.0
 11
134.5085
 21
6.849999999999999
 31
0.0
  0
LINE
  5
EF
330
1E
100
AcDbEntity
  8
0
100
AcDbLine
 10
134.3035
 20
6.849999999999999
 30
0.0
 11
134.5914999999999
 21
7.0
 31
0.0
  0
LINE
  5
FC
330
1E
100
AcDbEntity
  8
0
100
AcDbLine
 10
136.0735
 20
6.849999999999999
 30
0.0
 11
136.6504999999999
 21
6.849999999999999
 31
0.0
  0
LINE
  5
FD
330
1E
100
AcDbEntity
  8
0
100
AcDbLine
 10
136.6504999999999
 20
6.849999999999999
 30
0.0
 11
137.3085
 21
6.849999999999999
 31
0.0
  0
LINE
  5
FE
330
1E
100
AcDbEntity
  8
0
100
AcDbLine
 10
137.3085
 20
6.849999999999999
 30
0.0
 11
138.0085
 21
6.849999999999999
 31
0.0
  0
LINE
  5
FF
330
1E
100
AcDbEntity
  8
0
100
AcDbLine
 10
138.0085
 20
6.849999999999999
 30
0.0
 11
138.7915
 21
6.849999999999999
 31
0.0
  0
LINE
  5
100
330
1E
100
AcDbEntity
  8
0
100
AcDbLine
 10
138.7915
 20
6.849999999999999
 30
0.0
 11
139.5324999999999
 21
6.849999999999999
 31
0.0
  0
LINE
  5
101
330
1E
100
AcDbEntity
  8
0
100
AcDbLine
 10
139.5324999999999
 20
6.849999999999999
 30
0.0
 11
140.3555
 21
6.849999999999999
 31
0.0
  0
LINE
  5
102
330
1E
100
AcDbEntity
  8
0
100
AcDbLine
 10
177.7084999999999
 20
6.849999999999999
 30
0.0
 11
178.2855
 21
6.849999999999999
 31
0.0
  0
LINE
  5
103
330
1E
100
AcDbEntity
  8
0
100
AcDbLine
 10
177.0504999999999
 20
6.849999999999999
 30
0.0
 11
177.7084999999999
 21
6.849999999999999
 31
0.0
  0
LINE
  5
104
330
1E
100
AcDbEntity
  8
0
100
AcDbLine
 10
176.3505
 20
6.849999999999999
 30
0.0
 11
177.0504999999999
 21
6.849999999999999
 31
0.0
  0
LINE
  5
105
330
1E
100
AcDbEntity
  8
0
100
AcDbLine
 10
175.5675
 20
6.849999999999999
 30
0.0
 11
176.3505
 21
6.849999999999999
 31
0.0
  0
LINE
  5
106
330
1E
100
AcDbEntity
  8
0
100
AcDbLine
 10
174.8265
 20
6.849999999999999
 30
0.0
 11
175.5675
 21
6.849999999999999
 31
0.0
  0
LINE
  5
107
330
1E
100
AcDbEntity
  8
0
100
AcDbLine
 10
174.0034999999999
 20
6.849999999999999
 30
0.0
 11
174.8265
 21
6.849999999999999
 31
0.0
  0
LINE
  5
108
330
1E
100
AcDbEntity
  8
0
100
AcDbLine
 10
178.2855
 20
6.849999999999999
 30
0.0
 11
178.8205
 21
6.849999999999999
 31
0.0
  0
LINE
  5
109
330
1E
100
AcDbEntity
  8
0
100
AcDbLine
 10
178.8205
 20
6.849999999999999
 30
0.0
 11
179.2735
 21
6.849999999999999
 31
0.0
  0
LINE
  5
10A
330
1E
100
AcDbEntity
  8
0
100
AcDbLine
 10
179.2735
 20
6.849999999999999
 30
0.0
 11
179.6035
 21
6.849999999999999
 31
0.0
  0
LINE
  5
10B
330
1E
100
AcDbEntity
  8
0
100
AcDbLine
 10
179.6035
 20
6.849999999999999
 30
0.0
 11
179.8505
 21
6.849999999999999
 31
0.0
  0
LINE
  5
10C
330
1E
100
AcDbEntity
  8
0
100
AcDbLine
 10
157.1794999999999
 20
6.849999999999999
 30
0.0
 11
174.0034999999999
 21
6.849999999999999
 31
0.0
  0
LINE
  5
10D
330
1E
100
AcDbEntity
  8
0
100
AcDbLine
 10
179.8505
 20
6.849999999999999
 30
0.0
 11
180.0145
 21
6.849999999999999
 31
0.0
  0
LINE
  5
10E
330
1E
100
AcDbEntity
  8
0
100
AcDbLine
 10
140.3555
 20
6.849999999999999
 30
0.0
 11
157.1794999999999
 21
6.849999999999999
 31
0.0
  0
LINE
  5
10F
330
1E
100
AcDbEntity
  8
0
100
AcDbLine
 10
135.5385
 20
6.849999999999999
 30
0.0
 11
136.0735
 21
6.849999999999999
 31
0.0
  0
LINE
  5
110
330
1E
100
AcDbEntity
  8
0
100
AcDbLine
 10
135.0854999999999
 20
6.849999999999999
 30
0.0
 11
135.5385
 21
6.849999999999999
 31
0.0
  0
LINE
  5
111
330
1E
100
AcDbEntity
  8
0
100
AcDbLine
 10
177.5035
 20
7.0
 30
0.0
 11
178.0794999999999
 21
7.0
 31
0.0
  0
LINE
  5
112
330
1E
100
AcDbEntity
  8
0
100
AcDbLine
 10
176.8855
 20
7.0
 30
0.0
 11
177.5035
 21
7.0
 31
0.0
  0
LINE
  5
113
330
1E
100
AcDbEntity
  8
0
100
AcDbLine
 10
176.1854999999999
 20
7.0
 30
0.0
 11
176.8855
 21
7.0
 31
0.0
  0
LINE
  5
114
330
1E
100
AcDbEntity
  8
0
100
AcDbLine
 10
175.4855
 20
7.0
 30
0.0
 11
176.1854999999999
 21
7.0
 31
0.0
  0
LINE
  5
115
330
1E
100
AcDbEntity
  8
0
100
AcDbLine
 10
174.7444999999999
 20
7.0
 30
0.0
 11
175.4855
 21
7.0
 31
0.0
  0
LINE
  5
116
330
1E
100
AcDbEntity
  8
0
100
AcDbLine
 10
174.0034999999999
 20
7.0
 30
0.0
 11
174.7444999999999
 21
7.0
 31
0.0
  0
LINE
  5
117
330
1E
100
AcDbEntity
  8
0
100
AcDbLine
 10
178.0794999999999
 20
7.0
 30
0.0
 11
178.5735
 21
7.0
 31
0.0
  0
LINE
  5
118
330
1E
100
AcDbEntity
  8
0
100
AcDbLine
 10
178.5735
 20
7.0
 30
0.0
 11
178.9855
 21
7.0
 31
0.0
  0
LINE
  5
119
330
1E
100
AcDbEntity
  8
0
100
AcDbLine
 10
178.9855
 20
7.0
 30
0.0
 11
179.3145
 21
7.0
 31
0.0
  0
LINE
  5
11A
330
1E
100
AcDbEntity
  8
0
100
AcDbLine
 10
179.3145
 20
7.0
 30
0.0
 11
179.5614999999999
 21
7.0
 31
0.0
  0
LINE
  5
11B
330
1E
100
AcDbEntity
  8
0
100
AcDbLine
 10
179.5614999999999
 20
7.0
 30
0.0
 11
179.7264999999999
 21
7.0
 31
0.0
  0
LINE
  5
11C
330
1E
100
AcDbEntity
  8
0
100
AcDbLine
 10
179.7675
 20
7.0
 30
0.0
 11
180.0554999999999
 21
6.849999999999999
 31
0.0
  0
LINE
  5
11D
330
1E
100
AcDbEntity
  8
0
100
AcDbLine
 10
135.0445
 20
7.0
 30
0.0
 11
135.1794999999999
 21
7.0
 31
0.0
  0
LINE
  5
11E
330
1E
100
AcDbEntity
  8
0
100
AcDbLine
 10
134.7975
 20
7.0
 30
0.0
 11
135.0445
 21
7.0
 31
0.0
  0
LINE
  5
11F
330
1E
100
AcDbEntity
  8
0
100
AcDbLine
 10
134.6324999999999
 20
7.0
 30
0.0
 11
134.7975
 21
7.0
 31
0.0
  0
LINE
  5
120
330
1E
100
AcDbEntity
  8
0
100
AcDbLine
 10
134.7555
 20
6.849999999999999
 30
0.0
 11
135.0854999999999
 21
6.849999999999999
 31
0.0
  0
LINE
  5
121
330
1E
100
AcDbEntity
  8
0
100
AcDbLine
 10
134.5085
 20
6.849999999999999
 30
0.0
 11
134.7555
 21
6.849999999999999
 31
0.0
  0
LINE
  5
122
330
1E
100
AcDbEntity
  8
0
100
AcDbLine
 10
179.8795
 20
7.299999999999999
 30
0.0
 11
179.8795
 21
7.5
 31
0.0
  0
LINE
  5
123
330
1E
100
AcDbEntity
  8
0
100
AcDbLine
 10
179.8795
 20
7.5
 30
0.0
 11
179.8795
 21
7.299999999999999
 31
0.0
  0
LINE
  5
124
330
1E
100
AcDbEntity
  8
0
100
AcDbLine
 10
179.8795
 20
7.5
 30
0.0
 11
179.8795
 21
8.099999999999999
 31
0.0
  0
LINE
  5
125
330
1E
100
AcDbEntity
  8
0
100
AcDbLine
 10
179.8795
 20
9.0
 30
0.0
 11
179.8795
 21
8.099999999999999
 31
0.0
  0
LINE
  5
126
330
1E
100
AcDbEntity
  8
0
100
AcDbLine
 10
179.8795
 20
9.0
 30
0.0
 11
179.8795
 21
10.2
 31
0.0
  0
LINE
  5
127
330
1E
100
AcDbEntity
  8
0
100
AcDbLine
 10
179.8795
 20
8.099999999999999
 30
0.0
 11
179.8795
 21
9.0
 31
0.0
  0
LINE
  5
128
330
1E
100
AcDbEntity
  8
0
100
AcDbLine
 10
179.8795
 20
8.099999999999999
 30
0.0
 11
179.8795
 21
7.5
 31
0.0
  0
LINE
  5
129
330
1E
100
AcDbEntity
  8
0
100
AcDbLine
 10
179.8795
 20
10.2
 30
0.0
 11
179.8795
 21
9.0
 31
0.0
  0
LINE
  5
12A
330
1E
100
AcDbEntity
  8
0
100
AcDbLine
 10
179.8795
 20
10.2
 30
0.0
 11
179.8795
 21
11.59999999999999
 31
0.0
  0
LINE
  5
12B
330
1E
100
AcDbEntity
  8
0
100
AcDbLine
 10
179.8795
 20
11.59999999999999
 30
0.0
 11
179.8795
 21
13.0
 31
0.0
  0
LINE
  5
12C
330
1E
100
AcDbEntity
  8
0
100
AcDbLine
 10
179.8795
 20
11.59999999999999
 30
0.0
 11
179.8795
 21
10.2
 31
0.0
  0
LINE
  5
12D
330
1E
100
AcDbEntity
  8
0
100
AcDbLine
 10
179.8795
 20
13.0
 30
0.0
 11
179.8795
 21
27.0
 31
0.0
  0
LINE
  5
12E
330
1E
100
AcDbEntity
  8
0
100
AcDbLine
 10
179.8795
 20
13.0
 30
0.0
 11
179.8795
 21
11.59999999999999
 31
0.0
  0
LINE
  5
12F
330
1E
100
AcDbEntity
  8
0
100
AcDbLine
 10
135.1794999999999
 20
7.0
 30
0.0
 11
174.0034999999999
 21
7.0
 31
0.0
  0
LINE
  5
130
330
1E
100
AcDbEntity
  8
0
100
AcDbLine
 10
135.1794999999999
 20
7.0
 30
0.0
 11
157.1795
 21
7.0
 31
0.0
  0
LINE
  5
139
330
1E
100
AcDbEntity
  8
0
100
AcDbLine
 10
179.8795
 20
27.0
 30
0.0
 11
179.8795
 21
13.0
 31
0.0
  0
LINE
  5
148
330
1E
100
AcDbEntity
  8
0
100
AcDbLine
 10
136.6794999999999
 20
47.0
 30
0.0
 11
137.7795
 21
47.0
 31
0.0
  0
LINE
  5
149
330
1E
100
AcDbEntity
  8
0
100
AcDbLine
 10
137.7795
 20
47.0
 30
0.0
 11
138.9795
 21
47.0
 31
0.0
  0
LINE
  5
14B
330
1E
100
AcDbEntity
  8
0
100
AcDbLine
 10
140.1794999999999
 20
47.0
 30
0.0
 11
174.1794999999999
 21
47.0
 31
0.0
  0
LINE
  5
14C
330
1E
100
AcDbEntity
  8
0
100
AcDbLine
 10
138.9795
 20
47.0
 30
0.0
 11
140.1794999999999
 21
47.0
 31
0.0
  0
LINE
  5
14D
330
1E
100
AcDbEntity
  8
0
100
AcDbLine
 10
135.8795
 20
47.0
 30
0.0
 11
136.6794999999999
 21
47.0
 31
0.0
  0
LINE
  5
14E
330
1E
100
AcDbEntity
  8
0
100
AcDbLine
 10
135.3795
 20
47.0
 30
0.0
 11
135.8795
 21
47.0
 31
0.0
  0
LINE
  5
15D
330
1E
100
AcDbEntity
  8
0
100
AcDbLine
 10
145.1794999999999
 20
57.0
 30
0.0
 11
159.4794999999999
 21
57.0
 31
0.0
  0
LINE
  5
160
330
1E
100
AcDbEntity
  8
0
100
AcDbLine
 10
176.1795
 20
57.0
 30
0.0
 11
177.3794999999999
 21
57.0
 31
0.0
  0
LINE
  5
161
330
1E
100
AcDbEntity
  8
0
100
AcDbLine
 10
177.3794999999999
 20
57.0
 30
0.0
 11
178.1864999999999
 21
57.0
 31
0.0
  0
LINE
  5
162
330
1E
100
AcDbEntity
  8
0
100
AcDbLine
 10
178.1864999999999
 20
57.0
 30
0.0
 11
178.5834999999999
 21
57.0
 31
0.0
  0
LINE
  5
163
330
1E
100
AcDbEntity
  8
0
100
AcDbLine
 10
178.5834999999999
 20
57.0
 30
0.0
 11
178.8364999999999
 21
57.0
 31
0.0
  0
LINE
  5
164
330
1E
100
AcDbEntity
  8
0
100
AcDbLine
 10
178.8364999999999
 20
57.0
 30
0.0
 11
178.9995
 21
57.0
 31
0.0
  0
LINE
  5
165
330
1E
100
AcDbEntity
  8
0
100
AcDbLine
 10
178.9995
 20
57.0
 30
0.0
 11
179.1795
 21
57.0
 31
0.0
  0
LINE
  5
166
330
1E
100
AcDbEntity
  8
0
100
AcDbLine
 10
174.4795
 20
57.0
 30
0.0
 11
176.1795
 21
57.0
 31
0.0
  0
LINE
  5
167
330
1E
100
AcDbEntity
  8
0
100
AcDbLine
 10
172.6754999999999
 20
57.0
 30
0.0
 11
174.4795
 21
57.0
 31
0.0
  0
LINE
  5
168
330
1E
100
AcDbEntity
  8
0
100
AcDbLine
 10
170.6904999999999
 20
57.0
 30
0.0
 11
172.6754999999999
 21
57.0
 31
0.0
  0
LINE
  5
169
330
1E
100
AcDbEntity
  8
0
100
AcDbLine
 10
168.4895
 20
57.0
 30
0.0
 11
170.6904999999999
 21
57.0
 31
0.0
  0
LINE
  5
16A
330
1E
100
AcDbEntity
  8
0
100
AcDbLine
 10
165.9304999999999
 20
57.0
 30
0.0
 11
168.4895
 21
57.0
 31
0.0
  0
LINE
  5
16B
330
1E
100
AcDbEntity
  8
0
100
AcDbLine
 10
162.5024999999999
 20
57.0
 30
0.0
 11
165.9304999999999
 21
57.0
 31
0.0
  0
LINE
  5
16C
330
1E
100
AcDbEntity
  8
0
100
AcDbLine
 10
159.4794999999999
 20
57.0
 30
0.0
 11
162.5024999999999
 21
57.0
 31
0.0
  0
LINE
  5
16F
330
1E
100
AcDbEntity
  8
0
100
AcDbLine
 10
141.6725
 20
57.1044
 30
0.0
 11
145.1794999999999
 21
57.0
 31
0.0
  0
LINE
  5
171
330
1E
100
AcDbEntity
  8
0
100
AcDbLine
 10
137.1585
 20
57.5597
 30
0.0
 11
141.6725
 21
57.1044
 31
0.0
  0
LINE
  5
173
330
1E
100
AcDbEntity
  8
0
100
AcDbLine
 10
179.1795
 20
57.0
 30
0.0
 11
179.8795
 21
56.7
 31
0.0
  0
LINE
  5
174
330
1E
100
AcDbEntity
  8
0
100
AcDbLine
 10
179.8795
 20
56.7
 30
0.0
 11
180.1795
 21
56.0
 31
0.0
  0
LINE
  5
175
330
1E
100
AcDbEntity
  8
0
100
AcDbLine
 10
135.1794999999999
 20
47.0
 30
0.0
 11
135.3795
 21
47.0
 31
0.0
  0
LINE
  5
176
330
1E
100
AcDbEntity
  8
0
100
AcDbLine
 10
134.4794999999999
 20
46.7
 30
0.0
 11
135.1794999999999
 21
47.0
 31
0.0
  0
LINE
  5
17D
330
1E
100
AcDbEntity
  8
0
100
AcDbLine
 10
180.1795
 20
6.5
 30
0.0
 11
180.1795
 21
7.99999999999999
 31
0.0
  0
LINE
  5
17E
330
1E
100
AcDbEntity
  8
0
100
AcDbLine
 10
180.1795
 20
7.99999999999999
 30
0.0
 11
180.1795
 21
6.49999999999999
 31
0.0
  0
LINE
  5
17F
330
1E
100
AcDbEntity
  8
0
100
AcDbLine
 10
180.0554999999999
 20
6.849999999999999
 30
0.0
 11
180.1795
 21
6.5
 31
0.0
  0
LINE
  5
180
330
1E
100
AcDbEntity
  8
0
100
AcDbLine
 10
180.1795
 20
6.5
 30
0.0
 11
180.1795
 21
-0.0000000000000042
 31
0.0
  0
LINE
  5
181
330
1E
100
AcDbEntity
  8
0
100
AcDbLine
 10
180.1795
 20
15.07449695073069
 30
0.0
 11
185.9785
 21
36.62319999999999
 31
0.0
  0
LINE
  5
182
330
1E
100
AcDbEntity
  8
0
100
AcDbLine
 10
180.1795
 20
46.0
 30
0.0
 11
180.1795
 21
56.0
 31
0.0
  0
LINE
  5
183
330
1E
100
AcDbEntity
  8
0
100
AcDbLine
 10
180.1795
 20
56.0
 30
0.0
 11
180.1795
 21
46.0
 31
0.0
  0
LINE
  5
184
330
1E
100
AcDbEntity
  8
0
100
AcDbLine
 10
180.1795
 20
34.4369145034643
 30
0.0
 11
181.0585
 21
37.7563
 31
0.0
  0
LINE
  5
185
330
1E
100
AcDbEntity
  8
0
100
AcDbLine
 10
180.1795
 20
34.4369145034643
 30
0.0
 11
181.0585
 21
37.7563
 31
0.0
  0
LINE
  5
188
330
1E
100
AcDbEntity
  8
0
100
AcDbLine
 10
185.9785
 20
36.62319999999999
 30
0.0
 11
185.9965
 21
36.8224
 31
0.0
  0
LINE
  5
189
330
1E
100
AcDbEntity
  8
0
100
AcDbLine
 10
185.9965
 20
36.8224
 30
0.0
 11
186.1225
 21
37.11249999999999
 31
0.0
  0
LINE
  5
18A
330
1E
100
AcDbEntity
  8
0
100
AcDbLine
 10
186.1225
 20
37.11249999999999
 30
0.0
 11
186.4385
 21
37.2856
 31
0.0
  0
LINE
  5
18B
330
1E
100
AcDbEntity
  8
0
100
AcDbLine
 10
181.0585
 20
37.7563
 30
0.0
 11
181.5794999999999
 21
39.1161
 31
0.0
  0
LINE
  5
18C
330
1E
100
AcDbEntity
  8
0
100
AcDbLine
 10
186.4385
 20
37.2856
 30
0.0
 11
200.3855
 21
36.0655
 31
0.0
  0
LINE
  5
18D
330
1E
100
AcDbEntity
  8
0
100
AcDbLine
 10
200.4464999999999
 20
36.7628
 30
0.0
 11
200.5424999999999
 21
37.8586
 31
0.0
  0
LINE
  5
18E
330
1E
100
AcDbEntity
  8
0
100
AcDbLine
 10
200.3855
 20
36.0655
 30
0.0
 11
200.4464999999999
 21
36.7628
 31
0.0
  0
LINE
  5
18F
330
1E
100
AcDbEntity
  8
0
100
AcDbLine
 10
181.5794999999999
 20
39.1161
 30
0.0
 11
182.9404999999999
 21
40.9043
 31
0.0
  0
LINE
  5
190
330
1E
100
AcDbEntity
  8
0
100
AcDbLine
 10
182.9404999999999
 20
40.9043
 30
0.0
 11
184.9465
 21
42.0337
 31
0.0
  0
LINE
  5
191
330
1E
100
AcDbEntity
  8
0
100
AcDbLine
 10
184.9465
 20
42.0337
 30
0.0
 11
186.8745
 21
42.26659999999999
 31
0.0
  0
LINE
  5
192
330
1E
100
AcDbEntity
  8
0
100
AcDbLine
 10
186.8745
 20
42.26659999999999
 30
0.0
 11
200.8205
 21
41.04639999999999
 31
0.0
  0
LINE
  5
193
330
1E
100
AcDbEntity
  8
0
100
AcDbLine
 10
200.6645
 20
39.2533
 30
0.0
 11
200.7595
 21
40.34909999999999
 31
0.0
  0
LINE
  5
194
330
1E
100
AcDbEntity
  8
0
100
AcDbLine
 10
200.7595
 20
40.34909999999999
 30
0.0
 11
200.8205
 21
41.04639999999999
 31
0.0
  0
LINE
  5
195
330
1E
100
AcDbEntity
  8
0
100
AcDbLine
 10
200.5424999999999
 20
37.8586
 30
0.0
 11
200.6645
 21
39.2533
 31
0.0
  0
LINE
  5
196
330
1E
100
AcDbEntity
  8
0
100
AcDbLine
 10
180.1795
 20
15.07449695073069
 30
0.0
 11
180.1795
 21
7.99999999999999
 31
0.0
  0
LINE
  5
197
330
1E
100
AcDbEntity
  8
0
100
AcDbLine
 10
180.1795
 20
7.99999999999999
 30
0.0
 11
180.1795
 21
15.07449695073069
 31
0.0
  0
LINE
  5
19A
330
1E
100
AcDbEntity
  8
0
100
AcDbLine
 10
134.2615
 20
-0.0000000000000015
 30
0.0
 11
134.3294999999999
 21
-0.0000000000000016
 31
0.0
  0
LINE
  5
19B
330
1E
100
AcDbEntity
  8
0
100
AcDbLine
 10
134.2615
 20
-0.0000000000000015
 30
0.0
 11
134.3855
 21
-0.0000000000000016
 31
0.0
  0
LINE
  5
19C
330
1E
100
AcDbEntity
  8
0
100
AcDbLine
 10
134.1794999999999
 20
-0.0000000000000015
 30
0.0
 11
134.1794999999999
 21
6.5
 31
0.0
  0
LINE
  5
19D
330
1E
100
AcDbEntity
  8
0
100
AcDbLine
 10
134.1794999999999
 20
-0.0000000000000015
 30
0.0
 11
134.2615
 21
-0.0000000000000015
 31
0.0
  0
LINE
  5
19E
330
1E
100
AcDbEntity
  8
0
100
AcDbLine
 10
134.1794999999999
 20
-0.0000000000000015
 30
0.0
 11
134.1794999999999
 21
20.0
 31
0.0
  0
LINE
  5
1A3
330
1E
100
AcDbEntity
  8
0
100
AcDbLine
 10
6.978966198941696
 20
48.0293026992406
 30
0.0
 11
9.52830361900942
 21
46.98182450092355
 31
0.0
  0
LINE
  5
1A4
330
1E
100
AcDbEntity
  8
0
100
AcDbLine
 10
9.52830361900942
 20
46.98182450092355
 30
0.0
 11
14.82597175570947
 21
45.49352136373528
 31
0.0
  0
LINE
  5
1A5
330
1E
100
AcDbEntity
  8
0
100
AcDbLine
 10
14.82597175570947
 20
45.49352136373528
 30
0.0
 11
18.97819796846096
 21
44.7493699141861
 31
0.0
  0
LINE
  5
1A6
330
1E
100
AcDbEntity
  8
0
100
AcDbLine
 10
18.97819796846096
 20
44.7493699141861
 30
0.0
 11
23.76041763773963
 21
44.11970308325379
 31
0.0
  0
LINE
  5
1A7
330
1E
100
AcDbEntity
  8
0
100
AcDbLine
 10
23.76041763773963
 20
44.11970308325379
 30
0.0
 11
28.92792847174989
 21
44.00999999999999
 31
0.0
  0
LINE
  5
1A8
330
1E
100
AcDbEntity
  8
0
100
AcDbLine
 10
180.1795
 20
46.0
 30
0.0
 11
180.1795
 21
15.07449695073069
 31
0.0
  0
LINE
  5
1A9
330
1E
100
AcDbEntity
  8
0
100
AcDbLine
 10
134.4794999999999
 20
7.299999999999999
 30
0.0
 11
134.5914999999999
 21
7.0
 31
0.0
  0
LINE
  5
1AA
330
1E
100
AcDbEntity
  8
0
100
AcDbLine
 10
134.5914999999999
 20
7.0
 30
0.0
 11
134.6324999999999
 21
7.0
 31
0.0
  0
LINE
  5
1AB
330
1E
100
AcDbEntity
  8
0
100
AcDbLine
 10
174.1794999999999
 20
47.0
 30
0.0
 11
179.9569623832565
 21
47.03596116442179
 31
0.0
  0
LINE
  5
1AC
330
1E
100
AcDbEntity
  8
0
100
AcDbLine
 10
179.9569623832565
 20
47.03596116442179
 30
0.0
 11
179.8795
 21
27.0
 31
0.0
  0
LINE
  5
1AD
330
1E
100
AcDbEntity
  8
0
100
AcDbLine
 10
179.8795
 20
7.299999999999999
 30
0.0
 11
179.7675
 21
7.0
 31
0.0
  0
LINE
  5
1AE
330
1E
100
AcDbEntity
  8
0
100
AcDbLine
 10
179.7675
 20
7.0
 30
0.0
 11
179.7264999999999
 21
7.0
 31
0.0
  0
ENDSEC
  0
SECTION
  2
OBJECTS
  0
DICTIONARY
  5
C
330
0
100
AcDbDictionary
281
     1
  3
ACAD_GROUP
350
D
  3
ACAD_LAYOUT
350
19
  3
ACAD_MLINESTYLE
350
16
  3
ACAD_PLOTSETTINGS
350
18
  3
ACAD_PLOTSTYLENAME
350
E
  3
AcDbVariableDictionary
350
1AF
  0
DICTIONARY
  5
D
102
{ACAD_REACTORS
330
C
102
}
330
C
100
AcDbDictionary
281
     1
  0
DICTIONARY
  5
19
102
{ACAD_REACTORS
330
C
102
}
330
C
100
AcDbDictionary
281
     1
  3
Layout1
350
1D
  3
Model
350
21
  0
DICTIONARY
  5
16
102
{ACAD_REACTORS
330
C
102
}
330
C
100
AcDbDictionary
281
     1
  3
Standard
350
17
  0
DICTIONARY
  5
18
102
{ACAD_REACTORS
330
C
102
}
330
C
100
AcDbDictionary
281
     1
  0
ACDBDICTIONARYWDFLT
  5
E
102
{ACAD_REACTORS
330
C
102
}
330
C
100
AcDbDictionary
281
     1
  3
Normal
350
F
100
AcDbDictionaryWithDefault
340
F
  0
DICTIONARY
  5
1AF
102
{ACAD_REACTORS
330
C
102
}
330
C
100
AcDbDictionary
281
     1
  3
DIMASSOC
350
1B0
  0
LAYOUT
  5
1D
102
{ACAD_REACTORS
330
19
102
}
330
19
100
AcDbPlotSettings
  1

  2
hp deskjet 980c series
  4

  6

 40
0.0
 41
0.0
 42
0.0
 43
0.0
 44
0.0
 45
0.0
 46
0.0
 47
0.0
 48
0.0
 49
0.0
140
0.0
141
0.0
142
1.0
143
1.0
 70
   688
 72
     0
 73
     0
 74
     5
  7

 75
    16
147
1.0
148
0.0
149
0.0
100
AcDbLayout
  1
Layout1
 70
     1
 71
     1
 10
0.0
 20
0.0
 11
12.0
 21
9.0
 12
0.0
 22
0.0
 32
0.0
 14
1.000000000000000E+20
 24
1.000000000000000E+20
 34
1.000000000000000E+20
 15
-1.000000000000000E+20
 25
-1.000000000000000E+20
 35
-1.000000000000000E+20
146
0.0
 13
0.0
 23
0.0
 33
0.0
 16
1.0
 26
0.0
 36
0.0
 17
0.0
 27
1.0
 37
0.0
 76
     0
330
1A
  0
LAYOUT
  5
21
102
{ACAD_REACTORS
330
19
102
}
330
19
100
AcDbPlotSettings
  1

  2
hp deskjet 980c series
  4

  6

 40
0.0
 41
0.0
 42
0.0
 43
0.0
 44
0.0
 45
0.0
 46
0.0
 47
0.0
 48
0.0
 49
0.0
140
0.0
141
0.0
142
1.0
143
1.0
 70
  1712
 72
     0
 73
     0
 74
     0
  7

 75
     0
147
1.0
148
0.0
149
0.0
100
AcDbLayout
  1
Model
 70
     1
 71
     0
 10
0.0
 20
0.0
 11
12.0
 21
9.0
 12
0.0
 22
0.0
 32
0.0
 14
0.0
 24
0.0
 34
0.0
 15
0.0
 25
0.0
 35
0.0
146
0.0
 13
0.0
 23
0.0
 33
0.0
 16
1.0
 26
0.0
 36
0.0
 17
0.0
 27
1.0
 37
0.0
 76
     0
330
1E
  0
MLINESTYLE
  5
17
102
{ACAD_REACTORS
330
16
102
}
330
16
100
AcDbMlineStyle
  2
STANDARD
 70
     0
  3

 62
   256
 51
90.0
 52
90.0
 71
     2
 49
0.5
 62
   256
  6
BYLAYER
 49
-0.5
 62
   256
  6
BYLAYER
  0
ACDBPLACEHOLDER
  5
F
102
{ACAD_REACTORS
330
E
102
}
330
E
  0
DICTIONARYVAR
  5
1B0
102
{ACAD_REACTORS
330
1AF
102
}
330
1AF
100
DictionaryVariables
280
     0
  1
1
  0
ENDSEC
  0
EOF
